  0
SECTION
  2
HEADER
  9
$ACADVER
  1
AC1009
  0
ENDSEC
  0
SECTION
  2
TABLES
  0
TABLE
  2
STYLE
 70
   4
  0
STYLE
  2
STANDARD
 70
    64
 40
0.0
 41
1.0
 50
0.0
 71
     0
 42
1.0
  3
txt
  4

  0
STYLE
  2
HIGHWAYEMOD2K
 70
    64
 40
0.0
 41
1.0
 50
0.0
 71
     0
 42
1.0
  3
Highway E Mod 2K
  4

  0
STYLE
  2
HIGHWAYSIGNCADPLUS
 70
    64
 40
0.0
 41
1.0
 50
0.0
 71
     0
 42
1.0
  3
Highway SignCAD Plus
  4

  0
STYLE
  2
HIGHWAYSYMBOLS
 70
    64
 40
0.0
 41
1.0
 50
0.0
 71
     0
 42
1.0
  3
Hwy_symb
  4

  0
ENDTAB
  0
ENDSEC
  0
SECTION
  2
ENTITIES
  0
ARC
  8
0
 10
63.75
 20
184.75
 40
2.25
 50
0
 51
90
  0
LINE
  8
0
 10
63.75
 20
187
 11
32.25
 21
187
  0
ARC
  8
0
 10
32.25
 20
184.75
 40
2.25
 50
90
 51
180
  0
LINE
  8
0
 10
30
 20
184.75
 11
30
 21
159.25
  0
ARC
  8
0
 10
32.25
 20
159.25
 40
2.25
 50
180
 51
270
  0
LINE
  8
0
 10
32.25
 20
157
 11
63.75
 21
157
  0
ARC
  8
0
 10
63.75
 20
159.25
 40
2.25
 50
270
 51
360
  0
LINE
  8
0
 10
66
 20
159.25
 11
66
 21
184.75
  0
ARC
  8
0
 10
63.75
 20
184.75
 40
1.625
 50
0
 51
90
  0
ARC
  8
0
 10
63.75
 20
184.75
 40
0.75
 50
0
 51
90
  0
ARC
  8
0
 10
32.25
 20
184.75
 40
1.625
 50
90
 51
180
  0
ARC
  8
0
 10
32.25
 20
184.75
 40
0.75
 50
90
 51
180
  0
ARC
  8
0
 10
32.25
 20
159.25
 40
1.625
 50
180
 51
270
  0
ARC
  8
0
 10
32.25
 20
159.25
 40
0.75
 50
180
 51
270
  0
ARC
  8
0
 10
63.75
 20
159.25
 40
1.625
 50
270
 51
360
  0
ARC
  8
0
 10
63.75
 20
159.25
 40
0.75
 50
270
 51
360
  0
POLYLINE
  8
0
 66
     1
 10
0
 20
0
  0
VERTEX
  8
0
 10
63.75
 20
186.375
  0
VERTEX
  8
0
 10
32.25
 20
186.375
  0
SEQEND
  0
POLYLINE
  8
0
 66
     1
 10
0
 20
0
  0
VERTEX
  8
0
 10
32.25
 20
185.5
  0
VERTEX
  8
0
 10
63.75
 20
185.5
  0
SEQEND
  0
POLYLINE
  8
0
 66
     1
 10
0
 20
0
  0
VERTEX
  8
0
 10
30.625
 20
184.75
  0
VERTEX
  8
0
 10
30.625
 20
159.25
  0
SEQEND
  0
POLYLINE
  8
0
 66
     1
 10
0
 20
0
  0
VERTEX
  8
0
 10
31.5
 20
159.25
  0
VERTEX
  8
0
 10
31.5
 20
184.75
  0
SEQEND
  0
POLYLINE
  8
0
 66
     1
 10
0
 20
0
  0
VERTEX
  8
0
 10
32.25
 20
157.625
  0
VERTEX
  8
0
 10
63.75
 20
157.625
  0
SEQEND
  0
POLYLINE
  8
0
 66
     1
 10
0
 20
0
  0
VERTEX
  8
0
 10
63.75
 20
158.5
  0
VERTEX
  8
0
 10
32.25
 20
158.5
  0
SEQEND
  0
POLYLINE
  8
0
 66
     1
 10
0
 20
0
  0
VERTEX
  8
0
 10
65.375
 20
159.25
  0
VERTEX
  8
0
 10
65.375
 20
184.75
  0
SEQEND
  0
POLYLINE
  8
0
 66
     1
 10
0
 20
0
  0
VERTEX
  8
0
 10
64.5
 20
184.75
  0
VERTEX
  8
0
 10
64.5
 20
159.25
  0
SEQEND
  0
TEXT
  8
0
 10
73.125
 20
183.9241
 40
3
  1
4
 50
90
  7
HIGHWAYSIGNCADPLUS
 72
1
 11
73.125
 21
185
  0
LINE
  8
0
 10
72.375
 20
187
 11
67.875
 21
187
  0
LINE
  8
0
 10
72.375
 20
183
 11
67.875
 21
183
  0
TEXT
  8
0
 10
73.125
 20
169.7697
 40
3
  1
22
 50
90
  7
HIGHWAYSIGNCADPLUS
 72
1
 11
73.125
 21
172
  0
LINE
  8
0
 10
71.625
 20
174.9804
 11
71.625
 21
183
  0
LINE
  8
0
 10
72.2959
 20
181.6584
 11
71.625
 21
183
  0
LINE
  8
0
 10
70.9542
 20
181.6584
 11
71.625
 21
183
  0
LINE
  8
0
 10
71.625
 20
169.0197
 11
71.625
 21
161
  0
LINE
  8
0
 10
70.9542
 20
162.3417
 11
71.625
 21
161
  0
LINE
  8
0
 10
72.2959
 20
162.3417
 11
71.625
 21
161
  0
LINE
  8
0
 10
72.375
 20
161
 11
67.875
 21
161
  0
TEXT
  8
0
 10
30.7879
 20
149.875
 40
3
  1
4
  7
HIGHWAYSIGNCADPLUS
 72
1
 11
31.8638
 21
149.875
  0
LINE
  8
0
 10
33.7275
 20
150.625
 11
33.7275
 21
155.125
  0
LINE
  8
0
 10
30
 20
150.625
 11
30
 21
155.125
  0
TEXT
  8
0
 10
45.7461
 20
149.875
 40
3
  1
28
  7
HIGHWAYSIGNCADPLUS
 72
1
 11
48
 21
149.875
  0
LINE
  8
0
 10
51.004
 20
151.375
 11
62.2725
 21
151.375
  0
LINE
  8
0
 10
60.9309
 20
150.7042
 11
62.2725
 21
151.375
  0
LINE
  8
0
 10
60.9309
 20
152.0459
 11
62.2725
 21
151.375
  0
LINE
  8
0
 10
62.2725
 20
150.625
 11
62.2725
 21
155.125
  0
LINE
  8
0
 10
44.9961
 20
151.375
 11
33.7275
 21
151.375
  0
LINE
  8
0
 10
35.0692
 20
152.0459
 11
33.7275
 21
151.375
  0
LINE
  8
0
 10
35.0692
 20
150.7042
 11
33.7275
 21
151.375
  0
TEXT
  8
0
 10
63.0604
 20
149.875
 40
3
  1
4
  7
HIGHWAYSIGNCADPLUS
 72
1
 11
64.1363
 21
149.875
  0
LINE
  8
0
 10
66
 20
150.625
 11
66
 21
155.125
  0
LINE
  8
0
 10
62.2725
 20
150.625
 11
62.2725
 21
155.125
  0
TEXT
  8
0
 10
73.125
 20
157.9241
 40
3
  1
4
 50
90
  7
HIGHWAYSIGNCADPLUS
 72
1
 11
73.125
 21
159
  0
LINE
  8
0
 10
72.375
 20
161
 11
67.875
 21
161
  0
LINE
  8
0
 10
72.375
 20
157
 11
67.875
 21
157
  0
TEXT
  8
0
 10
80.625
 20
169.7854
 40
3
  1
30
 50
90
  7
HIGHWAYSIGNCADPLUS
 72
1
 11
80.625
 21
172
  0
LINE
  8
0
 10
79.125
 20
174.9647
 11
79.125
 21
187
  0
LINE
  8
0
 10
79.7959
 20
185.6584
 11
79.125
 21
187
  0
LINE
  8
0
 10
78.4542
 20
185.6584
 11
79.125
 21
187
  0
LINE
  8
0
 10
79.875
 20
187
 11
66.75
 21
187
  0
LINE
  8
0
 10
79.125
 20
169.0354
 11
79.125
 21
157
  0
LINE
  8
0
 10
78.4542
 20
158.3417
 11
79.125
 21
157
  0
LINE
  8
0
 10
79.7959
 20
158.3417
 11
79.125
 21
157
  0
LINE
  8
0
 10
79.875
 20
157
 11
66.75
 21
157
  0
TEXT
  8
0
 10
45.7618
 20
142.375
 40
3
  1
36
  7
HIGHWAYSIGNCADPLUS
 72
1
 11
48
 21
142.375
  0
LINE
  8
0
 10
50.9883
 20
143.875
 11
66
 21
143.875
  0
LINE
  8
0
 10
64.6584
 20
143.2042
 11
66
 21
143.875
  0
LINE
  8
0
 10
64.6584
 20
144.5459
 11
66
 21
143.875
  0
LINE
  8
0
 10
66
 20
143.125
 11
66
 21
156.25
  0
LINE
  8
0
 10
45.0118
 20
143.875
 11
30
 21
143.875
  0
LINE
  8
0
 10
31.3417
 20
144.5459
 11
30
 21
143.875
  0
LINE
  8
0
 10
31.3417
 20
143.2042
 11
30
 21
143.875
  0
LINE
  8
0
 10
30
 20
143.125
 11
30
 21
156.25
  0
TEXT
  8
0
 10
30
 20
137.875
 40
3
  1
W8-15P 36X30; 
  7
HIGHWAYSIGNCADPLUS
 73
1
 11
30
 21
136.375
  0
TEXT
  8
0
 10
30
 20
131.875
 40
3
  1
2" Radius, 1" Border, 1" Indent, Black on Yellow; 
  7
HIGHWAYSIGNCADPLUS
 73
1
 11
30
 21
130.375
  0
TEXT
  8
0
 10
30
 20
125.875
 40
3
  1
Symbol RL150; 
  7
HIGHWAYSIGNCADPLUS
 73
1
 11
30
 21
124.375
  0
TEXT
  8
0
 10
33.7275
 20
161
 40
22
  1
b
  7
HIGHWAYSYMBOLS
  0
ENDSEC
  0
EOF