  0
SECTION
  2
HEADER
  9
$ACADVER
  1
AC1009
  0
ENDSEC
  0
SECTION
  2
TABLES
  0
TABLE
  2
STYLE
 70
   4
  0
STYLE
  2
STANDARD
 70
    64
 40
0.0
 41
1.0
 50
0.0
 71
     0
 42
1.0
  3
txt
  4

  0
STYLE
  2
HIGHWAYEMOD2K
 70
    64
 40
0.0
 41
1.0
 50
0.0
 71
     0
 42
1.0
  3
Highway E Mod 2K
  4

  0
STYLE
  2
HIGHWAYSIGNCADPLUS
 70
    64
 40
0.0
 41
1.0
 50
0.0
 71
     0
 42
1.0
  3
Highway SignCAD Plus
  4

  0
STYLE
  2
HIGHWAYSYMBOLS
 70
    64
 40
0.0
 41
1.0
 50
0.0
 71
     0
 42
1.0
  3
Hwy_symb
  4

  0
ENDTAB
  0
ENDSEC
  0
SECTION
  2
ENTITIES
  0
ARC
  8
0
 10
131.125
 20
122.125
 40
1.875
 50
0
 51
90
  0
LINE
  8
0
 10
131.125
 20
124
 11
104.875
 21
124
  0
ARC
  8
0
 10
104.875
 20
122.125
 40
1.875
 50
90
 51
180
  0
LINE
  8
0
 10
103
 20
122.125
 11
103
 21
101.875
  0
ARC
  8
0
 10
104.875
 20
101.875
 40
1.875
 50
180
 51
270
  0
LINE
  8
0
 10
104.875
 20
100
 11
131.125
 21
100
  0
ARC
  8
0
 10
131.125
 20
101.875
 40
1.875
 50
270
 51
360
  0
LINE
  8
0
 10
133
 20
101.875
 11
133
 21
122.125
  0
ARC
  8
0
 10
131.125
 20
122.125
 40
1.375
 50
0
 51
90
  0
ARC
  8
0
 10
131.125
 20
122.125
 40
0.625
 50
0
 51
90
  0
ARC
  8
0
 10
104.875
 20
122.125
 40
1.375
 50
90
 51
180
  0
ARC
  8
0
 10
104.875
 20
122.125
 40
0.625
 50
90
 51
180
  0
ARC
  8
0
 10
104.875
 20
101.875
 40
1.375
 50
180
 51
270
  0
ARC
  8
0
 10
104.875
 20
101.875
 40
0.625
 50
180
 51
270
  0
ARC
  8
0
 10
131.125
 20
101.875
 40
1.375
 50
270
 51
360
  0
ARC
  8
0
 10
131.125
 20
101.875
 40
0.625
 50
270
 51
360
  0
POLYLINE
  8
0
 66
     1
 10
0
 20
0
  0
VERTEX
  8
0
 10
131.125
 20
123.5
  0
VERTEX
  8
0
 10
104.875
 20
123.5
  0
SEQEND
  0
POLYLINE
  8
0
 66
     1
 10
0
 20
0
  0
VERTEX
  8
0
 10
104.875
 20
122.75
  0
VERTEX
  8
0
 10
131.125
 20
122.75
  0
SEQEND
  0
POLYLINE
  8
0
 66
     1
 10
0
 20
0
  0
VERTEX
  8
0
 10
103.5
 20
122.125
  0
VERTEX
  8
0
 10
103.5
 20
101.875
  0
SEQEND
  0
POLYLINE
  8
0
 66
     1
 10
0
 20
0
  0
VERTEX
  8
0
 10
104.25
 20
101.875
  0
VERTEX
  8
0
 10
104.25
 20
122.125
  0
SEQEND
  0
POLYLINE
  8
0
 66
     1
 10
0
 20
0
  0
VERTEX
  8
0
 10
104.875
 20
100.5
  0
VERTEX
  8
0
 10
131.125
 20
100.5
  0
SEQEND
  0
POLYLINE
  8
0
 66
     1
 10
0
 20
0
  0
VERTEX
  8
0
 10
131.125
 20
101.25
  0
VERTEX
  8
0
 10
104.875
 20
101.25
  0
SEQEND
  0
POLYLINE
  8
0
 66
     1
 10
0
 20
0
  0
VERTEX
  8
0
 10
132.5
 20
101.875
  0
VERTEX
  8
0
 10
132.5
 20
122.125
  0
SEQEND
  0
POLYLINE
  8
0
 66
     1
 10
0
 20
0
  0
VERTEX
  8
0
 10
131.75
 20
122.125
  0
VERTEX
  8
0
 10
131.75
 20
101.875
  0
SEQEND
  0
TEXT
  8
0
 10
143.875
 20
121.4869
 40
3
  1
3
 50
90
  7
HIGHWAYSIGNCADPLUS
 72
1
 11
143.875
 21
122.5
  0
LINE
  8
0
 10
139.375
 20
124
 11
134.875
 21
124
  0
LINE
  8
0
 10
139.375
 20
121
 11
134.875
 21
121
  0
TEXT
  8
0
 10
140.125
 20
109.9267
 40
3
  1
18
 50
90
  7
HIGHWAYSIGNCADPLUS
 72
1
 11
140.125
 21
112
  0
LINE
  8
0
 10
138.625
 20
114.8233
 11
138.625
 21
121
  0
LINE
  8
0
 10
139.2958
 20
119.6584
 11
138.625
 21
121
  0
LINE
  8
0
 10
137.9542
 20
119.6584
 11
138.625
 21
121
  0
LINE
  8
0
 10
138.625
 20
109.1767
 11
138.625
 21
103
  0
LINE
  8
0
 10
137.9542
 20
104.3416
 11
138.625
 21
103
  0
LINE
  8
0
 10
139.2958
 20
104.3416
 11
138.625
 21
103
  0
LINE
  8
0
 10
139.375
 20
103
 11
134.875
 21
103
  0
TEXT
  8
0
 10
103.6482
 20
89.125
 40
3
  1
3
  7
HIGHWAYSIGNCADPLUS
 72
1
 11
104.6613
 21
89.125
  0
LINE
  8
0
 10
106.3225
 20
93.625
 11
106.3225
 21
98.125
  0
LINE
  8
0
 10
103
 20
93.625
 11
103
 21
98.125
  0
TEXT
  8
0
 10
115.7539
 20
92.875
 40
3
  1
24
  7
HIGHWAYSIGNCADPLUS
 72
1
 11
118
 21
92.875
  0
LINE
  8
0
 10
120.9961
 20
94.375
 11
129.6775
 21
94.375
  0
LINE
  8
0
 10
128.3359
 20
93.7042
 11
129.6775
 21
94.375
  0
LINE
  8
0
 10
128.3359
 20
95.0458
 11
129.6775
 21
94.375
  0
LINE
  8
0
 10
129.6775
 20
93.625
 11
129.6775
 21
98.125
  0
LINE
  8
0
 10
115.0039
 20
94.375
 11
106.3225
 21
94.375
  0
LINE
  8
0
 10
107.6641
 20
95.0458
 11
106.3225
 21
94.375
  0
LINE
  8
0
 10
107.6641
 20
93.7042
 11
106.3225
 21
94.375
  0
TEXT
  8
0
 10
130.3257
 20
89.125
 40
3
  1
3
  7
HIGHWAYSIGNCADPLUS
 72
1
 11
131.3387
 21
89.125
  0
LINE
  8
0
 10
133
 20
93.625
 11
133
 21
98.125
  0
LINE
  8
0
 10
129.6775
 20
93.625
 11
129.6775
 21
98.125
  0
TEXT
  8
0
 10
143.875
 20
100.4869
 40
3
  1
3
 50
90
  7
HIGHWAYSIGNCADPLUS
 72
1
 11
143.875
 21
101.5
  0
LINE
  8
0
 10
139.375
 20
103
 11
134.875
 21
103
  0
LINE
  8
0
 10
139.375
 20
100
 11
134.875
 21
100
  0
TEXT
  8
0
 10
147.625
 20
109.7539
 40
3
  1
24
 50
90
  7
HIGHWAYSIGNCADPLUS
 72
1
 11
147.625
 21
112
  0
LINE
  8
0
 10
146.125
 20
114.9961
 11
146.125
 21
124
  0
LINE
  8
0
 10
146.7958
 20
122.6584
 11
146.125
 21
124
  0
LINE
  8
0
 10
145.4542
 20
122.6584
 11
146.125
 21
124
  0
LINE
  8
0
 10
146.875
 20
124
 11
133.75
 21
124
  0
LINE
  8
0
 10
146.125
 20
109.0039
 11
146.125
 21
100
  0
LINE
  8
0
 10
145.4542
 20
101.3416
 11
146.125
 21
100
  0
LINE
  8
0
 10
146.7958
 20
101.3416
 11
146.125
 21
100
  0
LINE
  8
0
 10
146.875
 20
100
 11
133.75
 21
100
  0
TEXT
  8
0
 10
115.7853
 20
85.375
 40
3
  1
30
  7
HIGHWAYSIGNCADPLUS
 72
1
 11
118
 21
85.375
  0
LINE
  8
0
 10
120.9647
 20
86.875
 11
133
 21
86.875
  0
LINE
  8
0
 10
131.6584
 20
86.2042
 11
133
 21
86.875
  0
LINE
  8
0
 10
131.6584
 20
87.5458
 11
133
 21
86.875
  0
LINE
  8
0
 10
133
 20
86.125
 11
133
 21
99.25
  0
LINE
  8
0
 10
115.0353
 20
86.875
 11
103
 21
86.875
  0
LINE
  8
0
 10
104.3416
 20
87.5458
 11
103
 21
86.875
  0
LINE
  8
0
 10
104.3416
 20
86.2042
 11
103
 21
86.875
  0
LINE
  8
0
 10
103
 20
86.125
 11
103
 21
99.25
  0
TEXT
  8
0
 10
103
 20
80.875
 40
3
  1
W8-15P 30X24; 
  7
HIGHWAYSIGNCADPLUS
 73
1
 11
103
 21
79.375
  0
TEXT
  8
0
 10
103
 20
74.875
 40
3
  1
2" Radius, 1" Border, 1" Indent, Black on Yellow; 
  7
HIGHWAYSIGNCADPLUS
 73
1
 11
103
 21
73.375
  0
TEXT
  8
0
 10
103
 20
68.875
 40
3
  1
Symbol RL150; 
  7
HIGHWAYSIGNCADPLUS
 73
1
 11
103
 21
67.375
  0
TEXT
  8
0
 10
106.3225
 20
103
 40
18
  1
b
  7
HIGHWAYSYMBOLS
  0
ENDSEC
  0
EOF