  0
SECTION
  2
HEADER
  9
$ACADVER
  1
AC1009
  0
ENDSEC
  0
SECTION
  2
TABLES
  0
TABLE
  2
STYLE
 70
   4
  0
STYLE
  2
STANDARD
 70
    64
 40
0.0
 41
1.0
 50
0.0
 71
     0
 42
1.0
  3
txt
  4

  0
STYLE
  2
HIGHWAYEMOD2K
 70
    64
 40
0.0
 41
1.0
 50
0.0
 71
     0
 42
1.0
  3
Highway E Mod 2K
  4

  0
STYLE
  2
HIGHWAYSIGNCADPLUS
 70
    64
 40
0.0
 41
1.0
 50
0.0
 71
     0
 42
1.0
  3
Highway SignCAD Plus
  4

  0
STYLE
  2
HIGHWAYD2K
 70
    64
 40
0.0
 41
1.0
 50
0.0
 71
     0
 42
1.0
  3
Highway D 2K
  4

  0
ENDTAB
  0
ENDSEC
  0
SECTION
  2
ENTITIES
  0
ARC
  8
0
 10
217.6985
 20
78
 40
3
 50
315
 51
405
  0
LINE
  8
0
 10
219.8198
 20
80.1213
 11
190.1213
 21
109.8198
  0
ARC
  8
0
 10
188
 20
107.6985
 40
3
 50
45
 51
135
  0
LINE
  8
0
 10
185.8787
 20
109.8198
 11
156.1802
 21
80.1213
  0
ARC
  8
0
 10
158.3015
 20
78
 40
3
 50
135
 51
225
  0
LINE
  8
0
 10
156.1802
 20
75.8787
 11
185.8787
 21
46.1802
  0
ARC
  8
0
 10
188
 20
48.3015
 40
3
 50
225
 51
315
  0
LINE
  8
0
 10
190.1213
 20
46.1802
 11
219.8198
 21
75.8787
  0
ARC
  8
0
 10
217.6985
 20
78
 40
2.25
 50
315
 51
405
  0
ARC
  8
0
 10
217.6985
 20
78
 40
1.5
 50
315
 51
405
  0
ARC
  8
0
 10
188
 20
107.6985
 40
2.25
 50
45
 51
135
  0
ARC
  8
0
 10
188
 20
107.6985
 40
1.5
 50
45
 51
135
  0
ARC
  8
0
 10
158.3015
 20
78
 40
2.25
 50
135
 51
225
  0
ARC
  8
0
 10
158.3015
 20
78
 40
1.5
 50
135
 51
225
  0
ARC
  8
0
 10
188
 20
48.3015
 40
2.25
 50
225
 51
315
  0
ARC
  8
0
 10
188
 20
48.3015
 40
1.5
 50
225
 51
315
  0
POLYLINE
  8
0
 66
     1
 10
0
 20
0
  0
VERTEX
  8
0
 10
219.2895
 20
79.591
  0
VERTEX
  8
0
 10
189.591
 20
109.2895
  0
SEQEND
  0
POLYLINE
  8
0
 66
     1
 10
0
 20
0
  0
VERTEX
  8
0
 10
189.0607
 20
108.7591
  0
VERTEX
  8
0
 10
218.7591
 20
79.0607
  0
SEQEND
  0
POLYLINE
  8
0
 66
     1
 10
0
 20
0
  0
VERTEX
  8
0
 10
186.409
 20
109.2895
  0
VERTEX
  8
0
 10
156.7105
 20
79.591
  0
SEQEND
  0
POLYLINE
  8
0
 66
     1
 10
0
 20
0
  0
VERTEX
  8
0
 10
157.2409
 20
79.0607
  0
VERTEX
  8
0
 10
186.9393
 20
108.7591
  0
SEQEND
  0
POLYLINE
  8
0
 66
     1
 10
0
 20
0
  0
VERTEX
  8
0
 10
156.7105
 20
76.409
  0
VERTEX
  8
0
 10
186.409
 20
46.7105
  0
SEQEND
  0
POLYLINE
  8
0
 66
     1
 10
0
 20
0
  0
VERTEX
  8
0
 10
186.9393
 20
47.2409
  0
VERTEX
  8
0
 10
157.2409
 20
76.9393
  0
SEQEND
  0
POLYLINE
  8
0
 66
     1
 10
0
 20
0
  0
VERTEX
  8
0
 10
189.591
 20
46.7105
  0
VERTEX
  8
0
 10
219.2895
 20
76.409
  0
SEQEND
  0
POLYLINE
  8
0
 66
     1
 10
0
 20
0
  0
VERTEX
  8
0
 10
218.7591
 20
76.9393
  0
VERTEX
  8
0
 10
189.0607
 20
47.2409
  0
SEQEND
  0
TEXT
  8
0
 10
224.4985
 20
100.1467
 40
1.6
  1
16.9
 50
90
  7
HIGHWAYSIGNCADPLUS
 72
1
 11
224.4985
 21
102.2242
  0
LINE
  8
0
 10
223.6985
 20
104.7017
 11
223.6985
 21
110.6985
  0
LINE
  8
0
 10
224.0562
 20
109.9829
 11
223.6985
 21
110.6985
  0
LINE
  8
0
 10
223.3407
 20
109.9829
 11
223.6985
 21
110.6985
  0
LINE
  8
0
 10
224.0985
 20
110.6985
 11
221.6985
 21
110.6985
  0
LINE
  8
0
 10
223.6985
 20
99.7467
 11
223.6985
 21
93.75
  0
LINE
  8
0
 10
223.3407
 20
94.4655
 11
223.6985
 21
93.75
  0
LINE
  8
0
 10
224.0562
 20
94.4655
 11
223.6985
 21
93.75
  0
LINE
  8
0
 10
224.0985
 20
93.75
 11
221.6985
 21
93.75
  0
TEXT
  8
0
 10
224.4985
 20
90.1887
 40
1.6
  1
6
 50
90
  7
HIGHWAYSIGNCADPLUS
 72
1
 11
224.4985
 21
90.75
  0
LINE
  8
0
 10
223.6985
 20
91.7113
 11
223.6985
 21
93.75
  0
LINE
  8
0
 10
224.0562
 20
93.0345
 11
223.6985
 21
93.75
  0
LINE
  8
0
 10
223.3407
 20
93.0345
 11
223.6985
 21
93.75
  0
LINE
  8
0
 10
223.6985
 20
89.7887
 11
223.6985
 21
87.75
  0
LINE
  8
0
 10
223.3407
 20
88.4655
 11
223.6985
 21
87.75
  0
LINE
  8
0
 10
224.0562
 20
88.4655
 11
223.6985
 21
87.75
  0
LINE
  8
0
 10
224.0985
 20
87.75
 11
221.6985
 21
87.75
  0
TEXT
  8
0
 10
162.1333
 20
41.5015
 40
1.6
  1
17.8
  7
HIGHWAYSIGNCADPLUS
 72
1
 11
164.2108
 21
41.5015
  0
LINE
  8
0
 10
166.6883
 20
42.3015
 11
173.12
 21
42.3015
  0
LINE
  8
0
 10
172.4045
 20
41.9438
 11
173.12
 21
42.3015
  0
LINE
  8
0
 10
172.4045
 20
42.6593
 11
173.12
 21
42.3015
  0
LINE
  8
0
 10
173.12
 20
41.9015
 11
173.12
 21
44.3015
  0
LINE
  8
0
 10
161.7333
 20
42.3015
 11
155.3015
 21
42.3015
  0
LINE
  8
0
 10
156.0171
 20
42.6593
 11
155.3015
 21
42.3015
  0
LINE
  8
0
 10
156.0171
 20
41.9438
 11
155.3015
 21
42.3015
  0
LINE
  8
0
 10
155.3015
 20
41.9015
 11
155.3015
 21
44.3015
  0
TEXT
  8
0
 10
185.8346
 20
41.5015
 40
1.6
  1
29.8
  7
HIGHWAYSIGNCADPLUS
 72
1
 11
188
 21
41.5015
  0
LINE
  8
0
 10
190.5654
 20
42.3015
 11
202.88
 21
42.3015
  0
LINE
  8
0
 10
202.1645
 20
41.9438
 11
202.88
 21
42.3015
  0
LINE
  8
0
 10
202.1645
 20
42.6593
 11
202.88
 21
42.3015
  0
LINE
  8
0
 10
202.88
 20
41.9015
 11
202.88
 21
44.3015
  0
LINE
  8
0
 10
185.4346
 20
42.3015
 11
173.12
 21
42.3015
  0
LINE
  8
0
 10
173.8355
 20
42.6593
 11
173.12
 21
42.3015
  0
LINE
  8
0
 10
173.8355
 20
41.9438
 11
173.12
 21
42.3015
  0
TEXT
  8
0
 10
224.4985
 20
85.7055
 40
1.6
  1
3
 50
90
  7
HIGHWAYSIGNCADPLUS
 72
1
 11
224.4985
 21
86.25
  0
LINE
  8
0
 10
224.0985
 20
84.75
 11
221.6985
 21
84.75
  0
TEXT
  8
0
 10
224.4985
 20
81.1887
 40
1.6
  1
6
 50
90
  7
HIGHWAYSIGNCADPLUS
 72
1
 11
224.4985
 21
81.75
  0
LINE
  8
0
 10
223.6985
 20
82.7113
 11
223.6985
 21
84.75
  0
LINE
  8
0
 10
224.0562
 20
84.0345
 11
223.6985
 21
84.75
  0
LINE
  8
0
 10
223.3407
 20
84.0345
 11
223.6985
 21
84.75
  0
LINE
  8
0
 10
223.6985
 20
80.7887
 11
223.6985
 21
78.75
  0
LINE
  8
0
 10
223.3407
 20
79.4655
 11
223.6985
 21
78.75
  0
LINE
  8
0
 10
224.0562
 20
79.4655
 11
223.6985
 21
78.75
  0
LINE
  8
0
 10
224.0985
 20
78.75
 11
221.6985
 21
78.75
  0
TEXT
  8
0
 10
163.5753
 20
37.5015
 40
1.6
  1
20.9
  7
HIGHWAYSIGNCADPLUS
 72
1
 11
165.7408
 21
37.5015
  0
LINE
  8
0
 10
168.3062
 20
38.3015
 11
176.18
 21
38.3015
  0
LINE
  8
0
 10
175.4645
 20
37.9438
 11
176.18
 21
38.3015
  0
LINE
  8
0
 10
175.4645
 20
38.6593
 11
176.18
 21
38.3015
  0
LINE
  8
0
 10
176.18
 20
37.9015
 11
176.18
 21
40.3015
  0
LINE
  8
0
 10
163.1753
 20
38.3015
 11
155.3015
 21
38.3015
  0
LINE
  8
0
 10
156.0171
 20
38.6593
 11
155.3015
 21
38.3015
  0
LINE
  8
0
 10
156.0171
 20
37.9438
 11
155.3015
 21
38.3015
  0
LINE
  8
0
 10
155.3015
 20
37.9015
 11
155.3015
 21
40.3015
  0
TEXT
  8
0
 10
185.8262
 20
37.5015
 40
1.6
  1
23.6
  7
HIGHWAYSIGNCADPLUS
 72
1
 11
188
 21
37.5015
  0
LINE
  8
0
 10
190.5738
 20
38.3015
 11
199.82
 21
38.3015
  0
LINE
  8
0
 10
199.1045
 20
37.9438
 11
199.82
 21
38.3015
  0
LINE
  8
0
 10
199.1045
 20
38.6593
 11
199.82
 21
38.3015
  0
LINE
  8
0
 10
199.82
 20
37.9015
 11
199.82
 21
40.3015
  0
LINE
  8
0
 10
185.4262
 20
38.3015
 11
176.18
 21
38.3015
  0
LINE
  8
0
 10
176.8955
 20
38.6593
 11
176.18
 21
38.3015
  0
LINE
  8
0
 10
176.8955
 20
37.9438
 11
176.18
 21
38.3015
  0
TEXT
  8
0
 10
224.4985
 20
76.7055
 40
1.6
  1
3
 50
90
  7
HIGHWAYSIGNCADPLUS
 72
1
 11
224.4985
 21
77.25
  0
LINE
  8
0
 10
224.0985
 20
75.75
 11
221.6985
 21
75.75
  0
TEXT
  8
0
 10
224.4985
 20
72.1887
 40
1.6
  1
6
 50
90
  7
HIGHWAYSIGNCADPLUS
 72
1
 11
224.4985
 21
72.75
  0
LINE
  8
0
 10
223.6985
 20
73.7113
 11
223.6985
 21
75.75
  0
LINE
  8
0
 10
224.0562
 20
75.0345
 11
223.6985
 21
75.75
  0
LINE
  8
0
 10
223.3407
 20
75.0345
 11
223.6985
 21
75.75
  0
LINE
  8
0
 10
223.6985
 20
71.7887
 11
223.6985
 21
69.75
  0
LINE
  8
0
 10
223.3407
 20
70.4655
 11
223.6985
 21
69.75
  0
LINE
  8
0
 10
224.0562
 20
70.4655
 11
223.6985
 21
69.75
  0
LINE
  8
0
 10
224.0985
 20
69.75
 11
221.6985
 21
69.75
  0
TEXT
  8
0
 10
163.1683
 20
33.5015
 40
1.6
  1
19.9
  7
HIGHWAYSIGNCADPLUS
 72
1
 11
165.2458
 21
33.5015
  0
LINE
  8
0
 10
167.7233
 20
34.3015
 11
175.19
 21
34.3015
  0
LINE
  8
0
 10
174.4745
 20
33.9438
 11
175.19
 21
34.3015
  0
LINE
  8
0
 10
174.4745
 20
34.6593
 11
175.19
 21
34.3015
  0
LINE
  8
0
 10
175.19
 20
33.9015
 11
175.19
 21
36.3015
  0
LINE
  8
0
 10
162.7683
 20
34.3015
 11
155.3015
 21
34.3015
  0
LINE
  8
0
 10
156.0171
 20
34.6593
 11
155.3015
 21
34.3015
  0
LINE
  8
0
 10
156.0171
 20
33.9438
 11
155.3015
 21
34.3015
  0
LINE
  8
0
 10
155.3015
 20
33.9015
 11
155.3015
 21
36.3015
  0
TEXT
  8
0
 10
185.8262
 20
33.5015
 40
1.6
  1
25.6
  7
HIGHWAYSIGNCADPLUS
 72
1
 11
188
 21
33.5015
  0
LINE
  8
0
 10
190.5738
 20
34.3015
 11
200.81
 21
34.3015
  0
LINE
  8
0
 10
200.0945
 20
33.9438
 11
200.81
 21
34.3015
  0
LINE
  8
0
 10
200.0945
 20
34.6593
 11
200.81
 21
34.3015
  0
LINE
  8
0
 10
200.81
 20
33.9015
 11
200.81
 21
36.3015
  0
LINE
  8
0
 10
185.4262
 20
34.3015
 11
175.19
 21
34.3015
  0
LINE
  8
0
 10
175.9055
 20
34.6593
 11
175.19
 21
34.3015
  0
LINE
  8
0
 10
175.9055
 20
33.9438
 11
175.19
 21
34.3015
  0
TEXT
  8
0
 10
224.4985
 20
67.7055
 40
1.6
  1
3
 50
90
  7
HIGHWAYSIGNCADPLUS
 72
1
 11
224.4985
 21
68.25
  0
LINE
  8
0
 10
224.0985
 20
66.75
 11
221.6985
 21
66.75
  0
TEXT
  8
0
 10
224.4985
 20
63.1887
 40
1.6
  1
6
 50
90
  7
HIGHWAYSIGNCADPLUS
 72
1
 11
224.4985
 21
63.75
  0
LINE
  8
0
 10
223.6985
 20
64.7113
 11
223.6985
 21
66.75
  0
LINE
  8
0
 10
224.0562
 20
66.0345
 11
223.6985
 21
66.75
  0
LINE
  8
0
 10
223.3407
 20
66.0345
 11
223.6985
 21
66.75
  0
LINE
  8
0
 10
223.6985
 20
62.7887
 11
223.6985
 21
60.75
  0
LINE
  8
0
 10
223.3407
 20
61.4655
 11
223.6985
 21
60.75
  0
LINE
  8
0
 10
224.0562
 20
61.4655
 11
223.6985
 21
60.75
  0
LINE
  8
0
 10
224.0985
 20
60.75
 11
221.6985
 21
60.75
  0
TEXT
  8
0
 10
163.1233
 20
29.5015
 40
1.6
  1
19.8
  7
HIGHWAYSIGNCADPLUS
 72
1
 11
165.2008
 21
29.5015
  0
LINE
  8
0
 10
167.6783
 20
30.3015
 11
175.1
 21
30.3015
  0
LINE
  8
0
 10
174.3845
 20
29.9438
 11
175.1
 21
30.3015
  0
LINE
  8
0
 10
174.3845
 20
30.6593
 11
175.1
 21
30.3015
  0
LINE
  8
0
 10
175.1
 20
29.9015
 11
175.1
 21
32.3015
  0
LINE
  8
0
 10
162.7233
 20
30.3015
 11
155.3015
 21
30.3015
  0
LINE
  8
0
 10
156.0171
 20
30.6593
 11
155.3015
 21
30.3015
  0
LINE
  8
0
 10
156.0171
 20
29.9438
 11
155.3015
 21
30.3015
  0
LINE
  8
0
 10
155.3015
 20
29.9015
 11
155.3015
 21
32.3015
  0
TEXT
  8
0
 10
185.8346
 20
29.5015
 40
1.6
  1
25.8
  7
HIGHWAYSIGNCADPLUS
 72
1
 11
188
 21
29.5015
  0
LINE
  8
0
 10
190.5654
 20
30.3015
 11
200.9
 21
30.3015
  0
LINE
  8
0
 10
200.1845
 20
29.9438
 11
200.9
 21
30.3015
  0
LINE
  8
0
 10
200.1845
 20
30.6593
 11
200.9
 21
30.3015
  0
LINE
  8
0
 10
200.9
 20
29.9015
 11
200.9
 21
32.3015
  0
LINE
  8
0
 10
185.4346
 20
30.3015
 11
175.1
 21
30.3015
  0
LINE
  8
0
 10
175.8155
 20
30.6593
 11
175.1
 21
30.3015
  0
LINE
  8
0
 10
175.8155
 20
29.9438
 11
175.1
 21
30.3015
  0
TEXT
  8
0
 10
209.7117
 20
41.5015
 40
1.6
  1
17.8
  7
HIGHWAYSIGNCADPLUS
 72
1
 11
211.7892
 21
41.5015
  0
LINE
  8
0
 10
214.2667
 20
42.3015
 11
220.6985
 21
42.3015
  0
LINE
  8
0
 10
219.9829
 20
41.9438
 11
220.6985
 21
42.3015
  0
LINE
  8
0
 10
219.9829
 20
42.6593
 11
220.6985
 21
42.3015
  0
LINE
  8
0
 10
220.6985
 20
41.9015
 11
220.6985
 21
44.3015
  0
LINE
  8
0
 10
209.3117
 20
42.3015
 11
202.88
 21
42.3015
  0
LINE
  8
0
 10
203.5955
 20
42.6593
 11
202.88
 21
42.3015
  0
LINE
  8
0
 10
203.5955
 20
41.9438
 11
202.88
 21
42.3015
  0
LINE
  8
0
 10
202.88
 20
41.9015
 11
202.88
 21
44.3015
  0
TEXT
  8
0
 10
208.0938
 20
37.5015
 40
1.6
  1
20.9
  7
HIGHWAYSIGNCADPLUS
 72
1
 11
210.2592
 21
37.5015
  0
LINE
  8
0
 10
212.8247
 20
38.3015
 11
220.6985
 21
38.3015
  0
LINE
  8
0
 10
219.9829
 20
37.9438
 11
220.6985
 21
38.3015
  0
LINE
  8
0
 10
219.9829
 20
38.6593
 11
220.6985
 21
38.3015
  0
LINE
  8
0
 10
220.6985
 20
37.9015
 11
220.6985
 21
40.3015
  0
LINE
  8
0
 10
207.6938
 20
38.3015
 11
199.82
 21
38.3015
  0
LINE
  8
0
 10
200.5355
 20
38.6593
 11
199.82
 21
38.3015
  0
LINE
  8
0
 10
200.5355
 20
37.9438
 11
199.82
 21
38.3015
  0
LINE
  8
0
 10
199.82
 20
37.9015
 11
199.82
 21
40.3015
  0
TEXT
  8
0
 10
208.6767
 20
33.5015
 40
1.6
  1
19.9
  7
HIGHWAYSIGNCADPLUS
 72
1
 11
210.7542
 21
33.5015
  0
LINE
  8
0
 10
213.2317
 20
34.3015
 11
220.6985
 21
34.3015
  0
LINE
  8
0
 10
219.9829
 20
33.9438
 11
220.6985
 21
34.3015
  0
LINE
  8
0
 10
219.9829
 20
34.6593
 11
220.6985
 21
34.3015
  0
LINE
  8
0
 10
220.6985
 20
33.9015
 11
220.6985
 21
36.3015
  0
LINE
  8
0
 10
208.2767
 20
34.3015
 11
200.81
 21
34.3015
  0
LINE
  8
0
 10
201.5255
 20
34.6593
 11
200.81
 21
34.3015
  0
LINE
  8
0
 10
201.5255
 20
33.9438
 11
200.81
 21
34.3015
  0
LINE
  8
0
 10
200.81
 20
33.9015
 11
200.81
 21
36.3015
  0
TEXT
  8
0
 10
208.7218
 20
29.5015
 40
1.6
  1
19.8
  7
HIGHWAYSIGNCADPLUS
 72
1
 11
210.7992
 21
29.5015
  0
LINE
  8
0
 10
213.2767
 20
30.3015
 11
220.6985
 21
30.3015
  0
LINE
  8
0
 10
219.9829
 20
29.9438
 11
220.6985
 21
30.3015
  0
LINE
  8
0
 10
219.9829
 20
30.6593
 11
220.6985
 21
30.3015
  0
LINE
  8
0
 10
220.6985
 20
29.9015
 11
220.6985
 21
32.3015
  0
LINE
  8
0
 10
208.3218
 20
30.3015
 11
200.9
 21
30.3015
  0
LINE
  8
0
 10
201.6155
 20
30.6593
 11
200.9
 21
30.3015
  0
LINE
  8
0
 10
201.6155
 20
29.9438
 11
200.9
 21
30.3015
  0
LINE
  8
0
 10
200.9
 20
29.9015
 11
200.9
 21
32.3015
  0
TEXT
  8
0
 10
224.4985
 20
50.9483
 40
1.6
  1
15.5
 50
90
  7
HIGHWAYSIGNCADPLUS
 72
1
 11
224.4985
 21
53.0258
  0
LINE
  8
0
 10
223.6985
 20
55.5033
 11
223.6985
 21
60.75
  0
LINE
  8
0
 10
224.0562
 20
60.0345
 11
223.6985
 21
60.75
  0
LINE
  8
0
 10
223.3407
 20
60.0345
 11
223.6985
 21
60.75
  0
LINE
  8
0
 10
224.0985
 20
60.75
 11
221.6985
 21
60.75
  0
LINE
  8
0
 10
223.6985
 20
50.5483
 11
223.6985
 21
45.3015
  0
LINE
  8
0
 10
223.3407
 20
46.0171
 11
223.6985
 21
45.3015
  0
LINE
  8
0
 10
224.0562
 20
46.0171
 11
223.6985
 21
45.3015
  0
LINE
  8
0
 10
224.0985
 20
45.3015
 11
221.6985
 21
45.3015
  0
TEXT
  8
0
 10
228.4985
 20
75.8513
 40
1.6
  1
65.4
 50
90
  7
HIGHWAYSIGNCADPLUS
 72
1
 11
228.4985
 21
78
  0
LINE
  8
0
 10
227.6985
 20
80.5487
 11
227.6985
 21
110.6985
  0
LINE
  8
0
 10
228.0562
 20
109.9829
 11
227.6985
 21
110.6985
  0
LINE
  8
0
 10
227.3407
 20
109.9829
 11
227.6985
 21
110.6985
  0
LINE
  8
0
 10
228.0985
 20
110.6985
 11
221.0985
 21
110.6985
  0
LINE
  8
0
 10
227.6985
 20
75.4513
 11
227.6985
 21
45.3015
  0
LINE
  8
0
 10
227.3407
 20
46.0171
 11
227.6985
 21
45.3015
  0
LINE
  8
0
 10
228.0562
 20
46.0171
 11
227.6985
 21
45.3015
  0
LINE
  8
0
 10
228.0985
 20
45.3015
 11
221.0985
 21
45.3015
  0
TEXT
  8
0
 10
185.8513
 20
25.5015
 40
1.6
  1
65.4
  7
HIGHWAYSIGNCADPLUS
 72
1
 11
188
 21
25.5015
  0
LINE
  8
0
 10
190.5487
 20
26.3015
 11
220.6985
 21
26.3015
  0
LINE
  8
0
 10
219.9829
 20
25.9438
 11
220.6985
 21
26.3015
  0
LINE
  8
0
 10
219.9829
 20
26.6593
 11
220.6985
 21
26.3015
  0
LINE
  8
0
 10
220.6985
 20
25.9015
 11
220.6985
 21
44.9015
  0
LINE
  8
0
 10
185.4513
 20
26.3015
 11
155.3015
 21
26.3015
  0
LINE
  8
0
 10
156.0171
 20
26.6593
 11
155.3015
 21
26.3015
  0
LINE
  8
0
 10
156.0171
 20
25.9438
 11
155.3015
 21
26.3015
  0
LINE
  8
0
 10
155.3015
 20
25.9015
 11
155.3015
 21
44.9015
  0
TEXT
  8
0
 10
155.3015
 20
23.1015
 40
1.6
  1
48.0" across sides 3.0" Radius, 0.8" Border, 0.8" Indent, Black on Pink; 
  7
HIGHWAYSIGNCADPLUS
 73
1
 11
155.3015
 21
22.3015
  0
TEXT
  8
0
 10
155.3015
 20
19.9015
 40
1.6
  1
[REDUCE] D 2K; [SPEED] D 2K; [SMOKE] D 2K; 
  7
HIGHWAYSIGNCADPLUS
 73
1
 11
155.3015
 21
19.1015
  0
TEXT
  8
0
 10
155.3015
 20
16.7015
 40
1.6
  1
[AHEAD] D 2K; 
  7
HIGHWAYSIGNCADPLUS
 73
1
 11
155.3015
 21
15.9015
  0
TEXT
  8
0
 10
173.12
 20
87.75
 40
6
  1
R
  7
HIGHWAYD2K
  0
TEXT
  8
0
 10
178.22
 20
87.75
 40
6
  1
E
  7
HIGHWAYD2K
  0
TEXT
  8
0
 10
182.96
 20
87.75
 40
6
  1
D
  7
HIGHWAYD2K
  0
TEXT
  8
0
 10
188.36
 20
87.75
 40
6
  1
U
  7
HIGHWAYD2K
  0
TEXT
  8
0
 10
193.76
 20
87.75
 40
6
  1
C
  7
HIGHWAYD2K
  0
TEXT
  8
0
 10
199.16
 20
87.75
 40
6
  1
E
  7
HIGHWAYD2K
  0
TEXT
  8
0
 10
176.18
 20
78.75
 40
6
  1
S
  7
HIGHWAYD2K
  0
TEXT
  8
0
 10
181.28
 20
78.75
 40
6
  1
P
  7
HIGHWAYD2K
  0
TEXT
  8
0
 10
186.26
 20
78.75
 40
6
  1
E
  7
HIGHWAYD2K
  0
TEXT
  8
0
 10
191
 20
78.75
 40
6
  1
E
  7
HIGHWAYD2K
  0
TEXT
  8
0
 10
195.74
 20
78.75
 40
6
  1
D
  7
HIGHWAYD2K
  0
TEXT
  8
0
 10
175.19
 20
69.75
 40
6
  1
S
  7
HIGHWAYD2K
  0
TEXT
  8
0
 10
180.29
 20
69.75
 40
6
  1
M
  7
HIGHWAYD2K
  0
TEXT
  8
0
 10
186.29
 20
69.75
 40
6
  1
O
  7
HIGHWAYD2K
  0
TEXT
  8
0
 10
191.87
 20
69.75
 40
6
  1
K
  7
HIGHWAYD2K
  0
TEXT
  8
0
 10
197.09
 20
69.75
 40
6
  1
E
  7
HIGHWAYD2K
  0
TEXT
  8
0
 10
175.1
 20
60.75
 40
6
  1
A
  7
HIGHWAYD2K
  0
TEXT
  8
0
 10
181.1
 20
60.75
 40
6
  1
H
  7
HIGHWAYD2K
  0
TEXT
  8
0
 10
186.62
 20
60.75
 40
6
  1
E
  7
HIGHWAYD2K
  0
TEXT
  8
0
 10
190.82
 20
60.75
 40
6
  1
A
  7
HIGHWAYD2K
  0
TEXT
  8
0
 10
196.82
 20
60.75
 40
6
  1
D
  7
HIGHWAYD2K
  0
ENDSEC
  0
EOF