  0
SECTION
  2
HEADER
  9
$ACADVER
  1
AC1009
  0
ENDSEC
  0
SECTION
  2
TABLES
  0
TABLE
  2
STYLE
 70
   8
  0
STYLE
  2
STANDARD
 70
    64
 40
0.0
 41
1.0
 50
0.0
 71
     0
 42
1.0
  3
txt
  4

  0
STYLE
  2
HIGHWAYEMOD2K
 70
    64
 40
0.0
 41
1.0
 50
0.0
 71
     0
 42
1.0
  3
Highway E Mod 2K
  4

  0
STYLE
  2
HIGHWAYSIGNCADPLUS
 70
    64
 40
0.0
 41
1.0
 50
0.0
 71
     0
 42
1.0
  3
Highway SignCAD Plus
  4

  0
STYLE
  2
HIGHWAYC2K
 70
    64
 40
0.0
 41
1.0
 50
0.0
 71
     0
 42
1.0
  3
Highway C 2K
  4

  0
STYLE
  2
HIGHWAYC2K
 70
    64
 40
0.0
 41
1.0
 50
0.0
 71
     0
 42
1.0
  3
Highway C 2K
  4

  0
STYLE
  2
HIGHWAYC2K
 70
    64
 40
0.0
 41
1.0
 50
0.0
 71
     0
 42
1.0
  3
Highway C 2K
  4

  0
STYLE
  2
HIGHWAYC2K
 70
    64
 40
0.0
 41
1.0
 50
0.0
 71
     0
 42
1.0
  3
Highway C 2K
  4

  0
STYLE
  2
HIGHWAYD2K
 70
    64
 40
0.0
 41
1.0
 50
0.0
 71
     0
 42
1.0
  3
Highway D 2K
  4

  0
ENDTAB
  0
ENDSEC
  0
SECTION
  2
ENTITIES
  0
ARC
  8
0
 10
147.3345
 20
174
 40
1.5
 50
315
 51
405
  0
LINE
  8
0
 10
148.3951
 20
175.0606
 11
125.0606
 21
198.3951
  0
ARC
  8
0
 10
124
 20
197.3345
 40
1.5
 50
45
 51
135
  0
LINE
  8
0
 10
122.9393
 20
198.3951
 11
99.6048
 21
175.0606
  0
ARC
  8
0
 10
100.6654
 20
174
 40
1.5
 50
135
 51
225
  0
LINE
  8
0
 10
99.6048
 20
172.9393
 11
122.9393
 21
149.6048
  0
ARC
  8
0
 10
124
 20
150.6654
 40
1.5
 50
225
 51
315
  0
LINE
  8
0
 10
125.0606
 20
149.6048
 11
148.3951
 21
172.9393
  0
ARC
  8
0
 10
147.3345
 20
174
 40
1
 50
315
 51
405
  0
ARC
  8
0
 10
147.3345
 20
174
 40
0.2
 50
315
 51
405
  0
ARC
  8
0
 10
124
 20
197.3345
 40
1
 50
45
 51
135
  0
ARC
  8
0
 10
124
 20
197.3345
 40
0.2
 50
45
 51
135
  0
ARC
  8
0
 10
100.6654
 20
174
 40
1
 50
135
 51
225
  0
ARC
  8
0
 10
100.6654
 20
174
 40
0.2
 50
135
 51
225
  0
ARC
  8
0
 10
124
 20
150.6654
 40
1
 50
225
 51
315
  0
ARC
  8
0
 10
124
 20
150.6654
 40
0.2
 50
225
 51
315
  0
POLYLINE
  8
0
 66
     1
 10
0
 20
0
  0
VERTEX
  8
0
 10
148.0416
 20
174.7071
  0
VERTEX
  8
0
 10
124.7071
 20
198.0416
  0
SEQEND
  0
POLYLINE
  8
0
 66
     1
 10
0
 20
0
  0
VERTEX
  8
0
 10
124.1414
 20
197.4759
  0
VERTEX
  8
0
 10
147.4759
 20
174.1414
  0
SEQEND
  0
POLYLINE
  8
0
 66
     1
 10
0
 20
0
  0
VERTEX
  8
0
 10
123.2928
 20
198.0416
  0
VERTEX
  8
0
 10
99.9583
 20
174.7071
  0
SEQEND
  0
POLYLINE
  8
0
 66
     1
 10
0
 20
0
  0
VERTEX
  8
0
 10
100.524
 20
174.1414
  0
VERTEX
  8
0
 10
123.8585
 20
197.4759
  0
SEQEND
  0
POLYLINE
  8
0
 66
     1
 10
0
 20
0
  0
VERTEX
  8
0
 10
99.9583
 20
173.2928
  0
VERTEX
  8
0
 10
123.2928
 20
149.9583
  0
SEQEND
  0
POLYLINE
  8
0
 66
     1
 10
0
 20
0
  0
VERTEX
  8
0
 10
123.8585
 20
150.524
  0
VERTEX
  8
0
 10
100.524
 20
173.8585
  0
SEQEND
  0
POLYLINE
  8
0
 66
     1
 10
0
 20
0
  0
VERTEX
  8
0
 10
124.7071
 20
149.9583
  0
VERTEX
  8
0
 10
148.0416
 20
173.2928
  0
SEQEND
  0
POLYLINE
  8
0
 66
     1
 10
0
 20
0
  0
VERTEX
  8
0
 10
147.4759
 20
173.8585
  0
VERTEX
  8
0
 10
124.1414
 20
150.524
  0
SEQEND
  0
TEXT
  8
0
 10
149.7845
 20
192.4489
 40
0.4
  1
11.7
 50
90
  7
HIGHWAYSIGNCADPLUS
 72
1
 11
149.7845
 21
192.9672
  0
LINE
  8
0
 10
149.5845
 20
193.5855
 11
149.5845
 21
198.8345
  0
LINE
  8
0
 10
149.6739
 20
198.6556
 11
149.5845
 21
198.8345
  0
LINE
  8
0
 10
149.495
 20
198.6556
 11
149.5845
 21
198.8345
  0
LINE
  8
0
 10
149.6845
 20
198.8345
 11
149.0845
 21
198.8345
  0
LINE
  8
0
 10
149.5845
 20
192.3489
 11
149.5845
 21
187.0999
  0
LINE
  8
0
 10
149.495
 20
187.2788
 11
149.5845
 21
187.0999
  0
LINE
  8
0
 10
149.6739
 20
187.2788
 11
149.5845
 21
187.0999
  0
LINE
  8
0
 10
149.6845
 20
187.0999
 11
149.0845
 21
187.0999
  0
TEXT
  8
0
 10
149.7845
 20
184.4628
 40
0.4
  1
5
 50
90
  7
HIGHWAYSIGNCADPLUS
 72
1
 11
149.7845
 21
184.5999
  0
LINE
  8
0
 10
149.5845
 20
184.8371
 11
149.5845
 21
187.0999
  0
LINE
  8
0
 10
149.6739
 20
186.9211
 11
149.5845
 21
187.0999
  0
LINE
  8
0
 10
149.495
 20
186.9211
 11
149.5845
 21
187.0999
  0
LINE
  8
0
 10
149.5845
 20
184.3628
 11
149.5845
 21
182.0999
  0
LINE
  8
0
 10
149.495
 20
182.2788
 11
149.5845
 21
182.0999
  0
LINE
  8
0
 10
149.6739
 20
182.2788
 11
149.5845
 21
182.0999
  0
LINE
  8
0
 10
149.6845
 20
182.0999
 11
149.0845
 21
182.0999
  0
TEXT
  8
0
 10
106.2267
 20
148.2154
 40
0.4
  1
15.2
  7
HIGHWAYSIGNCADPLUS
 72
1
 11
106.7439
 21
148.2154
  0
LINE
  8
0
 10
107.3612
 20
148.4154
 11
114.3224
 21
148.4154
  0
LINE
  8
0
 10
114.1436
 20
148.326
 11
114.3224
 21
148.4154
  0
LINE
  8
0
 10
114.1436
 20
148.5049
 11
114.3224
 21
148.4154
  0
LINE
  8
0
 10
114.3224
 20
148.3154
 11
114.3224
 21
148.9154
  0
LINE
  8
0
 10
106.1267
 20
148.4154
 11
99.1654
 21
148.4154
  0
LINE
  8
0
 10
99.3443
 20
148.5049
 11
99.1654
 21
148.4154
  0
LINE
  8
0
 10
99.3443
 20
148.326
 11
99.1654
 21
148.4154
  0
LINE
  8
0
 10
99.1654
 20
148.3154
 11
99.1654
 21
148.9154
  0
TEXT
  8
0
 10
123.4806
 20
148.2154
 40
0.4
  1
19.3
  7
HIGHWAYSIGNCADPLUS
 72
1
 11
123.9999
 21
148.2154
  0
LINE
  8
0
 10
124.6193
 20
148.4154
 11
133.6774
 21
148.4154
  0
LINE
  8
0
 10
133.4986
 20
148.326
 11
133.6774
 21
148.4154
  0
LINE
  8
0
 10
133.4986
 20
148.5049
 11
133.6774
 21
148.4154
  0
LINE
  8
0
 10
133.6774
 20
148.3154
 11
133.6774
 21
148.9154
  0
LINE
  8
0
 10
123.3806
 20
148.4154
 11
114.3224
 21
148.4154
  0
LINE
  8
0
 10
114.5013
 20
148.5049
 11
114.3224
 21
148.4154
  0
LINE
  8
0
 10
114.5013
 20
148.326
 11
114.3224
 21
148.4154
  0
TEXT
  8
0
 10
149.7845
 20
180.4688
 40
0.4
  1
2.5
 50
90
  7
HIGHWAYSIGNCADPLUS
 72
1
 11
149.7845
 21
180.8499
  0
LINE
  8
0
 10
149.5845
 20
181.3311
 11
149.5845
 21
182.0999
  0
LINE
  8
0
 10
149.6739
 20
181.9211
 11
149.5845
 21
182.0999
  0
LINE
  8
0
 10
149.495
 20
181.9211
 11
149.5845
 21
182.0999
  0
LINE
  8
0
 10
149.5845
 20
180.3688
 11
149.5845
 21
179.5999
  0
LINE
  8
0
 10
149.495
 20
179.7788
 11
149.5845
 21
179.5999
  0
LINE
  8
0
 10
149.6739
 20
179.7788
 11
149.5845
 21
179.5999
  0
LINE
  8
0
 10
149.6845
 20
179.5999
 11
149.0845
 21
179.5999
  0
TEXT
  8
0
 10
149.7845
 20
176.9628
 40
0.4
  1
5
 50
90
  7
HIGHWAYSIGNCADPLUS
 72
1
 11
149.7845
 21
177.0999
  0
LINE
  8
0
 10
149.5845
 20
177.3371
 11
149.5845
 21
179.5999
  0
LINE
  8
0
 10
149.6739
 20
179.4211
 11
149.5845
 21
179.5999
  0
LINE
  8
0
 10
149.495
 20
179.4211
 11
149.5845
 21
179.5999
  0
LINE
  8
0
 10
149.5845
 20
176.8628
 11
149.5845
 21
174.5999
  0
LINE
  8
0
 10
149.495
 20
174.7788
 11
149.5845
 21
174.5999
  0
LINE
  8
0
 10
149.6739
 20
174.7788
 11
149.5845
 21
174.5999
  0
LINE
  8
0
 10
149.6845
 20
174.5999
 11
149.0845
 21
174.5999
  0
TEXT
  8
0
 10
106.8008
 20
147.2154
 40
0.4
  1
16.3
  7
HIGHWAYSIGNCADPLUS
 72
1
 11
107.3202
 21
147.2154
  0
LINE
  8
0
 10
107.9396
 20
147.4154
 11
115.475
 21
147.4154
  0
LINE
  8
0
 10
115.2961
 20
147.326
 11
115.475
 21
147.4154
  0
LINE
  8
0
 10
115.2961
 20
147.5049
 11
115.475
 21
147.4154
  0
LINE
  8
0
 10
115.475
 20
147.3154
 11
115.475
 21
147.9154
  0
LINE
  8
0
 10
106.7008
 20
147.4154
 11
99.1654
 21
147.4154
  0
LINE
  8
0
 10
99.3443
 20
147.5049
 11
99.1654
 21
147.4154
  0
LINE
  8
0
 10
99.3443
 20
147.326
 11
99.1654
 21
147.4154
  0
LINE
  8
0
 10
99.1654
 20
147.3154
 11
99.1654
 21
147.9154
  0
TEXT
  8
0
 10
123.5214
 20
147.2154
 40
0.4
  1
17.1
  7
HIGHWAYSIGNCADPLUS
 72
1
 11
124
 21
147.2154
  0
LINE
  8
0
 10
124.5785
 20
147.4154
 11
132.525
 21
147.4154
  0
LINE
  8
0
 10
132.3461
 20
147.326
 11
132.525
 21
147.4154
  0
LINE
  8
0
 10
132.3461
 20
147.5049
 11
132.525
 21
147.4154
  0
LINE
  8
0
 10
132.525
 20
147.3154
 11
132.525
 21
147.9154
  0
LINE
  8
0
 10
123.4214
 20
147.4154
 11
115.475
 21
147.4154
  0
LINE
  8
0
 10
115.6538
 20
147.5049
 11
115.475
 21
147.4154
  0
LINE
  8
0
 10
115.6538
 20
147.326
 11
115.475
 21
147.4154
  0
TEXT
  8
0
 10
149.7845
 20
172.9688
 40
0.4
  1
2.5
 50
90
  7
HIGHWAYSIGNCADPLUS
 72
1
 11
149.7845
 21
173.3499
  0
LINE
  8
0
 10
149.5845
 20
173.8311
 11
149.5845
 21
174.5999
  0
LINE
  8
0
 10
149.6739
 20
174.4211
 11
149.5845
 21
174.5999
  0
LINE
  8
0
 10
149.495
 20
174.4211
 11
149.5845
 21
174.5999
  0
LINE
  8
0
 10
149.5845
 20
172.8688
 11
149.5845
 21
172.0999
  0
LINE
  8
0
 10
149.495
 20
172.2788
 11
149.5845
 21
172.0999
  0
LINE
  8
0
 10
149.6739
 20
172.2788
 11
149.5845
 21
172.0999
  0
LINE
  8
0
 10
149.6845
 20
172.0999
 11
149.0845
 21
172.0999
  0
TEXT
  8
0
 10
149.7845
 20
169.4628
 40
0.4
  1
5
 50
90
  7
HIGHWAYSIGNCADPLUS
 72
1
 11
149.7845
 21
169.5999
  0
LINE
  8
0
 10
149.5845
 20
169.8371
 11
149.5845
 21
172.0999
  0
LINE
  8
0
 10
149.6739
 20
171.9211
 11
149.5845
 21
172.0999
  0
LINE
  8
0
 10
149.495
 20
171.9211
 11
149.5845
 21
172.0999
  0
LINE
  8
0
 10
149.5845
 20
169.3628
 11
149.5845
 21
167.0999
  0
LINE
  8
0
 10
149.495
 20
167.2788
 11
149.5845
 21
167.0999
  0
LINE
  8
0
 10
149.6739
 20
167.2788
 11
149.5845
 21
167.0999
  0
LINE
  8
0
 10
149.6845
 20
167.0999
 11
149.0845
 21
167.0999
  0
TEXT
  8
0
 10
106.5383
 20
146.2154
 40
0.4
  1
15.8
  7
HIGHWAYSIGNCADPLUS
 72
1
 11
107.0577
 21
146.2154
  0
LINE
  8
0
 10
107.6771
 20
146.4154
 11
114.95
 21
146.4154
  0
LINE
  8
0
 10
114.7711
 20
146.326
 11
114.95
 21
146.4154
  0
LINE
  8
0
 10
114.7711
 20
146.5049
 11
114.95
 21
146.4154
  0
LINE
  8
0
 10
114.95
 20
146.3154
 11
114.95
 21
146.9154
  0
LINE
  8
0
 10
106.4383
 20
146.4154
 11
99.1654
 21
146.4154
  0
LINE
  8
0
 10
99.3443
 20
146.5049
 11
99.1654
 21
146.4154
  0
LINE
  8
0
 10
99.3443
 20
146.326
 11
99.1654
 21
146.4154
  0
LINE
  8
0
 10
99.1654
 20
146.3154
 11
99.1654
 21
146.9154
  0
TEXT
  8
0
 10
123.5214
 20
146.2154
 40
0.4
  1
18.1
  7
HIGHWAYSIGNCADPLUS
 72
1
 11
124
 21
146.2154
  0
LINE
  8
0
 10
124.5785
 20
146.4154
 11
133.0499
 21
146.4154
  0
LINE
  8
0
 10
132.8711
 20
146.326
 11
133.0499
 21
146.4154
  0
LINE
  8
0
 10
132.8711
 20
146.5049
 11
133.0499
 21
146.4154
  0
LINE
  8
0
 10
133.0499
 20
146.3154
 11
133.0499
 21
146.9154
  0
LINE
  8
0
 10
123.4214
 20
146.4154
 11
114.95
 21
146.4154
  0
LINE
  8
0
 10
115.1288
 20
146.5049
 11
114.95
 21
146.4154
  0
LINE
  8
0
 10
115.1288
 20
146.326
 11
114.95
 21
146.4154
  0
TEXT
  8
0
 10
149.7845
 20
165.4688
 40
0.4
  1
2.5
 50
90
  7
HIGHWAYSIGNCADPLUS
 72
1
 11
149.7845
 21
165.8499
  0
LINE
  8
0
 10
149.5845
 20
166.3311
 11
149.5845
 21
167.0999
  0
LINE
  8
0
 10
149.6739
 20
166.9211
 11
149.5845
 21
167.0999
  0
LINE
  8
0
 10
149.495
 20
166.9211
 11
149.5845
 21
167.0999
  0
LINE
  8
0
 10
149.5845
 20
165.3688
 11
149.5845
 21
164.5999
  0
LINE
  8
0
 10
149.495
 20
164.7788
 11
149.5845
 21
164.5999
  0
LINE
  8
0
 10
149.6739
 20
164.7788
 11
149.5845
 21
164.5999
  0
LINE
  8
0
 10
149.6845
 20
164.5999
 11
149.0845
 21
164.5999
  0
TEXT
  8
0
 10
149.7845
 20
161.9628
 40
0.4
  1
5
 50
90
  7
HIGHWAYSIGNCADPLUS
 72
1
 11
149.7845
 21
162.0999
  0
LINE
  8
0
 10
149.5845
 20
162.3371
 11
149.5845
 21
164.5999
  0
LINE
  8
0
 10
149.6739
 20
164.4211
 11
149.5845
 21
164.5999
  0
LINE
  8
0
 10
149.495
 20
164.4211
 11
149.5845
 21
164.5999
  0
LINE
  8
0
 10
149.5845
 20
161.8628
 11
149.5845
 21
159.5999
  0
LINE
  8
0
 10
149.495
 20
159.7788
 11
149.5845
 21
159.5999
  0
LINE
  8
0
 10
149.6739
 20
159.7788
 11
149.5845
 21
159.5999
  0
LINE
  8
0
 10
149.6845
 20
159.5999
 11
149.0845
 21
159.5999
  0
TEXT
  8
0
 10
106.7292
 20
145.2154
 40
0.4
  1
16.1
  7
HIGHWAYSIGNCADPLUS
 72
1
 11
107.2077
 21
145.2154
  0
LINE
  8
0
 10
107.7862
 20
145.4154
 11
115.25
 21
145.4154
  0
LINE
  8
0
 10
115.0711
 20
145.326
 11
115.25
 21
145.4154
  0
LINE
  8
0
 10
115.0711
 20
145.5049
 11
115.25
 21
145.4154
  0
LINE
  8
0
 10
115.25
 20
145.3154
 11
115.25
 21
145.9154
  0
LINE
  8
0
 10
106.6292
 20
145.4154
 11
99.1654
 21
145.4154
  0
LINE
  8
0
 10
99.3443
 20
145.5049
 11
99.1654
 21
145.4154
  0
LINE
  8
0
 10
99.3443
 20
145.326
 11
99.1654
 21
145.4154
  0
LINE
  8
0
 10
99.1654
 20
145.3154
 11
99.1654
 21
145.9154
  0
TEXT
  8
0
 10
123.4806
 20
145.2154
 40
0.4
  1
17.5
  7
HIGHWAYSIGNCADPLUS
 72
1
 11
124
 21
145.2154
  0
LINE
  8
0
 10
124.6193
 20
145.4154
 11
132.75
 21
145.4154
  0
LINE
  8
0
 10
132.5711
 20
145.326
 11
132.75
 21
145.4154
  0
LINE
  8
0
 10
132.5711
 20
145.5049
 11
132.75
 21
145.4154
  0
LINE
  8
0
 10
132.75
 20
145.3154
 11
132.75
 21
145.9154
  0
LINE
  8
0
 10
123.3806
 20
145.4154
 11
115.25
 21
145.4154
  0
LINE
  8
0
 10
115.4288
 20
145.5049
 11
115.25
 21
145.4154
  0
LINE
  8
0
 10
115.4288
 20
145.326
 11
115.25
 21
145.4154
  0
TEXT
  8
0
 10
140.7387
 20
148.2154
 40
0.4
  1
15.2
  7
HIGHWAYSIGNCADPLUS
 72
1
 11
141.256
 21
148.2154
  0
LINE
  8
0
 10
141.8732
 20
148.4154
 11
148.8345
 21
148.4154
  0
LINE
  8
0
 10
148.6556
 20
148.326
 11
148.8345
 21
148.4154
  0
LINE
  8
0
 10
148.6556
 20
148.5049
 11
148.8345
 21
148.4154
  0
LINE
  8
0
 10
148.8345
 20
148.3154
 11
148.8345
 21
148.9154
  0
LINE
  8
0
 10
140.6387
 20
148.4154
 11
133.6774
 21
148.4154
  0
LINE
  8
0
 10
133.8563
 20
148.5049
 11
133.6774
 21
148.4154
  0
LINE
  8
0
 10
133.8563
 20
148.326
 11
133.6774
 21
148.4154
  0
LINE
  8
0
 10
133.6774
 20
148.3154
 11
133.6774
 21
148.9154
  0
TEXT
  8
0
 10
140.1603
 20
147.2154
 40
0.4
  1
16.3
  7
HIGHWAYSIGNCADPLUS
 72
1
 11
140.6797
 21
147.2154
  0
LINE
  8
0
 10
141.2991
 20
147.4154
 11
148.8345
 21
147.4154
  0
LINE
  8
0
 10
148.6556
 20
147.326
 11
148.8345
 21
147.4154
  0
LINE
  8
0
 10
148.6556
 20
147.5049
 11
148.8345
 21
147.4154
  0
LINE
  8
0
 10
148.8345
 20
147.3154
 11
148.8345
 21
147.9154
  0
LINE
  8
0
 10
140.0603
 20
147.4154
 11
132.525
 21
147.4154
  0
LINE
  8
0
 10
132.7038
 20
147.5049
 11
132.525
 21
147.4154
  0
LINE
  8
0
 10
132.7038
 20
147.326
 11
132.525
 21
147.4154
  0
LINE
  8
0
 10
132.525
 20
147.3154
 11
132.525
 21
147.9154
  0
TEXT
  8
0
 10
140.4228
 20
146.2154
 40
0.4
  1
15.8
  7
HIGHWAYSIGNCADPLUS
 72
1
 11
140.9422
 21
146.2154
  0
LINE
  8
0
 10
141.5616
 20
146.4154
 11
148.8345
 21
146.4154
  0
LINE
  8
0
 10
148.6556
 20
146.326
 11
148.8345
 21
146.4154
  0
LINE
  8
0
 10
148.6556
 20
146.5049
 11
148.8345
 21
146.4154
  0
LINE
  8
0
 10
148.8345
 20
146.3154
 11
148.8345
 21
146.9154
  0
LINE
  8
0
 10
140.3228
 20
146.4154
 11
133.0499
 21
146.4154
  0
LINE
  8
0
 10
133.2288
 20
146.5049
 11
133.0499
 21
146.4154
  0
LINE
  8
0
 10
133.2288
 20
146.326
 11
133.0499
 21
146.4154
  0
LINE
  8
0
 10
133.0499
 20
146.3154
 11
133.0499
 21
146.9154
  0
TEXT
  8
0
 10
140.3137
 20
145.2154
 40
0.4
  1
16.1
  7
HIGHWAYSIGNCADPLUS
 72
1
 11
140.7922
 21
145.2154
  0
LINE
  8
0
 10
141.3708
 20
145.4154
 11
148.8345
 21
145.4154
  0
LINE
  8
0
 10
148.6556
 20
145.326
 11
148.8345
 21
145.4154
  0
LINE
  8
0
 10
148.6556
 20
145.5049
 11
148.8345
 21
145.4154
  0
LINE
  8
0
 10
148.8345
 20
145.3154
 11
148.8345
 21
145.9154
  0
LINE
  8
0
 10
140.2137
 20
145.4154
 11
132.75
 21
145.4154
  0
LINE
  8
0
 10
132.9288
 20
145.5049
 11
132.75
 21
145.4154
  0
LINE
  8
0
 10
132.9288
 20
145.326
 11
132.75
 21
145.4154
  0
LINE
  8
0
 10
132.75
 20
145.3154
 11
132.75
 21
145.9154
  0
TEXT
  8
0
 10
149.7845
 20
153.8633
 40
0.4
  1
10.5
 50
90
  7
HIGHWAYSIGNCADPLUS
 72
1
 11
149.7845
 21
154.3827
  0
LINE
  8
0
 10
149.5845
 20
155.002
 11
149.5845
 21
159.5999
  0
LINE
  8
0
 10
149.6739
 20
159.4211
 11
149.5845
 21
159.5999
  0
LINE
  8
0
 10
149.495
 20
159.4211
 11
149.5845
 21
159.5999
  0
LINE
  8
0
 10
149.6845
 20
159.5999
 11
149.0845
 21
159.5999
  0
LINE
  8
0
 10
149.5845
 20
153.7633
 11
149.5845
 21
149.1654
  0
LINE
  8
0
 10
149.495
 20
149.3443
 11
149.5845
 21
149.1654
  0
LINE
  8
0
 10
149.6739
 20
149.3443
 11
149.5845
 21
149.1654
  0
LINE
  8
0
 10
149.6845
 20
149.1654
 11
149.0845
 21
149.1654
  0
TEXT
  8
0
 10
150.7845
 20
173.4544
 40
0.4
  1
49.7
 50
90
  7
HIGHWAYSIGNCADPLUS
 72
1
 11
150.7845
 21
174
  0
LINE
  8
0
 10
150.5845
 20
174.6455
 11
150.5845
 21
198.8345
  0
LINE
  8
0
 10
150.6739
 20
198.6556
 11
150.5845
 21
198.8345
  0
LINE
  8
0
 10
150.495
 20
198.6556
 11
150.5845
 21
198.8345
  0
LINE
  8
0
 10
150.6845
 20
198.8345
 11
148.9345
 21
198.8345
  0
LINE
  8
0
 10
150.5845
 20
173.3544
 11
150.5845
 21
149.1654
  0
LINE
  8
0
 10
150.495
 20
149.3443
 11
150.5845
 21
149.1654
  0
LINE
  8
0
 10
150.6739
 20
149.3443
 11
150.5845
 21
149.1654
  0
LINE
  8
0
 10
150.6845
 20
149.1654
 11
148.9345
 21
149.1654
  0
TEXT
  8
0
 10
123.4544
 20
144.2154
 40
0.4
  1
49.7
  7
HIGHWAYSIGNCADPLUS
 72
1
 11
124
 21
144.2154
  0
LINE
  8
0
 10
124.6455
 20
144.4154
 11
148.8345
 21
144.4154
  0
LINE
  8
0
 10
148.6556
 20
144.326
 11
148.8345
 21
144.4154
  0
LINE
  8
0
 10
148.6556
 20
144.5049
 11
148.8345
 21
144.4154
  0
LINE
  8
0
 10
148.8345
 20
144.3154
 11
148.8345
 21
149.0654
  0
LINE
  8
0
 10
123.3544
 20
144.4154
 11
99.1654
 21
144.4154
  0
LINE
  8
0
 10
99.3443
 20
144.5049
 11
99.1654
 21
144.4154
  0
LINE
  8
0
 10
99.3443
 20
144.326
 11
99.1654
 21
144.4154
  0
LINE
  8
0
 10
99.1654
 20
144.3154
 11
99.1654
 21
149.0654
  0
TEXT
  8
0
 10
99.1654
 20
143.6154
 40
0.4
  1
36.0" across sides 1.5" Radius, 0.8" Border, 0.5" Indent, Black on Pink; 
  7
HIGHWAYSIGNCADPLUS
 73
1
 11
99.1654
 21
143.4154
  0
TEXT
  8
0
 10
99.1654
 20
142.8154
 40
0.4
  1
[REDUCE] C 2K 65} spacing; [SPEED] C 2K; [SMOKE] C 2K; [AHEAD] C 2K; 
  7
HIGHWAYSIGNCADPLUS
 73
1
 11
99.1654
 21
142.6154
  0
TEXT
  8
0
 10
115.475
 20
174.5999
 40
5
  1
S
  7
HIGHWAYC2K
  0
TEXT
  8
0
 10
119.125
 20
174.5999
 40
5
  1
P
  7
HIGHWAYC2K
  0
TEXT
  8
0
 10
122.925
 20
174.5999
 40
5
  1
E
  7
HIGHWAYC2K
  0
TEXT
  8
0
 10
126.325
 20
174.5999
 40
5
  1
E
  7
HIGHWAYC2K
  0
TEXT
  8
0
 10
129.725
 20
174.5999
 40
5
  1
D
  7
HIGHWAYC2K
  0
TEXT
  8
0
 10
114.95
 20
167.0999
 40
5
  1
S
  7
HIGHWAYC2K
  0
TEXT
  8
0
 10
118.6
 20
167.0999
 40
5
  1
M
  7
HIGHWAYC2K
  0
TEXT
  8
0
 10
122.9
 20
167.0999
 40
5
  1
O
  7
HIGHWAYC2K
  0
TEXT
  8
0
 10
126.85
 20
167.0999
 40
5
  1
K
  7
HIGHWAYC2K
  0
TEXT
  8
0
 10
130.4999
 20
167.0999
 40
5
  1
E
  7
HIGHWAYC2K
  0
TEXT
  8
0
 10
115.25
 20
159.5999
 40
5
  1
A
  7
HIGHWAYC2K
  0
TEXT
  8
0
 10
119.15
 20
159.5999
 40
5
  1
H
  7
HIGHWAYC2K
  0
TEXT
  8
0
 10
123.05
 20
159.5999
 40
5
  1
E
  7
HIGHWAYC2K
  0
TEXT
  8
0
 10
126.05
 20
159.5999
 40
5
  1
A
  7
HIGHWAYC2K
  0
TEXT
  8
0
 10
129.95
 20
159.5999
 40
5
  1
D
  7
HIGHWAYC2K
  0
TEXT
  8
0
 10
114.3224
 20
182.0999
 40
5
  1
R
  7
HIGHWAYC2K
  0
TEXT
  8
0
 10
117.6749
 20
182.0999
 40
5
  1
E
  7
HIGHWAYC2K
  0
TEXT
  8
0
 10
120.7774
 20
182.0999
 40
5
  1
D
  7
HIGHWAYC2K
  0
TEXT
  8
0
 10
124.2274
 20
182.0999
 40
5
  1
U
  7
HIGHWAYC2K
  0
TEXT
  8
0
 10
127.6774
 20
182.0999
 40
5
  1
C
  7
HIGHWAYC2K
  0
TEXT
  8
0
 10
131.1274
 20
182.0999
 40
5
  1
E
  7
HIGHWAYC2K
  0
ENDSEC
  0
EOF