  0
SECTION
  2
HEADER
  9
$ACADVER
  1
AC1009
  0
ENDSEC
  0
SECTION
  2
TABLES
  0
TABLE
  2
STYLE
 70
   4
  0
STYLE
  2
STANDARD
 70
    64
 40
0.0
 41
1.0
 50
0.0
 71
     0
 42
1.0
  3
txt
  4

  0
STYLE
  2
HIGHWAYEMOD2K
 70
    64
 40
0.0
 41
1.0
 50
0.0
 71
     0
 42
1.0
  3
Highway E Mod 2K
  4

  0
STYLE
  2
HIGHWAYD2K
 70
    64
 40
0.0
 41
1.0
 50
0.0
 71
     0
 42
1.0
  3
Highway D 2K
  4

  0
STYLE
  2
HIGHWAYSIGNCADPLUS
 70
    64
 40
0.0
 41
1.0
 50
0.0
 71
     0
 42
1.0
  3
Highway SignCAD Plus
  4

  0
ENDTAB
  0
ENDSEC
  0
SECTION
  2
ENTITIES
  0
ARC
  8
0
 10
309.6985
 20
79
 40
3
 50
315
 51
405
  0
LINE
  8
0
 10
311.8198
 20
81.1213
 11
282.1213
 21
110.8198
  0
ARC
  8
0
 10
280
 20
108.6985
 40
3
 50
45
 51
135
  0
LINE
  8
0
 10
277.8787
 20
110.8198
 11
248.1802
 21
81.1213
  0
ARC
  8
0
 10
250.3015
 20
79
 40
3
 50
135
 51
225
  0
LINE
  8
0
 10
248.1802
 20
76.8787
 11
277.8787
 21
47.1802
  0
ARC
  8
0
 10
280
 20
49.3015
 40
3
 50
225
 51
315
  0
LINE
  8
0
 10
282.1213
 20
47.1802
 11
311.8198
 21
76.8787
  0
ARC
  8
0
 10
309.6985
 20
79
 40
2.25
 50
315
 51
405
  0
ARC
  8
0
 10
309.6985
 20
79
 40
1.5
 50
315
 51
405
  0
ARC
  8
0
 10
280
 20
108.6985
 40
2.25
 50
45
 51
135
  0
ARC
  8
0
 10
280
 20
108.6985
 40
1.5
 50
45
 51
135
  0
ARC
  8
0
 10
250.3015
 20
79
 40
2.25
 50
135
 51
225
  0
ARC
  8
0
 10
250.3015
 20
79
 40
1.5
 50
135
 51
225
  0
ARC
  8
0
 10
280
 20
49.3015
 40
2.25
 50
225
 51
315
  0
ARC
  8
0
 10
280
 20
49.3015
 40
1.5
 50
225
 51
315
  0
POLYLINE
  8
0
 66
     1
 10
0
 20
0
  0
VERTEX
  8
0
 10
311.2895
 20
80.591
  0
VERTEX
  8
0
 10
281.591
 20
110.2895
  0
SEQEND
  0
POLYLINE
  8
0
 66
     1
 10
0
 20
0
  0
VERTEX
  8
0
 10
281.0607
 20
109.7591
  0
VERTEX
  8
0
 10
310.7591
 20
80.0607
  0
SEQEND
  0
POLYLINE
  8
0
 66
     1
 10
0
 20
0
  0
VERTEX
  8
0
 10
278.409
 20
110.2895
  0
VERTEX
  8
0
 10
248.7105
 20
80.591
  0
SEQEND
  0
POLYLINE
  8
0
 66
     1
 10
0
 20
0
  0
VERTEX
  8
0
 10
249.2409
 20
80.0607
  0
VERTEX
  8
0
 10
278.9393
 20
109.7591
  0
SEQEND
  0
POLYLINE
  8
0
 66
     1
 10
0
 20
0
  0
VERTEX
  8
0
 10
248.7105
 20
77.409
  0
VERTEX
  8
0
 10
278.409
 20
47.7105
  0
SEQEND
  0
POLYLINE
  8
0
 66
     1
 10
0
 20
0
  0
VERTEX
  8
0
 10
278.9393
 20
48.2409
  0
VERTEX
  8
0
 10
249.2409
 20
77.9393
  0
SEQEND
  0
POLYLINE
  8
0
 66
     1
 10
0
 20
0
  0
VERTEX
  8
0
 10
281.591
 20
47.7105
  0
VERTEX
  8
0
 10
311.2895
 20
77.409
  0
SEQEND
  0
POLYLINE
  8
0
 66
     1
 10
0
 20
0
  0
VERTEX
  8
0
 10
310.7591
 20
77.9393
  0
VERTEX
  8
0
 10
281.0607
 20
48.2409
  0
SEQEND
  0
TEXT
  8
0
 10
316.4985
 20
96.5588
 40
1.6
  1
25.9
 50
90
  7
HIGHWAYSIGNCADPLUS
 72
1
 11
316.4985
 21
98.7242
  0
LINE
  8
0
 10
315.6985
 20
101.2897
 11
315.6985
 21
111.6985
  0
LINE
  8
0
 10
316.0562
 20
110.9829
 11
315.6985
 21
111.6985
  0
LINE
  8
0
 10
315.3407
 20
110.9829
 11
315.6985
 21
111.6985
  0
LINE
  8
0
 10
316.0985
 20
111.6985
 11
313.6985
 21
111.6985
  0
LINE
  8
0
 10
315.6985
 20
96.1588
 11
315.6985
 21
85.75
  0
LINE
  8
0
 10
315.3407
 20
86.4655
 11
315.6985
 21
85.75
  0
LINE
  8
0
 10
316.0562
 20
86.4655
 11
315.6985
 21
85.75
  0
LINE
  8
0
 10
316.0985
 20
85.75
 11
313.6985
 21
85.75
  0
TEXT
  8
0
 10
316.4985
 20
82.1887
 40
1.6
  1
6
 50
90
  7
HIGHWAYSIGNCADPLUS
 72
1
 11
316.4985
 21
82.75
  0
LINE
  8
0
 10
315.6985
 20
83.7113
 11
315.6985
 21
85.75
  0
LINE
  8
0
 10
316.0562
 20
85.0345
 11
315.6985
 21
85.75
  0
LINE
  8
0
 10
315.3407
 20
85.0345
 11
315.6985
 21
85.75
  0
LINE
  8
0
 10
315.6985
 20
81.7887
 11
315.6985
 21
79.75
  0
LINE
  8
0
 10
315.3407
 20
80.4655
 11
315.6985
 21
79.75
  0
LINE
  8
0
 10
316.0562
 20
80.4655
 11
315.6985
 21
79.75
  0
LINE
  8
0
 10
316.0985
 20
79.75
 11
313.6985
 21
79.75
  0
TEXT
  8
0
 10
250.5804
 20
42.5015
 40
1.6
  1
9.6
  7
HIGHWAYSIGNCADPLUS
 72
1
 11
252.1008
 21
42.5015
  0
LINE
  8
0
 10
254.0212
 20
43.3015
 11
256.9
 21
43.3015
  0
LINE
  8
0
 10
256.1845
 20
42.9438
 11
256.9
 21
43.3015
  0
LINE
  8
0
 10
256.1845
 20
43.6593
 11
256.9
 21
43.3015
  0
LINE
  8
0
 10
256.9
 20
42.9015
 11
256.9
 21
45.3015
  0
LINE
  8
0
 10
250.1804
 20
43.3015
 11
247.3015
 21
43.3015
  0
LINE
  8
0
 10
248.0171
 20
43.6593
 11
247.3015
 21
43.3015
  0
LINE
  8
0
 10
248.0171
 20
42.9438
 11
247.3015
 21
43.3015
  0
LINE
  8
0
 10
247.3015
 20
42.9015
 11
247.3015
 21
45.3015
  0
TEXT
  8
0
 10
277.822
 20
42.5015
 40
1.6
  1
46.2
  7
HIGHWAYSIGNCADPLUS
 72
1
 11
280
 21
42.5015
  0
LINE
  8
0
 10
282.578
 20
43.3015
 11
303.1
 21
43.3015
  0
LINE
  8
0
 10
302.3844
 20
42.9438
 11
303.1
 21
43.3015
  0
LINE
  8
0
 10
302.3844
 20
43.6593
 11
303.1
 21
43.3015
  0
LINE
  8
0
 10
303.1
 20
42.9015
 11
303.1
 21
45.3015
  0
LINE
  8
0
 10
277.422
 20
43.3015
 11
256.9
 21
43.3015
  0
LINE
  8
0
 10
257.6155
 20
43.6593
 11
256.9
 21
43.3015
  0
LINE
  8
0
 10
257.6155
 20
42.9438
 11
256.9
 21
43.3015
  0
TEXT
  8
0
 10
316.4985
 20
77.7055
 40
1.6
  1
3
 50
90
  7
HIGHWAYSIGNCADPLUS
 72
1
 11
316.4985
 21
78.25
  0
LINE
  8
0
 10
316.0985
 20
76.75
 11
313.6985
 21
76.75
  0
TEXT
  8
0
 10
316.4985
 20
73.1887
 40
1.6
  1
6
 50
90
  7
HIGHWAYSIGNCADPLUS
 72
1
 11
316.4985
 21
73.75
  0
LINE
  8
0
 10
315.6985
 20
74.7113
 11
315.6985
 21
76.75
  0
LINE
  8
0
 10
316.0562
 20
76.0345
 11
315.6985
 21
76.75
  0
LINE
  8
0
 10
315.3407
 20
76.0345
 11
315.6985
 21
76.75
  0
LINE
  8
0
 10
315.6985
 20
72.7887
 11
315.6985
 21
70.75
  0
LINE
  8
0
 10
315.3407
 20
71.4655
 11
315.6985
 21
70.75
  0
LINE
  8
0
 10
316.0562
 20
71.4655
 11
315.6985
 21
70.75
  0
LINE
  8
0
 10
316.0985
 20
70.75
 11
313.6985
 21
70.75
  0
TEXT
  8
0
 10
256.5353
 20
38.5015
 40
1.6
  1
22.8
  7
HIGHWAYSIGNCADPLUS
 72
1
 11
258.7008
 21
38.5015
  0
LINE
  8
0
 10
261.2662
 20
39.3015
 11
270.1
 21
39.3015
  0
LINE
  8
0
 10
269.3845
 20
38.9438
 11
270.1
 21
39.3015
  0
LINE
  8
0
 10
269.3845
 20
39.6593
 11
270.1
 21
39.3015
  0
LINE
  8
0
 10
270.1
 20
38.9015
 11
270.1
 21
41.3015
  0
LINE
  8
0
 10
256.1353
 20
39.3015
 11
247.3015
 21
39.3015
  0
LINE
  8
0
 10
248.0171
 20
39.6593
 11
247.3015
 21
39.3015
  0
LINE
  8
0
 10
248.0171
 20
38.9438
 11
247.3015
 21
39.3015
  0
LINE
  8
0
 10
247.3015
 20
38.9015
 11
247.3015
 21
41.3015
  0
TEXT
  8
0
 10
277.9225
 20
38.5015
 40
1.6
  1
19.8
  7
HIGHWAYSIGNCADPLUS
 72
1
 11
280
 21
38.5015
  0
LINE
  8
0
 10
282.4775
 20
39.3015
 11
289.9
 21
39.3015
  0
LINE
  8
0
 10
289.1845
 20
38.9438
 11
289.9
 21
39.3015
  0
LINE
  8
0
 10
289.1845
 20
39.6593
 11
289.9
 21
39.3015
  0
LINE
  8
0
 10
289.9
 20
38.9015
 11
289.9
 21
41.3015
  0
LINE
  8
0
 10
277.5225
 20
39.3015
 11
270.1
 21
39.3015
  0
LINE
  8
0
 10
270.8155
 20
39.6593
 11
270.1
 21
39.3015
  0
LINE
  8
0
 10
270.8155
 20
38.9438
 11
270.1
 21
39.3015
  0
TEXT
  8
0
 10
316.4985
 20
68.7055
 40
1.6
  1
3
 50
90
  7
HIGHWAYSIGNCADPLUS
 72
1
 11
316.4985
 21
69.25
  0
LINE
  8
0
 10
316.0985
 20
67.75
 11
313.6985
 21
67.75
  0
TEXT
  8
0
 10
316.4985
 20
64.1887
 40
1.6
  1
6
 50
90
  7
HIGHWAYSIGNCADPLUS
 72
1
 11
316.4985
 21
64.75
  0
LINE
  8
0
 10
315.6985
 20
65.7113
 11
315.6985
 21
67.75
  0
LINE
  8
0
 10
316.0562
 20
67.0345
 11
315.6985
 21
67.75
  0
LINE
  8
0
 10
315.3407
 20
67.0345
 11
315.6985
 21
67.75
  0
LINE
  8
0
 10
315.6985
 20
63.7887
 11
315.6985
 21
61.75
  0
LINE
  8
0
 10
315.3407
 20
62.4655
 11
315.6985
 21
61.75
  0
LINE
  8
0
 10
316.0562
 20
62.4655
 11
315.6985
 21
61.75
  0
LINE
  8
0
 10
316.0985
 20
61.75
 11
313.6985
 21
61.75
  0
TEXT
  8
0
 10
255.1233
 20
34.5015
 40
1.6
  1
19.8
  7
HIGHWAYSIGNCADPLUS
 72
1
 11
257.2008
 21
34.5015
  0
LINE
  8
0
 10
259.6783
 20
35.3015
 11
267.1
 21
35.3015
  0
LINE
  8
0
 10
266.3845
 20
34.9438
 11
267.1
 21
35.3015
  0
LINE
  8
0
 10
266.3845
 20
35.6593
 11
267.1
 21
35.3015
  0
LINE
  8
0
 10
267.1
 20
34.9015
 11
267.1
 21
37.3015
  0
LINE
  8
0
 10
254.7233
 20
35.3015
 11
247.3015
 21
35.3015
  0
LINE
  8
0
 10
248.0171
 20
35.6593
 11
247.3015
 21
35.3015
  0
LINE
  8
0
 10
248.0171
 20
34.9438
 11
247.3015
 21
35.3015
  0
LINE
  8
0
 10
247.3015
 20
34.9015
 11
247.3015
 21
37.3015
  0
TEXT
  8
0
 10
277.8346
 20
34.5015
 40
1.6
  1
25.8
  7
HIGHWAYSIGNCADPLUS
 72
1
 11
280
 21
34.5015
  0
LINE
  8
0
 10
282.5654
 20
35.3015
 11
292.9
 21
35.3015
  0
LINE
  8
0
 10
292.1845
 20
34.9438
 11
292.9
 21
35.3015
  0
LINE
  8
0
 10
292.1845
 20
35.6593
 11
292.9
 21
35.3015
  0
LINE
  8
0
 10
292.9
 20
34.9015
 11
292.9
 21
37.3015
  0
LINE
  8
0
 10
277.4346
 20
35.3015
 11
267.1
 21
35.3015
  0
LINE
  8
0
 10
267.8155
 20
35.6593
 11
267.1
 21
35.3015
  0
LINE
  8
0
 10
267.8155
 20
34.9438
 11
267.1
 21
35.3015
  0
TEXT
  8
0
 10
306.3788
 20
42.5015
 40
1.6
  1
9.6
  7
HIGHWAYSIGNCADPLUS
 72
1
 11
307.8992
 21
42.5015
  0
LINE
  8
0
 10
309.8196
 20
43.3015
 11
312.6985
 21
43.3015
  0
LINE
  8
0
 10
311.9829
 20
42.9438
 11
312.6985
 21
43.3015
  0
LINE
  8
0
 10
311.9829
 20
43.6593
 11
312.6985
 21
43.3015
  0
LINE
  8
0
 10
312.6985
 20
42.9015
 11
312.6985
 21
45.3015
  0
LINE
  8
0
 10
305.9788
 20
43.3015
 11
303.1
 21
43.3015
  0
LINE
  8
0
 10
303.8155
 20
43.6593
 11
303.1
 21
43.3015
  0
LINE
  8
0
 10
303.8155
 20
42.9438
 11
303.1
 21
43.3015
  0
LINE
  8
0
 10
303.1
 20
42.9015
 11
303.1
 21
45.3015
  0
TEXT
  8
0
 10
299.1338
 20
38.5015
 40
1.6
  1
22.8
  7
HIGHWAYSIGNCADPLUS
 72
1
 11
301.2992
 21
38.5015
  0
LINE
  8
0
 10
303.8647
 20
39.3015
 11
312.6985
 21
39.3015
  0
LINE
  8
0
 10
311.9829
 20
38.9438
 11
312.6985
 21
39.3015
  0
LINE
  8
0
 10
311.9829
 20
39.6593
 11
312.6985
 21
39.3015
  0
LINE
  8
0
 10
312.6985
 20
38.9015
 11
312.6985
 21
41.3015
  0
LINE
  8
0
 10
298.7338
 20
39.3015
 11
289.9
 21
39.3015
  0
LINE
  8
0
 10
290.6155
 20
39.6593
 11
289.9
 21
39.3015
  0
LINE
  8
0
 10
290.6155
 20
38.9438
 11
289.9
 21
39.3015
  0
LINE
  8
0
 10
289.9
 20
38.9015
 11
289.9
 21
41.3015
  0
TEXT
  8
0
 10
300.7217
 20
34.5015
 40
1.6
  1
19.8
  7
HIGHWAYSIGNCADPLUS
 72
1
 11
302.7992
 21
34.5015
  0
LINE
  8
0
 10
305.2767
 20
35.3015
 11
312.6985
 21
35.3015
  0
LINE
  8
0
 10
311.9829
 20
34.9438
 11
312.6985
 21
35.3015
  0
LINE
  8
0
 10
311.9829
 20
35.6593
 11
312.6985
 21
35.3015
  0
LINE
  8
0
 10
312.6985
 20
34.9015
 11
312.6985
 21
37.3015
  0
LINE
  8
0
 10
300.3217
 20
35.3015
 11
292.9
 21
35.3015
  0
LINE
  8
0
 10
293.6155
 20
35.6593
 11
292.9
 21
35.3015
  0
LINE
  8
0
 10
293.6155
 20
34.9438
 11
292.9
 21
35.3015
  0
LINE
  8
0
 10
292.9
 20
34.9015
 11
292.9
 21
37.3015
  0
TEXT
  8
0
 10
316.4985
 20
51.9483
 40
1.6
  1
15.5
 50
90
  7
HIGHWAYSIGNCADPLUS
 72
1
 11
316.4985
 21
54.0258
  0
LINE
  8
0
 10
315.6985
 20
56.5033
 11
315.6985
 21
61.75
  0
LINE
  8
0
 10
316.0562
 20
61.0345
 11
315.6985
 21
61.75
  0
LINE
  8
0
 10
315.3407
 20
61.0345
 11
315.6985
 21
61.75
  0
LINE
  8
0
 10
316.0985
 20
61.75
 11
313.6985
 21
61.75
  0
LINE
  8
0
 10
315.6985
 20
51.5483
 11
315.6985
 21
46.3015
  0
LINE
  8
0
 10
315.3407
 20
47.0171
 11
315.6985
 21
46.3015
  0
LINE
  8
0
 10
316.0562
 20
47.0171
 11
315.6985
 21
46.3015
  0
LINE
  8
0
 10
316.0985
 20
46.3015
 11
313.6985
 21
46.3015
  0
TEXT
  8
0
 10
320.4985
 20
76.8513
 40
1.6
  1
65.4
 50
90
  7
HIGHWAYSIGNCADPLUS
 72
1
 11
320.4985
 21
79
  0
LINE
  8
0
 10
319.6985
 20
81.5487
 11
319.6985
 21
111.6985
  0
LINE
  8
0
 10
320.0562
 20
110.9829
 11
319.6985
 21
111.6985
  0
LINE
  8
0
 10
319.3407
 20
110.9829
 11
319.6985
 21
111.6985
  0
LINE
  8
0
 10
320.0985
 20
111.6985
 11
313.0985
 21
111.6985
  0
LINE
  8
0
 10
319.6985
 20
76.4513
 11
319.6985
 21
46.3015
  0
LINE
  8
0
 10
319.3407
 20
47.0171
 11
319.6985
 21
46.3015
  0
LINE
  8
0
 10
320.0562
 20
47.0171
 11
319.6985
 21
46.3015
  0
LINE
  8
0
 10
320.0985
 20
46.3015
 11
313.0985
 21
46.3015
  0
TEXT
  8
0
 10
277.8513
 20
30.5015
 40
1.6
  1
65.4
  7
HIGHWAYSIGNCADPLUS
 72
1
 11
280
 21
30.5015
  0
LINE
  8
0
 10
282.5487
 20
31.3015
 11
312.6985
 21
31.3015
  0
LINE
  8
0
 10
311.9829
 20
30.9438
 11
312.6985
 21
31.3015
  0
LINE
  8
0
 10
311.9829
 20
31.6593
 11
312.6985
 21
31.3015
  0
LINE
  8
0
 10
312.6985
 20
30.9015
 11
312.6985
 21
45.9015
  0
LINE
  8
0
 10
277.4513
 20
31.3015
 11
247.3015
 21
31.3015
  0
LINE
  8
0
 10
248.0171
 20
31.6593
 11
247.3015
 21
31.3015
  0
LINE
  8
0
 10
248.0171
 20
30.9438
 11
247.3015
 21
31.3015
  0
LINE
  8
0
 10
247.3015
 20
30.9015
 11
247.3015
 21
45.9015
  0
TEXT
  8
0
 10
247.3015
 20
28.1015
 40
1.6
  1
48.0" across sides 3.0" Radius, 0.8" Border, 0.8" Indent, Black on Yellow; 
  7
HIGHWAYSIGNCADPLUS
 73
1
 11
247.3015
 21
27.3015
  0
TEXT
  8
0
 10
247.3015
 20
24.9015
 40
1.6
  1
[PRESCRIBED] D 2K; [BURN] D 2K; [AHEAD] D 2K; 
  7
HIGHWAYSIGNCADPLUS
 73
1
 11
247.3015
 21
24.1015
  0
TEXT
  8
0
 10
256.9
 20
79.75
 40
6
  1
P
  7
HIGHWAYD2K
  0
TEXT
  8
0
 10
261.88
 20
79.75
 40
6
  1
R
  7
HIGHWAYD2K
  0
TEXT
  8
0
 10
266.98
 20
79.75
 40
6
  1
E
  7
HIGHWAYD2K
  0
TEXT
  8
0
 10
271.3
 20
79.75
 40
6
  1
S
  7
HIGHWAYD2K
  0
TEXT
  8
0
 10
276.28
 20
79.75
 40
6
  1
C
  7
HIGHWAYD2K
  0
TEXT
  8
0
 10
281.68
 20
79.75
 40
6
  1
R
  7
HIGHWAYD2K
  0
TEXT
  8
0
 10
286.78
 20
79.75
 40
6
  1
I
  7
HIGHWAYD2K
  0
TEXT
  8
0
 10
289.18
 20
79.75
 40
6
  1
B
  7
HIGHWAYD2K
  0
TEXT
  8
0
 10
294.28
 20
79.75
 40
6
  1
E
  7
HIGHWAYD2K
  0
TEXT
  8
0
 10
299.02
 20
79.75
 40
6
  1
D
  7
HIGHWAYD2K
  0
TEXT
  8
0
 10
270.1
 20
70.75
 40
6
  1
B
  7
HIGHWAYD2K
  0
TEXT
  8
0
 10
275.2
 20
70.75
 40
6
  1
U
  7
HIGHWAYD2K
  0
TEXT
  8
0
 10
280.72
 20
70.75
 40
6
  1
R
  7
HIGHWAYD2K
  0
TEXT
  8
0
 10
285.82
 20
70.75
 40
6
  1
N
  7
HIGHWAYD2K
  0
TEXT
  8
0
 10
267.1
 20
61.75
 40
6
  1
A
  7
HIGHWAYD2K
  0
TEXT
  8
0
 10
273.1
 20
61.75
 40
6
  1
H
  7
HIGHWAYD2K
  0
TEXT
  8
0
 10
278.62
 20
61.75
 40
6
  1
E
  7
HIGHWAYD2K
  0
TEXT
  8
0
 10
282.82
 20
61.75
 40
6
  1
A
  7
HIGHWAYD2K
  0
TEXT
  8
0
 10
288.82
 20
61.75
 40
6
  1
D
  7
HIGHWAYD2K
  0
ENDSEC
  0
EOF