  0
SECTION
  2
HEADER
  9
$ACADVER
  1
AC1009
  0
ENDSEC
  0
SECTION
  2
TABLES
  0
TABLE
  2
STYLE
 70
   8
  0
STYLE
  2
STANDARD
 70
    64
 40
0.0
 41
1.0
 50
0.0
 71
     0
 42
1.0
  3
txt
  4

  0
STYLE
  2
HIGHWAYEMOD2K
 70
    64
 40
0.0
 41
1.0
 50
0.0
 71
     0
 42
1.0
  3
Highway E Mod 2K
  4

  0
STYLE
  2
HIGHWAYSIGNCADPLUS
 70
    64
 40
0.0
 41
1.0
 50
0.0
 71
     0
 42
1.0
  3
Highway SignCAD Plus
  4

  0
STYLE
  2
HIGHWAYC2K
 70
    64
 40
0.0
 41
1.0
 50
0.0
 71
     0
 42
1.0
  3
Highway C 2K
  4

  0
STYLE
  2
HIGHWAYC2K
 70
    64
 40
0.0
 41
1.0
 50
0.0
 71
     0
 42
1.0
  3
Highway C 2K
  4

  0
STYLE
  2
HIGHWAYC2K
 70
    64
 40
0.0
 41
1.0
 50
0.0
 71
     0
 42
1.0
  3
Highway C 2K
  4

  0
STYLE
  2
HIGHWAYC2K
 70
    64
 40
0.0
 41
1.0
 50
0.0
 71
     0
 42
1.0
  3
Highway C 2K
  4

  0
STYLE
  2
HIGHWAYD2K
 70
    64
 40
0.0
 41
1.0
 50
0.0
 71
     0
 42
1.0
  3
Highway D 2K
  4

  0
ENDTAB
  0
ENDSEC
  0
SECTION
  2
ENTITIES
  0
ARC
  8
0
 10
147.3345
 20
174
 40
1.5
 50
315
 51
405
  0
LINE
  8
0
 10
148.3951
 20
175.0606
 11
125.0606
 21
198.3951
  0
ARC
  8
0
 10
124
 20
197.3345
 40
1.5
 50
45
 51
135
  0
LINE
  8
0
 10
122.9393
 20
198.3951
 11
99.6048
 21
175.0606
  0
ARC
  8
0
 10
100.6654
 20
174
 40
1.5
 50
135
 51
225
  0
LINE
  8
0
 10
99.6048
 20
172.9393
 11
122.9393
 21
149.6048
  0
ARC
  8
0
 10
124
 20
150.6654
 40
1.5
 50
225
 51
315
  0
LINE
  8
0
 10
125.0606
 20
149.6048
 11
148.3951
 21
172.9393
  0
ARC
  8
0
 10
147.3345
 20
174
 40
1
 50
315
 51
405
  0
ARC
  8
0
 10
147.3345
 20
174
 40
0.2
 50
315
 51
405
  0
ARC
  8
0
 10
124
 20
197.3345
 40
1
 50
45
 51
135
  0
ARC
  8
0
 10
124
 20
197.3345
 40
0.2
 50
45
 51
135
  0
ARC
  8
0
 10
100.6654
 20
174
 40
1
 50
135
 51
225
  0
ARC
  8
0
 10
100.6654
 20
174
 40
0.2
 50
135
 51
225
  0
ARC
  8
0
 10
124
 20
150.6654
 40
1
 50
225
 51
315
  0
ARC
  8
0
 10
124
 20
150.6654
 40
0.2
 50
225
 51
315
  0
POLYLINE
  8
0
 66
     1
 10
0
 20
0
  0
VERTEX
  8
0
 10
148.0416
 20
174.7071
  0
VERTEX
  8
0
 10
124.7071
 20
198.0416
  0
SEQEND
  0
POLYLINE
  8
0
 66
     1
 10
0
 20
0
  0
VERTEX
  8
0
 10
124.1414
 20
197.4759
  0
VERTEX
  8
0
 10
147.4759
 20
174.1414
  0
SEQEND
  0
POLYLINE
  8
0
 66
     1
 10
0
 20
0
  0
VERTEX
  8
0
 10
123.2928
 20
198.0416
  0
VERTEX
  8
0
 10
99.9583
 20
174.7071
  0
SEQEND
  0
POLYLINE
  8
0
 66
     1
 10
0
 20
0
  0
VERTEX
  8
0
 10
100.524
 20
174.1414
  0
VERTEX
  8
0
 10
123.8585
 20
197.4759
  0
SEQEND
  0
POLYLINE
  8
0
 66
     1
 10
0
 20
0
  0
VERTEX
  8
0
 10
99.9583
 20
173.2928
  0
VERTEX
  8
0
 10
123.2928
 20
149.9583
  0
SEQEND
  0
POLYLINE
  8
0
 66
     1
 10
0
 20
0
  0
VERTEX
  8
0
 10
123.8585
 20
150.524
  0
VERTEX
  8
0
 10
100.524
 20
173.8585
  0
SEQEND
  0
POLYLINE
  8
0
 66
     1
 10
0
 20
0
  0
VERTEX
  8
0
 10
124.7071
 20
149.9583
  0
VERTEX
  8
0
 10
148.0416
 20
173.2928
  0
SEQEND
  0
POLYLINE
  8
0
 66
     1
 10
0
 20
0
  0
VERTEX
  8
0
 10
147.4759
 20
173.8585
  0
VERTEX
  8
0
 10
124.1414
 20
150.524
  0
SEQEND
  0
TEXT
  8
0
 10
149.7845
 20
188.8978
 40
0.4
  1
18.8
 50
90
  7
HIGHWAYSIGNCADPLUS
 72
1
 11
149.7845
 21
189.4172
  0
LINE
  8
0
 10
149.5845
 20
190.0366
 11
149.5845
 21
198.8345
  0
LINE
  8
0
 10
149.6739
 20
198.6556
 11
149.5845
 21
198.8345
  0
LINE
  8
0
 10
149.495
 20
198.6556
 11
149.5845
 21
198.8345
  0
LINE
  8
0
 10
149.6845
 20
198.8345
 11
149.0845
 21
198.8345
  0
LINE
  8
0
 10
149.5845
 20
188.7978
 11
149.5845
 21
180
  0
LINE
  8
0
 10
149.495
 20
180.1788
 11
149.5845
 21
180
  0
LINE
  8
0
 10
149.6739
 20
180.1788
 11
149.5845
 21
180
  0
LINE
  8
0
 10
149.6845
 20
180
 11
149.0845
 21
180
  0
TEXT
  8
0
 10
149.7845
 20
177.3628
 40
0.4
  1
5
 50
90
  7
HIGHWAYSIGNCADPLUS
 72
1
 11
149.7845
 21
177.5
  0
LINE
  8
0
 10
149.5845
 20
177.7371
 11
149.5845
 21
180
  0
LINE
  8
0
 10
149.6739
 20
179.8211
 11
149.5845
 21
180
  0
LINE
  8
0
 10
149.495
 20
179.8211
 11
149.5845
 21
180
  0
LINE
  8
0
 10
149.5845
 20
177.2628
 11
149.5845
 21
175
  0
LINE
  8
0
 10
149.495
 20
175.1788
 11
149.5845
 21
175
  0
LINE
  8
0
 10
149.6739
 20
175.1788
 11
149.5845
 21
175
  0
LINE
  8
0
 10
149.6845
 20
175
 11
149.0845
 21
175
  0
TEXT
  8
0
 10
102.8932
 20
148.2154
 40
0.4
  1
8.2
  7
HIGHWAYSIGNCADPLUS
 72
1
 11
103.2702
 21
148.2154
  0
LINE
  8
0
 10
103.7472
 20
148.4154
 11
107.375
 21
148.4154
  0
LINE
  8
0
 10
107.1961
 20
148.326
 11
107.375
 21
148.4154
  0
LINE
  8
0
 10
107.1961
 20
148.5049
 11
107.375
 21
148.4154
  0
LINE
  8
0
 10
107.375
 20
148.3154
 11
107.375
 21
148.9154
  0
LINE
  8
0
 10
102.7932
 20
148.4154
 11
99.1654
 21
148.4154
  0
LINE
  8
0
 10
99.3443
 20
148.5049
 11
99.1654
 21
148.4154
  0
LINE
  8
0
 10
99.3443
 20
148.326
 11
99.1654
 21
148.4154
  0
LINE
  8
0
 10
99.1654
 20
148.3154
 11
99.1654
 21
148.9154
  0
TEXT
  8
0
 10
123.4628
 20
148.2154
 40
0.4
  1
33.3
  7
HIGHWAYSIGNCADPLUS
 72
1
 11
124
 21
148.2154
  0
LINE
  8
0
 10
124.6371
 20
148.4154
 11
140.625
 21
148.4154
  0
LINE
  8
0
 10
140.4461
 20
148.326
 11
140.625
 21
148.4154
  0
LINE
  8
0
 10
140.4461
 20
148.5049
 11
140.625
 21
148.4154
  0
LINE
  8
0
 10
140.625
 20
148.3154
 11
140.625
 21
148.9154
  0
LINE
  8
0
 10
123.3628
 20
148.4154
 11
107.375
 21
148.4154
  0
LINE
  8
0
 10
107.5538
 20
148.5049
 11
107.375
 21
148.4154
  0
LINE
  8
0
 10
107.5538
 20
148.326
 11
107.375
 21
148.4154
  0
TEXT
  8
0
 10
149.7845
 20
173.3688
 40
0.4
  1
2.5
 50
90
  7
HIGHWAYSIGNCADPLUS
 72
1
 11
149.7845
 21
173.75
  0
LINE
  8
0
 10
149.5845
 20
174.2311
 11
149.5845
 21
175
  0
LINE
  8
0
 10
149.6739
 20
174.8211
 11
149.5845
 21
175
  0
LINE
  8
0
 10
149.495
 20
174.8211
 11
149.5845
 21
175
  0
LINE
  8
0
 10
149.5845
 20
173.2688
 11
149.5845
 21
172.5
  0
LINE
  8
0
 10
149.495
 20
172.6788
 11
149.5845
 21
172.5
  0
LINE
  8
0
 10
149.6739
 20
172.6788
 11
149.5845
 21
172.5
  0
LINE
  8
0
 10
149.6845
 20
172.5
 11
149.0845
 21
172.5
  0
TEXT
  8
0
 10
149.7845
 20
169.8628
 40
0.4
  1
5
 50
90
  7
HIGHWAYSIGNCADPLUS
 72
1
 11
149.7845
 21
170
  0
LINE
  8
0
 10
149.5845
 20
170.2371
 11
149.5845
 21
172.5
  0
LINE
  8
0
 10
149.6739
 20
172.3211
 11
149.5845
 21
172.5
  0
LINE
  8
0
 10
149.495
 20
172.3211
 11
149.5845
 21
172.5
  0
LINE
  8
0
 10
149.5845
 20
169.7628
 11
149.5845
 21
167.5
  0
LINE
  8
0
 10
149.495
 20
167.6788
 11
149.5845
 21
167.5
  0
LINE
  8
0
 10
149.6739
 20
167.6788
 11
149.5845
 21
167.5
  0
LINE
  8
0
 10
149.6845
 20
167.5
 11
149.0845
 21
167.5
  0
TEXT
  8
0
 10
107.5633
 20
147.2154
 40
0.4
  1
17.8
  7
HIGHWAYSIGNCADPLUS
 72
1
 11
108.0827
 21
147.2154
  0
LINE
  8
0
 10
108.7021
 20
147.4154
 11
117
 21
147.4154
  0
LINE
  8
0
 10
116.8211
 20
147.326
 11
117
 21
147.4154
  0
LINE
  8
0
 10
116.8211
 20
147.5049
 11
117
 21
147.4154
  0
LINE
  8
0
 10
117
 20
147.3154
 11
117
 21
147.9154
  0
LINE
  8
0
 10
107.4633
 20
147.4154
 11
99.1654
 21
147.4154
  0
LINE
  8
0
 10
99.3443
 20
147.5049
 11
99.1654
 21
147.4154
  0
LINE
  8
0
 10
99.3443
 20
147.326
 11
99.1654
 21
147.4154
  0
LINE
  8
0
 10
99.1654
 20
147.3154
 11
99.1654
 21
147.9154
  0
TEXT
  8
0
 10
123.7235
 20
147.2154
 40
0.4
  1
14
  7
HIGHWAYSIGNCADPLUS
 72
1
 11
124
 21
147.2154
  0
LINE
  8
0
 10
124.3764
 20
147.4154
 11
131
 21
147.4154
  0
LINE
  8
0
 10
130.8211
 20
147.326
 11
131
 21
147.4154
  0
LINE
  8
0
 10
130.8211
 20
147.5049
 11
131
 21
147.4154
  0
LINE
  8
0
 10
131
 20
147.3154
 11
131
 21
147.9154
  0
LINE
  8
0
 10
123.6235
 20
147.4154
 11
117
 21
147.4154
  0
LINE
  8
0
 10
117.1788
 20
147.5049
 11
117
 21
147.4154
  0
LINE
  8
0
 10
117.1788
 20
147.326
 11
117
 21
147.4154
  0
TEXT
  8
0
 10
149.7845
 20
165.8688
 40
0.4
  1
2.5
 50
90
  7
HIGHWAYSIGNCADPLUS
 72
1
 11
149.7845
 21
166.25
  0
LINE
  8
0
 10
149.5845
 20
166.7311
 11
149.5845
 21
167.5
  0
LINE
  8
0
 10
149.6739
 20
167.3211
 11
149.5845
 21
167.5
  0
LINE
  8
0
 10
149.495
 20
167.3211
 11
149.5845
 21
167.5
  0
LINE
  8
0
 10
149.5845
 20
165.7688
 11
149.5845
 21
165
  0
LINE
  8
0
 10
149.495
 20
165.1788
 11
149.5845
 21
165
  0
LINE
  8
0
 10
149.6739
 20
165.1788
 11
149.5845
 21
165
  0
LINE
  8
0
 10
149.6845
 20
165
 11
149.0845
 21
165
  0
TEXT
  8
0
 10
149.7845
 20
162.3628
 40
0.4
  1
5
 50
90
  7
HIGHWAYSIGNCADPLUS
 72
1
 11
149.7845
 21
162.5
  0
LINE
  8
0
 10
149.5845
 20
162.7371
 11
149.5845
 21
165
  0
LINE
  8
0
 10
149.6739
 20
164.8211
 11
149.5845
 21
165
  0
LINE
  8
0
 10
149.495
 20
164.8211
 11
149.5845
 21
165
  0
LINE
  8
0
 10
149.5845
 20
162.2628
 11
149.5845
 21
160
  0
LINE
  8
0
 10
149.495
 20
160.1788
 11
149.5845
 21
160
  0
LINE
  8
0
 10
149.6739
 20
160.1788
 11
149.5845
 21
160
  0
LINE
  8
0
 10
149.6845
 20
160
 11
149.0845
 21
160
  0
TEXT
  8
0
 10
106.7292
 20
146.2154
 40
0.4
  1
16.1
  7
HIGHWAYSIGNCADPLUS
 72
1
 11
107.2077
 21
146.2154
  0
LINE
  8
0
 10
107.7862
 20
146.4154
 11
115.25
 21
146.4154
  0
LINE
  8
0
 10
115.0711
 20
146.326
 11
115.25
 21
146.4154
  0
LINE
  8
0
 10
115.0711
 20
146.5049
 11
115.25
 21
146.4154
  0
LINE
  8
0
 10
115.25
 20
146.3154
 11
115.25
 21
146.9154
  0
LINE
  8
0
 10
106.6292
 20
146.4154
 11
99.1654
 21
146.4154
  0
LINE
  8
0
 10
99.3443
 20
146.5049
 11
99.1654
 21
146.4154
  0
LINE
  8
0
 10
99.3443
 20
146.326
 11
99.1654
 21
146.4154
  0
LINE
  8
0
 10
99.1654
 20
146.3154
 11
99.1654
 21
146.9154
  0
TEXT
  8
0
 10
123.4806
 20
146.2154
 40
0.4
  1
17.5
  7
HIGHWAYSIGNCADPLUS
 72
1
 11
124
 21
146.2154
  0
LINE
  8
0
 10
124.6193
 20
146.4154
 11
132.75
 21
146.4154
  0
LINE
  8
0
 10
132.5711
 20
146.326
 11
132.75
 21
146.4154
  0
LINE
  8
0
 10
132.5711
 20
146.5049
 11
132.75
 21
146.4154
  0
LINE
  8
0
 10
132.75
 20
146.3154
 11
132.75
 21
146.9154
  0
LINE
  8
0
 10
123.3806
 20
146.4154
 11
115.25
 21
146.4154
  0
LINE
  8
0
 10
115.4288
 20
146.5049
 11
115.25
 21
146.4154
  0
LINE
  8
0
 10
115.4288
 20
146.326
 11
115.25
 21
146.4154
  0
TEXT
  8
0
 10
144.3528
 20
148.2154
 40
0.4
  1
8.2
  7
HIGHWAYSIGNCADPLUS
 72
1
 11
144.7297
 21
148.2154
  0
LINE
  8
0
 10
145.2067
 20
148.4154
 11
148.8345
 21
148.4154
  0
LINE
  8
0
 10
148.6556
 20
148.326
 11
148.8345
 21
148.4154
  0
LINE
  8
0
 10
148.6556
 20
148.5049
 11
148.8345
 21
148.4154
  0
LINE
  8
0
 10
148.8345
 20
148.3154
 11
148.8345
 21
148.9154
  0
LINE
  8
0
 10
144.2528
 20
148.4154
 11
140.625
 21
148.4154
  0
LINE
  8
0
 10
140.8038
 20
148.5049
 11
140.625
 21
148.4154
  0
LINE
  8
0
 10
140.8038
 20
148.326
 11
140.625
 21
148.4154
  0
LINE
  8
0
 10
140.625
 20
148.3154
 11
140.625
 21
148.9154
  0
TEXT
  8
0
 10
139.3978
 20
147.2154
 40
0.4
  1
17.9
  7
HIGHWAYSIGNCADPLUS
 72
1
 11
139.9172
 21
147.2154
  0
LINE
  8
0
 10
140.5366
 20
147.4154
 11
148.8345
 21
147.4154
  0
LINE
  8
0
 10
148.6556
 20
147.326
 11
148.8345
 21
147.4154
  0
LINE
  8
0
 10
148.6556
 20
147.5049
 11
148.8345
 21
147.4154
  0
LINE
  8
0
 10
148.8345
 20
147.3154
 11
148.8345
 21
147.9154
  0
LINE
  8
0
 10
139.2978
 20
147.4154
 11
131
 21
147.4154
  0
LINE
  8
0
 10
131.1788
 20
147.5049
 11
131
 21
147.4154
  0
LINE
  8
0
 10
131.1788
 20
147.326
 11
131
 21
147.4154
  0
LINE
  8
0
 10
131
 20
147.3154
 11
131
 21
147.9154
  0
TEXT
  8
0
 10
140.3137
 20
146.2154
 40
0.4
  1
16.1
  7
HIGHWAYSIGNCADPLUS
 72
1
 11
140.7922
 21
146.2154
  0
LINE
  8
0
 10
141.3708
 20
146.4154
 11
148.8345
 21
146.4154
  0
LINE
  8
0
 10
148.6556
 20
146.326
 11
148.8345
 21
146.4154
  0
LINE
  8
0
 10
148.6556
 20
146.5049
 11
148.8345
 21
146.4154
  0
LINE
  8
0
 10
148.8345
 20
146.3154
 11
148.8345
 21
146.9154
  0
LINE
  8
0
 10
140.2137
 20
146.4154
 11
132.75
 21
146.4154
  0
LINE
  8
0
 10
132.9288
 20
146.5049
 11
132.75
 21
146.4154
  0
LINE
  8
0
 10
132.9288
 20
146.326
 11
132.75
 21
146.4154
  0
LINE
  8
0
 10
132.75
 20
146.3154
 11
132.75
 21
146.9154
  0
TEXT
  8
0
 10
149.7845
 20
154.0633
 40
0.4
  1
10.9
 50
90
  7
HIGHWAYSIGNCADPLUS
 72
1
 11
149.7845
 21
154.5827
  0
LINE
  8
0
 10
149.5845
 20
155.2021
 11
149.5845
 21
160
  0
LINE
  8
0
 10
149.6739
 20
159.8211
 11
149.5845
 21
160
  0
LINE
  8
0
 10
149.495
 20
159.8211
 11
149.5845
 21
160
  0
LINE
  8
0
 10
149.6845
 20
160
 11
149.0845
 21
160
  0
LINE
  8
0
 10
149.5845
 20
153.9633
 11
149.5845
 21
149.1654
  0
LINE
  8
0
 10
149.495
 20
149.3443
 11
149.5845
 21
149.1654
  0
LINE
  8
0
 10
149.6739
 20
149.3443
 11
149.5845
 21
149.1654
  0
LINE
  8
0
 10
149.6845
 20
149.1654
 11
149.0845
 21
149.1654
  0
TEXT
  8
0
 10
150.7845
 20
173.4544
 40
0.4
  1
49.7
 50
90
  7
HIGHWAYSIGNCADPLUS
 72
1
 11
150.7845
 21
174
  0
LINE
  8
0
 10
150.5845
 20
174.6455
 11
150.5845
 21
198.8345
  0
LINE
  8
0
 10
150.6739
 20
198.6556
 11
150.5845
 21
198.8345
  0
LINE
  8
0
 10
150.495
 20
198.6556
 11
150.5845
 21
198.8345
  0
LINE
  8
0
 10
150.6845
 20
198.8345
 11
148.9345
 21
198.8345
  0
LINE
  8
0
 10
150.5845
 20
173.3544
 11
150.5845
 21
149.1654
  0
LINE
  8
0
 10
150.495
 20
149.3443
 11
150.5845
 21
149.1654
  0
LINE
  8
0
 10
150.6739
 20
149.3443
 11
150.5845
 21
149.1654
  0
LINE
  8
0
 10
150.6845
 20
149.1654
 11
148.9345
 21
149.1654
  0
TEXT
  8
0
 10
123.4544
 20
145.2154
 40
0.4
  1
49.7
  7
HIGHWAYSIGNCADPLUS
 72
1
 11
124
 21
145.2154
  0
LINE
  8
0
 10
124.6455
 20
145.4154
 11
148.8345
 21
145.4154
  0
LINE
  8
0
 10
148.6556
 20
145.326
 11
148.8345
 21
145.4154
  0
LINE
  8
0
 10
148.6556
 20
145.5049
 11
148.8345
 21
145.4154
  0
LINE
  8
0
 10
148.8345
 20
145.3154
 11
148.8345
 21
149.0654
  0
LINE
  8
0
 10
123.3544
 20
145.4154
 11
99.1654
 21
145.4154
  0
LINE
  8
0
 10
99.3443
 20
145.5049
 11
99.1654
 21
145.4154
  0
LINE
  8
0
 10
99.3443
 20
145.326
 11
99.1654
 21
145.4154
  0
LINE
  8
0
 10
99.1654
 20
145.3154
 11
99.1654
 21
149.0654
  0
TEXT
  8
0
 10
99.1654
 20
144.6154
 40
0.4
  1
36.0" across sides 1.5" Radius, 0.8" Border, 0.5" Indent, Black on Yellow; 
  7
HIGHWAYSIGNCADPLUS
 73
1
 11
99.1654
 21
144.4154
  0
TEXT
  8
0
 10
99.1654
 20
143.8154
 40
0.4
  1
[PRESCRIBED] C 2K; [BURN] C 2K; [AHEAD] C 2K; 
  7
HIGHWAYSIGNCADPLUS
 73
1
 11
99.1654
 21
143.6154
  0
TEXT
  8
0
 10
107.375
 20
175
 40
5
  1
P
  7
HIGHWAYC2K
 73
3
 11
107.375
 21
180
  0
TEXT
  8
0
 10
111.175
 20
175
 40
5
  1
R
  7
HIGHWAYC2K
 73
3
 11
111.175
 21
180
  0
TEXT
  8
0
 10
114.825
 20
175
 40
5
  1
E
  7
HIGHWAYC2K
 73
3
 11
114.825
 21
180
  0
TEXT
  8
0
 10
117.975
 20
175
 40
5
  1
S
  7
HIGHWAYC2K
 73
3
 11
117.975
 21
180
  0
TEXT
  8
0
 10
121.525
 20
175
 40
5
  1
C
  7
HIGHWAYC2K
 73
3
 11
121.525
 21
180
  0
TEXT
  8
0
 10
125.325
 20
175
 40
5
  1
R
  7
HIGHWAYC2K
 73
3
 11
125.325
 21
180
  0
TEXT
  8
0
 10
128.975
 20
175
 40
5
  1
I
  7
HIGHWAYC2K
 73
3
 11
128.975
 21
180
  0
TEXT
  8
0
 10
130.775
 20
175
 40
5
  1
B
  7
HIGHWAYC2K
 73
3
 11
130.775
 21
180
  0
TEXT
  8
0
 10
134.425
 20
175
 40
5
  1
E
  7
HIGHWAYC2K
 73
3
 11
134.425
 21
180
  0
TEXT
  8
0
 10
137.825
 20
175
 40
5
  1
D
  7
HIGHWAYC2K
 73
3
 11
137.825
 21
180
  0
TEXT
  8
0
 10
117
 20
167.5
 40
5
  1
B
  7
HIGHWAYC2K
  0
TEXT
  8
0
 10
120.65
 20
167.5
 40
5
  1
U
  7
HIGHWAYC2K
  0
TEXT
  8
0
 10
124.55
 20
167.5
 40
5
  1
R
  7
HIGHWAYC2K
  0
TEXT
  8
0
 10
128.2
 20
167.5
 40
5
  1
N
  7
HIGHWAYC2K
  0
TEXT
  8
0
 10
115.25
 20
160
 40
5
  1
A
  7
HIGHWAYC2K
  0
TEXT
  8
0
 10
119.15
 20
160
 40
5
  1
H
  7
HIGHWAYC2K
  0
TEXT
  8
0
 10
123.05
 20
160
 40
5
  1
E
  7
HIGHWAYC2K
  0
TEXT
  8
0
 10
126.05
 20
160
 40
5
  1
A
  7
HIGHWAYC2K
  0
TEXT
  8
0
 10
129.95
 20
160
 40
5
  1
D
  7
HIGHWAYC2K
  0
ENDSEC
  0
EOF