  0
SECTION
  2
HEADER
  9
$ACADVER
  1
AC1009
  9
$INSBASE
 10
0.0
 20
0.0
 30
0.0
  9
$EXTMIN
 10
1.000000E+020
 20
1.000000E+020
 30
1.000000E+020
  9
$EXTMAX
 10
-1.000000E+020
 20
-1.000000E+020
 30
-1.000000E+020
  9
$LIMMIN
 10
0.0
 20
0.0
  9
$LIMMAX
 10
12.0
 20
9.0
  9
$ORTHOMODE
 70
     0
  9
$REGENMODE
 70
     1
  9
$FILLMODE
 70
     1
  9
$QTEXTMODE
 70
     0
  9
$MIRRTEXT
 70
     0
  9
$DRAGMODE
 70
     2
  9
$LTSCALE
 40
1.0
  9
$OSMODE
 70
     0
  9
$ATTMODE
 70
     1
  9
$TEXTSIZE
 40
1.0
  9
$TRACEWID
 40
0.05
  9
$TEXTSTYLE
  7
STANDARD
  9
$CLAYER
  8
0
  9
$CELTYPE
  6
CONTINUOUS
  9
$CECOLOR
 62
   256
  9
$DIMSCALE
 40
1.0
  9
$DIMASZ
 40
0.18
  9
$DIMEXO
 40
0.0625
  9
$DIMDLI
 40
0.38
  9
$DIMRND
 40
0.0
  9
$DIMDLE
 40
0.0
  9
$DIMEXE
 40
0.18
  9
$DIMTP
 40
0.0
  9
$DIMTM
 40
0.0
  9
$DIMTXT
 40
0.18
  9
$DIMCEN
 40
0.09
  9
$DIMTSZ
 40
0.0
  9
$DIMTOL
 70
     0
  9
$DIMLIM
 70
     0
  9
$DIMTIH
 70
     1
  9
$DIMTOH
 70
     1
  9
$DIMSE1
 70
     0
  9
$DIMSE2
 70
     0
  9
$DIMTAD
 70
     0
  9
$DIMZIN
 70
     0
  9
$DIMBLK
  1

  9
$DIMASO
 70
     1
  9
$DIMSHO
 70
     1
  9
$DIMPOST
  1

  9
$DIMAPOST
  1

  9
$DIMALT
 70
     0
  9
$DIMALTD
 70
     2
  9
$DIMALTF
 40
25.4
  9
$DIMLFAC
 40
1.0
  9
$DIMTOFL
 70
     0
  9
$DIMTVP
 40
0.0
  9
$DIMTIX
 70
     0
  9
$DIMSOXD
 70
     0
  9
$DIMSAH
 70
     0
  9
$DIMBLK1
  1

  9
$DIMBLK2
  1

  9
$DIMSTYLE
  2
STANDARD
  9
$DIMCLRD
 70
     0
  9
$DIMCLRE
 70
     0
  9
$DIMCLRT
 70
     0
  9
$DIMTFAC
 40
1.0
  9
$DIMGAP
 40
0.09
  9
$LUNITS
 70
     2
  9
$LUPREC
 70
     4
  9
$SKETCHINC
 40
0.1
  9
$FILLETRAD
 40
0.0
  9
$AUNITS
 70
     0
  9
$AUPREC
 70
     0
  9
$MENU
  1
.
  9
$ELEVATION
 40
0.0
  9
$PELEVATION
 40
0.0
  9
$THICKNESS
 40
0.0
  9
$LIMCHECK
 70
     0
  9
$BLIPMODE
 70
     0
  9
$CHAMFERA
 40
0.0
  9
$CHAMFERB
 40
0.0
  9
$SKPOLY
 70
     0
  9
$TDCREATE
 40
2456912.384754
  9
$TDUPDATE
 40
2456912.384754
  9
$TDINDWG
 40
0.000712
  9
$TDUSRTIMER
 40
0.000712
  9
$USRTIMER
 70
     1
  9
$ANGBASE
 50
0.0
  9
$ANGDIR
 70
     0
  9
$PDMODE
 70
     0
  9
$PDSIZE
 40
0.0
  9
$PLINEWID
 40
0.0
  9
$COORDS
 70
     0
  9
$SPLFRAME
 70
     0
  9
$SPLINETYPE
 70
     6
  9
$SPLINESEGS
 70
     8
  9
$ATTDIA
 70
     0
  9
$ATTREQ
 70
     1
  9
$HANDLING
 70
     1
  9
$HANDSEED
  5
221
  9
$SURFTAB1
 70
     6
  9
$SURFTAB2
 70
     6
  9
$SURFTYPE
 70
     6
  9
$SURFU
 70
     6
  9
$SURFV
 70
     6
  9
$UCSNAME
  2

  9
$UCSORG
 10
0.0
 20
0.0
 30
0.0
  9
$UCSXDIR
 10
1.0
 20
0.0
 30
0.0
  9
$UCSYDIR
 10
0.0
 20
1.0
 30
0.0
  9
$PUCSNAME
  2

  9
$PUCSORG
 10
0.0
 20
0.0
 30
0.0
  9
$PUCSXDIR
 10
1.0
 20
0.0
 30
0.0
  9
$PUCSYDIR
 10
0.0
 20
1.0
 30
0.0
  9
$USERI1
 70
     0
  9
$USERI2
 70
     0
  9
$USERI3
 70
     0
  9
$USERI4
 70
     0
  9
$USERI5
 70
     0
  9
$USERR1
 40
0.0
  9
$USERR2
 40
0.0
  9
$USERR3
 40
0.0
  9
$USERR4
 40
0.0
  9
$USERR5
 40
0.0
  9
$WORLDVIEW
 70
     1
  9
$SHADEDGE
 70
     3
  9
$SHADEDIF
 70
    70
  9
$TILEMODE
 70
     1
  9
$MAXACTVP
 70
    64
  9
$PLIMCHECK
 70
     0
  9
$PEXTMIN
 10
1.000000E+020
 20
1.000000E+020
 30
1.000000E+020
  9
$PEXTMAX
 10
-1.000000E+020
 20
-1.000000E+020
 30
-1.000000E+020
  9
$PLIMMIN
 10
0.0
 20
0.0
  9
$PLIMMAX
 10
12.0
 20
9.0
  9
$UNITMODE
 70
     0
  9
$VISRETAIN
 70
     1
  9
$PLINEGEN
 70
     0
  9
$PSLTSCALE
 70
     1
  0
ENDSEC
  0
SECTION
  2
TABLES
  0
TABLE
  2
VPORT
 70
     1
  0
VPORT
  2
*ACTIVE
 70
     0
 10
0.0
 20
0.0
 11
1.0
 21
1.0
 12
500.0
 22
500.0
 13
0.0
 23
0.0
 14
1.0
 24
1.0
 15
0.0
 25
0.0
 16
0.0
 26
0.0
 36
1.0
 17
0.0
 27
0.0
 37
0.0
 40
12.0
 41
1.0
 42
50.0
 43
0.0
 44
0.0
 50
0.0
 51
0.0
 71
     0
 72
   100
 73
     1
 74
     1
 75
     0
 76
     0
 77
     0
 78
     0
  0
ENDTAB
  0
TABLE
  2
LTYPE
 70
     1
  0
LTYPE
  2
CONTINUOUS
 70
     0
  3
Solid line
 72
    65
 73
     0
 40
0.0
  0
ENDTAB
  0
TABLE
  2
LAYER
 70
     1
  0
LAYER
  2
0
 70
     0
 62
     7
  6
CONTINUOUS
  0
ENDTAB
  0
TABLE
  2
STYLE
 70
     4
  0
STYLE
  2
STANDARD
 70
     0
 40
0.0
 41
1.0
 50
0.0
 71
     0
 42
1.0
  3
txt
  4

  0
STYLE
  2
ANNOTATIVE
 70
     0
 40
0.0
 41
1.0
 50
0.0
 71
     0
 42
0.2
  3
txt
  4

  0
STYLE
  2
HIGHWAYEMOD2K
 70
     0
 40
0.0
 41
1.0
 50
0.0
 71
     0
 42
1.0
  3
Highway E Mod 2K
  4

  0
STYLE
  2
HIGHWAYSIGNCADPLUS
 70
     0
 40
0.0
 41
1.0
 50
0.0
 71
     0
 42
1.0
  3
Highway SignCAD Plus
  4

  0
ENDTAB
  0
TABLE
  2
VIEW
 70
     0
  0
ENDTAB
  0
TABLE
  2
UCS
 70
     0
  0
ENDTAB
  0
TABLE
  2
APPID
 70
     4
  0
APPID
  2
ACAD
 70
     0
  0
APPID
  2
ACADANNOTATIVE
 70
     0
  0
APPID
  2
MSTATION
 70
     0
  0
APPID
  2
ACAD_MLEADERVER
 70
     0
  0
ENDTAB
  0
TABLE
  2
DIMSTYLE
 70
     2
  0
DIMSTYLE
  2
STANDARD
 70
     0
  3

  4

  5

  6

  7

 40
1.0
 41
0.18
 42
0.0625
 43
0.38
 44
0.18
 45
0.0
 46
0.0
 47
0.0
 48
0.0
140
0.18
141
0.09
142
0.0
143
25.4
144
1.0
145
0.0
146
1.0
147
0.09
 71
     0
 72
     0
 73
     1
 74
     1
 75
     0
 76
     0
 77
     0
 78
     0
170
     0
171
     2
172
     0
173
     0
174
     0
175
     0
176
     0
177
     0
178
     0
  0
DIMSTYLE
  2
ANNOTATIVE
 70
     0
  3

  4

  5

  6

  7

 40
1.0
 41
0.18
 42
0.0625
 43
0.38
 44
0.18
 45
0.0
 46
0.0
 47
0.0
 48
0.0
140
0.18
141
0.09
142
0.0
143
25.4
144
1.0
145
0.0
146
1.0
147
0.09
 71
     0
 72
     0
 73
     1
 74
     1
 75
     0
 76
     0
 77
     0
 78
     0
170
     0
171
     2
172
     0
173
     0
174
     0
175
     0
176
     0
177
     0
178
     0
  0
ENDTAB
  0
ENDSEC
  0
SECTION
  2
BLOCKS
  0
BLOCK
  8
0
  2
$MODEL_SPACE
 70
     0
 10
0.0
 20
0.0
 30
0.0
  3
$MODEL_SPACE
  1

  0
ENDBLK
  5
78
  8
0
  0
BLOCK
 67
     1
  8
0
  2
$PAPER_SPACE
 70
     0
 10
0.0
 20
0.0
 30
0.0
  3
$PAPER_SPACE
  1

  0
ENDBLK
  5
74
 67
     1
  8
0
  0
ENDSEC
  0
SECTION
  2
ENTITIES
  0
ARC
  5
80
  8
0
 10
205.0
 20
133.0
 30
0.0
 40
3.0
 50
180.0
 51
270.0
  0
ARC
  5
81
  8
0
 10
355.0
 20
133.0
 30
0.0
 40
3.0
 50
270.0
 51
0.0
  0
POLYLINE
  5
82
  8
0
 66
     1
 10
0.0
 20
0.0
 30
0.0
  0
VERTEX
  5
83
  8
0
 10
205.0
 20
130.0
 30
0.0
  0
VERTEX
  5
84
  8
0
 10
355.0
 20
130.0
 30
0.0
  0
SEQEND
  5
85
  8
0
  0
POLYLINE
  5
86
  8
0
 66
     1
 10
0.0
 20
0.0
 30
0.0
  0
VERTEX
  5
87
  8
0
 10
358.0
 20
133.0
 30
0.0
  0
VERTEX
  5
88
  8
0
 10
358.0
 20
154.0
 30
0.0
  0
VERTEX
  5
89
  8
0
 10
202.0
 20
154.0
 30
0.0
  0
VERTEX
  5
8A
  8
0
 10
202.0
 20
133.0
 30
0.0
  0
SEQEND
  5
8B
  8
0
  0
ARC
  5
8C
  8
0
 10
205.0
 20
133.0
 30
0.0
 40
3.0
 50
180.0
 51
270.0
  0
ARC
  5
8D
  8
0
 10
205.0
 20
133.0
 30
0.0
 40
2.0
 50
180.0
 51
270.0
  0
ARC
  5
8E
  8
0
 10
355.0
 20
133.0
 30
0.0
 40
3.0
 50
270.0
 51
0.0
  0
ARC
  5
8F
  8
0
 10
355.0
 20
133.0
 30
0.0
 40
2.0
 50
270.0
 51
0.0
  0
POLYLINE
  5
90
  8
0
 66
     1
 10
0.0
 20
0.0
 30
0.0
  0
VERTEX
  5
91
  8
0
 10
205.0
 20
131.0
 30
0.0
  0
VERTEX
  5
92
  8
0
 10
355.0
 20
131.0
 30
0.0
  0
SEQEND
  5
93
  8
0
  0
POLYLINE
  5
94
  8
0
 66
     1
 10
0.0
 20
0.0
 30
0.0
  0
VERTEX
  5
95
  8
0
 10
355.0
 20
130.0
 30
0.0
  0
VERTEX
  5
96
  8
0
 10
205.0
 20
130.0
 30
0.0
  0
SEQEND
  5
97
  8
0
  0
POLYLINE
  5
98
  8
0
 66
     1
 10
0.0
 20
0.0
 30
0.0
  0
VERTEX
  5
99
  8
0
 10
357.0
 20
133.0
 30
0.0
  0
VERTEX
  5
9A
  8
0
 10
357.0
 20
154.0
 30
0.0
  0
VERTEX
  5
9B
  8
0
 10
358.0
 20
154.0
 30
0.0
  0
VERTEX
  5
9C
  8
0
 10
358.0
 20
133.0
 30
0.0
  0
SEQEND
  5
9D
  8
0
  0
POLYLINE
  5
9E
  8
0
 66
     1
 10
0.0
 20
0.0
 30
0.0
  0
VERTEX
  5
9F
  8
0
 10
203.0
 20
154.0
 30
0.0
  0
VERTEX
  5
A0
  8
0
 10
203.0
 20
133.0
 30
0.0
  0
SEQEND
  5
A1
  8
0
  0
POLYLINE
  5
A2
  8
0
 66
     1
 10
0.0
 20
0.0
 30
0.0
  0
VERTEX
  5
A3
  8
0
 10
202.0
 20
133.0
 30
0.0
  0
VERTEX
  5
A4
  8
0
 10
202.0
 20
154.0
 30
0.0
  0
VERTEX
  5
A5
  8
0
 10
203.0
 20
154.0
 30
0.0
  0
SEQEND
  5
A6
  8
0
  0
TEXT
  5
A7
  8
0
 10
362.75
 20
148.821462
 30
0.0
 40
2.0
  1
6.2
 50
90.0
  7
HIGHWAYSIGNCADPLUS
 72
     1
 11
362.75
 21
150.9167
 31
0.0
  0
LINE
  5
A8
  8
0
 10
362.25
 20
154.0
 30
0.0
 11
359.25
 21
154.0
 31
0.0
  0
LINE
  5
A9
  8
0
 10
362.25
 20
147.8334
 30
0.0
 11
359.25
 21
147.8334
 31
0.0
  0
TEXT
  5
AA
  8
0
 10
362.75
 20
139.690476
 30
0.0
 40
2.0
  1
10.6
 50
90.0
  7
HIGHWAYSIGNCADPLUS
 72
     1
 11
362.75
 21
142.5
 31
0.0
  0
LINE
  5
AB
  8
0
 10
361.75
 20
145.6021
 30
0.0
 11
361.75
 21
147.8334
 31
0.0
  0
LINE
  5
AC
  8
0
 10
362.1972
 20
146.9389
 30
0.0
 11
361.75
 21
147.8334
 31
0.0
  0
LINE
  5
AD
  8
0
 10
361.3028
 20
146.9389
 30
0.0
 11
361.75
 21
147.8334
 31
0.0
  0
LINE
  5
AE
  8
0
 10
361.75
 20
139.3979
 30
0.0
 11
361.75
 21
137.1666
 31
0.0
  0
LINE
  5
AF
  8
0
 10
361.3028
 20
138.0611
 30
0.0
 11
361.75
 21
137.1666
 31
0.0
  0
LINE
  5
B0
  8
0
 10
362.1972
 20
138.0611
 30
0.0
 11
361.75
 21
137.1666
 31
0.0
  0
LINE
  5
B1
  8
0
 10
362.25
 20
137.1666
 30
0.0
 11
359.25
 21
137.1666
 31
0.0
  0
TEXT
  5
B2
  8
0
 10
204.744662
 20
125.25
 30
0.0
 40
2.0
  1
9.7
  7
HIGHWAYSIGNCADPLUS
 72
     1
 11
206.8399
 21
125.25
 31
0.0
  0
LINE
  5
B3
  8
0
 10
209.2195
 20
126.25
 30
0.0
 11
211.6798
 21
126.25
 31
0.0
  0
LINE
  5
B4
  8
0
 10
210.7854
 20
125.8028
 30
0.0
 11
211.6798
 21
126.25
 31
0.0
  0
LINE
  5
B5
  8
0
 10
210.7854
 20
126.6972
 30
0.0
 11
211.6798
 21
126.25
 31
0.0
  0
LINE
  5
B6
  8
0
 10
211.6798
 20
125.75
 30
0.0
 11
211.6798
 21
128.75
 31
0.0
  0
LINE
  5
B7
  8
0
 10
204.4603
 20
126.25
 30
0.0
 11
202.0
 21
126.25
 31
0.0
  0
LINE
  5
B8
  8
0
 10
202.8944
 20
126.6972
 30
0.0
 11
202.0
 21
126.25
 31
0.0
  0
LINE
  5
B9
  8
0
 10
202.8944
 20
125.8028
 30
0.0
 11
202.0
 21
126.25
 31
0.0
  0
LINE
  5
BA
  8
0
 10
202.0
 20
125.75
 30
0.0
 11
202.0
 21
128.75
 31
0.0
  0
TEXT
  5
BB
  8
0
 10
236.087452
 20
125.25
 30
0.0
 40
2.0
  1
52
  7
HIGHWAYSIGNCADPLUS
 72
     1
 11
237.7065
 21
125.25
 31
0.0
  0
LINE
  5
BC
  8
0
 10
239.6777
 20
126.25
 30
0.0
 11
263.7333
 21
126.25
 31
0.0
  0
LINE
  5
BD
  8
0
 10
262.8388
 20
125.8028
 30
0.0
 11
263.7333
 21
126.25
 31
0.0
  0
LINE
  5
BE
  8
0
 10
262.8388
 20
126.6972
 30
0.0
 11
263.7333
 21
126.25
 31
0.0
  0
LINE
  5
BF
  8
0
 10
263.7333
 20
125.75
 30
0.0
 11
263.7333
 21
128.75
 31
0.0
  0
LINE
  5
C0
  8
0
 10
235.7353
 20
126.25
 30
0.0
 11
211.6798
 21
126.25
 31
0.0
  0
LINE
  5
C1
  8
0
 10
212.5742
 20
126.6972
 30
0.0
 11
211.6798
 21
126.25
 31
0.0
  0
LINE
  5
C2
  8
0
 10
212.5742
 20
125.8028
 30
0.0
 11
211.6798
 21
126.25
 31
0.0
  0
TEXT
  5
C3
  8
0
 10
266.209457
 20
125.25
 30
0.0
 40
2.0
  1
10.7
  7
HIGHWAYSIGNCADPLUS
 72
     1
 11
269.0666
 21
125.25
 31
0.0
  0
LINE
  5
C4
  8
0
 10
272.153
 20
126.25
 30
0.0
 11
274.4
 21
126.25
 31
0.0
  0
LINE
  5
C5
  8
0
 10
273.5055
 20
125.8028
 30
0.0
 11
274.4
 21
126.25
 31
0.0
  0
LINE
  5
C6
  8
0
 10
273.5055
 20
126.6972
 30
0.0
 11
274.4
 21
126.25
 31
0.0
  0
LINE
  5
C7
  8
0
 10
274.4
 20
125.75
 30
0.0
 11
274.4
 21
128.75
 31
0.0
  0
LINE
  5
C8
  8
0
 10
265.9802
 20
126.25
 30
0.0
 11
263.7333
 21
126.25
 31
0.0
  0
LINE
  5
C9
  8
0
 10
264.6277
 20
126.6972
 30
0.0
 11
263.7333
 21
126.25
 31
0.0
  0
LINE
  5
CA
  8
0
 10
264.6277
 20
125.8028
 30
0.0
 11
263.7333
 21
126.25
 31
0.0
  0
TEXT
  5
CB
  8
0
 10
308.3601
 20
125.25
 30
0.0
 40
2.0
  1
73.9
  7
HIGHWAYSIGNCADPLUS
 72
     1
 11
311.3601
 21
125.25
 31
0.0
  0
LINE
  5
CC
  8
0
 10
314.5407
 20
126.25
 30
0.0
 11
348.3202
 21
126.25
 31
0.0
  0
LINE
  5
CD
  8
0
 10
347.4258
 20
125.8028
 30
0.0
 11
348.3202
 21
126.25
 31
0.0
  0
LINE
  5
CE
  8
0
 10
347.4258
 20
126.6972
 30
0.0
 11
348.3202
 21
126.25
 31
0.0
  0
LINE
  5
CF
  8
0
 10
348.3202
 20
125.75
 30
0.0
 11
348.3202
 21
128.75
 31
0.0
  0
LINE
  5
D0
  8
0
 10
308.1794
 20
126.25
 30
0.0
 11
274.4
 21
126.25
 31
0.0
  0
LINE
  5
D1
  8
0
 10
275.2944
 20
126.6972
 30
0.0
 11
274.4
 21
126.25
 31
0.0
  0
LINE
  5
D2
  8
0
 10
275.2944
 20
125.8028
 30
0.0
 11
274.4
 21
126.25
 31
0.0
  0
TEXT
  5
D3
  8
0
 10
351.064862
 20
125.25
 30
0.0
 40
2.0
  1
9.7
  7
HIGHWAYSIGNCADPLUS
 72
     1
 11
353.1601
 21
125.25
 31
0.0
  0
LINE
  5
D4
  8
0
 10
355.5397
 20
126.25
 30
0.0
 11
358.0
 21
126.25
 31
0.0
  0
LINE
  5
D5
  8
0
 10
357.1056
 20
125.8028
 30
0.0
 11
358.0
 21
126.25
 31
0.0
  0
LINE
  5
D6
  8
0
 10
357.1056
 20
126.6972
 30
0.0
 11
358.0
 21
126.25
 31
0.0
  0
LINE
  5
D7
  8
0
 10
358.0
 20
125.75
 30
0.0
 11
358.0
 21
128.75
 31
0.0
  0
LINE
  5
D8
  8
0
 10
350.7805
 20
126.25
 30
0.0
 11
348.3202
 21
126.25
 31
0.0
  0
LINE
  5
D9
  8
0
 10
349.2146
 20
126.6972
 30
0.0
 11
348.3202
 21
126.25
 31
0.0
  0
LINE
  5
DA
  8
0
 10
349.2146
 20
125.8028
 30
0.0
 11
348.3202
 21
126.25
 31
0.0
  0
LINE
  5
DB
  8
0
 10
348.3202
 20
125.75
 30
0.0
 11
348.3202
 21
128.75
 31
0.0
  0
TEXT
  5
DC
  8
0
 10
362.75
 20
131.488062
 30
0.0
 40
2.0
  1
7.2
 50
90.0
  7
HIGHWAYSIGNCADPLUS
 72
     1
 11
362.75
 21
133.5833
 31
0.0
  0
LINE
  5
DD
  8
0
 10
361.75
 20
135.9472
 30
0.0
 11
361.75
 21
137.1666
 31
0.0
  0
LINE
  5
DE
  8
0
 10
362.1972
 20
136.2722
 30
0.0
 11
361.75
 21
137.1666
 31
0.0
  0
LINE
  5
DF
  8
0
 10
361.3028
 20
136.2722
 30
0.0
 11
361.75
 21
137.1666
 31
0.0
  0
LINE
  5
E0
  8
0
 10
362.25
 20
137.1666
 30
0.0
 11
359.25
 21
137.1666
 31
0.0
  0
LINE
  5
E1
  8
0
 10
361.75
 20
131.2195
 30
0.0
 11
361.75
 21
130.0
 31
0.0
  0
LINE
  5
E2
  8
0
 10
361.3028
 20
130.8944
 30
0.0
 11
361.75
 21
130.0
 31
0.0
  0
LINE
  5
E3
  8
0
 10
362.1972
 20
130.8944
 30
0.0
 11
361.75
 21
130.0
 31
0.0
  0
LINE
  5
E4
  8
0
 10
362.25
 20
130.0
 30
0.0
 11
359.25
 21
130.0
 31
0.0
  0
TEXT
  5
E5
  8
0
 10
367.75
 20
140.333333
 30
0.0
 40
2.0
  1
24
 50
90.0
  7
HIGHWAYSIGNCADPLUS
 72
     1
 11
367.75
 21
142.0
 31
0.0
  0
LINE
  5
E6
  8
0
 10
366.75
 20
143.9974
 30
0.0
 11
366.75
 21
154.0
 31
0.0
  0
LINE
  5
E7
  8
0
 10
367.1972
 20
153.1056
 30
0.0
 11
366.75
 21
154.0
 31
0.0
  0
LINE
  5
E8
  8
0
 10
366.3028
 20
153.1056
 30
0.0
 11
366.75
 21
154.0
 31
0.0
  0
LINE
  5
E9
  8
0
 10
367.25
 20
154.0
 30
0.0
 11
358.5
 21
154.0
 31
0.0
  0
LINE
  5
EA
  8
0
 10
366.75
 20
140.0026
 30
0.0
 11
366.75
 21
130.0
 31
0.0
  0
LINE
  5
EB
  8
0
 10
366.3028
 20
130.8944
 30
0.0
 11
366.75
 21
130.0
 31
0.0
  0
LINE
  5
EC
  8
0
 10
367.1972
 20
130.8944
 30
0.0
 11
366.75
 21
130.0
 31
0.0
  0
LINE
  5
ED
  8
0
 10
367.25
 20
130.0
 30
0.0
 11
358.5
 21
130.0
 31
0.0
  0
TEXT
  5
EE
  8
0
 10
202.0
 20
113.916667
 30
0.0
 40
2.0
  1
3.0" Radius, 1.0" Border, White on Black; 
  7
HIGHWAYSIGNCADPLUS
 11
202.0
 21
113.25
 31
0.0
 73
     1
  0
TEXT
  5
EF
  8
0
 10
202.0
 20
109.916667
 30
0.0
 40
2.0
  1
[BUSES ALLOWED] E Mod 2K; 
  7
HIGHWAYSIGNCADPLUS
 11
202.0
 21
109.25
 31
0.0
 73
     1
  0
ARC
  5
F0
  8
0
 10
355.0
 20
193.0
 30
0.0
 40
3.0
 50
0.0
 51
90.0
  0
ARC
  5
F1
  8
0
 10
205.0
 20
193.0
 30
0.0
 40
3.0
 50
90.0
 51
180.0
  0
POLYLINE
  5
F2
  8
0
 66
     1
 10
0.0
 20
0.0
 30
0.0
  0
VERTEX
  5
F3
  8
0
 10
202.0
 20
154.0
 30
0.0
  0
VERTEX
  5
F4
  8
0
 10
358.0
 20
154.0
 30
0.0
  0
VERTEX
  5
F5
  8
0
 10
358.0
 20
193.0
 30
0.0
  0
SEQEND
  5
F6
  8
0
  0
POLYLINE
  5
F7
  8
0
 66
     1
 10
0.0
 20
0.0
 30
0.0
  0
VERTEX
  5
F8
  8
0
 10
355.0
 20
196.0
 30
0.0
  0
VERTEX
  5
F9
  8
0
 10
205.0
 20
196.0
 30
0.0
  0
SEQEND
  5
FA
  8
0
  0
POLYLINE
  5
FB
  8
0
 66
     1
 10
0.0
 20
0.0
 30
0.0
  0
VERTEX
  5
FC
  8
0
 10
202.0
 20
193.0
 30
0.0
  0
VERTEX
  5
FD
  8
0
 10
202.0
 20
154.0
 30
0.0
  0
SEQEND
  5
FE
  8
0
  0
ARC
  5
FF
  8
0
 10
355.0
 20
193.0
 30
0.0
 40
2.0
 50
0.0
 51
90.0
  0
ARC
  5
100
  8
0
 10
355.0
 20
193.0
 30
0.0
 40
1.0
 50
0.0
 51
90.0
  0
ARC
  5
101
  8
0
 10
205.0
 20
193.0
 30
0.0
 40
2.0
 50
90.0
 51
180.0
  0
ARC
  5
102
  8
0
 10
205.0
 20
193.0
 30
0.0
 40
1.0
 50
90.0
 51
180.0
  0
POLYLINE
  5
103
  8
0
 66
     1
 10
0.0
 20
0.0
 30
0.0
  0
VERTEX
  5
104
  8
0
 10
356.0
 20
154.0
 30
0.0
  0
VERTEX
  5
105
  8
0
 10
356.0
 20
193.0
 30
0.0
  0
SEQEND
  5
106
  8
0
  0
POLYLINE
  5
107
  8
0
 66
     1
 10
0.0
 20
0.0
 30
0.0
  0
VERTEX
  5
108
  8
0
 10
357.0
 20
193.0
 30
0.0
  0
VERTEX
  5
109
  8
0
 10
357.0
 20
154.0
 30
0.0
  0
VERTEX
  5
10A
  8
0
 10
356.0
 20
154.0
 30
0.0
  0
SEQEND
  5
10B
  8
0
  0
POLYLINE
  5
10C
  8
0
 66
     1
 10
0.0
 20
0.0
 30
0.0
  0
VERTEX
  5
10D
  8
0
 10
355.0
 20
194.0
 30
0.0
  0
VERTEX
  5
10E
  8
0
 10
205.0
 20
194.0
 30
0.0
  0
SEQEND
  5
10F
  8
0
  0
POLYLINE
  5
110
  8
0
 66
     1
 10
0.0
 20
0.0
 30
0.0
  0
VERTEX
  5
111
  8
0
 10
205.0
 20
195.0
 30
0.0
  0
VERTEX
  5
112
  8
0
 10
355.0
 20
195.0
 30
0.0
  0
SEQEND
  5
113
  8
0
  0
POLYLINE
  5
114
  8
0
 66
     1
 10
0.0
 20
0.0
 30
0.0
  0
VERTEX
  5
115
  8
0
 10
204.0
 20
193.0
 30
0.0
  0
VERTEX
  5
116
  8
0
 10
204.0
 20
154.0
 30
0.0
  0
VERTEX
  5
117
  8
0
 10
203.0
 20
154.0
 30
0.0
  0
VERTEX
  5
118
  8
0
 10
203.0
 20
193.0
 30
0.0
  0
SEQEND
  5
119
  8
0
  0
TEXT
  5
11A
  8
0
 10
362.75
 20
190.238162
 30
0.0
 40
2.0
  1
7.3
 50
90.0
  7
HIGHWAYSIGNCADPLUS
 72
     1
 11
362.75
 21
192.3334
 31
0.0
  0
LINE
  5
11B
  8
0
 10
361.75
 20
194.7077
 30
0.0
 11
361.75
 21
196.0
 31
0.0
  0
LINE
  5
11C
  8
0
 10
362.1972
 20
195.1056
 30
0.0
 11
361.75
 21
196.0
 31
0.0
  0
LINE
  5
11D
  8
0
 10
361.3028
 20
195.1056
 30
0.0
 11
361.75
 21
196.0
 31
0.0
  0
LINE
  5
11E
  8
0
 10
362.25
 20
196.0
 30
0.0
 11
359.25
 21
196.0
 31
0.0
  0
LINE
  5
11F
  8
0
 10
361.75
 20
189.959
 30
0.0
 11
361.75
 21
188.6667
 31
0.0
  0
LINE
  5
120
  8
0
 10
361.3028
 20
189.5611
 30
0.0
 11
361.75
 21
188.6667
 31
0.0
  0
LINE
  5
121
  8
0
 10
362.1972
 20
189.5611
 30
0.0
 11
361.75
 21
188.6667
 31
0.0
  0
LINE
  5
122
  8
0
 10
362.25
 20
188.6667
 30
0.0
 11
359.25
 21
188.6667
 31
0.0
  0
TEXT
  5
123
  8
0
 10
362.75
 20
180.476257
 30
0.0
 40
2.0
  1
10.7
 50
90.0
  7
HIGHWAYSIGNCADPLUS
 72
     1
 11
362.75
 21
183.3334
 31
0.0
  0
LINE
  5
124
  8
0
 10
361.75
 20
186.4198
 30
0.0
 11
361.75
 21
188.6667
 31
0.0
  0
LINE
  5
125
  8
0
 10
362.1972
 20
187.7723
 30
0.0
 11
361.75
 21
188.6667
 31
0.0
  0
LINE
  5
126
  8
0
 10
361.3028
 20
187.7723
 30
0.0
 11
361.75
 21
188.6667
 31
0.0
  0
LINE
  5
127
  8
0
 10
361.75
 20
180.247
 30
0.0
 11
361.75
 21
178.0
 31
0.0
  0
LINE
  5
128
  8
0
 10
361.3028
 20
178.8944
 30
0.0
 11
361.75
 21
178.0
 31
0.0
  0
LINE
  5
129
  8
0
 10
362.1972
 20
178.8944
 30
0.0
 11
361.75
 21
178.0
 31
0.0
  0
LINE
  5
12A
  8
0
 10
362.25
 20
178.0
 30
0.0
 11
359.25
 21
178.0
 31
0.0
  0
TEXT
  5
12B
  8
0
 10
218.618981
 20
198.75
 30
0.0
 40
2.0
  1
39.3
  7
HIGHWAYSIGNCADPLUS
 72
     1
 11
221.6666
 21
198.75
 31
0.0
  0
LINE
  5
12C
  8
0
 10
224.8472
 20
199.75
 30
0.0
 11
241.3332
 21
199.75
 31
0.0
  0
LINE
  5
12D
  8
0
 10
240.4388
 20
199.3028
 30
0.0
 11
241.3332
 21
199.75
 31
0.0
  0
LINE
  5
12E
  8
0
 10
240.4388
 20
200.1972
 30
0.0
 11
241.3332
 21
199.75
 31
0.0
  0
LINE
  5
12F
  8
0
 10
241.3332
 20
200.25
 30
0.0
 11
241.3332
 21
197.25
 31
0.0
  0
LINE
  5
130
  8
0
 10
218.486
 20
199.75
 30
0.0
 11
202.0
 21
199.75
 31
0.0
  0
LINE
  5
131
  8
0
 10
202.8944
 20
200.1972
 30
0.0
 11
202.0
 21
199.75
 31
0.0
  0
LINE
  5
132
  8
0
 10
202.8944
 20
199.3028
 30
0.0
 11
202.0
 21
199.75
 31
0.0
  0
LINE
  5
133
  8
0
 10
202.0
 20
200.25
 30
0.0
 11
202.0
 21
197.25
 31
0.0
  0
TEXT
  5
134
  8
0
 10
276.904762
 20
198.75
 30
0.0
 40
2.0
  1
77.4
  7
HIGHWAYSIGNCADPLUS
 72
     1
 11
280.0
 21
198.75
 31
0.0
  0
LINE
  5
135
  8
0
 10
283.1754
 20
199.75
 30
0.0
 11
318.6668
 21
199.75
 31
0.0
  0
LINE
  5
136
  8
0
 10
317.7724
 20
199.3028
 30
0.0
 11
318.6668
 21
199.75
 31
0.0
  0
LINE
  5
137
  8
0
 10
317.7724
 20
200.1972
 30
0.0
 11
318.6668
 21
199.75
 31
0.0
  0
LINE
  5
138
  8
0
 10
318.6668
 20
200.25
 30
0.0
 11
318.6668
 21
197.25
 31
0.0
  0
LINE
  5
139
  8
0
 10
276.8246
 20
199.75
 30
0.0
 11
241.3332
 21
199.75
 31
0.0
  0
LINE
  5
13A
  8
0
 10
242.2276
 20
200.1972
 30
0.0
 11
241.3332
 21
199.75
 31
0.0
  0
LINE
  5
13B
  8
0
 10
242.2276
 20
199.3028
 30
0.0
 11
241.3332
 21
199.75
 31
0.0
  0
TEXT
  5
13C
  8
0
 10
362.75
 20
173.333333
 30
0.0
 40
2.0
  1
8
 50
90.0
  7
HIGHWAYSIGNCADPLUS
 72
     1
 11
362.75
 21
174.0
 31
0.0
  0
LINE
  5
13D
  8
0
 10
361.75
 20
175.1859
 30
0.0
 11
361.75
 21
178.0
 31
0.0
  0
LINE
  5
13E
  8
0
 10
362.1972
 20
177.1056
 30
0.0
 11
361.75
 21
178.0
 31
0.0
  0
LINE
  5
13F
  8
0
 10
361.3028
 20
177.1056
 30
0.0
 11
361.75
 21
178.0
 31
0.0
  0
LINE
  5
140
  8
0
 10
361.75
 20
172.8141
 30
0.0
 11
361.75
 21
170.0
 31
0.0
  0
LINE
  5
141
  8
0
 10
361.3028
 20
170.8944
 30
0.0
 11
361.75
 21
170.0
 31
0.0
  0
LINE
  5
142
  8
0
 10
362.1972
 20
170.8944
 30
0.0
 11
361.75
 21
170.0
 31
0.0
  0
LINE
  5
143
  8
0
 10
362.25
 20
170.0
 30
0.0
 11
359.25
 21
170.0
 31
0.0
  0
TEXT
  5
144
  8
0
 10
362.75
 20
161.809457
 30
0.0
 40
2.0
  1
10.7
 50
90.0
  7
HIGHWAYSIGNCADPLUS
 72
     1
 11
362.75
 21
164.6666
 31
0.0
  0
LINE
  5
145
  8
0
 10
361.75
 20
167.753
 30
0.0
 11
361.75
 21
170.0
 31
0.0
  0
LINE
  5
146
  8
0
 10
362.1972
 20
169.1056
 30
0.0
 11
361.75
 21
170.0
 31
0.0
  0
LINE
  5
147
  8
0
 10
361.3028
 20
169.1056
 30
0.0
 11
361.75
 21
170.0
 31
0.0
  0
LINE
  5
148
  8
0
 10
361.75
 20
161.5803
 30
0.0
 11
361.75
 21
159.3333
 31
0.0
  0
LINE
  5
149
  8
0
 10
361.3028
 20
160.2277
 30
0.0
 11
361.75
 21
159.3333
 31
0.0
  0
LINE
  5
14A
  8
0
 10
362.1972
 20
160.2277
 30
0.0
 11
361.75
 21
159.3333
 31
0.0
  0
LINE
  5
14B
  8
0
 10
362.25
 20
159.3333
 30
0.0
 11
359.25
 21
159.3333
 31
0.0
  0
TEXT
  5
14C
  8
0
 10
205.556057
 20
203.75
 30
0.0
 40
2.0
  1
12.8
  7
HIGHWAYSIGNCADPLUS
 72
     1
 11
208.4132
 21
203.75
 31
0.0
  0
LINE
  5
14D
  8
0
 10
211.5049
 20
204.75
 30
0.0
 11
214.8265
 21
204.75
 31
0.0
  0
LINE
  5
14E
  8
0
 10
213.932
 20
204.3028
 30
0.0
 11
214.8265
 21
204.75
 31
0.0
  0
LINE
  5
14F
  8
0
 10
213.932
 20
205.1972
 30
0.0
 11
214.8265
 21
204.75
 31
0.0
  0
LINE
  5
150
  8
0
 10
214.8265
 20
205.25
 30
0.0
 11
214.8265
 21
202.25
 31
0.0
  0
LINE
  5
151
  8
0
 10
205.3216
 20
204.75
 30
0.0
 11
202.0
 21
204.75
 31
0.0
  0
LINE
  5
152
  8
0
 10
202.8944
 20
205.1972
 30
0.0
 11
202.0
 21
204.75
 31
0.0
  0
LINE
  5
153
  8
0
 10
202.8944
 20
204.3028
 30
0.0
 11
202.0
 21
204.75
 31
0.0
  0
LINE
  5
154
  8
0
 10
202.0
 20
205.25
 30
0.0
 11
202.0
 21
202.25
 31
0.0
  0
TEXT
  5
155
  8
0
 10
250.392281
 20
203.75
 30
0.0
 40
2.0
  1
77.3
  7
HIGHWAYSIGNCADPLUS
 72
     1
 11
253.4399
 21
203.75
 31
0.0
  0
LINE
  5
156
  8
0
 10
256.6153
 20
204.75
 30
0.0
 11
292.0534
 21
204.75
 31
0.0
  0
LINE
  5
157
  8
0
 10
291.1589
 20
204.3028
 30
0.0
 11
292.0534
 21
204.75
 31
0.0
  0
LINE
  5
158
  8
0
 10
291.1589
 20
205.1972
 30
0.0
 11
292.0534
 21
204.75
 31
0.0
  0
LINE
  5
159
  8
0
 10
292.0534
 20
205.25
 30
0.0
 11
292.0534
 21
202.25
 31
0.0
  0
LINE
  5
15A
  8
0
 10
250.2645
 20
204.75
 30
0.0
 11
214.8265
 21
204.75
 31
0.0
  0
LINE
  5
15B
  8
0
 10
215.7209
 20
205.1972
 30
0.0
 11
214.8265
 21
204.75
 31
0.0
  0
LINE
  5
15C
  8
0
 10
215.7209
 20
204.3028
 30
0.0
 11
214.8265
 21
204.75
 31
0.0
  0
TEXT
  5
15D
  8
0
 10
294.577176
 20
203.75
 30
0.0
 40
2.0
  1
10.6
  7
HIGHWAYSIGNCADPLUS
 72
     1
 11
297.3867
 21
203.75
 31
0.0
  0
LINE
  5
15E
  8
0
 10
300.4888
 20
204.75
 30
0.0
 11
302.7201
 21
204.75
 31
0.0
  0
LINE
  5
15F
  8
0
 10
301.8256
 20
204.3028
 30
0.0
 11
302.7201
 21
204.75
 31
0.0
  0
LINE
  5
160
  8
0
 10
301.8256
 20
205.1972
 30
0.0
 11
302.7201
 21
204.75
 31
0.0
  0
LINE
  5
161
  8
0
 10
302.7201
 20
205.25
 30
0.0
 11
302.7201
 21
202.25
 31
0.0
  0
LINE
  5
162
  8
0
 10
294.2846
 20
204.75
 30
0.0
 11
292.0534
 21
204.75
 31
0.0
  0
LINE
  5
163
  8
0
 10
292.9478
 20
205.1972
 30
0.0
 11
292.0534
 21
204.75
 31
0.0
  0
LINE
  5
164
  8
0
 10
292.9478
 20
204.3028
 30
0.0
 11
292.0534
 21
204.75
 31
0.0
  0
TEXT
  5
165
  8
0
 10
320.899181
 20
203.75
 30
0.0
 40
2.0
  1
42.5
  7
HIGHWAYSIGNCADPLUS
 72
     1
 11
323.9468
 21
203.75
 31
0.0
  0
LINE
  5
166
  8
0
 10
327.1746
 20
204.75
 30
0.0
 11
345.1735
 21
204.75
 31
0.0
  0
LINE
  5
167
  8
0
 10
344.2791
 20
204.3028
 30
0.0
 11
345.1735
 21
204.75
 31
0.0
  0
LINE
  5
168
  8
0
 10
344.2791
 20
205.1972
 30
0.0
 11
345.1735
 21
204.75
 31
0.0
  0
LINE
  5
169
  8
0
 10
345.1735
 20
205.25
 30
0.0
 11
345.1735
 21
202.25
 31
0.0
  0
LINE
  5
16A
  8
0
 10
320.7191
 20
204.75
 30
0.0
 11
302.7201
 21
204.75
 31
0.0
  0
LINE
  5
16B
  8
0
 10
303.6145
 20
205.1972
 30
0.0
 11
302.7201
 21
204.75
 31
0.0
  0
LINE
  5
16C
  8
0
 10
303.6145
 20
204.3028
 30
0.0
 11
302.7201
 21
204.75
 31
0.0
  0
TEXT
  5
16D
  8
0
 10
335.285781
 20
198.75
 30
0.0
 40
2.0
  1
39.3
  7
HIGHWAYSIGNCADPLUS
 72
     1
 11
338.3334
 21
198.75
 31
0.0
  0
LINE
  5
16E
  8
0
 10
341.514
 20
199.75
 30
0.0
 11
358.0
 21
199.75
 31
0.0
  0
LINE
  5
16F
  8
0
 10
357.1056
 20
199.3028
 30
0.0
 11
358.0
 21
199.75
 31
0.0
  0
LINE
  5
170
  8
0
 10
357.1056
 20
200.1972
 30
0.0
 11
358.0
 21
199.75
 31
0.0
  0
LINE
  5
171
  8
0
 10
358.0
 20
200.25
 30
0.0
 11
358.0
 21
197.25
 31
0.0
  0
LINE
  5
172
  8
0
 10
335.1528
 20
199.75
 30
0.0
 11
318.6668
 21
199.75
 31
0.0
  0
LINE
  5
173
  8
0
 10
319.5612
 20
200.1972
 30
0.0
 11
318.6668
 21
199.75
 31
0.0
  0
LINE
  5
174
  8
0
 10
319.5612
 20
199.3028
 30
0.0
 11
318.6668
 21
199.75
 31
0.0
  0
LINE
  5
175
  8
0
 10
318.6668
 20
200.25
 30
0.0
 11
318.6668
 21
197.25
 31
0.0
  0
TEXT
  5
176
  8
0
 10
348.729657
 20
203.75
 30
0.0
 40
2.0
  1
12.8
  7
HIGHWAYSIGNCADPLUS
 72
     1
 11
351.5868
 21
203.75
 31
0.0
  0
LINE
  5
177
  8
0
 10
354.6784
 20
204.75
 30
0.0
 11
358.0
 21
204.75
 31
0.0
  0
LINE
  5
178
  8
0
 10
357.1056
 20
204.3028
 30
0.0
 11
358.0
 21
204.75
 31
0.0
  0
LINE
  5
179
  8
0
 10
357.1056
 20
205.1972
 30
0.0
 11
358.0
 21
204.75
 31
0.0
  0
LINE
  5
17A
  8
0
 10
358.0
 20
205.25
 30
0.0
 11
358.0
 21
202.25
 31
0.0
  0
LINE
  5
17B
  8
0
 10
348.4951
 20
204.75
 30
0.0
 11
345.1735
 21
204.75
 31
0.0
  0
LINE
  5
17C
  8
0
 10
346.068
 20
205.1972
 30
0.0
 11
345.1735
 21
204.75
 31
0.0
  0
LINE
  5
17D
  8
0
 10
346.068
 20
204.3028
 30
0.0
 11
345.1735
 21
204.75
 31
0.0
  0
LINE
  5
17E
  8
0
 10
345.1735
 20
205.25
 30
0.0
 11
345.1735
 21
202.25
 31
0.0
  0
TEXT
  5
17F
  8
0
 10
362.75
 20
154.571362
 30
0.0
 40
2.0
  1
5.3
 50
90.0
  7
HIGHWAYSIGNCADPLUS
 72
     1
 11
362.75
 21
156.6666
 31
0.0
  0
LINE
  5
180
  8
0
 10
362.25
 20
159.3333
 30
0.0
 11
359.25
 21
159.3333
 31
0.0
  0
LINE
  5
181
  8
0
 10
362.25
 20
154.0
 30
0.0
 11
359.25
 21
154.0
 31
0.0
  0
TEXT
  5
182
  8
0
 10
367.75
 20
173.380952
 30
0.0
 40
2.0
  1
42
 50
90.0
  7
HIGHWAYSIGNCADPLUS
 72
     1
 11
367.75
 21
175.0
 31
0.0
  0
LINE
  5
183
  8
0
 10
366.75
 20
177.0079
 30
0.0
 11
366.75
 21
196.0
 31
0.0
  0
LINE
  5
184
  8
0
 10
367.1972
 20
195.1056
 30
0.0
 11
366.75
 21
196.0
 31
0.0
  0
LINE
  5
185
  8
0
 10
366.3028
 20
195.1056
 30
0.0
 11
366.75
 21
196.0
 31
0.0
  0
LINE
  5
186
  8
0
 10
367.25
 20
196.0
 30
0.0
 11
358.5
 21
196.0
 31
0.0
  0
LINE
  5
187
  8
0
 10
366.75
 20
172.9921
 30
0.0
 11
366.75
 21
154.0
 31
0.0
  0
LINE
  5
188
  8
0
 10
366.3028
 20
154.8944
 30
0.0
 11
366.75
 21
154.0
 31
0.0
  0
LINE
  5
189
  8
0
 10
367.1972
 20
154.8944
 30
0.0
 11
366.75
 21
154.0
 31
0.0
  0
LINE
  5
18A
  8
0
 10
367.25
 20
154.0
 30
0.0
 11
358.5
 21
154.0
 31
0.0
  0
TEXT
  5
18B
  8
0
 10
277.666667
 20
208.75
 30
0.0
 40
2.0
  1
156
  7
HIGHWAYSIGNCADPLUS
 72
     1
 11
280.0
 21
208.75
 31
0.0
  0
LINE
  5
18C
  8
0
 10
282.699
 20
209.75
 30
0.0
 11
358.0
 21
209.75
 31
0.0
  0
LINE
  5
18D
  8
0
 10
357.1056
 20
209.3028
 30
0.0
 11
358.0
 21
209.75
 31
0.0
  0
LINE
  5
18E
  8
0
 10
357.1056
 20
210.1972
 30
0.0
 11
358.0
 21
209.75
 31
0.0
  0
LINE
  5
18F
  8
0
 10
358.0
 20
210.25
 30
0.0
 11
358.0
 21
196.5
 31
0.0
  0
LINE
  5
190
  8
0
 10
277.301
 20
209.75
 30
0.0
 11
202.0
 21
209.75
 31
0.0
  0
LINE
  5
191
  8
0
 10
202.8944
 20
210.1972
 30
0.0
 11
202.0
 21
209.75
 31
0.0
  0
LINE
  5
192
  8
0
 10
202.8944
 20
209.3028
 30
0.0
 11
202.0
 21
209.75
 31
0.0
  0
LINE
  5
193
  8
0
 10
202.0
 20
210.25
 30
0.0
 11
202.0
 21
196.5
 31
0.0
  0
TEXT
  5
194
  8
0
 10
202.0
 20
121.916667
 30
0.0
 40
2.0
  1
3.0" Radius, 1.0" Border, 1.0" Indent, Black on White; 
  7
HIGHWAYSIGNCADPLUS
 11
202.0
 21
121.25
 31
0.0
 73
     1
  0
TEXT
  5
195
  8
0
 10
202.0
 20
117.916667
 30
0.0
 40
2.0
  1
[TWO-AXLE] E Mod 2K; [VEHICLES ONLY] E Mod 2K; 
  7
HIGHWAYSIGNCADPLUS
 11
202.0
 21
117.25
 31
0.0
 73
     1
  0
TEXT
  5
196
  8
0
 10
241.3332
 20
178.0
 30
0.0
 40
10.6667
  1
T
  7
HIGHWAYEMOD2K
  0
TEXT
  5
197
  8
0
 10
250.0799
 20
178.0
 30
0.0
 40
10.6667
  1
W
  7
HIGHWAYEMOD2K
  0
TEXT
  5
198
  8
0
 10
262.88
 20
178.0
 30
0.0
 40
10.6667
  1
O
  7
HIGHWAYEMOD2K
  0
TEXT
  5
199
  8
0
 10
273.2267
 20
178.0
 30
0.0
 40
10.6667
  1
-
  7
HIGHWAYEMOD2K
  0
TEXT
  5
19A
  8
0
 10
277.7067
 20
178.0
 30
0.0
 40
10.6667
  1
A
  7
HIGHWAYEMOD2K
  0
TEXT
  5
19B
  8
0
 10
289.6534
 20
178.0
 30
0.0
 40
10.6667
  1
X
  7
HIGHWAYEMOD2K
  0
TEXT
  5
19C
  8
0
 10
301.1734
 20
178.0
 30
0.0
 40
10.6667
  1
L
  7
HIGHWAYEMOD2K
  0
TEXT
  5
19D
  8
0
 10
310.7734
 20
178.0
 30
0.0
 40
10.6667
  1
E
  7
HIGHWAYEMOD2K
  0
TEXT
  5
19E
  8
0
 10
214.8265
 20
159.3333
 30
0.0
 40
10.6667
  1
V
  7
HIGHWAYEMOD2K
  0
TEXT
  5
19F
  8
0
 10
226.5598
 20
159.3333
 30
0.0
 40
10.6667
  1
E
  7
HIGHWAYEMOD2K
  0
TEXT
  5
1A0
  8
0
 10
236.6932
 20
159.3333
 30
0.0
 40
10.6667
  1
H
  7
HIGHWAYEMOD2K
  0
TEXT
  5
1A1
  8
0
 10
248.3199
 20
159.3333
 30
0.0
 40
10.6667
  1
I
  7
HIGHWAYEMOD2K
  0
TEXT
  5
1A2
  8
0
 10
253.0133
 20
159.3333
 30
0.0
 40
10.6667
  1
C
  7
HIGHWAYEMOD2K
  0
TEXT
  5
1A3
  8
0
 10
264.0
 20
159.3333
 30
0.0
 40
10.6667
  1
L
  7
HIGHWAYEMOD2K
  0
TEXT
  5
1A4
  8
0
 10
273.6
 20
159.3333
 30
0.0
 40
10.6667
  1
E
  7
HIGHWAYEMOD2K
  0
TEXT
  5
1A5
  8
0
 10
283.4133
 20
159.3333
 30
0.0
 40
10.6667
  1
S
  7
HIGHWAYEMOD2K
  0
TEXT
  5
1A6
  8
0
 10
292.0534
 20
159.3333
 30
0.0
 40
10.6667
  1
 
  7
HIGHWAYEMOD2K
  0
TEXT
  5
1A7
  8
0
 10
302.7201
 20
159.3333
 30
0.0
 40
10.6667
  1
O
  7
HIGHWAYEMOD2K
  0
TEXT
  5
1A8
  8
0
 10
314.2401
 20
159.3333
 30
0.0
 40
10.6667
  1
N
  7
HIGHWAYEMOD2K
  0
TEXT
  5
1A9
  8
0
 10
325.8668
 20
159.3333
 30
0.0
 40
10.6667
  1
L
  7
HIGHWAYEMOD2K
  0
TEXT
  5
1AA
  8
0
 10
334.4002
 20
159.3333
 30
0.0
 40
10.6667
  1
Y
  7
HIGHWAYEMOD2K
  0
TEXT
  5
1AB
  8
0
 10
211.6798
 20
137.1666
 30
0.0
 40
10.6667
  1
B
  7
HIGHWAYEMOD2K
  0
TEXT
  5
1AC
  8
0
 10
222.6665
 20
137.1666
 30
0.0
 40
10.6667
  1
U
  7
HIGHWAYEMOD2K
  0
TEXT
  5
1AD
  8
0
 10
233.9732
 20
137.1666
 30
0.0
 40
10.6667
  1
S
  7
HIGHWAYEMOD2K
  0
TEXT
  5
1AE
  8
0
 10
245.2799
 20
137.1666
 30
0.0
 40
10.6667
  1
E
  7
HIGHWAYEMOD2K
  0
TEXT
  5
1AF
  8
0
 10
255.0932
 20
137.1666
 30
0.0
 40
10.6667
  1
S
  7
HIGHWAYEMOD2K
  0
TEXT
  5
1B0
  8
0
 10
263.7333
 20
137.1666
 30
0.0
 40
10.6667
  1
 
  7
HIGHWAYEMOD2K
  0
TEXT
  5
1B1
  8
0
 10
274.4
 20
137.1666
 30
0.0
 40
10.6667
  1
A
  7
HIGHWAYEMOD2K
  0
TEXT
  5
1B2
  8
0
 10
287.0933
 20
137.1666
 30
0.0
 40
10.6667
  1
L
  7
HIGHWAYEMOD2K
  0
TEXT
  5
1B3
  8
0
 10
296.6934
 20
137.1666
 30
0.0
 40
10.6667
  1
L
  7
HIGHWAYEMOD2K
  0
TEXT
  5
1B4
  8
0
 10
305.8667
 20
137.1666
 30
0.0
 40
10.6667
  1
O
  7
HIGHWAYEMOD2K
  0
TEXT
  5
1B5
  8
0
 10
316.3201
 20
137.1666
 30
0.0
 40
10.6667
  1
W
  7
HIGHWAYEMOD2K
  0
TEXT
  5
1B6
  8
0
 10
329.5468
 20
137.1666
 30
0.0
 40
10.6667
  1
E
  7
HIGHWAYEMOD2K
  0
TEXT
  5
1B7
  8
0
 10
339.6802
 20
137.1666
 30
0.0
 40
10.6667
  1
D
  7
HIGHWAYEMOD2K
  0
ENDSEC
  0
EOF
