  0
SECTION
  2
HEADER
  9
$ACADVER
  1
AC1009
  0
ENDSEC
  0
SECTION
  2
TABLES
  0
TABLE
  2
STYLE
 70
   5
  0
STYLE
  2
STANDARD
 70
    64
 40
0.0
 41
1.0
 50
0.0
 71
     0
 42
1.0
  3
txt
  4

  0
STYLE
  2
HIGHWAYEMODPLUS
 70
    64
 40
0.0
 41
1.0
 50
0.0
 71
     0
 42
1.0
  3
Highway E Mod Plus
  4

  0
STYLE
  2
HIGHWAYSIGNCADPLUS
 70
    64
 40
0.0
 41
1.0
 50
0.0
 71
     0
 42
1.0
  3
Highway SignCAD Plus
  4

  0
STYLE
  2
HIGHWAYCPLUS
 70
    64
 40
0.0
 41
1.0
 50
0.0
 71
     0
 42
1.0
  3
Highway C Plus
  4

  0
STYLE
  2
HIGHWAYDPLUS
 70
    64
 40
0.0
 41
1.0
 50
0.0
 71
     0
 42
1.0
  3
Highway D Plus
  4

  0
ENDTAB
  0
ENDSEC
  0
SECTION
  2
ENTITIES
  0
ARC
  8
0
 10
215.4188
 20
81.375
 40
1.5
 50
180
 51
270
  0
ARC
  8
0
 10
248.4188
 20
81.375
 40
1.5
 50
270
 51
360
  0
ARC
  8
0
 10
248.4188
 20
114.375
 40
1.5
 50
0
 51
90
  0
ARC
  8
0
 10
215.4188
 20
114.375
 40
1.5
 50
90
 51
180
  0
POLYLINE
  8
0
 66
     1
 10
0
 20
0
  0
VERTEX
  8
0
 10
215.4188
 20
79.875
  0
VERTEX
  8
0
 10
248.4188
 20
79.875
  0
SEQEND
  0
POLYLINE
  8
0
 66
     1
 10
0
 20
0
  0
VERTEX
  8
0
 10
249.9188
 20
81.375
  0
VERTEX
  8
0
 10
249.9188
 20
114.375
  0
SEQEND
  0
POLYLINE
  8
0
 66
     1
 10
0
 20
0
  0
VERTEX
  8
0
 10
248.4188
 20
115.875
  0
VERTEX
  8
0
 10
215.4188
 20
115.875
  0
SEQEND
  0
POLYLINE
  8
0
 66
     1
 10
0
 20
0
  0
VERTEX
  8
0
 10
213.9188
 20
114.375
  0
VERTEX
  8
0
 10
213.9188
 20
81.375
  0
SEQEND
  0
ARC
  8
0
 10
215.4188
 20
81.375
 40
1
 50
180
 51
270
  0
ARC
  8
0
 10
215.4188
 20
81.375
 40
0.25
 50
180
 51
270
  0
ARC
  8
0
 10
248.4188
 20
81.375
 40
1
 50
270
 51
360
  0
ARC
  8
0
 10
248.4188
 20
81.375
 40
0.25
 50
270
 51
360
  0
ARC
  8
0
 10
248.4188
 20
114.375
 40
1
 50
0
 51
90
  0
ARC
  8
0
 10
248.4188
 20
114.375
 40
0.25
 50
0
 51
90
  0
ARC
  8
0
 10
215.4188
 20
114.375
 40
1
 50
90
 51
180
  0
ARC
  8
0
 10
215.4188
 20
114.375
 40
0.25
 50
90
 51
180
  0
POLYLINE
  8
0
 66
     1
 10
0
 20
0
  0
VERTEX
  8
0
 10
215.4188
 20
81.125
  0
VERTEX
  8
0
 10
248.4188
 20
81.125
  0
SEQEND
  0
POLYLINE
  8
0
 66
     1
 10
0
 20
0
  0
VERTEX
  8
0
 10
248.4188
 20
80.375
  0
VERTEX
  8
0
 10
215.4188
 20
80.375
  0
SEQEND
  0
POLYLINE
  8
0
 66
     1
 10
0
 20
0
  0
VERTEX
  8
0
 10
248.6688
 20
81.375
  0
VERTEX
  8
0
 10
248.6688
 20
114.375
  0
SEQEND
  0
POLYLINE
  8
0
 66
     1
 10
0
 20
0
  0
VERTEX
  8
0
 10
249.4188
 20
114.375
  0
VERTEX
  8
0
 10
249.4188
 20
81.375
  0
SEQEND
  0
POLYLINE
  8
0
 66
     1
 10
0
 20
0
  0
VERTEX
  8
0
 10
248.4188
 20
114.625
  0
VERTEX
  8
0
 10
215.4188
 20
114.625
  0
SEQEND
  0
POLYLINE
  8
0
 66
     1
 10
0
 20
0
  0
VERTEX
  8
0
 10
215.4188
 20
115.375
  0
VERTEX
  8
0
 10
248.4188
 20
115.375
  0
SEQEND
  0
POLYLINE
  8
0
 66
     1
 10
0
 20
0
  0
VERTEX
  8
0
 10
215.1688
 20
114.375
  0
VERTEX
  8
0
 10
215.1688
 20
81.375
  0
SEQEND
  0
POLYLINE
  8
0
 66
     1
 10
0
 20
0
  0
VERTEX
  8
0
 10
214.4188
 20
81.375
  0
VERTEX
  8
0
 10
214.4188
 20
114.375
  0
SEQEND
  0
TEXT
  8
0
 10
255.3563
 20
112.7114
 40
1.5
  1
3.5
 50
90
  7
HIGHWAYSIGNCADPLUS
 72
1
 11
255.3563
 21
114.125
  0
LINE
  8
0
 10
252.7313
 20
114.125
 11
252.7313
 21
115.875
  0
LINE
  8
0
 10
253.0667
 20
115.2042
 11
252.7313
 21
115.875
  0
LINE
  8
0
 10
252.3959
 20
115.2042
 11
252.7313
 21
115.875
  0
LINE
  8
0
 10
253.1063
 20
115.875
 11
250.8563
 21
115.875
  0
LINE
  8
0
 10
252.7313
 20
114.125
 11
252.7313
 21
112.375
  0
LINE
  8
0
 10
252.3959
 20
113.0458
 11
252.7313
 21
112.375
  0
LINE
  8
0
 10
253.0667
 20
113.0458
 11
252.7313
 21
112.375
  0
LINE
  8
0
 10
253.1063
 20
112.375
 11
250.8563
 21
112.375
  0
TEXT
  8
0
 10
253.4813
 20
109.3606
 40
1.5
  1
5
 50
90
  7
HIGHWAYSIGNCADPLUS
 72
1
 11
253.4813
 21
109.875
  0
LINE
  8
0
 10
252.7313
 20
110.7644
 11
252.7313
 21
112.375
  0
LINE
  8
0
 10
253.0667
 20
111.7042
 11
252.7313
 21
112.375
  0
LINE
  8
0
 10
252.3959
 20
111.7042
 11
252.7313
 21
112.375
  0
LINE
  8
0
 10
252.7313
 20
108.9856
 11
252.7313
 21
107.375
  0
LINE
  8
0
 10
252.3959
 20
108.0458
 11
252.7313
 21
107.375
  0
LINE
  8
0
 10
253.0667
 20
108.0458
 11
252.7313
 21
107.375
  0
LINE
  8
0
 10
253.1063
 20
107.375
 11
250.8563
 21
107.375
  0
TEXT
  8
0
 10
217.423
 20
76.3125
 40
1.5
  1
9.8
  7
HIGHWAYSIGNCADPLUS
 72
1
 11
218.8366
 21
76.3125
  0
LINE
  8
0
 10
220.6253
 20
77.0625
 11
223.7545
 21
77.0625
  0
LINE
  8
0
 10
223.0837
 20
76.7271
 11
223.7545
 21
77.0625
  0
LINE
  8
0
 10
223.0837
 20
77.3979
 11
223.7545
 21
77.0625
  0
LINE
  8
0
 10
223.7545
 20
76.6875
 11
223.7545
 21
78.9375
  0
LINE
  8
0
 10
217.048
 20
77.0625
 11
213.9188
 21
77.0625
  0
LINE
  8
0
 10
214.5896
 20
77.3979
 11
213.9188
 21
77.0625
  0
LINE
  8
0
 10
214.5896
 20
76.7271
 11
213.9188
 21
77.0625
  0
LINE
  8
0
 10
213.9188
 20
76.6875
 11
213.9188
 21
78.9375
  0
TEXT
  8
0
 10
229.979
 20
76.3125
 40
1.5
  1
16.4
  7
HIGHWAYSIGNCADPLUS
 72
1
 11
231.9187
 21
76.3125
  0
LINE
  8
0
 10
234.2335
 20
77.0625
 11
240.083
 21
77.0625
  0
LINE
  8
0
 10
239.4122
 20
76.7271
 11
240.083
 21
77.0625
  0
LINE
  8
0
 10
239.4122
 20
77.3979
 11
240.083
 21
77.0625
  0
LINE
  8
0
 10
240.083
 20
76.6875
 11
240.083
 21
78.9375
  0
LINE
  8
0
 10
229.604
 20
77.0625
 11
223.7545
 21
77.0625
  0
LINE
  8
0
 10
224.4253
 20
77.3979
 11
223.7545
 21
77.0625
  0
LINE
  8
0
 10
224.4253
 20
76.7271
 11
223.7545
 21
77.0625
  0
TEXT
  8
0
 10
253.4813
 20
105.3685
 40
1.5
  1
3
 50
90
  7
HIGHWAYSIGNCADPLUS
 72
1
 11
253.4813
 21
105.875
  0
LINE
  8
0
 10
253.1063
 20
104.375
 11
250.8563
 21
104.375
  0
TEXT
  8
0
 10
253.4813
 20
102.3685
 40
1.5
  1
3
 50
90
  7
HIGHWAYSIGNCADPLUS
 72
1
 11
253.4813
 21
102.875
  0
LINE
  8
0
 10
253.1063
 20
101.375
 11
250.8563
 21
101.375
  0
TEXT
  8
0
 10
218.5895
 20
72.5625
 40
1.5
  1
13.2
  7
HIGHWAYSIGNCADPLUS
 72
1
 11
220.5215
 21
72.5625
  0
LINE
  8
0
 10
222.8284
 20
73.3125
 11
227.1242
 21
73.3125
  0
LINE
  8
0
 10
226.4534
 20
72.9771
 11
227.1242
 21
73.3125
  0
LINE
  8
0
 10
226.4534
 20
73.6479
 11
227.1242
 21
73.3125
  0
LINE
  8
0
 10
227.1242
 20
72.9375
 11
227.1242
 21
75.1875
  0
LINE
  8
0
 10
218.2145
 20
73.3125
 11
213.9188
 21
73.3125
  0
LINE
  8
0
 10
214.5896
 20
73.6479
 11
213.9188
 21
73.3125
  0
LINE
  8
0
 10
214.5896
 20
72.9771
 11
213.9188
 21
73.3125
  0
LINE
  8
0
 10
213.9188
 20
72.9375
 11
213.9188
 21
75.1875
  0
TEXT
  8
0
 10
230.4973
 20
72.5625
 40
1.5
  1
9.6
  7
HIGHWAYSIGNCADPLUS
 72
1
 11
231.9188
 21
72.5625
  0
LINE
  8
0
 10
233.7152
 20
73.3125
 11
236.7133
 21
73.3125
  0
LINE
  8
0
 10
236.0425
 20
72.9771
 11
236.7133
 21
73.3125
  0
LINE
  8
0
 10
236.0425
 20
73.6479
 11
236.7133
 21
73.3125
  0
LINE
  8
0
 10
236.7133
 20
72.9375
 11
236.7133
 21
75.1875
  0
LINE
  8
0
 10
230.1223
 20
73.3125
 11
227.1242
 21
73.3125
  0
LINE
  8
0
 10
227.795
 20
73.6479
 11
227.1242
 21
73.3125
  0
LINE
  8
0
 10
227.795
 20
72.9771
 11
227.1242
 21
73.3125
  0
TEXT
  8
0
 10
253.4813
 20
99.3685
 40
1.5
  1
3
 50
90
  7
HIGHWAYSIGNCADPLUS
 72
1
 11
253.4813
 21
99.875
  0
LINE
  8
0
 10
253.1063
 20
98.375
 11
250.8563
 21
98.375
  0
TEXT
  8
0
 10
253.4813
 20
96.3685
 40
1.5
  1
3
 50
90
  7
HIGHWAYSIGNCADPLUS
 72
1
 11
253.4813
 21
96.875
  0
LINE
  8
0
 10
253.1063
 20
95.375
 11
250.8563
 21
95.375
  0
TEXT
  8
0
 10
214.9392
 20
68.8125
 40
1.5
  1
4.9
  7
HIGHWAYSIGNCADPLUS
 72
1
 11
216.3842
 21
68.8125
  0
LINE
  8
0
 10
218.8497
 20
69.1875
 11
218.8497
 21
71.4375
  0
LINE
  8
0
 10
213.9188
 20
69.1875
 11
213.9188
 21
71.4375
  0
TEXT
  8
0
 10
223.2469
 20
68.8125
 40
1.5
  1
12.7
  7
HIGHWAYSIGNCADPLUS
 72
1
 11
225.1867
 21
68.8125
  0
LINE
  8
0
 10
227.5015
 20
69.5625
 11
231.5237
 21
69.5625
  0
LINE
  8
0
 10
230.8528
 20
69.2271
 11
231.5237
 21
69.5625
  0
LINE
  8
0
 10
230.8528
 20
69.8979
 11
231.5237
 21
69.5625
  0
LINE
  8
0
 10
231.5237
 20
69.1875
 11
231.5237
 21
71.4375
  0
LINE
  8
0
 10
222.8719
 20
69.5625
 11
218.8497
 21
69.5625
  0
LINE
  8
0
 10
219.5205
 20
69.8979
 11
218.8497
 21
69.5625
  0
LINE
  8
0
 10
219.5205
 20
69.2271
 11
218.8497
 21
69.5625
  0
TEXT
  8
0
 10
232.5171
 20
68.8125
 40
1.5
  1
3
  7
HIGHWAYSIGNCADPLUS
 72
1
 11
233.0237
 21
68.8125
  0
LINE
  8
0
 10
234.5237
 20
69.1875
 11
234.5237
 21
71.4375
  0
TEXT
  8
0
 10
237.812
 20
68.8125
 40
1.5
  1
10.5
  7
HIGHWAYSIGNCADPLUS
 72
1
 11
239.7557
 21
68.8125
  0
LINE
  8
0
 10
242.0745
 20
69.5625
 11
244.9878
 21
69.5625
  0
LINE
  8
0
 10
244.317
 20
69.2271
 11
244.9878
 21
69.5625
  0
LINE
  8
0
 10
244.317
 20
69.8979
 11
244.9878
 21
69.5625
  0
LINE
  8
0
 10
244.9878
 20
69.1875
 11
244.9878
 21
71.4375
  0
LINE
  8
0
 10
237.437
 20
69.5625
 11
234.5237
 21
69.5625
  0
LINE
  8
0
 10
235.1945
 20
69.8979
 11
234.5237
 21
69.5625
  0
LINE
  8
0
 10
235.1945
 20
69.2271
 11
234.5237
 21
69.5625
  0
TEXT
  8
0
 10
253.4813
 20
93.3685
 40
1.5
  1
3
 50
90
  7
HIGHWAYSIGNCADPLUS
 72
1
 11
253.4813
 21
93.875
  0
LINE
  8
0
 10
253.1063
 20
92.375
 11
250.8563
 21
92.375
  0
TEXT
  8
0
 10
253.4813
 20
90.3685
 40
1.5
  1
3
 50
90
  7
HIGHWAYSIGNCADPLUS
 72
1
 11
253.4813
 21
90.875
  0
LINE
  8
0
 10
253.1063
 20
89.375
 11
250.8563
 21
89.375
  0
TEXT
  8
0
 10
213.7166
 20
63.1875
 40
1.5
  1
2.5
  7
HIGHWAYSIGNCADPLUS
 72
1
 11
215.146
 21
63.1875
  0
LINE
  8
0
 10
215.146
 20
65.8125
 11
216.3731
 21
65.8125
  0
LINE
  8
0
 10
215.7023
 20
65.4771
 11
216.3731
 21
65.8125
  0
LINE
  8
0
 10
215.7023
 20
66.1479
 11
216.3731
 21
65.8125
  0
LINE
  8
0
 10
216.3731
 20
65.4375
 11
216.3731
 21
67.6875
  0
LINE
  8
0
 10
215.146
 20
65.8125
 11
213.9188
 21
65.8125
  0
LINE
  8
0
 10
214.5896
 20
66.1479
 11
213.9188
 21
65.8125
  0
LINE
  8
0
 10
214.5896
 20
65.4771
 11
213.9188
 21
65.8125
  0
LINE
  8
0
 10
213.9188
 20
65.4375
 11
213.9188
 21
67.6875
  0
TEXT
  8
0
 10
219.1024
 20
65.0625
 40
1.5
  1
8.2
  7
HIGHWAYSIGNCADPLUS
 72
1
 11
220.5081
 21
65.0625
  0
LINE
  8
0
 10
222.2889
 20
65.8125
 11
224.6431
 21
65.8125
  0
LINE
  8
0
 10
223.9723
 20
65.4771
 11
224.6431
 21
65.8125
  0
LINE
  8
0
 10
223.9723
 20
66.1479
 11
224.6431
 21
65.8125
  0
LINE
  8
0
 10
224.6431
 20
65.4375
 11
224.6431
 21
67.6875
  0
LINE
  8
0
 10
218.7274
 20
65.8125
 11
216.3731
 21
65.8125
  0
LINE
  8
0
 10
217.044
 20
66.1479
 11
216.3731
 21
65.8125
  0
LINE
  8
0
 10
217.044
 20
65.4771
 11
216.3731
 21
65.8125
  0
TEXT
  8
0
 10
225.6366
 20
65.0625
 40
1.5
  1
3
  7
HIGHWAYSIGNCADPLUS
 72
1
 11
226.1431
 21
65.0625
  0
LINE
  8
0
 10
227.6431
 20
65.4375
 11
227.6431
 21
67.6875
  0
TEXT
  8
0
 10
229.1085
 20
65.0625
 40
1.5
  1
4
  7
HIGHWAYSIGNCADPLUS
 72
1
 11
229.6465
 21
65.0625
  0
LINE
  8
0
 10
230.5594
 20
65.8125
 11
231.6498
 21
65.8125
  0
LINE
  8
0
 10
230.979
 20
65.4771
 11
231.6498
 21
65.8125
  0
LINE
  8
0
 10
230.979
 20
66.1479
 11
231.6498
 21
65.8125
  0
LINE
  8
0
 10
231.6498
 20
65.4375
 11
231.6498
 21
67.6875
  0
LINE
  8
0
 10
228.7335
 20
65.8125
 11
227.6431
 21
65.8125
  0
LINE
  8
0
 10
228.314
 20
66.1479
 11
227.6431
 21
65.8125
  0
LINE
  8
0
 10
228.314
 20
65.4771
 11
227.6431
 21
65.8125
  0
TEXT
  8
0
 10
232.6433
 20
65.0625
 40
1.5
  1
3
  7
HIGHWAYSIGNCADPLUS
 72
1
 11
233.1498
 21
65.0625
  0
LINE
  8
0
 10
234.6498
 20
65.4375
 11
234.6498
 21
67.6875
  0
TEXT
  8
0
 10
239.1134
 20
65.0625
 40
1.5
  1
12.8
  7
HIGHWAYSIGNCADPLUS
 72
1
 11
241.0571
 21
65.0625
  0
LINE
  8
0
 10
243.3758
 20
65.8125
 11
247.4644
 21
65.8125
  0
LINE
  8
0
 10
246.7936
 20
65.4771
 11
247.4644
 21
65.8125
  0
LINE
  8
0
 10
246.7936
 20
66.1479
 11
247.4644
 21
65.8125
  0
LINE
  8
0
 10
247.4644
 20
65.4375
 11
247.4644
 21
67.6875
  0
LINE
  8
0
 10
238.7384
 20
65.8125
 11
234.6498
 21
65.8125
  0
LINE
  8
0
 10
235.3206
 20
66.1479
 11
234.6498
 21
65.8125
  0
LINE
  8
0
 10
235.3206
 20
65.4771
 11
234.6498
 21
65.8125
  0
TEXT
  8
0
 10
253.4813
 20
87.3685
 40
1.5
  1
3
 50
90
  7
HIGHWAYSIGNCADPLUS
 72
1
 11
253.4813
 21
87.875
  0
LINE
  8
0
 10
253.1063
 20
86.375
 11
250.8563
 21
86.375
  0
TEXT
  8
0
 10
253.4813
 20
84.3685
 40
1.5
  1
3
 50
90
  7
HIGHWAYSIGNCADPLUS
 72
1
 11
253.4813
 21
84.875
  0
LINE
  8
0
 10
253.1063
 20
83.375
 11
250.8563
 21
83.375
  0
TEXT
  8
0
 10
215.1975
 20
61.3125
 40
1.5
  1
5.4
  7
HIGHWAYSIGNCADPLUS
 72
1
 11
216.6111
 21
61.3125
  0
LINE
  8
0
 10
218.3998
 20
62.0625
 11
219.3035
 21
62.0625
  0
LINE
  8
0
 10
218.6327
 20
61.7271
 11
219.3035
 21
62.0625
  0
LINE
  8
0
 10
218.6327
 20
62.3979
 11
219.3035
 21
62.0625
  0
LINE
  8
0
 10
219.3035
 20
61.6875
 11
219.3035
 21
63.9375
  0
LINE
  8
0
 10
214.8225
 20
62.0625
 11
213.9188
 21
62.0625
  0
LINE
  8
0
 10
214.5896
 20
62.3979
 11
213.9188
 21
62.0625
  0
LINE
  8
0
 10
214.5896
 20
61.7271
 11
213.9188
 21
62.0625
  0
LINE
  8
0
 10
213.9188
 20
61.6875
 11
213.9188
 21
63.9375
  0
TEXT
  8
0
 10
222.2875
 20
61.3125
 40
1.5
  1
7
  7
HIGHWAYSIGNCADPLUS
 72
1
 11
222.7901
 21
61.3125
  0
LINE
  8
0
 10
223.6677
 20
62.0625
 11
226.2767
 21
62.0625
  0
LINE
  8
0
 10
225.6058
 20
61.7271
 11
226.2767
 21
62.0625
  0
LINE
  8
0
 10
225.6058
 20
62.3979
 11
226.2767
 21
62.0625
  0
LINE
  8
0
 10
226.2767
 20
61.6875
 11
226.2767
 21
63.9375
  0
LINE
  8
0
 10
221.9125
 20
62.0625
 11
219.3035
 21
62.0625
  0
LINE
  8
0
 10
219.9744
 20
62.3979
 11
219.3035
 21
62.0625
  0
LINE
  8
0
 10
219.9744
 20
61.7271
 11
219.3035
 21
62.0625
  0
TEXT
  8
0
 10
227.2701
 20
61.3125
 40
1.5
  1
3
  7
HIGHWAYSIGNCADPLUS
 72
1
 11
227.7767
 21
61.3125
  0
LINE
  8
0
 10
229.2767
 20
61.6875
 11
229.2767
 21
63.9375
  0
TEXT
  8
0
 10
234.9734
 20
61.3125
 40
1.5
  1
15.2
  7
HIGHWAYSIGNCADPLUS
 72
1
 11
236.9053
 21
61.3125
  0
LINE
  8
0
 10
239.2123
 20
62.0625
 11
244.534
 21
62.0625
  0
LINE
  8
0
 10
243.8631
 20
61.7271
 11
244.534
 21
62.0625
  0
LINE
  8
0
 10
243.8631
 20
62.3979
 11
244.534
 21
62.0625
  0
LINE
  8
0
 10
244.534
 20
61.6875
 11
244.534
 21
63.9375
  0
LINE
  8
0
 10
234.5984
 20
62.0625
 11
229.2767
 21
62.0625
  0
LINE
  8
0
 10
229.9475
 20
62.3979
 11
229.2767
 21
62.0625
  0
LINE
  8
0
 10
229.9475
 20
61.7271
 11
229.2767
 21
62.0625
  0
TEXT
  8
0
 10
243.5873
 20
76.3125
 40
1.5
  1
9.8
  7
HIGHWAYSIGNCADPLUS
 72
1
 11
245.0009
 21
76.3125
  0
LINE
  8
0
 10
246.7895
 20
77.0625
 11
249.9188
 21
77.0625
  0
LINE
  8
0
 10
249.2479
 20
76.7271
 11
249.9188
 21
77.0625
  0
LINE
  8
0
 10
249.2479
 20
77.3979
 11
249.9188
 21
77.0625
  0
LINE
  8
0
 10
249.9188
 20
76.6875
 11
249.9188
 21
78.9375
  0
LINE
  8
0
 10
243.2123
 20
77.0625
 11
240.083
 21
77.0625
  0
LINE
  8
0
 10
240.7538
 20
77.3979
 11
240.083
 21
77.0625
  0
LINE
  8
0
 10
240.7538
 20
76.7271
 11
240.083
 21
77.0625
  0
LINE
  8
0
 10
240.083
 20
76.6875
 11
240.083
 21
78.9375
  0
TEXT
  8
0
 10
241.3841
 20
72.5625
 40
1.5
  1
13.2
  7
HIGHWAYSIGNCADPLUS
 72
1
 11
243.3161
 21
72.5625
  0
LINE
  8
0
 10
245.623
 20
73.3125
 11
249.9188
 21
73.3125
  0
LINE
  8
0
 10
249.2479
 20
72.9771
 11
249.9188
 21
73.3125
  0
LINE
  8
0
 10
249.2479
 20
73.6479
 11
249.9188
 21
73.3125
  0
LINE
  8
0
 10
249.9188
 20
72.9375
 11
249.9188
 21
75.1875
  0
LINE
  8
0
 10
241.0091
 20
73.3125
 11
236.7133
 21
73.3125
  0
LINE
  8
0
 10
237.3842
 20
73.6479
 11
236.7133
 21
73.3125
  0
LINE
  8
0
 10
237.3842
 20
72.9771
 11
236.7133
 21
73.3125
  0
LINE
  8
0
 10
236.7133
 20
72.9375
 11
236.7133
 21
75.1875
  0
TEXT
  8
0
 10
246.0083
 20
68.8125
 40
1.5
  1
4.9
  7
HIGHWAYSIGNCADPLUS
 72
1
 11
247.4533
 21
68.8125
  0
LINE
  8
0
 10
249.9188
 20
69.1875
 11
249.9188
 21
71.4375
  0
LINE
  8
0
 10
244.9878
 20
69.1875
 11
244.9878
 21
71.4375
  0
TEXT
  8
0
 10
247.2623
 20
63.1875
 40
1.5
  1
2.5
  7
HIGHWAYSIGNCADPLUS
 72
1
 11
248.6916
 21
63.1875
  0
LINE
  8
0
 10
248.6916
 20
65.8125
 11
249.9188
 21
65.8125
  0
LINE
  8
0
 10
249.2479
 20
65.4771
 11
249.9188
 21
65.8125
  0
LINE
  8
0
 10
249.2479
 20
66.1479
 11
249.9188
 21
65.8125
  0
LINE
  8
0
 10
249.9188
 20
65.4375
 11
249.9188
 21
67.6875
  0
LINE
  8
0
 10
248.6916
 20
65.8125
 11
247.4644
 21
65.8125
  0
LINE
  8
0
 10
248.1352
 20
66.1479
 11
247.4644
 21
65.8125
  0
LINE
  8
0
 10
248.1352
 20
65.4771
 11
247.4644
 21
65.8125
  0
LINE
  8
0
 10
247.4644
 20
65.4375
 11
247.4644
 21
67.6875
  0
TEXT
  8
0
 10
245.8128
 20
61.3125
 40
1.5
  1
5.4
  7
HIGHWAYSIGNCADPLUS
 72
1
 11
247.2264
 21
61.3125
  0
LINE
  8
0
 10
249.015
 20
62.0625
 11
249.9188
 21
62.0625
  0
LINE
  8
0
 10
249.2479
 20
61.7271
 11
249.9188
 21
62.0625
  0
LINE
  8
0
 10
249.2479
 20
62.3979
 11
249.9188
 21
62.0625
  0
LINE
  8
0
 10
249.9188
 20
61.6875
 11
249.9188
 21
63.9375
  0
LINE
  8
0
 10
245.4378
 20
62.0625
 11
244.534
 21
62.0625
  0
LINE
  8
0
 10
245.2048
 20
62.3979
 11
244.534
 21
62.0625
  0
LINE
  8
0
 10
245.2048
 20
61.7271
 11
244.534
 21
62.0625
  0
LINE
  8
0
 10
244.534
 20
61.6875
 11
244.534
 21
63.9375
  0
TEXT
  8
0
 10
255.3563
 20
80.2114
 40
1.5
  1
3.5
 50
90
  7
HIGHWAYSIGNCADPLUS
 72
1
 11
255.3563
 21
81.625
  0
LINE
  8
0
 10
252.7313
 20
81.625
 11
252.7313
 21
83.375
  0
LINE
  8
0
 10
253.0667
 20
82.7042
 11
252.7313
 21
83.375
  0
LINE
  8
0
 10
252.3959
 20
82.7042
 11
252.7313
 21
83.375
  0
LINE
  8
0
 10
253.1063
 20
83.375
 11
250.8563
 21
83.375
  0
LINE
  8
0
 10
252.7313
 20
81.625
 11
252.7313
 21
79.875
  0
LINE
  8
0
 10
252.3959
 20
80.5458
 11
252.7313
 21
79.875
  0
LINE
  8
0
 10
253.0667
 20
80.5458
 11
252.7313
 21
79.875
  0
LINE
  8
0
 10
253.1063
 20
79.875
 11
250.8563
 21
79.875
  0
TEXT
  8
0
 10
257.2313
 20
96.7559
 40
1.5
  1
36
 50
90
  7
HIGHWAYSIGNCADPLUS
 72
1
 11
257.2313
 21
97.875
  0
LINE
  8
0
 10
256.4813
 20
99.3691
 11
256.4813
 21
115.875
  0
LINE
  8
0
 10
256.8167
 20
115.2042
 11
256.4813
 21
115.875
  0
LINE
  8
0
 10
256.1459
 20
115.2042
 11
256.4813
 21
115.875
  0
LINE
  8
0
 10
256.8563
 20
115.875
 11
250.2938
 21
115.875
  0
LINE
  8
0
 10
256.4813
 20
96.3809
 11
256.4813
 21
79.875
  0
LINE
  8
0
 10
256.1459
 20
80.5458
 11
256.4813
 21
79.875
  0
LINE
  8
0
 10
256.8167
 20
80.5458
 11
256.4813
 21
79.875
  0
LINE
  8
0
 10
256.8563
 20
79.875
 11
250.2938
 21
79.875
  0
TEXT
  8
0
 10
230.7996
 20
57.5625
 40
1.5
  1
36
  7
HIGHWAYSIGNCADPLUS
 72
1
 11
231.9188
 21
57.5625
  0
LINE
  8
0
 10
233.4129
 20
58.3125
 11
249.9188
 21
58.3125
  0
LINE
  8
0
 10
249.2479
 20
57.9771
 11
249.9188
 21
58.3125
  0
LINE
  8
0
 10
249.2479
 20
58.6479
 11
249.9188
 21
58.3125
  0
LINE
  8
0
 10
249.9188
 20
57.9375
 11
249.9188
 21
79.5
  0
LINE
  8
0
 10
230.4246
 20
58.3125
 11
213.9188
 21
58.3125
  0
LINE
  8
0
 10
214.5896
 20
58.6479
 11
213.9188
 21
58.3125
  0
LINE
  8
0
 10
214.5896
 20
57.9771
 11
213.9188
 21
58.3125
  0
LINE
  8
0
 10
213.9188
 20
57.9375
 11
213.9188
 21
79.5
  0
TEXT
  8
0
 10
213.9188
 20
55.3125
 40
1.5
  1
SSD21 802360; 
  7
HIGHWAYSIGNCADPLUS
 73
1
 11
213.9188
 21
54.5625
  0
TEXT
  8
0
 10
213.9188
 20
52.3125
 40
1.5
  1
1.5" Radius, 0.8" Border, 0.5" Indent, Black on White; 
  7
HIGHWAYSIGNCADPLUS
 73
1
 11
213.9188
 21
51.5625
  0
TEXT
  8
0
 10
213.9188
 20
49.3125
 40
1.5
  1
[STOP] D; [WHILE] C; 
  7
HIGHWAYSIGNCADPLUS
 73
1
 11
213.9188
 21
48.5625
  0
TEXT
  8
0
 10
213.9188
 20
46.3125
 40
1.5
  1
[SCHOOL BUSES] C; 
  7
HIGHWAYSIGNCADPLUS
 73
1
 11
213.9188
 21
45.5625
  0
TEXT
  8
0
 10
213.9188
 20
43.3125
 40
1.5
  1
[LOAD OR UNLOAD] C; 
  7
HIGHWAYSIGNCADPLUS
 73
1
 11
213.9188
 21
42.5625
  0
TEXT
  8
0
 10
213.9188
 20
40.3125
 40
1.5
  1
[THIS ROADWAY] C; 
  7
HIGHWAYSIGNCADPLUS
 73
1
 11
213.9188
 21
39.5625
  0
TEXT
  8
0
 10
223.7545
 20
107.375
 40
5
  1
S
  7
HIGHWAYDPLUS
  0
TEXT
  8
0
 10
228.0514
 20
107.375
 40
5
  1
T
  7
HIGHWAYDPLUS
  0
TEXT
  8
0
 10
232.0358
 20
107.375
 40
5
  1
O
  7
HIGHWAYDPLUS
  0
TEXT
  8
0
 10
236.7236
 20
107.375
 40
5
  1
P
  7
HIGHWAYDPLUS
  0
TEXT
  8
0
 10
227.1242
 20
101.375
 40
3
  1
W
  7
HIGHWAYCPLUS
  0
TEXT
  8
0
 10
229.8808
 20
101.375
 40
3
  1
H
  7
HIGHWAYCPLUS
  0
TEXT
  8
0
 10
232.1531
 20
101.375
 40
3
  1
I
  7
HIGHWAYCPLUS
  0
TEXT
  8
0
 10
233.2067
 20
101.375
 40
3
  1
L
  7
HIGHWAYCPLUS
  0
TEXT
  8
0
 10
235.2133
 20
101.375
 40
3
  1
E
  7
HIGHWAYCPLUS
  0
TEXT
  8
0
 10
218.8497
 20
95.375
 40
3
  1
S
  7
HIGHWAYCPLUS
  0
TEXT
  8
0
 10
220.997
 20
95.375
 40
3
  1
C
  7
HIGHWAYCPLUS
  0
TEXT
  8
0
 10
223.1443
 20
95.375
 40
3
  1
H
  7
HIGHWAYCPLUS
  0
TEXT
  8
0
 10
225.4166
 20
95.375
 40
3
  1
O
  7
HIGHWAYCPLUS
  0
TEXT
  8
0
 10
227.6576
 20
95.375
 40
3
  1
O
  7
HIGHWAYCPLUS
  0
TEXT
  8
0
 10
230.0237
 20
95.375
 40
3
  1
L
  7
HIGHWAYCPLUS
  0
TEXT
  8
0
 10
231.5237
 20
95.375
 40
3
  1
 
  7
HIGHWAYCPLUS
  0
TEXT
  8
0
 10
234.5237
 20
95.375
 40
3
  1
B
  7
HIGHWAYCPLUS
  0
TEXT
  8
0
 10
236.7959
 20
95.375
 40
3
  1
U
  7
HIGHWAYCPLUS
  0
TEXT
  8
0
 10
239.0682
 20
95.375
 40
3
  1
S
  7
HIGHWAYCPLUS
  0
TEXT
  8
0
 10
241.3405
 20
95.375
 40
3
  1
E
  7
HIGHWAYCPLUS
  0
TEXT
  8
0
 10
243.3472
 20
95.375
 40
3
  1
S
  7
HIGHWAYCPLUS
  0
TEXT
  8
0
 10
216.3731
 20
89.375
 40
3
  1
L
  7
HIGHWAYCPLUS
  0
TEXT
  8
0
 10
218.3798
 20
89.375
 40
3
  1
O
  7
HIGHWAYCPLUS
  0
TEXT
  8
0
 10
220.6208
 20
89.375
 40
3
  1
A
  7
HIGHWAYCPLUS
  0
TEXT
  8
0
 10
223.0025
 20
89.375
 40
3
  1
D
  7
HIGHWAYCPLUS
  0
TEXT
  8
0
 10
224.6431
 20
89.375
 40
3
  1
 
  7
HIGHWAYCPLUS
  0
TEXT
  8
0
 10
227.6431
 20
89.375
 40
3
  1
O
  7
HIGHWAYCPLUS
  0
TEXT
  8
0
 10
230.0092
 20
89.375
 40
3
  1
R
  7
HIGHWAYCPLUS
  0
TEXT
  8
0
 10
231.6498
 20
89.375
 40
3
  1
 
  7
HIGHWAYCPLUS
  0
TEXT
  8
0
 10
234.6498
 20
89.375
 40
3
  1
U
  7
HIGHWAYCPLUS
  0
TEXT
  8
0
 10
236.9221
 20
89.375
 40
3
  1
N
  7
HIGHWAYCPLUS
  0
TEXT
  8
0
 10
239.1944
 20
89.375
 40
3
  1
L
  7
HIGHWAYCPLUS
  0
TEXT
  8
0
 10
241.2011
 20
89.375
 40
3
  1
O
  7
HIGHWAYCPLUS
  0
TEXT
  8
0
 10
243.4421
 20
89.375
 40
3
  1
A
  7
HIGHWAYCPLUS
  0
TEXT
  8
0
 10
245.8238
 20
89.375
 40
3
  1
D
  7
HIGHWAYCPLUS
  0
TEXT
  8
0
 10
219.3035
 20
83.375
 40
3
  1
T
  7
HIGHWAYCPLUS
  0
TEXT
  8
0
 10
221.3102
 20
83.375
 40
3
  1
H
  7
HIGHWAYCPLUS
  0
TEXT
  8
0
 10
223.5825
 20
83.375
 40
3
  1
I
  7
HIGHWAYCPLUS
  0
TEXT
  8
0
 10
224.636
 20
83.375
 40
3
  1
S
  7
HIGHWAYCPLUS
  0
TEXT
  8
0
 10
226.2767
 20
83.375
 40
3
  1
 
  7
HIGHWAYCPLUS
  0
TEXT
  8
0
 10
229.2767
 20
83.375
 40
3
  1
R
  7
HIGHWAYCPLUS
  0
TEXT
  8
0
 10
231.424
 20
83.375
 40
3
  1
O
  7
HIGHWAYCPLUS
  0
TEXT
  8
0
 10
233.665
 20
83.375
 40
3
  1
A
  7
HIGHWAYCPLUS
  0
TEXT
  8
0
 10
236.0467
 20
83.375
 40
3
  1
D
  7
HIGHWAYCPLUS
  0
TEXT
  8
0
 10
238.194
 20
83.375
 40
3
  1
W
  7
HIGHWAYCPLUS
  0
TEXT
  8
0
 10
240.614
 20
83.375
 40
3
  1
A
  7
HIGHWAYCPLUS
  0
TEXT
  8
0
 10
242.659
 20
83.375
 40
3
  1
Y
  7
HIGHWAYCPLUS
  0
ENDSEC
  0
EOF