  0
SECTION
  2
HEADER
  9
$ACADVER
  1
AC1009
  0
ENDSEC
  0
SECTION
  2
TABLES
  0
TABLE
  2
STYLE
 70
   5
  0
STYLE
  2
STANDARD
 70
    64
 40
0.0
 41
1.0
 50
0.0
 71
     0
 42
1.0
  3
txt
  4

  0
STYLE
  2
HIGHWAYEMODPLUS
 70
    64
 40
0.0
 41
1.0
 50
0.0
 71
     0
 42
1.0
  3
Highway E Mod Plus
  4

  0
STYLE
  2
HIGHWAYSIGNCADPLUS
 70
    64
 40
0.0
 41
1.0
 50
0.0
 71
     0
 42
1.0
  3
Highway SignCAD Plus
  4

  0
STYLE
  2
HIGHWAYCPLUS
 70
    64
 40
0.0
 41
1.0
 50
0.0
 71
     0
 42
1.0
  3
Highway C Plus
  4

  0
STYLE
  2
HIGHWAYBPLUS
 70
    64
 40
0.0
 41
1.0
 50
0.0
 71
     0
 42
1.0
  3
Highway B Plus
  4

  0
ENDTAB
  0
ENDSEC
  0
SECTION
  2
ENTITIES
  0
ARC
  8
0
 10
3
 20
41.0208
 40
3
 50
180
 51
270
  0
ARC
  8
0
 10
45
 20
41.0208
 40
3
 50
270
 51
360
  0
ARC
  8
0
 10
45
 20
83.0208
 40
3
 50
0
 51
90
  0
ARC
  8
0
 10
3
 20
83.0208
 40
3
 50
90
 51
180
  0
POLYLINE
  8
0
 66
     1
 10
0
 20
0
  0
VERTEX
  8
0
 10
3
 20
38.0208
  0
VERTEX
  8
0
 10
45
 20
38.0208
  0
SEQEND
  0
POLYLINE
  8
0
 66
     1
 10
0
 20
0
  0
VERTEX
  8
0
 10
48
 20
41.0208
  0
VERTEX
  8
0
 10
48
 20
83.0208
  0
SEQEND
  0
POLYLINE
  8
0
 66
     1
 10
0
 20
0
  0
VERTEX
  8
0
 10
45
 20
86.0208
  0
VERTEX
  8
0
 10
3
 20
86.0208
  0
SEQEND
  0
POLYLINE
  8
0
 66
     1
 10
0
 20
0
  0
VERTEX
  8
0
 10
0
 20
83.0208
  0
VERTEX
  8
0
 10
0
 20
41.0208
  0
SEQEND
  0
ARC
  8
0
 10
3
 20
41.0208
 40
2.5
 50
180
 51
270
  0
ARC
  8
0
 10
3
 20
41.0208
 40
2
 50
180
 51
270
  0
ARC
  8
0
 10
45
 20
41.0208
 40
2.5
 50
270
 51
360
  0
ARC
  8
0
 10
45
 20
41.0208
 40
2
 50
270
 51
360
  0
ARC
  8
0
 10
45
 20
83.0208
 40
2.5
 50
0
 51
90
  0
ARC
  8
0
 10
45
 20
83.0208
 40
2
 50
0
 51
90
  0
ARC
  8
0
 10
3
 20
83.0208
 40
2.5
 50
90
 51
180
  0
ARC
  8
0
 10
3
 20
83.0208
 40
2
 50
90
 51
180
  0
POLYLINE
  8
0
 66
     1
 10
0
 20
0
  0
VERTEX
  8
0
 10
3
 20
39.0208
  0
VERTEX
  8
0
 10
45
 20
39.0208
  0
SEQEND
  0
POLYLINE
  8
0
 66
     1
 10
0
 20
0
  0
VERTEX
  8
0
 10
45
 20
38.5208
  0
VERTEX
  8
0
 10
3
 20
38.5208
  0
SEQEND
  0
POLYLINE
  8
0
 66
     1
 10
0
 20
0
  0
VERTEX
  8
0
 10
47
 20
41.0208
  0
VERTEX
  8
0
 10
47
 20
83.0208
  0
SEQEND
  0
POLYLINE
  8
0
 66
     1
 10
0
 20
0
  0
VERTEX
  8
0
 10
47.5
 20
83.0208
  0
VERTEX
  8
0
 10
47.5
 20
41.0208
  0
SEQEND
  0
POLYLINE
  8
0
 66
     1
 10
0
 20
0
  0
VERTEX
  8
0
 10
45
 20
85.0208
  0
VERTEX
  8
0
 10
3
 20
85.0208
  0
SEQEND
  0
POLYLINE
  8
0
 66
     1
 10
0
 20
0
  0
VERTEX
  8
0
 10
3
 20
85.5208
  0
VERTEX
  8
0
 10
45
 20
85.5208
  0
SEQEND
  0
POLYLINE
  8
0
 66
     1
 10
0
 20
0
  0
VERTEX
  8
0
 10
1
 20
83.0208
  0
VERTEX
  8
0
 10
1
 20
41.0208
  0
SEQEND
  0
POLYLINE
  8
0
 66
     1
 10
0
 20
0
  0
VERTEX
  8
0
 10
0.5
 20
41.0208
  0
VERTEX
  8
0
 10
0.5
 20
83.0208
  0
SEQEND
  0
TEXT
  8
0
 10
49.9
 20
83.8835
 40
0.8
  1
2.8
 50
90
  7
HIGHWAYSIGNCADPLUS
 72
1
 11
49.9
 21
84.6458
  0
LINE
  8
0
 10
49.5
 20
85.6081
 11
49.5
 21
86.0208
  0
LINE
  8
0
 10
49.6789
 20
85.663
 11
49.5
 21
86.0208
  0
LINE
  8
0
 10
49.3211
 20
85.663
 11
49.5
 21
86.0208
  0
LINE
  8
0
 10
49.7
 20
86.0208
 11
48.5
 21
86.0208
  0
LINE
  8
0
 10
49.5
 20
83.6835
 11
49.5
 21
83.2708
  0
LINE
  8
0
 10
49.3211
 20
83.6286
 11
49.5
 21
83.2708
  0
LINE
  8
0
 10
49.6789
 20
83.6286
 11
49.5
 21
83.2708
  0
LINE
  8
0
 10
49.7
 20
83.2708
 11
48.5
 21
83.2708
  0
TEXT
  8
0
 10
49.9
 20
81.2585
 40
0.8
  1
2.5
 50
90
  7
HIGHWAYSIGNCADPLUS
 72
1
 11
49.9
 21
82.0208
  0
LINE
  8
0
 10
49.7
 20
80.7708
 11
48.5
 21
80.7708
  0
TEXT
  8
0
 10
6.3257
 20
36.1208
 40
0.8
  1
14.7
  7
HIGHWAYSIGNCADPLUS
 72
1
 11
7.3602
 21
36.1208
  0
LINE
  8
0
 10
8.5948
 20
36.5208
 11
14.7204
 21
36.5208
  0
LINE
  8
0
 10
14.3627
 20
36.3419
 11
14.7204
 21
36.5208
  0
LINE
  8
0
 10
14.3627
 20
36.6997
 11
14.7204
 21
36.5208
  0
LINE
  8
0
 10
14.7204
 20
36.3208
 11
14.7204
 21
37.5208
  0
LINE
  8
0
 10
6.1257
 20
36.5208
 11
0
 21
36.5208
  0
LINE
  8
0
 10
0.3578
 20
36.6997
 11
0
 21
36.5208
  0
LINE
  8
0
 10
0.3578
 20
36.3419
 11
0
 21
36.5208
  0
LINE
  8
0
 10
0
 20
36.3208
 11
0
 21
37.5208
  0
TEXT
  8
0
 10
19.4036
 20
36.1208
 40
0.8
  1
11.5
  7
HIGHWAYSIGNCADPLUS
 72
1
 11
20.4402
 21
36.1208
  0
LINE
  8
0
 10
21.6769
 20
36.5208
 11
26.16
 21
36.5208
  0
LINE
  8
0
 10
25.8022
 20
36.3419
 11
26.16
 21
36.5208
  0
LINE
  8
0
 10
25.8022
 20
36.6997
 11
26.16
 21
36.5208
  0
LINE
  8
0
 10
26.16
 20
36.3208
 11
26.16
 21
37.5208
  0
LINE
  8
0
 10
19.2036
 20
36.5208
 11
14.7204
 21
36.5208
  0
LINE
  8
0
 10
15.0782
 20
36.6997
 11
14.7204
 21
36.5208
  0
LINE
  8
0
 10
15.0782
 20
36.3419
 11
14.7204
 21
36.5208
  0
TEXT
  8
0
 10
26.6477
 20
36.1208
 40
0.8
  1
2.5
  7
HIGHWAYSIGNCADPLUS
 72
1
 11
27.41
 21
36.1208
  0
LINE
  8
0
 10
28.66
 20
36.3208
 11
28.66
 21
37.5208
  0
TEXT
  8
0
 10
30.3747
 20
36.1208
 40
0.8
  1
4.9
  7
HIGHWAYSIGNCADPLUS
 72
1
 11
31.1454
 21
36.1208
  0
LINE
  8
0
 10
32.1161
 20
36.5208
 11
33.6308
 21
36.5208
  0
LINE
  8
0
 10
33.2731
 20
36.3419
 11
33.6308
 21
36.5208
  0
LINE
  8
0
 10
33.2731
 20
36.6997
 11
33.6308
 21
36.5208
  0
LINE
  8
0
 10
33.6308
 20
36.3208
 11
33.6308
 21
37.5208
  0
LINE
  8
0
 10
30.1747
 20
36.5208
 11
28.66
 21
36.5208
  0
LINE
  8
0
 10
29.0178
 20
36.6997
 11
28.66
 21
36.5208
  0
LINE
  8
0
 10
29.0178
 20
36.3419
 11
28.66
 21
36.5208
  0
TEXT
  8
0
 10
50.9
 20
79.3046
 40
0.8
  1
1.5
 50
90
  7
HIGHWAYSIGNCADPLUS
 72
1
 11
50.9
 21
80.0208
  0
LINE
  8
0
 10
49.5
 20
80.0208
 11
49.5
 21
80.7708
  0
LINE
  8
0
 10
49.6789
 20
80.413
 11
49.5
 21
80.7708
  0
LINE
  8
0
 10
49.3211
 20
80.413
 11
49.5
 21
80.7708
  0
LINE
  8
0
 10
49.5
 20
80.0208
 11
49.5
 21
79.2708
  0
LINE
  8
0
 10
49.3211
 20
79.6286
 11
49.5
 21
79.2708
  0
LINE
  8
0
 10
49.6789
 20
79.6286
 11
49.5
 21
79.2708
  0
LINE
  8
0
 10
49.7
 20
79.2708
 11
48.5
 21
79.2708
  0
TEXT
  8
0
 10
49.9
 20
77.9964
 40
0.8
  1
2
 50
90
  7
HIGHWAYSIGNCADPLUS
 72
1
 11
49.9
 21
78.2708
  0
LINE
  8
0
 10
49.5
 20
78.7451
 11
49.5
 21
79.2708
  0
LINE
  8
0
 10
49.6789
 20
78.913
 11
49.5
 21
79.2708
  0
LINE
  8
0
 10
49.3211
 20
78.913
 11
49.5
 21
79.2708
  0
LINE
  8
0
 10
49.5
 20
77.7964
 11
49.5
 21
77.2708
  0
LINE
  8
0
 10
49.3211
 20
77.6286
 11
49.5
 21
77.2708
  0
LINE
  8
0
 10
49.6789
 20
77.6286
 11
49.5
 21
77.2708
  0
LINE
  8
0
 10
49.7
 20
77.2708
 11
48.5
 21
77.2708
  0
TEXT
  8
0
 10
1.0629
 20
34.1208
 40
0.8
  1
3.6
  7
HIGHWAYSIGNCADPLUS
 72
1
 11
1.821
 21
34.1208
  0
LINE
  8
0
 10
2.7791
 20
34.5208
 11
3.642
 21
34.5208
  0
LINE
  8
0
 10
3.2842
 20
34.3419
 11
3.642
 21
34.5208
  0
LINE
  8
0
 10
3.2842
 20
34.6997
 11
3.642
 21
34.5208
  0
LINE
  8
0
 10
3.642
 20
34.3208
 11
3.642
 21
35.5208
  0
LINE
  8
0
 10
0.8629
 20
34.5208
 11
0
 21
34.5208
  0
LINE
  8
0
 10
0.3578
 20
34.6997
 11
0
 21
34.5208
  0
LINE
  8
0
 10
0.3578
 20
34.3419
 11
0
 21
34.5208
  0
LINE
  8
0
 10
0
 20
34.3208
 11
0
 21
35.5208
  0
TEXT
  8
0
 10
6.0932
 20
34.1208
 40
0.8
  1
6.5
  7
HIGHWAYSIGNCADPLUS
 72
1
 11
6.8513
 21
34.1208
  0
LINE
  8
0
 10
7.8095
 20
34.5208
 11
10.0607
 21
34.5208
  0
LINE
  8
0
 10
9.7029
 20
34.3419
 11
10.0607
 21
34.5208
  0
LINE
  8
0
 10
9.7029
 20
34.6997
 11
10.0607
 21
34.5208
  0
LINE
  8
0
 10
10.0607
 20
34.3208
 11
10.0607
 21
35.5208
  0
LINE
  8
0
 10
5.8932
 20
34.5208
 11
3.642
 21
34.5208
  0
LINE
  8
0
 10
3.9997
 20
34.6997
 11
3.642
 21
34.5208
  0
LINE
  8
0
 10
3.9997
 20
34.3419
 11
3.642
 21
34.5208
  0
TEXT
  8
0
 10
10.7864
 20
34.1208
 40
0.8
  1
2
  7
HIGHWAYSIGNCADPLUS
 72
1
 11
11.0607
 21
34.1208
  0
LINE
  8
0
 10
11.5351
 20
34.5208
 11
12.0607
 21
34.5208
  0
LINE
  8
0
 10
11.7029
 20
34.3419
 11
12.0607
 21
34.5208
  0
LINE
  8
0
 10
11.7029
 20
34.6997
 11
12.0607
 21
34.5208
  0
LINE
  8
0
 10
12.0607
 20
34.3208
 11
12.0607
 21
35.5208
  0
LINE
  8
0
 10
10.5864
 20
34.5208
 11
10.0607
 21
34.5208
  0
LINE
  8
0
 10
10.4185
 20
34.6997
 11
10.0607
 21
34.5208
  0
LINE
  8
0
 10
10.4185
 20
34.3419
 11
10.0607
 21
34.5208
  0
TEXT
  8
0
 10
13.24
 20
34.1208
 40
0.8
  1
3.8
  7
HIGHWAYSIGNCADPLUS
 72
1
 11
13.994
 21
34.1208
  0
LINE
  8
0
 10
14.9479
 20
34.5208
 11
15.9272
 21
34.5208
  0
LINE
  8
0
 10
15.5694
 20
34.3419
 11
15.9272
 21
34.5208
  0
LINE
  8
0
 10
15.5694
 20
34.6997
 11
15.9272
 21
34.5208
  0
LINE
  8
0
 10
15.9272
 20
34.3208
 11
15.9272
 21
35.5208
  0
LINE
  8
0
 10
13.04
 20
34.5208
 11
12.0607
 21
34.5208
  0
LINE
  8
0
 10
12.4185
 20
34.6997
 11
12.0607
 21
34.5208
  0
LINE
  8
0
 10
12.4185
 20
34.3419
 11
12.0607
 21
34.5208
  0
TEXT
  8
0
 10
16.6529
 20
34.1208
 40
0.8
  1
2
  7
HIGHWAYSIGNCADPLUS
 72
1
 11
16.9272
 21
34.1208
  0
LINE
  8
0
 10
17.4015
 20
34.5208
 11
17.9272
 21
34.5208
  0
LINE
  8
0
 10
17.5694
 20
34.3419
 11
17.9272
 21
34.5208
  0
LINE
  8
0
 10
17.5694
 20
34.6997
 11
17.9272
 21
34.5208
  0
LINE
  8
0
 10
17.9272
 20
34.3208
 11
17.9272
 21
35.5208
  0
LINE
  8
0
 10
16.4529
 20
34.5208
 11
15.9272
 21
34.5208
  0
LINE
  8
0
 10
16.285
 20
34.6997
 11
15.9272
 21
34.5208
  0
LINE
  8
0
 10
16.285
 20
34.3419
 11
15.9272
 21
34.5208
  0
TEXT
  8
0
 10
18.771
 20
34.1208
 40
0.8
  1
3.2
  7
HIGHWAYSIGNCADPLUS
 72
1
 11
19.5187
 21
34.1208
  0
LINE
  8
0
 10
20.4663
 20
34.5208
 11
21.1102
 21
34.5208
  0
LINE
  8
0
 10
20.7524
 20
34.3419
 11
21.1102
 21
34.5208
  0
LINE
  8
0
 10
20.7524
 20
34.6997
 11
21.1102
 21
34.5208
  0
LINE
  8
0
 10
21.1102
 20
34.3208
 11
21.1102
 21
35.5208
  0
LINE
  8
0
 10
18.571
 20
34.5208
 11
17.9272
 21
34.5208
  0
LINE
  8
0
 10
18.285
 20
34.6997
 11
17.9272
 21
34.5208
  0
LINE
  8
0
 10
18.285
 20
34.3419
 11
17.9272
 21
34.5208
  0
TEXT
  8
0
 10
21.9703
 20
34.1208
 40
0.8
  1
3.2
  7
HIGHWAYSIGNCADPLUS
 72
1
 11
22.718
 21
34.1208
  0
LINE
  8
0
 10
23.6656
 20
34.5208
 11
24.3258
 21
34.5208
  0
LINE
  8
0
 10
23.968
 20
34.3419
 11
24.3258
 21
34.5208
  0
LINE
  8
0
 10
23.968
 20
34.6997
 11
24.3258
 21
34.5208
  0
LINE
  8
0
 10
24.3258
 20
34.3208
 11
24.3258
 21
35.5208
  0
LINE
  8
0
 10
21.7703
 20
34.5208
 11
21.1102
 21
34.5208
  0
LINE
  8
0
 10
21.4679
 20
34.6997
 11
21.1102
 21
34.5208
  0
LINE
  8
0
 10
21.4679
 20
34.3419
 11
21.1102
 21
34.5208
  0
TEXT
  8
0
 10
25.8211
 20
34.1208
 40
0.8
  1
4.6
  7
HIGHWAYSIGNCADPLUS
 72
1
 11
26.5959
 21
34.1208
  0
LINE
  8
0
 10
27.5708
 20
34.5208
 11
28.8661
 21
34.5208
  0
LINE
  8
0
 10
28.5083
 20
34.3419
 11
28.8661
 21
34.5208
  0
LINE
  8
0
 10
28.5083
 20
34.6997
 11
28.8661
 21
34.5208
  0
LINE
  8
0
 10
28.8661
 20
34.3208
 11
28.8661
 21
35.5208
  0
LINE
  8
0
 10
25.6211
 20
34.5208
 11
24.3258
 21
34.5208
  0
LINE
  8
0
 10
24.6835
 20
34.6997
 11
24.3258
 21
34.5208
  0
LINE
  8
0
 10
24.6835
 20
34.3419
 11
24.3258
 21
34.5208
  0
TEXT
  8
0
 10
29.5918
 20
34.1208
 40
0.8
  1
2
  7
HIGHWAYSIGNCADPLUS
 72
1
 11
29.8661
 21
34.1208
  0
LINE
  8
0
 10
30.3405
 20
34.5208
 11
30.8661
 21
34.5208
  0
LINE
  8
0
 10
30.5083
 20
34.3419
 11
30.8661
 21
34.5208
  0
LINE
  8
0
 10
30.5083
 20
34.6997
 11
30.8661
 21
34.5208
  0
LINE
  8
0
 10
30.8661
 20
34.3208
 11
30.8661
 21
35.5208
  0
LINE
  8
0
 10
29.3918
 20
34.5208
 11
28.8661
 21
34.5208
  0
LINE
  8
0
 10
29.2239
 20
34.6997
 11
28.8661
 21
34.5208
  0
LINE
  8
0
 10
29.2239
 20
34.3419
 11
28.8661
 21
34.5208
  0
TEXT
  8
0
 10
34.5334
 20
34.1208
 40
0.8
  1
8.8
  7
HIGHWAYSIGNCADPLUS
 72
1
 11
35.2894
 21
34.1208
  0
LINE
  8
0
 10
36.2454
 20
34.5208
 11
39.7127
 21
34.5208
  0
LINE
  8
0
 10
39.3549
 20
34.3419
 11
39.7127
 21
34.5208
  0
LINE
  8
0
 10
39.3549
 20
34.6997
 11
39.7127
 21
34.5208
  0
LINE
  8
0
 10
39.7127
 20
34.3208
 11
39.7127
 21
35.5208
  0
LINE
  8
0
 10
34.3334
 20
34.5208
 11
30.8661
 21
34.5208
  0
LINE
  8
0
 10
31.2239
 20
34.6997
 11
30.8661
 21
34.5208
  0
LINE
  8
0
 10
31.2239
 20
34.3419
 11
30.8661
 21
34.5208
  0
TEXT
  8
0
 10
40.4384
 20
34.1208
 40
0.8
  1
2
  7
HIGHWAYSIGNCADPLUS
 72
1
 11
40.7127
 21
34.1208
  0
LINE
  8
0
 10
41.1871
 20
34.5208
 11
41.7127
 21
34.5208
  0
LINE
  8
0
 10
41.3549
 20
34.3419
 11
41.7127
 21
34.5208
  0
LINE
  8
0
 10
41.3549
 20
34.6997
 11
41.7127
 21
34.5208
  0
LINE
  8
0
 10
41.7127
 20
34.3208
 11
41.7127
 21
35.5208
  0
LINE
  8
0
 10
40.2384
 20
34.5208
 11
39.7127
 21
34.5208
  0
LINE
  8
0
 10
40.0705
 20
34.6997
 11
39.7127
 21
34.5208
  0
LINE
  8
0
 10
40.0705
 20
34.3419
 11
39.7127
 21
34.5208
  0
TEXT
  8
0
 10
42.9408
 20
34.1208
 40
0.8
  1
3
  7
HIGHWAYSIGNCADPLUS
 72
1
 11
43.211
 21
34.1208
  0
LINE
  8
0
 10
43.6812
 20
34.5208
 11
44.7093
 21
34.5208
  0
LINE
  8
0
 10
44.3515
 20
34.3419
 11
44.7093
 21
34.5208
  0
LINE
  8
0
 10
44.3515
 20
34.6997
 11
44.7093
 21
34.5208
  0
LINE
  8
0
 10
44.7093
 20
34.3208
 11
44.7093
 21
35.5208
  0
LINE
  8
0
 10
42.7408
 20
34.5208
 11
41.7127
 21
34.5208
  0
LINE
  8
0
 10
42.0705
 20
34.6997
 11
41.7127
 21
34.5208
  0
LINE
  8
0
 10
42.0705
 20
34.3419
 11
41.7127
 21
34.5208
  0
TEXT
  8
0
 10
50.9
 20
75.8046
 40
0.8
  1
1.5
 50
90
  7
HIGHWAYSIGNCADPLUS
 72
1
 11
50.9
 21
76.5208
  0
LINE
  8
0
 10
49.5
 20
76.5208
 11
49.5
 21
77.2708
  0
LINE
  8
0
 10
49.6789
 20
76.913
 11
49.5
 21
77.2708
  0
LINE
  8
0
 10
49.3211
 20
76.913
 11
49.5
 21
77.2708
  0
LINE
  8
0
 10
49.5
 20
76.5208
 11
49.5
 21
75.7708
  0
LINE
  8
0
 10
49.3211
 20
76.1286
 11
49.5
 21
75.7708
  0
LINE
  8
0
 10
49.6789
 20
76.1286
 11
49.5
 21
75.7708
  0
LINE
  8
0
 10
49.7
 20
75.7708
 11
48.5
 21
75.7708
  0
TEXT
  8
0
 10
50.9
 20
74.3046
 40
0.8
  1
1.5
 50
90
  7
HIGHWAYSIGNCADPLUS
 72
1
 11
50.9
 21
75.0208
  0
LINE
  8
0
 10
49.5
 20
75.0208
 11
49.5
 21
75.7708
  0
LINE
  8
0
 10
49.6789
 20
75.413
 11
49.5
 21
75.7708
  0
LINE
  8
0
 10
49.3211
 20
75.413
 11
49.5
 21
75.7708
  0
LINE
  8
0
 10
49.5
 20
75.0208
 11
49.5
 21
74.2708
  0
LINE
  8
0
 10
49.3211
 20
74.6286
 11
49.5
 21
74.2708
  0
LINE
  8
0
 10
49.6789
 20
74.6286
 11
49.5
 21
74.2708
  0
LINE
  8
0
 10
49.7
 20
74.2708
 11
48.5
 21
74.2708
  0
TEXT
  8
0
 10
1.0629
 20
32.1208
 40
0.8
  1
3.6
  7
HIGHWAYSIGNCADPLUS
 72
1
 11
1.821
 21
32.1208
  0
LINE
  8
0
 10
2.7791
 20
32.5208
 11
3.642
 21
32.5208
  0
LINE
  8
0
 10
3.2842
 20
32.3419
 11
3.642
 21
32.5208
  0
LINE
  8
0
 10
3.2842
 20
32.6997
 11
3.642
 21
32.5208
  0
LINE
  8
0
 10
3.642
 20
32.3208
 11
3.642
 21
33.5208
  0
LINE
  8
0
 10
0.8629
 20
32.5208
 11
0
 21
32.5208
  0
LINE
  8
0
 10
0.3578
 20
32.6997
 11
0
 21
32.5208
  0
LINE
  8
0
 10
0.3578
 20
32.3419
 11
0
 21
32.5208
  0
LINE
  8
0
 10
0
 20
32.3208
 11
0
 21
33.5208
  0
TEXT
  8
0
 10
4.9633
 20
32.1208
 40
0.8
  1
4.1
  7
HIGHWAYSIGNCADPLUS
 72
1
 11
5.6544
 21
32.1208
  0
LINE
  8
0
 10
6.5455
 20
32.5208
 11
7.6668
 21
32.5208
  0
LINE
  8
0
 10
7.3091
 20
32.3419
 11
7.6668
 21
32.5208
  0
LINE
  8
0
 10
7.3091
 20
32.6997
 11
7.6668
 21
32.5208
  0
LINE
  8
0
 10
7.6668
 20
32.3208
 11
7.6668
 21
33.5208
  0
LINE
  8
0
 10
4.7633
 20
32.5208
 11
3.642
 21
32.5208
  0
LINE
  8
0
 10
3.9997
 20
32.6997
 11
3.642
 21
32.5208
  0
LINE
  8
0
 10
3.9997
 20
32.3419
 11
3.642
 21
32.5208
  0
TEXT
  8
0
 10
8.0119
 20
32.1208
 40
0.8
  1
1
  7
HIGHWAYSIGNCADPLUS
 72
1
 11
8.1668
 21
32.1208
  0
LINE
  8
0
 10
8.6668
 20
32.3208
 11
8.6668
 21
33.5208
  0
TEXT
  8
0
 10
9.9263
 20
32.1208
 40
0.8
  1
3
  7
HIGHWAYSIGNCADPLUS
 72
1
 11
10.1964
 21
32.1208
  0
LINE
  8
0
 10
10.6666
 20
32.5208
 11
11.7261
 21
32.5208
  0
LINE
  8
0
 10
11.3683
 20
32.3419
 11
11.7261
 21
32.5208
  0
LINE
  8
0
 10
11.3683
 20
32.6997
 11
11.7261
 21
32.5208
  0
LINE
  8
0
 10
11.7261
 20
32.3208
 11
11.7261
 21
33.5208
  0
LINE
  8
0
 10
9.7263
 20
32.5208
 11
8.6668
 21
32.5208
  0
LINE
  8
0
 10
9.0246
 20
32.6997
 11
8.6668
 21
32.5208
  0
LINE
  8
0
 10
9.0246
 20
32.3419
 11
8.6668
 21
32.5208
  0
TEXT
  8
0
 10
12.0711
 20
32.1208
 40
0.8
  1
1
  7
HIGHWAYSIGNCADPLUS
 72
1
 11
12.2261
 21
32.1208
  0
LINE
  8
0
 10
12.7261
 20
32.3208
 11
12.7261
 21
33.5208
  0
TEXT
  8
0
 10
16.2359
 20
32.1208
 40
0.8
  1
8.6
  7
HIGHWAYSIGNCADPLUS
 72
1
 11
16.9962
 21
32.1208
  0
LINE
  8
0
 10
17.9564
 20
32.5208
 11
21.2663
 21
32.5208
  0
LINE
  8
0
 10
20.9085
 20
32.3419
 11
21.2663
 21
32.5208
  0
LINE
  8
0
 10
20.9085
 20
32.6997
 11
21.2663
 21
32.5208
  0
LINE
  8
0
 10
21.2663
 20
32.3208
 11
21.2663
 21
33.5208
  0
LINE
  8
0
 10
16.0359
 20
32.5208
 11
12.7261
 21
32.5208
  0
LINE
  8
0
 10
13.0838
 20
32.6997
 11
12.7261
 21
32.5208
  0
LINE
  8
0
 10
13.0838
 20
32.3419
 11
12.7261
 21
32.5208
  0
TEXT
  8
0
 10
50.9
 20
73.2669
 40
0.8
  1
0.5
 50
90
  7
HIGHWAYSIGNCADPLUS
 72
1
 11
50.9
 21
74.0208
  0
LINE
  8
0
 10
49.7
 20
73.7708
 11
48.5
 21
73.7708
  0
TEXT
  8
0
 10
50.9
 20
72.3046
 40
0.8
  1
1.5
 50
90
  7
HIGHWAYSIGNCADPLUS
 72
1
 11
50.9
 21
73.0208
  0
LINE
  8
0
 10
49.5
 20
73.0208
 11
49.5
 21
73.7708
  0
LINE
  8
0
 10
49.6789
 20
73.413
 11
49.5
 21
73.7708
  0
LINE
  8
0
 10
49.3211
 20
73.413
 11
49.5
 21
73.7708
  0
LINE
  8
0
 10
49.5
 20
73.0208
 11
49.5
 21
72.2708
  0
LINE
  8
0
 10
49.3211
 20
72.6286
 11
49.5
 21
72.2708
  0
LINE
  8
0
 10
49.6789
 20
72.6286
 11
49.5
 21
72.2708
  0
LINE
  8
0
 10
49.7
 20
72.2708
 11
48.5
 21
72.2708
  0
TEXT
  8
0
 10
1.0629
 20
30.1208
 40
0.8
  1
3.6
  7
HIGHWAYSIGNCADPLUS
 72
1
 11
1.821
 21
30.1208
  0
LINE
  8
0
 10
2.7791
 20
30.5208
 11
3.642
 21
30.5208
  0
LINE
  8
0
 10
3.2842
 20
30.3419
 11
3.642
 21
30.5208
  0
LINE
  8
0
 10
3.2842
 20
30.6997
 11
3.642
 21
30.5208
  0
LINE
  8
0
 10
3.642
 20
30.3208
 11
3.642
 21
31.5208
  0
LINE
  8
0
 10
0.8629
 20
30.5208
 11
0
 21
30.5208
  0
LINE
  8
0
 10
0.3578
 20
30.6997
 11
0
 21
30.5208
  0
LINE
  8
0
 10
0.3578
 20
30.3419
 11
0
 21
30.5208
  0
LINE
  8
0
 10
0
 20
30.3208
 11
0
 21
31.5208
  0
TEXT
  8
0
 10
3.6824
 20
29.1208
 40
0.8
  1
1.6
  7
HIGHWAYSIGNCADPLUS
 72
1
 11
4.4028
 21
29.1208
  0
LINE
  8
0
 10
4.4028
 20
30.5208
 11
5.1637
 21
30.5208
  0
LINE
  8
0
 10
4.8059
 20
30.3419
 11
5.1637
 21
30.5208
  0
LINE
  8
0
 10
4.8059
 20
30.6997
 11
5.1637
 21
30.5208
  0
LINE
  8
0
 10
5.1637
 20
30.3208
 11
5.1637
 21
31.5208
  0
LINE
  8
0
 10
4.4028
 20
30.5208
 11
3.642
 21
30.5208
  0
LINE
  8
0
 10
3.9997
 20
30.6997
 11
3.642
 21
30.5208
  0
LINE
  8
0
 10
3.9997
 20
30.3419
 11
3.642
 21
30.5208
  0
TEXT
  8
0
 10
5.5087
 20
30.1208
 40
0.8
  1
1
  7
HIGHWAYSIGNCADPLUS
 72
1
 11
5.6637
 21
30.1208
  0
LINE
  8
0
 10
6.1637
 20
30.3208
 11
6.1637
 21
31.5208
  0
TEXT
  8
0
 10
7.2658
 20
30.1208
 40
0.8
  1
3.7
  7
HIGHWAYSIGNCADPLUS
 72
1
 11
8.0176
 21
30.1208
  0
LINE
  8
0
 10
8.9694
 20
30.5208
 11
9.8715
 21
30.5208
  0
LINE
  8
0
 10
9.5137
 20
30.3419
 11
9.8715
 21
30.5208
  0
LINE
  8
0
 10
9.5137
 20
30.6997
 11
9.8715
 21
30.5208
  0
LINE
  8
0
 10
9.8715
 20
30.3208
 11
9.8715
 21
31.5208
  0
LINE
  8
0
 10
7.0658
 20
30.5208
 11
6.1637
 21
30.5208
  0
LINE
  8
0
 10
6.5215
 20
30.6997
 11
6.1637
 21
30.5208
  0
LINE
  8
0
 10
6.5215
 20
30.3419
 11
6.1637
 21
30.5208
  0
TEXT
  8
0
 10
10.2165
 20
30.1208
 40
0.8
  1
1
  7
HIGHWAYSIGNCADPLUS
 72
1
 11
10.3715
 21
30.1208
  0
LINE
  8
0
 10
10.8715
 20
30.3208
 11
10.8715
 21
31.5208
  0
TEXT
  8
0
 10
11.9927
 20
30.1208
 40
0.8
  1
3.7
  7
HIGHWAYSIGNCADPLUS
 72
1
 11
12.7445
 21
30.1208
  0
LINE
  8
0
 10
13.6963
 20
30.5208
 11
14.6175
 21
30.5208
  0
LINE
  8
0
 10
14.2597
 20
30.3419
 11
14.6175
 21
30.5208
  0
LINE
  8
0
 10
14.2597
 20
30.6997
 11
14.6175
 21
30.5208
  0
LINE
  8
0
 10
14.6175
 20
30.3208
 11
14.6175
 21
31.5208
  0
LINE
  8
0
 10
11.7927
 20
30.5208
 11
10.8715
 21
30.5208
  0
LINE
  8
0
 10
11.2293
 20
30.6997
 11
10.8715
 21
30.5208
  0
LINE
  8
0
 10
11.2293
 20
30.3419
 11
10.8715
 21
30.5208
  0
TEXT
  8
0
 10
14.9625
 20
30.1208
 40
0.8
  1
1
  7
HIGHWAYSIGNCADPLUS
 72
1
 11
15.1175
 21
30.1208
  0
LINE
  8
0
 10
15.6175
 20
30.3208
 11
15.6175
 21
31.5208
  0
TEXT
  8
0
 10
16.1345
 20
30.1208
 40
0.8
  1
2.6
  7
HIGHWAYSIGNCADPLUS
 72
1
 11
16.901
 21
30.1208
  0
LINE
  8
0
 10
18.1845
 20
30.3208
 11
18.1845
 21
31.5208
  0
TEXT
  8
0
 10
50.9
 20
71.2669
 40
0.8
  1
0.5
 50
90
  7
HIGHWAYSIGNCADPLUS
 72
1
 11
50.9
 21
72.0208
  0
LINE
  8
0
 10
49.7
 20
71.7708
 11
48.5
 21
71.7708
  0
TEXT
  8
0
 10
50.9
 20
70.3046
 40
0.8
  1
1.5
 50
90
  7
HIGHWAYSIGNCADPLUS
 72
1
 11
50.9
 21
71.0208
  0
LINE
  8
0
 10
49.5
 20
71.0208
 11
49.5
 21
71.7708
  0
LINE
  8
0
 10
49.6789
 20
71.413
 11
49.5
 21
71.7708
  0
LINE
  8
0
 10
49.3211
 20
71.413
 11
49.5
 21
71.7708
  0
LINE
  8
0
 10
49.5
 20
71.0208
 11
49.5
 21
70.2708
  0
LINE
  8
0
 10
49.3211
 20
70.6286
 11
49.5
 21
70.2708
  0
LINE
  8
0
 10
49.6789
 20
70.6286
 11
49.5
 21
70.2708
  0
LINE
  8
0
 10
49.7
 20
70.2708
 11
48.5
 21
70.2708
  0
TEXT
  8
0
 10
1.0629
 20
28.1208
 40
0.8
  1
3.6
  7
HIGHWAYSIGNCADPLUS
 72
1
 11
1.821
 21
28.1208
  0
LINE
  8
0
 10
2.7791
 20
28.5208
 11
3.642
 21
28.5208
  0
LINE
  8
0
 10
3.2842
 20
28.3419
 11
3.642
 21
28.5208
  0
LINE
  8
0
 10
3.2842
 20
28.6997
 11
3.642
 21
28.5208
  0
LINE
  8
0
 10
3.642
 20
28.3208
 11
3.642
 21
29.5208
  0
LINE
  8
0
 10
0.8629
 20
28.5208
 11
0
 21
28.5208
  0
LINE
  8
0
 10
0.3578
 20
28.6997
 11
0
 21
28.5208
  0
LINE
  8
0
 10
0.3578
 20
28.3419
 11
0
 21
28.5208
  0
LINE
  8
0
 10
0
 20
28.3208
 11
0
 21
29.5208
  0
TEXT
  8
0
 10
5.2052
 20
28.1208
 40
0.8
  1
4.7
  7
HIGHWAYSIGNCADPLUS
 72
1
 11
5.9738
 21
28.1208
  0
LINE
  8
0
 10
6.9424
 20
28.5208
 11
8.3056
 21
28.5208
  0
LINE
  8
0
 10
7.9478
 20
28.3419
 11
8.3056
 21
28.5208
  0
LINE
  8
0
 10
7.9478
 20
28.6997
 11
8.3056
 21
28.5208
  0
LINE
  8
0
 10
8.3056
 20
28.3208
 11
8.3056
 21
29.5208
  0
LINE
  8
0
 10
5.0052
 20
28.5208
 11
3.642
 21
28.5208
  0
LINE
  8
0
 10
3.9997
 20
28.6997
 11
3.642
 21
28.5208
  0
LINE
  8
0
 10
3.9997
 20
28.3419
 11
3.642
 21
28.5208
  0
TEXT
  8
0
 10
8.6506
 20
28.1208
 40
0.8
  1
1
  7
HIGHWAYSIGNCADPLUS
 72
1
 11
8.8056
 21
28.1208
  0
LINE
  8
0
 10
9.3056
 20
28.3208
 11
9.3056
 21
29.5208
  0
TEXT
  8
0
 10
11.25
 20
28.1208
 40
0.8
  1
5.4
  7
HIGHWAYSIGNCADPLUS
 72
1
 11
12.0039
 21
28.1208
  0
LINE
  8
0
 10
12.9578
 20
28.5208
 11
14.7022
 21
28.5208
  0
LINE
  8
0
 10
14.3444
 20
28.3419
 11
14.7022
 21
28.5208
  0
LINE
  8
0
 10
14.3444
 20
28.6997
 11
14.7022
 21
28.5208
  0
LINE
  8
0
 10
14.7022
 20
28.3208
 11
14.7022
 21
29.5208
  0
LINE
  8
0
 10
11.05
 20
28.5208
 11
9.3056
 21
28.5208
  0
LINE
  8
0
 10
9.6634
 20
28.6997
 11
9.3056
 21
28.5208
  0
LINE
  8
0
 10
9.6634
 20
28.3419
 11
9.3056
 21
28.5208
  0
TEXT
  8
0
 10
22.5259
 20
32.1208
 40
0.8
  1
3
  7
HIGHWAYSIGNCADPLUS
 72
1
 11
22.796
 21
32.1208
  0
LINE
  8
0
 10
23.2662
 20
32.5208
 11
24.3258
 21
32.5208
  0
LINE
  8
0
 10
23.968
 20
32.3419
 11
24.3258
 21
32.5208
  0
LINE
  8
0
 10
23.968
 20
32.6997
 11
24.3258
 21
32.5208
  0
LINE
  8
0
 10
24.3258
 20
32.3208
 11
24.3258
 21
33.5208
  0
LINE
  8
0
 10
22.3259
 20
32.5208
 11
21.2663
 21
32.5208
  0
LINE
  8
0
 10
21.624
 20
32.6997
 11
21.2663
 21
32.5208
  0
LINE
  8
0
 10
21.624
 20
32.3419
 11
21.2663
 21
32.5208
  0
TEXT
  8
0
 10
23.9703
 20
31.1208
 40
0.8
  1
0.8
  7
HIGHWAYSIGNCADPLUS
 72
1
 11
24.7242
 21
31.1208
  0
LINE
  8
0
 10
25.1227
 20
32.3208
 11
25.1227
 21
33.5208
  0
TEXT
  8
0
 10
25.4677
 20
32.1208
 40
0.8
  1
1
  7
HIGHWAYSIGNCADPLUS
 72
1
 11
25.6227
 21
32.1208
  0
LINE
  8
0
 10
26.1227
 20
32.3208
 11
26.1227
 21
33.5208
  0
TEXT
  8
0
 10
27.1996
 20
32.1208
 40
0.8
  1
3.7
  7
HIGHWAYSIGNCADPLUS
 72
1
 11
27.9514
 21
32.1208
  0
LINE
  8
0
 10
28.9032
 20
32.5208
 11
29.7802
 21
32.5208
  0
LINE
  8
0
 10
29.4224
 20
32.3419
 11
29.7802
 21
32.5208
  0
LINE
  8
0
 10
29.4224
 20
32.6997
 11
29.7802
 21
32.5208
  0
LINE
  8
0
 10
29.7802
 20
32.3208
 11
29.7802
 21
33.5208
  0
LINE
  8
0
 10
26.9996
 20
32.5208
 11
26.1227
 21
32.5208
  0
LINE
  8
0
 10
26.4804
 20
32.6997
 11
26.1227
 21
32.5208
  0
LINE
  8
0
 10
26.4804
 20
32.3419
 11
26.1227
 21
32.5208
  0
TEXT
  8
0
 10
30.1252
 20
32.1208
 40
0.8
  1
1
  7
HIGHWAYSIGNCADPLUS
 72
1
 11
30.2802
 21
32.1208
  0
LINE
  8
0
 10
30.7802
 20
32.3208
 11
30.7802
 21
33.5208
  0
TEXT
  8
0
 10
30.3385
 20
31.1208
 40
0.8
  1
0.6
  7
HIGHWAYSIGNCADPLUS
 72
1
 11
31.0966
 21
31.1208
  0
LINE
  8
0
 10
31.413
 20
32.3208
 11
31.413
 21
33.5208
  0
TEXT
  8
0
 10
31.758
 20
32.1208
 40
0.8
  1
1
  7
HIGHWAYSIGNCADPLUS
 72
1
 11
31.913
 21
32.1208
  0
LINE
  8
0
 10
32.413
 20
32.3208
 11
32.413
 21
33.5208
  0
TEXT
  8
0
 10
33.7678
 20
32.1208
 40
0.8
  1
4.3
  7
HIGHWAYSIGNCADPLUS
 72
1
 11
34.5364
 21
32.1208
  0
LINE
  8
0
 10
35.505
 20
32.5208
 11
36.6599
 21
32.5208
  0
LINE
  8
0
 10
36.3021
 20
32.3419
 11
36.6599
 21
32.5208
  0
LINE
  8
0
 10
36.3021
 20
32.6997
 11
36.6599
 21
32.5208
  0
LINE
  8
0
 10
36.6599
 20
32.3208
 11
36.6599
 21
33.5208
  0
LINE
  8
0
 10
33.5678
 20
32.5208
 11
32.413
 21
32.5208
  0
LINE
  8
0
 10
32.7708
 20
32.6997
 11
32.413
 21
32.5208
  0
LINE
  8
0
 10
32.7708
 20
32.3419
 11
32.413
 21
32.5208
  0
TEXT
  8
0
 10
37.0049
 20
32.1208
 40
0.8
  1
1
  7
HIGHWAYSIGNCADPLUS
 72
1
 11
37.1599
 21
32.1208
  0
LINE
  8
0
 10
37.6599
 20
32.3208
 11
37.6599
 21
33.5208
  0
TEXT
  8
0
 10
37.7355
 20
31.1208
 40
0.8
  1
1.6
  7
HIGHWAYSIGNCADPLUS
 72
1
 11
38.4559
 21
31.1208
  0
LINE
  8
0
 10
38.4559
 20
32.5208
 11
39.2519
 21
32.5208
  0
LINE
  8
0
 10
38.8941
 20
32.3419
 11
39.2519
 21
32.5208
  0
LINE
  8
0
 10
38.8941
 20
32.6997
 11
39.2519
 21
32.5208
  0
LINE
  8
0
 10
39.2519
 20
32.3208
 11
39.2519
 21
33.5208
  0
LINE
  8
0
 10
38.4559
 20
32.5208
 11
37.6599
 21
32.5208
  0
LINE
  8
0
 10
38.0176
 20
32.6997
 11
37.6599
 21
32.5208
  0
LINE
  8
0
 10
38.0176
 20
32.3419
 11
37.6599
 21
32.5208
  0
TEXT
  8
0
 10
20.5766
 20
30.1208
 40
0.8
  1
6.1
  7
HIGHWAYSIGNCADPLUS
 72
1
 11
21.2551
 21
30.1208
  0
LINE
  8
0
 10
22.1337
 20
30.5208
 11
24.3258
 21
30.5208
  0
LINE
  8
0
 10
23.968
 20
30.3419
 11
24.3258
 21
30.5208
  0
LINE
  8
0
 10
23.968
 20
30.6997
 11
24.3258
 21
30.5208
  0
LINE
  8
0
 10
24.3258
 20
30.3208
 11
24.3258
 21
31.5208
  0
LINE
  8
0
 10
20.3766
 20
30.5208
 11
18.1845
 21
30.5208
  0
LINE
  8
0
 10
18.5423
 20
30.6997
 11
18.1845
 21
30.5208
  0
LINE
  8
0
 10
18.5423
 20
30.3419
 11
18.1845
 21
30.5208
  0
TEXT
  8
0
 10
26.6432
 20
30.1208
 40
0.8
  1
6.2
  7
HIGHWAYSIGNCADPLUS
 72
1
 11
27.395
 21
30.1208
  0
LINE
  8
0
 10
28.3469
 20
30.5208
 11
30.4643
 21
30.5208
  0
LINE
  8
0
 10
30.1065
 20
30.3419
 11
30.4643
 21
30.5208
  0
LINE
  8
0
 10
30.1065
 20
30.6997
 11
30.4643
 21
30.5208
  0
LINE
  8
0
 10
30.4643
 20
30.3208
 11
30.4643
 21
31.5208
  0
LINE
  8
0
 10
26.4432
 20
30.5208
 11
24.3258
 21
30.5208
  0
LINE
  8
0
 10
24.6835
 20
30.6997
 11
24.3258
 21
30.5208
  0
LINE
  8
0
 10
24.6835
 20
30.3419
 11
24.3258
 21
30.5208
  0
TEXT
  8
0
 10
30.8093
 20
30.1208
 40
0.8
  1
1
  7
HIGHWAYSIGNCADPLUS
 72
1
 11
30.9643
 21
30.1208
  0
LINE
  8
0
 10
31.4643
 20
30.3208
 11
31.4643
 21
31.5208
  0
TEXT
  8
0
 10
32.3818
 20
30.1208
 40
0.8
  1
3.3
  7
HIGHWAYSIGNCADPLUS
 72
1
 11
33.1337
 21
30.1208
  0
LINE
  8
0
 10
34.0855
 20
30.5208
 11
34.803
 21
30.5208
  0
LINE
  8
0
 10
34.4453
 20
30.3419
 11
34.803
 21
30.5208
  0
LINE
  8
0
 10
34.4453
 20
30.6997
 11
34.803
 21
30.5208
  0
LINE
  8
0
 10
34.803
 20
30.3208
 11
34.803
 21
31.5208
  0
LINE
  8
0
 10
32.1818
 20
30.5208
 11
31.4643
 21
30.5208
  0
LINE
  8
0
 10
31.822
 20
30.6997
 11
31.4643
 21
30.5208
  0
LINE
  8
0
 10
31.822
 20
30.3419
 11
31.4643
 21
30.5208
  0
TEXT
  8
0
 10
35.1481
 20
30.1208
 40
0.8
  1
1
  7
HIGHWAYSIGNCADPLUS
 72
1
 11
35.303
 21
30.1208
  0
LINE
  8
0
 10
35.803
 20
30.3208
 11
35.803
 21
31.5208
  0
TEXT
  8
0
 10
35.8242
 20
29.1208
 40
0.8
  1
1.5
  7
HIGHWAYSIGNCADPLUS
 72
1
 11
36.5405
 21
29.1208
  0
LINE
  8
0
 10
36.5405
 20
30.5208
 11
37.2779
 21
30.5208
  0
LINE
  8
0
 10
36.9201
 20
30.3419
 11
37.2779
 21
30.5208
  0
LINE
  8
0
 10
36.9201
 20
30.6997
 11
37.2779
 21
30.5208
  0
LINE
  8
0
 10
37.2779
 20
30.3208
 11
37.2779
 21
31.5208
  0
LINE
  8
0
 10
36.5405
 20
30.5208
 11
35.803
 21
30.5208
  0
LINE
  8
0
 10
36.1608
 20
30.6997
 11
35.803
 21
30.5208
  0
LINE
  8
0
 10
36.1608
 20
30.3419
 11
35.803
 21
30.5208
  0
TEXT
  8
0
 10
37.6229
 20
30.1208
 40
0.8
  1
1
  7
HIGHWAYSIGNCADPLUS
 72
1
 11
37.7779
 21
30.1208
  0
LINE
  8
0
 10
38.2779
 20
30.3208
 11
38.2779
 21
31.5208
  0
TEXT
  8
0
 10
38.1912
 20
29.1208
 40
0.8
  1
1.1
  7
HIGHWAYSIGNCADPLUS
 72
1
 11
38.8278
 21
29.1208
  0
LINE
  8
0
 10
39.3778
 20
30.3208
 11
39.3778
 21
31.5208
  0
TEXT
  8
0
 10
18.7559
 20
28.1208
 40
0.8
  1
9.6
  7
HIGHWAYSIGNCADPLUS
 72
1
 11
19.514
 21
28.1208
  0
LINE
  8
0
 10
20.4721
 20
28.5208
 11
24.3258
 21
28.5208
  0
LINE
  8
0
 10
23.968
 20
28.3419
 11
24.3258
 21
28.5208
  0
LINE
  8
0
 10
23.968
 20
28.6997
 11
24.3258
 21
28.5208
  0
LINE
  8
0
 10
24.3258
 20
28.3208
 11
24.3258
 21
29.5208
  0
LINE
  8
0
 10
18.5559
 20
28.5208
 11
14.7022
 21
28.5208
  0
LINE
  8
0
 10
15.06
 20
28.6997
 11
14.7022
 21
28.5208
  0
LINE
  8
0
 10
15.06
 20
28.3419
 11
14.7022
 21
28.5208
  0
TEXT
  8
0
 10
23.9703
 20
27.1208
 40
0.8
  1
0.8
  7
HIGHWAYSIGNCADPLUS
 72
1
 11
24.7242
 21
27.1208
  0
LINE
  8
0
 10
25.1227
 20
28.3208
 11
25.1227
 21
29.5208
  0
TEXT
  8
0
 10
25.4677
 20
28.1208
 40
0.8
  1
1
  7
HIGHWAYSIGNCADPLUS
 72
1
 11
25.6227
 21
28.1208
  0
LINE
  8
0
 10
26.1227
 20
28.3208
 11
26.1227
 21
29.5208
  0
TEXT
  8
0
 10
29.0611
 20
28.1208
 40
0.8
  1
7.4
  7
HIGHWAYSIGNCADPLUS
 72
1
 11
29.8109
 21
28.1208
  0
LINE
  8
0
 10
30.7606
 20
28.5208
 11
33.4991
 21
28.5208
  0
LINE
  8
0
 10
33.1413
 20
28.3419
 11
33.4991
 21
28.5208
  0
LINE
  8
0
 10
33.1413
 20
28.6997
 11
33.4991
 21
28.5208
  0
LINE
  8
0
 10
33.4991
 20
28.3208
 11
33.4991
 21
29.5208
  0
LINE
  8
0
 10
28.8611
 20
28.5208
 11
26.1227
 21
28.5208
  0
LINE
  8
0
 10
26.4804
 20
28.6997
 11
26.1227
 21
28.5208
  0
LINE
  8
0
 10
26.4804
 20
28.3419
 11
26.1227
 21
28.5208
  0
TEXT
  8
0
 10
33.8441
 20
28.1208
 40
0.8
  1
1
  7
HIGHWAYSIGNCADPLUS
 72
1
 11
33.9991
 21
28.1208
  0
LINE
  8
0
 10
34.4991
 20
28.3208
 11
34.4991
 21
29.5208
  0
TEXT
  8
0
 10
37.2139
 20
28.1208
 40
0.8
  1
6.9
  7
HIGHWAYSIGNCADPLUS
 72
1
 11
37.972
 21
28.1208
  0
LINE
  8
0
 10
38.9301
 20
28.5208
 11
41.4449
 21
28.5208
  0
LINE
  8
0
 10
41.0871
 20
28.3419
 11
41.4449
 21
28.5208
  0
LINE
  8
0
 10
41.0871
 20
28.6997
 11
41.4449
 21
28.5208
  0
LINE
  8
0
 10
41.4449
 20
28.3208
 11
41.4449
 21
29.5208
  0
LINE
  8
0
 10
37.0139
 20
28.5208
 11
34.4991
 21
28.5208
  0
LINE
  8
0
 10
34.8568
 20
28.6997
 11
34.4991
 21
28.5208
  0
LINE
  8
0
 10
34.8568
 20
28.3419
 11
34.4991
 21
28.5208
  0
TEXT
  8
0
 10
51.9
 20
76.8612
 40
0.8
  1
16.3
 50
90
  7
HIGHWAYSIGNCADPLUS
 72
1
 11
51.9
 21
77.8958
  0
LINE
  8
0
 10
51.5
 20
79.1303
 11
51.5
 21
86.0208
  0
LINE
  8
0
 10
51.6789
 20
85.663
 11
51.5
 21
86.0208
  0
LINE
  8
0
 10
51.3211
 20
85.663
 11
51.5
 21
86.0208
  0
LINE
  8
0
 10
51.7
 20
86.0208
 11
50.5
 21
86.0208
  0
LINE
  8
0
 10
51.5
 20
76.6612
 11
51.5
 21
69.7708
  0
LINE
  8
0
 10
51.3211
 20
70.1286
 11
51.5
 21
69.7708
  0
LINE
  8
0
 10
51.6789
 20
70.1286
 11
51.5
 21
69.7708
  0
LINE
  8
0
 10
51.7
 20
69.7708
 11
50.5
 21
69.7708
  0
TEXT
  8
0
 10
52.9
 20
68.3046
 40
0.8
  1
1.5
 50
90
  7
HIGHWAYSIGNCADPLUS
 72
1
 11
52.9
 21
69.0208
  0
LINE
  8
0
 10
51.5
 20
69.0208
 11
51.5
 21
69.7708
  0
LINE
  8
0
 10
51.6789
 20
69.413
 11
51.5
 21
69.7708
  0
LINE
  8
0
 10
51.3211
 20
69.413
 11
51.5
 21
69.7708
  0
LINE
  8
0
 10
51.5
 20
69.0208
 11
51.5
 21
68.2708
  0
LINE
  8
0
 10
51.3211
 20
68.6286
 11
51.5
 21
68.2708
  0
LINE
  8
0
 10
51.6789
 20
68.6286
 11
51.5
 21
68.2708
  0
LINE
  8
0
 10
51.7
 20
68.2708
 11
50.5
 21
68.2708
  0
TEXT
  8
0
 10
11.0823
 20
26.1208
 40
0.8
  1
24.3
  7
HIGHWAYSIGNCADPLUS
 72
1
 11
12.1629
 21
26.1208
  0
LINE
  8
0
 10
13.4435
 20
26.5208
 11
24.3258
 21
26.5208
  0
LINE
  8
0
 10
23.968
 20
26.3419
 11
24.3258
 21
26.5208
  0
LINE
  8
0
 10
23.968
 20
26.6997
 11
24.3258
 21
26.5208
  0
LINE
  8
0
 10
24.3258
 20
26.3208
 11
24.3258
 21
27.5208
  0
LINE
  8
0
 10
10.8823
 20
26.5208
 11
0
 21
26.5208
  0
LINE
  8
0
 10
0.3578
 20
26.6997
 11
0
 21
26.5208
  0
LINE
  8
0
 10
0.3578
 20
26.3419
 11
0
 21
26.5208
  0
LINE
  8
0
 10
0
 20
26.3208
 11
0
 21
27.5208
  0
TEXT
  8
0
 10
25.4027
 20
26.1208
 40
0.8
  1
3.7
  7
HIGHWAYSIGNCADPLUS
 72
1
 11
26.1545
 21
26.1208
  0
LINE
  8
0
 10
27.1064
 20
26.5208
 11
27.9833
 21
26.5208
  0
LINE
  8
0
 10
27.6255
 20
26.3419
 11
27.9833
 21
26.5208
  0
LINE
  8
0
 10
27.6255
 20
26.6997
 11
27.9833
 21
26.5208
  0
LINE
  8
0
 10
27.9833
 20
26.3208
 11
27.9833
 21
27.5208
  0
LINE
  8
0
 10
25.2027
 20
26.5208
 11
24.3258
 21
26.5208
  0
LINE
  8
0
 10
24.6835
 20
26.6997
 11
24.3258
 21
26.5208
  0
LINE
  8
0
 10
24.6835
 20
26.3419
 11
24.3258
 21
26.5208
  0
TEXT
  8
0
 10
28.3283
 20
26.1208
 40
0.8
  1
1
  7
HIGHWAYSIGNCADPLUS
 72
1
 11
28.4833
 21
26.1208
  0
LINE
  8
0
 10
28.9833
 20
26.3208
 11
28.9833
 21
27.5208
  0
TEXT
  8
0
 10
31.8672
 20
26.1208
 40
0.8
  1
7.1
  7
HIGHWAYSIGNCADPLUS
 72
1
 11
32.5394
 21
26.1208
  0
LINE
  8
0
 10
33.4117
 20
26.5208
 11
36.0955
 21
26.5208
  0
LINE
  8
0
 10
35.7377
 20
26.3419
 11
36.0955
 21
26.5208
  0
LINE
  8
0
 10
35.7377
 20
26.6997
 11
36.0955
 21
26.5208
  0
LINE
  8
0
 10
36.0955
 20
26.3208
 11
36.0955
 21
27.5208
  0
LINE
  8
0
 10
31.6672
 20
26.5208
 11
28.9833
 21
26.5208
  0
LINE
  8
0
 10
29.3411
 20
26.6997
 11
28.9833
 21
26.5208
  0
LINE
  8
0
 10
29.3411
 20
26.3419
 11
28.9833
 21
26.5208
  0
TEXT
  8
0
 10
36.4405
 20
26.1208
 40
0.8
  1
1
  7
HIGHWAYSIGNCADPLUS
 72
1
 11
36.5955
 21
26.1208
  0
LINE
  8
0
 10
37.0955
 20
26.3208
 11
37.0955
 21
27.5208
  0
TEXT
  8
0
 10
38.7727
 20
26.1208
 40
0.8
  1
4.9
  7
HIGHWAYSIGNCADPLUS
 72
1
 11
39.5434
 21
26.1208
  0
LINE
  8
0
 10
40.514
 20
26.5208
 11
41.9912
 21
26.5208
  0
LINE
  8
0
 10
41.6334
 20
26.3419
 11
41.9912
 21
26.5208
  0
LINE
  8
0
 10
41.6334
 20
26.6997
 11
41.9912
 21
26.5208
  0
LINE
  8
0
 10
41.9912
 20
26.3208
 11
41.9912
 21
27.5208
  0
LINE
  8
0
 10
38.5727
 20
26.5208
 11
37.0955
 21
26.5208
  0
LINE
  8
0
 10
37.4533
 20
26.6997
 11
37.0955
 21
26.5208
  0
LINE
  8
0
 10
37.4533
 20
26.3419
 11
37.0955
 21
26.5208
  0
TEXT
  8
0
 10
49.9
 20
67.7669
 40
0.8
  1
3.5
 50
90
  7
HIGHWAYSIGNCADPLUS
 72
1
 11
49.9
 21
68.5208
  0
LINE
  8
0
 10
49.5
 20
69.4747
 11
49.5
 21
70.2708
  0
LINE
  8
0
 10
49.6789
 20
69.913
 11
49.5
 21
70.2708
  0
LINE
  8
0
 10
49.3211
 20
69.913
 11
49.5
 21
70.2708
  0
LINE
  8
0
 10
49.5
 20
67.5669
 11
49.5
 21
66.7708
  0
LINE
  8
0
 10
49.3211
 20
67.1286
 11
49.5
 21
66.7708
  0
LINE
  8
0
 10
49.6789
 20
67.1286
 11
49.5
 21
66.7708
  0
LINE
  8
0
 10
49.7
 20
66.7708
 11
48.5
 21
66.7708
  0
TEXT
  8
0
 10
50.9
 20
65.3046
 40
0.8
  1
1.5
 50
90
  7
HIGHWAYSIGNCADPLUS
 72
1
 11
50.9
 21
66.0208
  0
LINE
  8
0
 10
49.5
 20
66.0208
 11
49.5
 21
66.7708
  0
LINE
  8
0
 10
49.6789
 20
66.413
 11
49.5
 21
66.7708
  0
LINE
  8
0
 10
49.3211
 20
66.413
 11
49.5
 21
66.7708
  0
LINE
  8
0
 10
49.5
 20
66.0208
 11
49.5
 21
65.2708
  0
LINE
  8
0
 10
49.3211
 20
65.6286
 11
49.5
 21
65.2708
  0
LINE
  8
0
 10
49.6789
 20
65.6286
 11
49.5
 21
65.2708
  0
LINE
  8
0
 10
49.7
 20
65.2708
 11
48.5
 21
65.2708
  0
TEXT
  8
0
 10
1.0629
 20
24.1208
 40
0.8
  1
3.6
  7
HIGHWAYSIGNCADPLUS
 72
1
 11
1.821
 21
24.1208
  0
LINE
  8
0
 10
2.7791
 20
24.5208
 11
3.642
 21
24.5208
  0
LINE
  8
0
 10
3.2842
 20
24.3419
 11
3.642
 21
24.5208
  0
LINE
  8
0
 10
3.2842
 20
24.6997
 11
3.642
 21
24.5208
  0
LINE
  8
0
 10
3.642
 20
24.3208
 11
3.642
 21
25.5208
  0
LINE
  8
0
 10
0.8629
 20
24.5208
 11
0
 21
24.5208
  0
LINE
  8
0
 10
0.3578
 20
24.6997
 11
0
 21
24.5208
  0
LINE
  8
0
 10
0.3578
 20
24.3419
 11
0
 21
24.5208
  0
LINE
  8
0
 10
0
 20
24.3208
 11
0
 21
25.5208
  0
TEXT
  8
0
 10
7.0381
 20
24.1208
 40
0.8
  1
8.3
  7
HIGHWAYSIGNCADPLUS
 72
1
 11
7.792
 21
24.1208
  0
LINE
  8
0
 10
8.7459
 20
24.5208
 11
11.942
 21
24.5208
  0
LINE
  8
0
 10
11.5843
 20
24.3419
 11
11.942
 21
24.5208
  0
LINE
  8
0
 10
11.5843
 20
24.6997
 11
11.942
 21
24.5208
  0
LINE
  8
0
 10
11.942
 20
24.3208
 11
11.942
 21
25.5208
  0
LINE
  8
0
 10
6.8381
 20
24.5208
 11
3.642
 21
24.5208
  0
LINE
  8
0
 10
3.9997
 20
24.6997
 11
3.642
 21
24.5208
  0
LINE
  8
0
 10
3.9997
 20
24.3419
 11
3.642
 21
24.5208
  0
TEXT
  8
0
 10
12.2871
 20
24.1208
 40
0.8
  1
1
  7
HIGHWAYSIGNCADPLUS
 72
1
 11
12.442
 21
24.1208
  0
LINE
  8
0
 10
12.942
 20
24.3208
 11
12.942
 21
25.5208
  0
TEXT
  8
0
 10
13.492
 20
24.1208
 40
0.8
  1
2.7
  7
HIGHWAYSIGNCADPLUS
 72
1
 11
14.2522
 21
24.1208
  0
LINE
  8
0
 10
15.5623
 20
24.3208
 11
15.5623
 21
25.5208
  0
TEXT
  8
0
 10
15.9074
 20
24.1208
 40
0.8
  1
1
  7
HIGHWAYSIGNCADPLUS
 72
1
 11
16.0623
 21
24.1208
  0
LINE
  8
0
 10
16.5623
 20
24.3208
 11
16.5623
 21
25.5208
  0
TEXT
  8
0
 10
16.5856
 20
23.1208
 40
0.8
  1
1.4
  7
HIGHWAYSIGNCADPLUS
 72
1
 11
17.2998
 21
23.1208
  0
LINE
  8
0
 10
17.2998
 20
24.5208
 11
18.0372
 21
24.5208
  0
LINE
  8
0
 10
17.6794
 20
24.3419
 11
18.0372
 21
24.5208
  0
LINE
  8
0
 10
17.6794
 20
24.6997
 11
18.0372
 21
24.5208
  0
LINE
  8
0
 10
18.0372
 20
24.3208
 11
18.0372
 21
25.5208
  0
LINE
  8
0
 10
17.2998
 20
24.5208
 11
16.5623
 21
24.5208
  0
LINE
  8
0
 10
16.9201
 20
24.6997
 11
16.5623
 21
24.5208
  0
LINE
  8
0
 10
16.9201
 20
24.3419
 11
16.5623
 21
24.5208
  0
TEXT
  8
0
 10
50.9
 20
64.2669
 40
0.8
  1
0.5
 50
90
  7
HIGHWAYSIGNCADPLUS
 72
1
 11
50.9
 21
65.0208
  0
LINE
  8
0
 10
49.7
 20
64.7708
 11
48.5
 21
64.7708
  0
TEXT
  8
0
 10
50.9
 20
63.3046
 40
0.8
  1
1.5
 50
90
  7
HIGHWAYSIGNCADPLUS
 72
1
 11
50.9
 21
64.0208
  0
LINE
  8
0
 10
49.5
 20
64.0208
 11
49.5
 21
64.7708
  0
LINE
  8
0
 10
49.6789
 20
64.413
 11
49.5
 21
64.7708
  0
LINE
  8
0
 10
49.3211
 20
64.413
 11
49.5
 21
64.7708
  0
LINE
  8
0
 10
49.5
 20
64.0208
 11
49.5
 21
63.2708
  0
LINE
  8
0
 10
49.3211
 20
63.6286
 11
49.5
 21
63.2708
  0
LINE
  8
0
 10
49.6789
 20
63.6286
 11
49.5
 21
63.2708
  0
LINE
  8
0
 10
49.7
 20
63.2708
 11
48.5
 21
63.2708
  0
TEXT
  8
0
 10
1.0629
 20
22.1208
 40
0.8
  1
3.6
  7
HIGHWAYSIGNCADPLUS
 72
1
 11
1.821
 21
22.1208
  0
LINE
  8
0
 10
2.7791
 20
22.5208
 11
3.642
 21
22.5208
  0
LINE
  8
0
 10
3.2842
 20
22.3419
 11
3.642
 21
22.5208
  0
LINE
  8
0
 10
3.2842
 20
22.6997
 11
3.642
 21
22.5208
  0
LINE
  8
0
 10
3.642
 20
22.3208
 11
3.642
 21
23.5208
  0
LINE
  8
0
 10
0.8629
 20
22.5208
 11
0
 21
22.5208
  0
LINE
  8
0
 10
0.3578
 20
22.6997
 11
0
 21
22.5208
  0
LINE
  8
0
 10
0.3578
 20
22.3419
 11
0
 21
22.5208
  0
LINE
  8
0
 10
0
 20
22.3208
 11
0
 21
23.5208
  0
TEXT
  8
0
 10
5.8265
 20
22.1208
 40
0.8
  1
5
  7
HIGHWAYSIGNCADPLUS
 72
1
 11
6.1009
 21
22.1208
  0
LINE
  8
0
 10
6.5752
 20
22.5208
 11
8.5598
 21
22.5208
  0
LINE
  8
0
 10
8.202
 20
22.3419
 11
8.5598
 21
22.5208
  0
LINE
  8
0
 10
8.202
 20
22.6997
 11
8.5598
 21
22.5208
  0
LINE
  8
0
 10
8.5598
 20
22.3208
 11
8.5598
 21
23.5208
  0
LINE
  8
0
 10
5.6265
 20
22.5208
 11
3.642
 21
22.5208
  0
LINE
  8
0
 10
3.9997
 20
22.6997
 11
3.642
 21
22.5208
  0
LINE
  8
0
 10
3.9997
 20
22.3419
 11
3.642
 21
22.5208
  0
TEXT
  8
0
 10
8.9048
 20
22.1208
 40
0.8
  1
1
  7
HIGHWAYSIGNCADPLUS
 72
1
 11
9.0598
 21
22.1208
  0
LINE
  8
0
 10
9.5598
 20
22.3208
 11
9.5598
 21
23.5208
  0
TEXT
  8
0
 10
10.5534
 20
22.1208
 40
0.8
  1
3.5
  7
HIGHWAYSIGNCADPLUS
 72
1
 11
11.3074
 21
22.1208
  0
LINE
  8
0
 10
12.2613
 20
22.5208
 11
13.055
 21
22.5208
  0
LINE
  8
0
 10
12.6972
 20
22.3419
 11
13.055
 21
22.5208
  0
LINE
  8
0
 10
12.6972
 20
22.6997
 11
13.055
 21
22.5208
  0
LINE
  8
0
 10
13.055
 20
22.3208
 11
13.055
 21
23.5208
  0
LINE
  8
0
 10
10.3534
 20
22.5208
 11
9.5598
 21
22.5208
  0
LINE
  8
0
 10
9.9176
 20
22.6997
 11
9.5598
 21
22.5208
  0
LINE
  8
0
 10
9.9176
 20
22.3419
 11
9.5598
 21
22.5208
  0
TEXT
  8
0
 10
13.4
 20
22.1208
 40
0.8
  1
1
  7
HIGHWAYSIGNCADPLUS
 72
1
 11
13.555
 21
22.1208
  0
LINE
  8
0
 10
14.055
 20
22.3208
 11
14.055
 21
23.5208
  0
TEXT
  8
0
 10
16.5152
 20
22.1208
 40
0.8
  1
6.4
  7
HIGHWAYSIGNCADPLUS
 72
1
 11
17.2712
 21
22.1208
  0
LINE
  8
0
 10
18.2272
 20
22.5208
 11
20.4875
 21
22.5208
  0
LINE
  8
0
 10
20.1297
 20
22.3419
 11
20.4875
 21
22.5208
  0
LINE
  8
0
 10
20.1297
 20
22.6997
 11
20.4875
 21
22.5208
  0
LINE
  8
0
 10
20.4875
 20
22.3208
 11
20.4875
 21
23.5208
  0
LINE
  8
0
 10
16.3152
 20
22.5208
 11
14.055
 21
22.5208
  0
LINE
  8
0
 10
14.4127
 20
22.6997
 11
14.055
 21
22.5208
  0
LINE
  8
0
 10
14.4127
 20
22.3419
 11
14.055
 21
22.5208
  0
TEXT
  8
0
 10
50.9
 20
62.2669
 40
0.8
  1
0.5
 50
90
  7
HIGHWAYSIGNCADPLUS
 72
1
 11
50.9
 21
63.0208
  0
LINE
  8
0
 10
49.7
 20
62.7708
 11
48.5
 21
62.7708
  0
TEXT
  8
0
 10
50.9
 20
61.3046
 40
0.8
  1
1.5
 50
90
  7
HIGHWAYSIGNCADPLUS
 72
1
 11
50.9
 21
62.0208
  0
LINE
  8
0
 10
49.5
 20
62.0208
 11
49.5
 21
62.7708
  0
LINE
  8
0
 10
49.6789
 20
62.413
 11
49.5
 21
62.7708
  0
LINE
  8
0
 10
49.3211
 20
62.413
 11
49.5
 21
62.7708
  0
LINE
  8
0
 10
49.5
 20
62.0208
 11
49.5
 21
61.2708
  0
LINE
  8
0
 10
49.3211
 20
61.6286
 11
49.5
 21
61.2708
  0
LINE
  8
0
 10
49.6789
 20
61.6286
 11
49.5
 21
61.2708
  0
LINE
  8
0
 10
49.7
 20
61.2708
 11
48.5
 21
61.2708
  0
TEXT
  8
0
 10
1.0629
 20
20.1208
 40
0.8
  1
3.6
  7
HIGHWAYSIGNCADPLUS
 72
1
 11
1.821
 21
20.1208
  0
LINE
  8
0
 10
2.7791
 20
20.5208
 11
3.642
 21
20.5208
  0
LINE
  8
0
 10
3.2842
 20
20.3419
 11
3.642
 21
20.5208
  0
LINE
  8
0
 10
3.2842
 20
20.6997
 11
3.642
 21
20.5208
  0
LINE
  8
0
 10
3.642
 20
20.3208
 11
3.642
 21
21.5208
  0
LINE
  8
0
 10
0.8629
 20
20.5208
 11
0
 21
20.5208
  0
LINE
  8
0
 10
0.3578
 20
20.6997
 11
0
 21
20.5208
  0
LINE
  8
0
 10
0.3578
 20
20.3419
 11
0
 21
20.5208
  0
LINE
  8
0
 10
0
 20
20.3208
 11
0
 21
21.5208
  0
TEXT
  8
0
 10
3.7552
 20
19.1208
 40
0.8
  1
1.7
  7
HIGHWAYSIGNCADPLUS
 72
1
 11
4.4693
 21
19.1208
  0
LINE
  8
0
 10
4.4693
 20
20.5208
 11
5.2967
 21
20.5208
  0
LINE
  8
0
 10
4.9389
 20
20.3419
 11
5.2967
 21
20.5208
  0
LINE
  8
0
 10
4.9389
 20
20.6997
 11
5.2967
 21
20.5208
  0
LINE
  8
0
 10
5.2967
 20
20.3208
 11
5.2967
 21
21.5208
  0
LINE
  8
0
 10
4.4693
 20
20.5208
 11
3.642
 21
20.5208
  0
LINE
  8
0
 10
3.9997
 20
20.6997
 11
3.642
 21
20.5208
  0
LINE
  8
0
 10
3.9997
 20
20.3419
 11
3.642
 21
20.5208
  0
TEXT
  8
0
 10
5.6417
 20
20.1208
 40
0.8
  1
1
  7
HIGHWAYSIGNCADPLUS
 72
1
 11
5.7967
 21
20.1208
  0
LINE
  8
0
 10
6.2967
 20
20.3208
 11
6.2967
 21
21.5208
  0
TEXT
  8
0
 10
5.9412
 20
19.1208
 40
0.8
  1
0.8
  7
HIGHWAYSIGNCADPLUS
 72
1
 11
6.6951
 21
19.1208
  0
LINE
  8
0
 10
7.0935
 20
20.3208
 11
7.0935
 21
21.5208
  0
TEXT
  8
0
 10
7.4386
 20
20.1208
 40
0.8
  1
1
  7
HIGHWAYSIGNCADPLUS
 72
1
 11
7.5935
 21
20.1208
  0
LINE
  8
0
 10
8.0935
 20
20.3208
 11
8.0935
 21
21.5208
  0
TEXT
  8
0
 10
11.1193
 20
20.1208
 40
0.8
  1
7.6
  7
HIGHWAYSIGNCADPLUS
 72
1
 11
11.8753
 21
20.1208
  0
LINE
  8
0
 10
12.8313
 20
20.5208
 11
15.657
 21
20.5208
  0
LINE
  8
0
 10
15.2993
 20
20.3419
 11
15.657
 21
20.5208
  0
LINE
  8
0
 10
15.2993
 20
20.6997
 11
15.657
 21
20.5208
  0
LINE
  8
0
 10
15.657
 20
20.3208
 11
15.657
 21
21.5208
  0
LINE
  8
0
 10
10.9193
 20
20.5208
 11
8.0935
 21
20.5208
  0
LINE
  8
0
 10
8.4513
 20
20.6997
 11
8.0935
 21
20.5208
  0
LINE
  8
0
 10
8.4513
 20
20.3419
 11
8.0935
 21
20.5208
  0
TEXT
  8
0
 10
20.4255
 20
24.1208
 40
0.8
  1
6.3
  7
HIGHWAYSIGNCADPLUS
 72
1
 11
21.1815
 21
24.1208
  0
LINE
  8
0
 10
22.1375
 20
24.5208
 11
24.3258
 21
24.5208
  0
LINE
  8
0
 10
23.968
 20
24.3419
 11
24.3258
 21
24.5208
  0
LINE
  8
0
 10
23.968
 20
24.6997
 11
24.3258
 21
24.5208
  0
LINE
  8
0
 10
24.3258
 20
24.3208
 11
24.3258
 21
25.5208
  0
LINE
  8
0
 10
20.2255
 20
24.5208
 11
18.0372
 21
24.5208
  0
LINE
  8
0
 10
18.395
 20
24.6997
 11
18.0372
 21
24.5208
  0
LINE
  8
0
 10
18.395
 20
24.3419
 11
18.0372
 21
24.5208
  0
TEXT
  8
0
 10
23.9703
 20
23.1208
 40
0.8
  1
0.8
  7
HIGHWAYSIGNCADPLUS
 72
1
 11
24.7242
 21
23.1208
  0
LINE
  8
0
 10
25.1227
 20
24.3208
 11
25.1227
 21
25.5208
  0
TEXT
  8
0
 10
25.4677
 20
24.1208
 40
0.8
  1
1
  7
HIGHWAYSIGNCADPLUS
 72
1
 11
25.6227
 21
24.1208
  0
LINE
  8
0
 10
26.1227
 20
24.3208
 11
26.1227
 21
25.5208
  0
TEXT
  8
0
 10
27.1996
 20
24.1208
 40
0.8
  1
3.7
  7
HIGHWAYSIGNCADPLUS
 72
1
 11
27.9514
 21
24.1208
  0
LINE
  8
0
 10
28.9032
 20
24.5208
 11
29.7802
 21
24.5208
  0
LINE
  8
0
 10
29.4224
 20
24.3419
 11
29.7802
 21
24.5208
  0
LINE
  8
0
 10
29.4224
 20
24.6997
 11
29.7802
 21
24.5208
  0
LINE
  8
0
 10
29.7802
 20
24.3208
 11
29.7802
 21
25.5208
  0
LINE
  8
0
 10
26.9996
 20
24.5208
 11
26.1227
 21
24.5208
  0
LINE
  8
0
 10
26.4804
 20
24.6997
 11
26.1227
 21
24.5208
  0
LINE
  8
0
 10
26.4804
 20
24.3419
 11
26.1227
 21
24.5208
  0
TEXT
  8
0
 10
30.1252
 20
24.1208
 40
0.8
  1
1
  7
HIGHWAYSIGNCADPLUS
 72
1
 11
30.2802
 21
24.1208
  0
LINE
  8
0
 10
30.7802
 20
24.3208
 11
30.7802
 21
25.5208
  0
TEXT
  8
0
 10
30.3916
 20
23.1208
 40
0.8
  1
0.7
  7
HIGHWAYSIGNCADPLUS
 72
1
 11
31.1435
 21
23.1208
  0
LINE
  8
0
 10
31.5067
 20
24.3208
 11
31.5067
 21
25.5208
  0
TEXT
  8
0
 10
31.8518
 20
24.1208
 40
0.8
  1
1
  7
HIGHWAYSIGNCADPLUS
 72
1
 11
32.0067
 21
24.1208
  0
LINE
  8
0
 10
32.5067
 20
24.3208
 11
32.5067
 21
25.5208
  0
TEXT
  8
0
 10
32.5823
 20
23.1208
 40
0.8
  1
1.6
  7
HIGHWAYSIGNCADPLUS
 72
1
 11
33.3028
 21
23.1208
  0
LINE
  8
0
 10
33.3028
 20
24.5208
 11
34.0988
 21
24.5208
  0
LINE
  8
0
 10
33.741
 20
24.3419
 11
34.0988
 21
24.5208
  0
LINE
  8
0
 10
33.741
 20
24.6997
 11
34.0988
 21
24.5208
  0
LINE
  8
0
 10
34.0988
 20
24.3208
 11
34.0988
 21
25.5208
  0
LINE
  8
0
 10
33.3028
 20
24.5208
 11
32.5067
 21
24.5208
  0
LINE
  8
0
 10
32.8645
 20
24.6997
 11
32.5067
 21
24.5208
  0
LINE
  8
0
 10
32.8645
 20
24.3419
 11
32.5067
 21
24.5208
  0
TEXT
  8
0
 10
34.4438
 20
24.1208
 40
0.8
  1
1
  7
HIGHWAYSIGNCADPLUS
 72
1
 11
34.5988
 21
24.1208
  0
LINE
  8
0
 10
35.0988
 20
24.3208
 11
35.0988
 21
25.5208
  0
TEXT
  8
0
 10
34.6571
 20
23.1208
 40
0.8
  1
0.6
  7
HIGHWAYSIGNCADPLUS
 72
1
 11
35.4152
 21
23.1208
  0
LINE
  8
0
 10
35.7316
 20
24.3208
 11
35.7316
 21
25.5208
  0
TEXT
  8
0
 10
36.0766
 20
24.1208
 40
0.8
  1
1
  7
HIGHWAYSIGNCADPLUS
 72
1
 11
36.2316
 21
24.1208
  0
LINE
  8
0
 10
36.7316
 20
24.3208
 11
36.7316
 21
25.5208
  0
TEXT
  8
0
 10
38.0864
 20
24.1208
 40
0.8
  1
4.3
  7
HIGHWAYSIGNCADPLUS
 72
1
 11
38.855
 21
24.1208
  0
LINE
  8
0
 10
39.8236
 20
24.5208
 11
40.9785
 21
24.5208
  0
LINE
  8
0
 10
40.6207
 20
24.3419
 11
40.9785
 21
24.5208
  0
LINE
  8
0
 10
40.6207
 20
24.6997
 11
40.9785
 21
24.5208
  0
LINE
  8
0
 10
40.9785
 20
24.3208
 11
40.9785
 21
25.5208
  0
LINE
  8
0
 10
37.8864
 20
24.5208
 11
36.7316
 21
24.5208
  0
LINE
  8
0
 10
37.0894
 20
24.6997
 11
36.7316
 21
24.5208
  0
LINE
  8
0
 10
37.0894
 20
24.3419
 11
36.7316
 21
24.5208
  0
TEXT
  8
0
 10
41.3235
 20
24.1208
 40
0.8
  1
1
  7
HIGHWAYSIGNCADPLUS
 72
1
 11
41.4785
 21
24.1208
  0
LINE
  8
0
 10
41.9785
 20
24.3208
 11
41.9785
 21
25.5208
  0
TEXT
  8
0
 10
42.408
 20
24.1208
 40
0.8
  1
2.4
  7
HIGHWAYSIGNCADPLUS
 72
1
 11
43.1682
 21
24.1208
  0
LINE
  8
0
 10
44.358
 20
24.3208
 11
44.358
 21
25.5208
  0
TEXT
  8
0
 10
21.6527
 20
22.1208
 40
0.8
  1
3.8
  7
HIGHWAYSIGNCADPLUS
 72
1
 11
22.4066
 21
22.1208
  0
LINE
  8
0
 10
23.3606
 20
22.5208
 11
24.3258
 21
22.5208
  0
LINE
  8
0
 10
23.968
 20
22.3419
 11
24.3258
 21
22.5208
  0
LINE
  8
0
 10
23.968
 20
22.6997
 11
24.3258
 21
22.5208
  0
LINE
  8
0
 10
24.3258
 20
22.3208
 11
24.3258
 21
23.5208
  0
LINE
  8
0
 10
21.4527
 20
22.5208
 11
20.4875
 21
22.5208
  0
LINE
  8
0
 10
20.8453
 20
22.6997
 11
20.4875
 21
22.5208
  0
LINE
  8
0
 10
20.8453
 20
22.3419
 11
20.4875
 21
22.5208
  0
TEXT
  8
0
 10
25.2433
 20
22.1208
 40
0.8
  1
3.4
  7
HIGHWAYSIGNCADPLUS
 72
1
 11
25.9952
 21
22.1208
  0
LINE
  8
0
 10
26.947
 20
22.5208
 11
27.6646
 21
22.5208
  0
LINE
  8
0
 10
27.3068
 20
22.3419
 11
27.6646
 21
22.5208
  0
LINE
  8
0
 10
27.3068
 20
22.6997
 11
27.6646
 21
22.5208
  0
LINE
  8
0
 10
27.6646
 20
22.3208
 11
27.6646
 21
23.5208
  0
LINE
  8
0
 10
25.0433
 20
22.5208
 11
24.3258
 21
22.5208
  0
LINE
  8
0
 10
24.6835
 20
22.6997
 11
24.3258
 21
22.5208
  0
LINE
  8
0
 10
24.6835
 20
22.3419
 11
24.3258
 21
22.5208
  0
TEXT
  8
0
 10
28.0096
 20
22.1208
 40
0.8
  1
1
  7
HIGHWAYSIGNCADPLUS
 72
1
 11
28.1646
 21
22.1208
  0
LINE
  8
0
 10
28.6646
 20
22.3208
 11
28.6646
 21
23.5208
  0
TEXT
  8
0
 10
28.6878
 20
21.1208
 40
0.8
  1
1.4
  7
HIGHWAYSIGNCADPLUS
 72
1
 11
29.402
 21
21.1208
  0
LINE
  8
0
 10
29.402
 20
22.5208
 11
30.1394
 21
22.5208
  0
LINE
  8
0
 10
29.7816
 20
22.3419
 11
30.1394
 21
22.5208
  0
LINE
  8
0
 10
29.7816
 20
22.6997
 11
30.1394
 21
22.5208
  0
LINE
  8
0
 10
30.1394
 20
22.3208
 11
30.1394
 21
23.5208
  0
LINE
  8
0
 10
29.402
 20
22.5208
 11
28.6646
 21
22.5208
  0
LINE
  8
0
 10
29.0223
 20
22.6997
 11
28.6646
 21
22.5208
  0
LINE
  8
0
 10
29.0223
 20
22.3419
 11
28.6646
 21
22.5208
  0
TEXT
  8
0
 10
30.4844
 20
22.1208
 40
0.8
  1
1
  7
HIGHWAYSIGNCADPLUS
 72
1
 11
30.6394
 21
22.1208
  0
LINE
  8
0
 10
31.1394
 20
22.3208
 11
31.1394
 21
23.5208
  0
TEXT
  8
0
 10
31.0527
 20
21.1208
 40
0.8
  1
1.1
  7
HIGHWAYSIGNCADPLUS
 72
1
 11
31.6893
 21
21.1208
  0
LINE
  8
0
 10
32.2393
 20
22.3208
 11
32.2393
 21
23.5208
  0
TEXT
  8
0
 10
32.5843
 20
22.1208
 40
0.8
  1
1
  7
HIGHWAYSIGNCADPLUS
 72
1
 11
32.7393
 21
22.1208
  0
LINE
  8
0
 10
33.2393
 20
22.3208
 11
33.2393
 21
23.5208
  0
TEXT
  8
0
 10
32.8838
 20
21.1208
 40
0.8
  1
0.8
  7
HIGHWAYSIGNCADPLUS
 72
1
 11
33.6377
 21
21.1208
  0
LINE
  8
0
 10
34.0361
 20
22.3208
 11
34.0361
 21
23.5208
  0
TEXT
  8
0
 10
34.3812
 20
22.1208
 40
0.8
  1
1
  7
HIGHWAYSIGNCADPLUS
 72
1
 11
34.5361
 21
22.1208
  0
LINE
  8
0
 10
35.0361
 20
22.3208
 11
35.0361
 21
23.5208
  0
TEXT
  8
0
 10
37.9746
 20
22.1208
 40
0.8
  1
7.4
  7
HIGHWAYSIGNCADPLUS
 72
1
 11
38.7244
 21
22.1208
  0
LINE
  8
0
 10
39.6741
 20
22.5208
 11
42.4126
 21
22.5208
  0
LINE
  8
0
 10
42.0548
 20
22.3419
 11
42.4126
 21
22.5208
  0
LINE
  8
0
 10
42.0548
 20
22.6997
 11
42.4126
 21
22.5208
  0
LINE
  8
0
 10
42.4126
 20
22.3208
 11
42.4126
 21
23.5208
  0
LINE
  8
0
 10
37.7746
 20
22.5208
 11
35.0361
 21
22.5208
  0
LINE
  8
0
 10
35.3939
 20
22.6997
 11
35.0361
 21
22.5208
  0
LINE
  8
0
 10
35.3939
 20
22.3419
 11
35.0361
 21
22.5208
  0
TEXT
  8
0
 10
19.2312
 20
20.1208
 40
0.8
  1
8.6
  7
HIGHWAYSIGNCADPLUS
 72
1
 11
19.9914
 21
20.1208
  0
LINE
  8
0
 10
20.9516
 20
20.5208
 11
24.3258
 21
20.5208
  0
LINE
  8
0
 10
23.968
 20
20.3419
 11
24.3258
 21
20.5208
  0
LINE
  8
0
 10
23.968
 20
20.6997
 11
24.3258
 21
20.5208
  0
LINE
  8
0
 10
24.3258
 20
20.3208
 11
24.3258
 21
21.5208
  0
LINE
  8
0
 10
19.0312
 20
20.5208
 11
15.657
 21
20.5208
  0
LINE
  8
0
 10
16.0148
 20
20.6997
 11
15.657
 21
20.5208
  0
LINE
  8
0
 10
16.0148
 20
20.3419
 11
15.657
 21
20.5208
  0
TEXT
  8
0
 10
27.5306
 20
20.1208
 40
0.8
  1
7
  7
HIGHWAYSIGNCADPLUS
 72
1
 11
27.7987
 21
20.1208
  0
LINE
  8
0
 10
28.2667
 20
20.5208
 11
31.2716
 21
20.5208
  0
LINE
  8
0
 10
30.9138
 20
20.3419
 11
31.2716
 21
20.5208
  0
LINE
  8
0
 10
30.9138
 20
20.6997
 11
31.2716
 21
20.5208
  0
LINE
  8
0
 10
31.2716
 20
20.3208
 11
31.2716
 21
21.5208
  0
LINE
  8
0
 10
27.3306
 20
20.5208
 11
24.3258
 21
20.5208
  0
LINE
  8
0
 10
24.6835
 20
20.6997
 11
24.3258
 21
20.5208
  0
LINE
  8
0
 10
24.6835
 20
20.3419
 11
24.3258
 21
20.5208
  0
TEXT
  8
0
 10
31.6166
 20
20.1208
 40
0.8
  1
1
  7
HIGHWAYSIGNCADPLUS
 72
1
 11
31.7716
 21
20.1208
  0
LINE
  8
0
 10
32.2716
 20
20.3208
 11
32.2716
 21
21.5208
  0
TEXT
  8
0
 10
33.3422
 20
20.1208
 40
0.8
  1
3.6
  7
HIGHWAYSIGNCADPLUS
 72
1
 11
34.1003
 21
20.1208
  0
LINE
  8
0
 10
35.0585
 20
20.5208
 11
35.9291
 21
20.5208
  0
LINE
  8
0
 10
35.5713
 20
20.3419
 11
35.9291
 21
20.5208
  0
LINE
  8
0
 10
35.5713
 20
20.6997
 11
35.9291
 21
20.5208
  0
LINE
  8
0
 10
35.9291
 20
20.3208
 11
35.9291
 21
21.5208
  0
LINE
  8
0
 10
33.1422
 20
20.5208
 11
32.2716
 21
20.5208
  0
LINE
  8
0
 10
32.6294
 20
20.6997
 11
32.2716
 21
20.5208
  0
LINE
  8
0
 10
32.6294
 20
20.3419
 11
32.2716
 21
20.5208
  0
TEXT
  8
0
 10
36.2741
 20
20.1208
 40
0.8
  1
1
  7
HIGHWAYSIGNCADPLUS
 72
1
 11
36.4291
 21
20.1208
  0
LINE
  8
0
 10
36.9291
 20
20.3208
 11
36.9291
 21
21.5208
  0
TEXT
  8
0
 10
39.813
 20
20.1208
 40
0.8
  1
7.1
  7
HIGHWAYSIGNCADPLUS
 72
1
 11
40.4852
 21
20.1208
  0
LINE
  8
0
 10
41.3575
 20
20.5208
 11
44.0413
 21
20.5208
  0
LINE
  8
0
 10
43.6836
 20
20.3419
 11
44.0413
 21
20.5208
  0
LINE
  8
0
 10
43.6836
 20
20.6997
 11
44.0413
 21
20.5208
  0
LINE
  8
0
 10
44.0413
 20
20.3208
 11
44.0413
 21
21.5208
  0
LINE
  8
0
 10
39.613
 20
20.5208
 11
36.9291
 21
20.5208
  0
LINE
  8
0
 10
37.2869
 20
20.6997
 11
36.9291
 21
20.5208
  0
LINE
  8
0
 10
37.2869
 20
20.3419
 11
36.9291
 21
20.5208
  0
TEXT
  8
0
 10
51.9
 20
63.7689
 40
0.8
  1
7.5
 50
90
  7
HIGHWAYSIGNCADPLUS
 72
1
 11
51.9
 21
64.5208
  0
LINE
  8
0
 10
51.5
 20
65.4726
 11
51.5
 21
68.2708
  0
LINE
  8
0
 10
51.6789
 20
67.913
 11
51.5
 21
68.2708
  0
LINE
  8
0
 10
51.3211
 20
67.913
 11
51.5
 21
68.2708
  0
LINE
  8
0
 10
51.5
 20
63.5689
 11
51.5
 21
60.7708
  0
LINE
  8
0
 10
51.3211
 20
61.1286
 11
51.5
 21
60.7708
  0
LINE
  8
0
 10
51.6789
 20
61.1286
 11
51.5
 21
60.7708
  0
LINE
  8
0
 10
51.7
 20
60.7708
 11
50.5
 21
60.7708
  0
TEXT
  8
0
 10
52.9
 20
59.3046
 40
0.8
  1
1.5
 50
90
  7
HIGHWAYSIGNCADPLUS
 72
1
 11
52.9
 21
60.0208
  0
LINE
  8
0
 10
51.5
 20
60.0208
 11
51.5
 21
60.7708
  0
LINE
  8
0
 10
51.6789
 20
60.413
 11
51.5
 21
60.7708
  0
LINE
  8
0
 10
51.3211
 20
60.413
 11
51.5
 21
60.7708
  0
LINE
  8
0
 10
51.5
 20
60.0208
 11
51.5
 21
59.2708
  0
LINE
  8
0
 10
51.3211
 20
59.6286
 11
51.5
 21
59.2708
  0
LINE
  8
0
 10
51.6789
 20
59.6286
 11
51.5
 21
59.2708
  0
LINE
  8
0
 10
51.7
 20
59.2708
 11
50.5
 21
59.2708
  0
TEXT
  8
0
 10
11.0823
 20
18.1208
 40
0.8
  1
24.3
  7
HIGHWAYSIGNCADPLUS
 72
1
 11
12.1629
 21
18.1208
  0
LINE
  8
0
 10
13.4435
 20
18.5208
 11
24.3258
 21
18.5208
  0
LINE
  8
0
 10
23.968
 20
18.3419
 11
24.3258
 21
18.5208
  0
LINE
  8
0
 10
23.968
 20
18.6997
 11
24.3258
 21
18.5208
  0
LINE
  8
0
 10
24.3258
 20
18.3208
 11
24.3258
 21
19.5208
  0
LINE
  8
0
 10
10.8823
 20
18.5208
 11
0
 21
18.5208
  0
LINE
  8
0
 10
0.3578
 20
18.6997
 11
0
 21
18.5208
  0
LINE
  8
0
 10
0.3578
 20
18.3419
 11
0
 21
18.5208
  0
LINE
  8
0
 10
0
 20
18.3208
 11
0
 21
19.5208
  0
TEXT
  8
0
 10
25.7694
 20
18.1208
 40
0.8
  1
4.5
  7
HIGHWAYSIGNCADPLUS
 72
1
 11
26.5401
 21
18.1208
  0
LINE
  8
0
 10
27.5108
 20
18.5208
 11
28.7544
 21
18.5208
  0
LINE
  8
0
 10
28.3966
 20
18.3419
 11
28.7544
 21
18.5208
  0
LINE
  8
0
 10
28.3966
 20
18.6997
 11
28.7544
 21
18.5208
  0
LINE
  8
0
 10
28.7544
 20
18.3208
 11
28.7544
 21
19.5208
  0
LINE
  8
0
 10
25.5694
 20
18.5208
 11
24.3258
 21
18.5208
  0
LINE
  8
0
 10
24.6835
 20
18.6997
 11
24.3258
 21
18.5208
  0
LINE
  8
0
 10
24.6835
 20
18.3419
 11
24.3258
 21
18.5208
  0
TEXT
  8
0
 10
29.0994
 20
18.1208
 40
0.8
  1
1
  7
HIGHWAYSIGNCADPLUS
 72
1
 11
29.2544
 21
18.1208
  0
LINE
  8
0
 10
29.7544
 20
18.3208
 11
29.7544
 21
19.5208
  0
TEXT
  8
0
 10
29.8342
 20
17.1208
 40
0.8
  1
1.5
  7
HIGHWAYSIGNCADPLUS
 72
1
 11
30.5504
 21
17.1208
  0
LINE
  8
0
 10
30.5504
 20
18.5208
 11
31.3464
 21
18.5208
  0
LINE
  8
0
 10
30.9887
 20
18.3419
 11
31.3464
 21
18.5208
  0
LINE
  8
0
 10
30.9887
 20
18.6997
 11
31.3464
 21
18.5208
  0
LINE
  8
0
 10
31.3464
 20
18.3208
 11
31.3464
 21
19.5208
  0
LINE
  8
0
 10
30.5504
 20
18.5208
 11
29.7544
 21
18.5208
  0
LINE
  8
0
 10
30.1122
 20
18.6997
 11
29.7544
 21
18.5208
  0
LINE
  8
0
 10
30.1122
 20
18.3419
 11
29.7544
 21
18.5208
  0
TEXT
  8
0
 10
31.6915
 20
18.1208
 40
0.8
  1
1
  7
HIGHWAYSIGNCADPLUS
 72
1
 11
31.8464
 21
18.1208
  0
LINE
  8
0
 10
32.3464
 20
18.3208
 11
32.3464
 21
19.5208
  0
TEXT
  8
0
 10
31.991
 20
17.1208
 40
0.8
  1
0.8
  7
HIGHWAYSIGNCADPLUS
 72
1
 11
32.7449
 21
17.1208
  0
LINE
  8
0
 10
33.1433
 20
18.3208
 11
33.1433
 21
19.5208
  0
TEXT
  8
0
 10
33.4883
 20
18.1208
 40
0.8
  1
1
  7
HIGHWAYSIGNCADPLUS
 72
1
 11
33.6433
 21
18.1208
  0
LINE
  8
0
 10
34.1433
 20
18.3208
 11
34.1433
 21
19.5208
  0
TEXT
  8
0
 10
35.7797
 20
18.1208
 40
0.8
  1
4.9
  7
HIGHWAYSIGNCADPLUS
 72
1
 11
36.5503
 21
18.1208
  0
LINE
  8
0
 10
37.521
 20
18.5208
 11
38.9574
 21
18.5208
  0
LINE
  8
0
 10
38.5996
 20
18.3419
 11
38.9574
 21
18.5208
  0
LINE
  8
0
 10
38.5996
 20
18.6997
 11
38.9574
 21
18.5208
  0
LINE
  8
0
 10
38.9574
 20
18.3208
 11
38.9574
 21
19.5208
  0
LINE
  8
0
 10
35.5797
 20
18.5208
 11
34.1433
 21
18.5208
  0
LINE
  8
0
 10
34.5011
 20
18.6997
 11
34.1433
 21
18.5208
  0
LINE
  8
0
 10
34.5011
 20
18.3419
 11
34.1433
 21
18.5208
  0
TEXT
  8
0
 10
39.3024
 20
18.1208
 40
0.8
  1
1
  7
HIGHWAYSIGNCADPLUS
 72
1
 11
39.4574
 21
18.1208
  0
LINE
  8
0
 10
39.9574
 20
18.3208
 11
39.9574
 21
19.5208
  0
TEXT
  8
0
 10
40.8642
 20
18.1208
 40
0.8
  1
3.1
  7
HIGHWAYSIGNCADPLUS
 72
1
 11
41.5386
 21
18.1208
  0
LINE
  8
0
 10
42.4129
 20
18.5208
 11
43.1197
 21
18.5208
  0
LINE
  8
0
 10
42.762
 20
18.3419
 11
43.1197
 21
18.5208
  0
LINE
  8
0
 10
42.762
 20
18.6997
 11
43.1197
 21
18.5208
  0
LINE
  8
0
 10
43.1197
 20
18.3208
 11
43.1197
 21
19.5208
  0
LINE
  8
0
 10
40.6642
 20
18.5208
 11
39.9574
 21
18.5208
  0
LINE
  8
0
 10
40.3152
 20
18.6997
 11
39.9574
 21
18.5208
  0
LINE
  8
0
 10
40.3152
 20
18.3419
 11
39.9574
 21
18.5208
  0
TEXT
  8
0
 10
49.9
 20
58.7669
 40
0.8
  1
3.5
 50
90
  7
HIGHWAYSIGNCADPLUS
 72
1
 11
49.9
 21
59.5208
  0
LINE
  8
0
 10
49.5
 20
60.4747
 11
49.5
 21
61.2708
  0
LINE
  8
0
 10
49.6789
 20
60.913
 11
49.5
 21
61.2708
  0
LINE
  8
0
 10
49.3211
 20
60.913
 11
49.5
 21
61.2708
  0
LINE
  8
0
 10
49.5
 20
58.5669
 11
49.5
 21
57.7708
  0
LINE
  8
0
 10
49.3211
 20
58.1286
 11
49.5
 21
57.7708
  0
LINE
  8
0
 10
49.6789
 20
58.1286
 11
49.5
 21
57.7708
  0
LINE
  8
0
 10
49.7
 20
57.7708
 11
48.5
 21
57.7708
  0
TEXT
  8
0
 10
50.9
 20
56.3046
 40
0.8
  1
1.5
 50
90
  7
HIGHWAYSIGNCADPLUS
 72
1
 11
50.9
 21
57.0208
  0
LINE
  8
0
 10
49.5
 20
57.0208
 11
49.5
 21
57.7708
  0
LINE
  8
0
 10
49.6789
 20
57.413
 11
49.5
 21
57.7708
  0
LINE
  8
0
 10
49.3211
 20
57.413
 11
49.5
 21
57.7708
  0
LINE
  8
0
 10
49.5
 20
57.0208
 11
49.5
 21
56.2708
  0
LINE
  8
0
 10
49.3211
 20
56.6286
 11
49.5
 21
56.2708
  0
LINE
  8
0
 10
49.6789
 20
56.6286
 11
49.5
 21
56.2708
  0
LINE
  8
0
 10
49.7
 20
56.2708
 11
48.5
 21
56.2708
  0
TEXT
  8
0
 10
1.0629
 20
16.1208
 40
0.8
  1
3.6
  7
HIGHWAYSIGNCADPLUS
 72
1
 11
1.821
 21
16.1208
  0
LINE
  8
0
 10
2.7791
 20
16.5208
 11
3.642
 21
16.5208
  0
LINE
  8
0
 10
3.2842
 20
16.3419
 11
3.642
 21
16.5208
  0
LINE
  8
0
 10
3.2842
 20
16.6997
 11
3.642
 21
16.5208
  0
LINE
  8
0
 10
3.642
 20
16.3208
 11
3.642
 21
17.5208
  0
LINE
  8
0
 10
0.8629
 20
16.5208
 11
0
 21
16.5208
  0
LINE
  8
0
 10
0.3578
 20
16.6997
 11
0
 21
16.5208
  0
LINE
  8
0
 10
0.3578
 20
16.3419
 11
0
 21
16.5208
  0
LINE
  8
0
 10
0
 20
16.3208
 11
0
 21
17.5208
  0
TEXT
  8
0
 10
4.0677
 20
16.1208
 40
0.8
  1
2.4
  7
HIGHWAYSIGNCADPLUS
 72
1
 11
4.8279
 21
16.1208
  0
LINE
  8
0
 10
6.0138
 20
16.3208
 11
6.0138
 21
17.5208
  0
TEXT
  8
0
 10
6.3589
 20
16.1208
 40
0.8
  1
1
  7
HIGHWAYSIGNCADPLUS
 72
1
 11
6.5138
 21
16.1208
  0
LINE
  8
0
 10
7.0138
 20
16.3208
 11
7.0138
 21
17.5208
  0
TEXT
  8
0
 10
10.5237
 20
16.1208
 40
0.8
  1
8.6
  7
HIGHWAYSIGNCADPLUS
 72
1
 11
11.2839
 21
16.1208
  0
LINE
  8
0
 10
12.2441
 20
16.5208
 11
15.554
 21
16.5208
  0
LINE
  8
0
 10
15.1963
 20
16.3419
 11
15.554
 21
16.5208
  0
LINE
  8
0
 10
15.1963
 20
16.6997
 11
15.554
 21
16.5208
  0
LINE
  8
0
 10
15.554
 20
16.3208
 11
15.554
 21
17.5208
  0
LINE
  8
0
 10
10.3237
 20
16.5208
 11
7.0138
 21
16.5208
  0
LINE
  8
0
 10
7.3716
 20
16.6997
 11
7.0138
 21
16.5208
  0
LINE
  8
0
 10
7.3716
 20
16.3419
 11
7.0138
 21
16.5208
  0
TEXT
  8
0
 10
15.8991
 20
16.1208
 40
0.8
  1
1
  7
HIGHWAYSIGNCADPLUS
 72
1
 11
16.054
 21
16.1208
  0
LINE
  8
0
 10
16.554
 20
16.3208
 11
16.554
 21
17.5208
  0
TEXT
  8
0
 10
17.9416
 20
16.1208
 40
0.8
  1
4.1
  7
HIGHWAYSIGNCADPLUS
 72
1
 11
18.6327
 21
16.1208
  0
LINE
  8
0
 10
19.5238
 20
16.5208
 11
20.7114
 21
16.5208
  0
LINE
  8
0
 10
20.3537
 20
16.3419
 11
20.7114
 21
16.5208
  0
LINE
  8
0
 10
20.3537
 20
16.6997
 11
20.7114
 21
16.5208
  0
LINE
  8
0
 10
20.7114
 20
16.3208
 11
20.7114
 21
17.5208
  0
LINE
  8
0
 10
17.7416
 20
16.5208
 11
16.554
 21
16.5208
  0
LINE
  8
0
 10
16.9118
 20
16.6997
 11
16.554
 21
16.5208
  0
LINE
  8
0
 10
16.9118
 20
16.3419
 11
16.554
 21
16.5208
  0
TEXT
  8
0
 10
50.9
 20
55.2669
 40
0.8
  1
0.5
 50
90
  7
HIGHWAYSIGNCADPLUS
 72
1
 11
50.9
 21
56.0208
  0
LINE
  8
0
 10
49.7
 20
55.7708
 11
48.5
 21
55.7708
  0
TEXT
  8
0
 10
50.9
 20
54.3046
 40
0.8
  1
1.5
 50
90
  7
HIGHWAYSIGNCADPLUS
 72
1
 11
50.9
 21
55.0208
  0
LINE
  8
0
 10
49.5
 20
55.0208
 11
49.5
 21
55.7708
  0
LINE
  8
0
 10
49.6789
 20
55.413
 11
49.5
 21
55.7708
  0
LINE
  8
0
 10
49.3211
 20
55.413
 11
49.5
 21
55.7708
  0
LINE
  8
0
 10
49.5
 20
55.0208
 11
49.5
 21
54.2708
  0
LINE
  8
0
 10
49.3211
 20
54.6286
 11
49.5
 21
54.2708
  0
LINE
  8
0
 10
49.6789
 20
54.6286
 11
49.5
 21
54.2708
  0
LINE
  8
0
 10
49.7
 20
54.2708
 11
48.5
 21
54.2708
  0
TEXT
  8
0
 10
1.0629
 20
14.1208
 40
0.8
  1
3.6
  7
HIGHWAYSIGNCADPLUS
 72
1
 11
1.821
 21
14.1208
  0
LINE
  8
0
 10
2.7791
 20
14.5208
 11
3.642
 21
14.5208
  0
LINE
  8
0
 10
3.2842
 20
14.3419
 11
3.642
 21
14.5208
  0
LINE
  8
0
 10
3.2842
 20
14.6997
 11
3.642
 21
14.5208
  0
LINE
  8
0
 10
3.642
 20
14.3208
 11
3.642
 21
15.5208
  0
LINE
  8
0
 10
0.8629
 20
14.5208
 11
0
 21
14.5208
  0
LINE
  8
0
 10
0.3578
 20
14.6997
 11
0
 21
14.5208
  0
LINE
  8
0
 10
0.3578
 20
14.3419
 11
0
 21
14.5208
  0
LINE
  8
0
 10
0
 20
14.3208
 11
0
 21
15.5208
  0
TEXT
  8
0
 10
4.128
 20
14.1208
 40
0.8
  1
2.5
  7
HIGHWAYSIGNCADPLUS
 72
1
 11
4.8903
 21
14.1208
  0
LINE
  8
0
 10
6.1387
 20
14.3208
 11
6.1387
 21
15.5208
  0
TEXT
  8
0
 10
6.4837
 20
14.1208
 40
0.8
  1
1
  7
HIGHWAYSIGNCADPLUS
 72
1
 11
6.6387
 21
14.1208
  0
LINE
  8
0
 10
7.1387
 20
14.3208
 11
7.1387
 21
15.5208
  0
TEXT
  8
0
 10
7.0331
 20
13.1208
 40
0.8
  1
1.3
  7
HIGHWAYSIGNCADPLUS
 72
1
 11
7.7472
 21
13.1208
  0
LINE
  8
0
 10
7.7472
 20
14.5208
 11
8.3557
 21
14.5208
  0
LINE
  8
0
 10
7.998
 20
14.3419
 11
8.3557
 21
14.5208
  0
LINE
  8
0
 10
7.998
 20
14.6997
 11
8.3557
 21
14.5208
  0
LINE
  8
0
 10
8.3557
 20
14.3208
 11
8.3557
 21
15.5208
  0
LINE
  8
0
 10
7.7472
 20
14.5208
 11
7.1387
 21
14.5208
  0
LINE
  8
0
 10
7.4965
 20
14.6997
 11
7.1387
 21
14.5208
  0
LINE
  8
0
 10
7.4965
 20
14.3419
 11
7.1387
 21
14.5208
  0
TEXT
  8
0
 10
8.7008
 20
14.1208
 40
0.8
  1
1
  7
HIGHWAYSIGNCADPLUS
 72
1
 11
8.8557
 21
14.1208
  0
LINE
  8
0
 10
9.3557
 20
14.3208
 11
9.3557
 21
15.5208
  0
TEXT
  8
0
 10
10.2733
 20
14.1208
 40
0.8
  1
3.3
  7
HIGHWAYSIGNCADPLUS
 72
1
 11
11.0251
 21
14.1208
  0
LINE
  8
0
 10
11.977
 20
14.5208
 11
12.6945
 21
14.5208
  0
LINE
  8
0
 10
12.3368
 20
14.3419
 11
12.6945
 21
14.5208
  0
LINE
  8
0
 10
12.3368
 20
14.6997
 11
12.6945
 21
14.5208
  0
LINE
  8
0
 10
12.6945
 20
14.3208
 11
12.6945
 21
15.5208
  0
LINE
  8
0
 10
10.0733
 20
14.5208
 11
9.3557
 21
14.5208
  0
LINE
  8
0
 10
9.7135
 20
14.6997
 11
9.3557
 21
14.5208
  0
LINE
  8
0
 10
9.7135
 20
14.3419
 11
9.3557
 21
14.5208
  0
TEXT
  8
0
 10
13.0395
 20
14.1208
 40
0.8
  1
1
  7
HIGHWAYSIGNCADPLUS
 72
1
 11
13.1945
 21
14.1208
  0
LINE
  8
0
 10
13.6945
 20
14.3208
 11
13.6945
 21
15.5208
  0
TEXT
  8
0
 10
14.7054
 20
14.1208
 40
0.8
  1
3.5
  7
HIGHWAYSIGNCADPLUS
 72
1
 11
15.4594
 21
14.1208
  0
LINE
  8
0
 10
16.4133
 20
14.5208
 11
17.2242
 21
14.5208
  0
LINE
  8
0
 10
16.8664
 20
14.3419
 11
17.2242
 21
14.5208
  0
LINE
  8
0
 10
16.8664
 20
14.6997
 11
17.2242
 21
14.5208
  0
LINE
  8
0
 10
17.2242
 20
14.3208
 11
17.2242
 21
15.5208
  0
LINE
  8
0
 10
14.5054
 20
14.5208
 11
13.6945
 21
14.5208
  0
LINE
  8
0
 10
14.0523
 20
14.6997
 11
13.6945
 21
14.5208
  0
LINE
  8
0
 10
14.0523
 20
14.3419
 11
13.6945
 21
14.5208
  0
TEXT
  8
0
 10
17.5692
 20
14.1208
 40
0.8
  1
1
  7
HIGHWAYSIGNCADPLUS
 72
1
 11
17.7242
 21
14.1208
  0
LINE
  8
0
 10
18.2242
 20
14.3208
 11
18.2242
 21
15.5208
  0
TEXT
  8
0
 10
17.8687
 20
13.1208
 40
0.8
  1
0.8
  7
HIGHWAYSIGNCADPLUS
 72
1
 11
18.6227
 21
13.1208
  0
LINE
  8
0
 10
19.0211
 20
14.3208
 11
19.0211
 21
15.5208
  0
TEXT
  8
0
 10
50.9
 20
53.2669
 40
0.8
  1
0.5
 50
90
  7
HIGHWAYSIGNCADPLUS
 72
1
 11
50.9
 21
54.0208
  0
LINE
  8
0
 10
49.7
 20
53.7708
 11
48.5
 21
53.7708
  0
TEXT
  8
0
 10
50.9
 20
52.3046
 40
0.8
  1
1.5
 50
90
  7
HIGHWAYSIGNCADPLUS
 72
1
 11
50.9
 21
53.0208
  0
LINE
  8
0
 10
49.5
 20
53.0208
 11
49.5
 21
53.7708
  0
LINE
  8
0
 10
49.6789
 20
53.413
 11
49.5
 21
53.7708
  0
LINE
  8
0
 10
49.3211
 20
53.413
 11
49.5
 21
53.7708
  0
LINE
  8
0
 10
49.5
 20
53.0208
 11
49.5
 21
52.2708
  0
LINE
  8
0
 10
49.3211
 20
52.6286
 11
49.5
 21
52.2708
  0
LINE
  8
0
 10
49.6789
 20
52.6286
 11
49.5
 21
52.2708
  0
LINE
  8
0
 10
49.7
 20
52.2708
 11
48.5
 21
52.2708
  0
TEXT
  8
0
 10
1.0629
 20
12.1208
 40
0.8
  1
3.6
  7
HIGHWAYSIGNCADPLUS
 72
1
 11
1.821
 21
12.1208
  0
LINE
  8
0
 10
2.7791
 20
12.5208
 11
3.642
 21
12.5208
  0
LINE
  8
0
 10
3.2842
 20
12.3419
 11
3.642
 21
12.5208
  0
LINE
  8
0
 10
3.2842
 20
12.6997
 11
3.642
 21
12.5208
  0
LINE
  8
0
 10
3.642
 20
12.3208
 11
3.642
 21
13.5208
  0
LINE
  8
0
 10
0.8629
 20
12.5208
 11
0
 21
12.5208
  0
LINE
  8
0
 10
0.3578
 20
12.6997
 11
0
 21
12.5208
  0
LINE
  8
0
 10
0.3578
 20
12.3419
 11
0
 21
12.5208
  0
LINE
  8
0
 10
0
 20
12.3208
 11
0
 21
13.5208
  0
TEXT
  8
0
 10
5.2783
 20
12.1208
 40
0.8
  1
4.9
  7
HIGHWAYSIGNCADPLUS
 72
1
 11
6.049
 21
12.1208
  0
LINE
  8
0
 10
7.0197
 20
12.5208
 11
8.456
 21
12.5208
  0
LINE
  8
0
 10
8.0983
 20
12.3419
 11
8.456
 21
12.5208
  0
LINE
  8
0
 10
8.0983
 20
12.6997
 11
8.456
 21
12.5208
  0
LINE
  8
0
 10
8.456
 20
12.3208
 11
8.456
 21
13.5208
  0
LINE
  8
0
 10
5.0783
 20
12.5208
 11
3.642
 21
12.5208
  0
LINE
  8
0
 10
3.9997
 20
12.6997
 11
3.642
 21
12.5208
  0
LINE
  8
0
 10
3.9997
 20
12.3419
 11
3.642
 21
12.5208
  0
TEXT
  8
0
 10
8.8011
 20
12.1208
 40
0.8
  1
1
  7
HIGHWAYSIGNCADPLUS
 72
1
 11
8.956
 21
12.1208
  0
LINE
  8
0
 10
9.456
 20
12.3208
 11
9.456
 21
13.5208
  0
TEXT
  8
0
 10
10.1437
 20
12.1208
 40
0.8
  1
2.9
  7
HIGHWAYSIGNCADPLUS
 72
1
 11
10.906
 21
12.1208
  0
LINE
  8
0
 10
11.8683
 20
12.5208
 11
12.3559
 21
12.5208
  0
LINE
  8
0
 10
11.9981
 20
12.3419
 11
12.3559
 21
12.5208
  0
LINE
  8
0
 10
11.9981
 20
12.6997
 11
12.3559
 21
12.5208
  0
LINE
  8
0
 10
12.3559
 20
12.3208
 11
12.3559
 21
13.5208
  0
LINE
  8
0
 10
9.9437
 20
12.5208
 11
9.456
 21
12.5208
  0
LINE
  8
0
 10
9.8138
 20
12.6997
 11
9.456
 21
12.5208
  0
LINE
  8
0
 10
9.8138
 20
12.3419
 11
9.456
 21
12.5208
  0
TEXT
  8
0
 10
12.7009
 20
12.1208
 40
0.8
  1
1
  7
HIGHWAYSIGNCADPLUS
 72
1
 11
12.8559
 21
12.1208
  0
LINE
  8
0
 10
13.3559
 20
12.3208
 11
13.3559
 21
13.5208
  0
TEXT
  8
0
 10
16.8369
 20
12.1208
 40
0.8
  1
8.4
  7
HIGHWAYSIGNCADPLUS
 72
1
 11
17.5908
 21
12.1208
  0
LINE
  8
0
 10
18.5447
 20
12.5208
 11
21.8258
 21
12.5208
  0
LINE
  8
0
 10
21.468
 20
12.3419
 11
21.8258
 21
12.5208
  0
LINE
  8
0
 10
21.468
 20
12.6997
 11
21.8258
 21
12.5208
  0
LINE
  8
0
 10
21.8258
 20
12.3208
 11
21.8258
 21
13.5208
  0
LINE
  8
0
 10
16.6369
 20
12.5208
 11
13.3559
 21
12.5208
  0
LINE
  8
0
 10
13.7137
 20
12.6997
 11
13.3559
 21
12.5208
  0
LINE
  8
0
 10
13.7137
 20
12.3419
 11
13.3559
 21
12.5208
  0
TEXT
  8
0
 10
50.9
 20
51.2669
 40
0.8
  1
0.5
 50
90
  7
HIGHWAYSIGNCADPLUS
 72
1
 11
50.9
 21
52.0208
  0
LINE
  8
0
 10
49.7
 20
51.7708
 11
48.5
 21
51.7708
  0
TEXT
  8
0
 10
50.9
 20
50.3046
 40
0.8
  1
1.5
 50
90
  7
HIGHWAYSIGNCADPLUS
 72
1
 11
50.9
 21
51.0208
  0
LINE
  8
0
 10
49.5
 20
51.0208
 11
49.5
 21
51.7708
  0
LINE
  8
0
 10
49.6789
 20
51.413
 11
49.5
 21
51.7708
  0
LINE
  8
0
 10
49.3211
 20
51.413
 11
49.5
 21
51.7708
  0
LINE
  8
0
 10
49.5
 20
51.0208
 11
49.5
 21
50.2708
  0
LINE
  8
0
 10
49.3211
 20
50.6286
 11
49.5
 21
50.2708
  0
LINE
  8
0
 10
49.6789
 20
50.6286
 11
49.5
 21
50.2708
  0
LINE
  8
0
 10
49.7
 20
50.2708
 11
48.5
 21
50.2708
  0
TEXT
  8
0
 10
1.0629
 20
10.1208
 40
0.8
  1
3.6
  7
HIGHWAYSIGNCADPLUS
 72
1
 11
1.821
 21
10.1208
  0
LINE
  8
0
 10
2.7791
 20
10.5208
 11
3.642
 21
10.5208
  0
LINE
  8
0
 10
3.2842
 20
10.3419
 11
3.642
 21
10.5208
  0
LINE
  8
0
 10
3.2842
 20
10.6997
 11
3.642
 21
10.5208
  0
LINE
  8
0
 10
3.642
 20
10.3208
 11
3.642
 21
11.5208
  0
LINE
  8
0
 10
0.8629
 20
10.5208
 11
0
 21
10.5208
  0
LINE
  8
0
 10
0.3578
 20
10.6997
 11
0
 21
10.5208
  0
LINE
  8
0
 10
0.3578
 20
10.3419
 11
0
 21
10.5208
  0
LINE
  8
0
 10
0
 20
10.3208
 11
0
 21
11.5208
  0
TEXT
  8
0
 10
3.6824
 20
9.1208
 40
0.8
  1
1.6
  7
HIGHWAYSIGNCADPLUS
 72
1
 11
4.4028
 21
9.1208
  0
LINE
  8
0
 10
4.4028
 20
10.5208
 11
5.1637
 21
10.5208
  0
LINE
  8
0
 10
4.8059
 20
10.3419
 11
5.1637
 21
10.5208
  0
LINE
  8
0
 10
4.8059
 20
10.6997
 11
5.1637
 21
10.5208
  0
LINE
  8
0
 10
5.1637
 20
10.3208
 11
5.1637
 21
11.5208
  0
LINE
  8
0
 10
4.4028
 20
10.5208
 11
3.642
 21
10.5208
  0
LINE
  8
0
 10
3.9997
 20
10.6997
 11
3.642
 21
10.5208
  0
LINE
  8
0
 10
3.9997
 20
10.3419
 11
3.642
 21
10.5208
  0
TEXT
  8
0
 10
5.5087
 20
10.1208
 40
0.8
  1
1
  7
HIGHWAYSIGNCADPLUS
 72
1
 11
5.6637
 21
10.1208
  0
LINE
  8
0
 10
6.1637
 20
10.3208
 11
6.1637
 21
11.5208
  0
TEXT
  8
0
 10
8.3747
 20
10.1208
 40
0.8
  1
5.9
  7
HIGHWAYSIGNCADPLUS
 72
1
 11
9.1307
 21
10.1208
  0
LINE
  8
0
 10
10.0867
 20
10.5208
 11
12.0976
 21
10.5208
  0
LINE
  8
0
 10
11.7399
 20
10.3419
 11
12.0976
 21
10.5208
  0
LINE
  8
0
 10
11.7399
 20
10.6997
 11
12.0976
 21
10.5208
  0
LINE
  8
0
 10
12.0976
 20
10.3208
 11
12.0976
 21
11.5208
  0
LINE
  8
0
 10
8.1747
 20
10.5208
 11
6.1637
 21
10.5208
  0
LINE
  8
0
 10
6.5215
 20
10.6997
 11
6.1637
 21
10.5208
  0
LINE
  8
0
 10
6.5215
 20
10.3419
 11
6.1637
 21
10.5208
  0
TEXT
  8
0
 10
12.4427
 20
10.1208
 40
0.8
  1
1
  7
HIGHWAYSIGNCADPLUS
 72
1
 11
12.5976
 21
10.1208
  0
LINE
  8
0
 10
13.0976
 20
10.3208
 11
13.0976
 21
11.5208
  0
TEXT
  8
0
 10
13.0109
 20
9.1208
 40
0.8
  1
1.1
  7
HIGHWAYSIGNCADPLUS
 72
1
 11
13.6476
 21
9.1208
  0
LINE
  8
0
 10
14.1975
 20
10.3208
 11
14.1975
 21
11.5208
  0
TEXT
  8
0
 10
14.5425
 20
10.1208
 40
0.8
  1
1
  7
HIGHWAYSIGNCADPLUS
 72
1
 11
14.6975
 21
10.1208
  0
LINE
  8
0
 10
15.1975
 20
10.3208
 11
15.1975
 21
11.5208
  0
TEXT
  8
0
 10
14.842
 20
9.1208
 40
0.8
  1
0.8
  7
HIGHWAYSIGNCADPLUS
 72
1
 11
15.5959
 21
9.1208
  0
LINE
  8
0
 10
15.9944
 20
10.3208
 11
15.9944
 21
11.5208
  0
TEXT
  8
0
 10
16.3394
 20
10.1208
 40
0.8
  1
1
  7
HIGHWAYSIGNCADPLUS
 72
1
 11
16.4944
 21
10.1208
  0
LINE
  8
0
 10
16.9944
 20
10.3208
 11
16.9944
 21
11.5208
  0
TEXT
  8
0
 10
19.1174
 20
10.1208
 40
0.8
  1
5.8
  7
HIGHWAYSIGNCADPLUS
 72
1
 11
19.8735
 21
10.1208
  0
LINE
  8
0
 10
20.8295
 20
10.5208
 11
22.7525
 21
10.5208
  0
LINE
  8
0
 10
22.3948
 20
10.3419
 11
22.7525
 21
10.5208
  0
LINE
  8
0
 10
22.3948
 20
10.6997
 11
22.7525
 21
10.5208
  0
LINE
  8
0
 10
22.7525
 20
10.3208
 11
22.7525
 21
11.5208
  0
LINE
  8
0
 10
18.9174
 20
10.5208
 11
16.9944
 21
10.5208
  0
LINE
  8
0
 10
17.3521
 20
10.6997
 11
16.9944
 21
10.5208
  0
LINE
  8
0
 10
17.3521
 20
10.3419
 11
16.9944
 21
10.5208
  0
TEXT
  8
0
 10
21.7605
 20
16.1208
 40
0.8
  1
3.6
  7
HIGHWAYSIGNCADPLUS
 72
1
 11
22.5186
 21
16.1208
  0
LINE
  8
0
 10
23.4767
 20
16.5208
 11
24.3258
 21
16.5208
  0
LINE
  8
0
 10
23.968
 20
16.3419
 11
24.3258
 21
16.5208
  0
LINE
  8
0
 10
23.968
 20
16.6997
 11
24.3258
 21
16.5208
  0
LINE
  8
0
 10
24.3258
 20
16.3208
 11
24.3258
 21
17.5208
  0
LINE
  8
0
 10
21.5605
 20
16.5208
 11
20.7114
 21
16.5208
  0
LINE
  8
0
 10
21.0692
 20
16.6997
 11
20.7114
 21
16.5208
  0
LINE
  8
0
 10
21.0692
 20
16.3419
 11
20.7114
 21
16.5208
  0
TEXT
  8
0
 10
24.7869
 20
16.1208
 40
0.8
  1
2.5
  7
HIGHWAYSIGNCADPLUS
 72
1
 11
25.5492
 21
16.1208
  0
LINE
  8
0
 10
26.7727
 20
16.3208
 11
26.7727
 21
17.5208
  0
TEXT
  8
0
 10
27.1177
 20
16.1208
 40
0.8
  1
1
  7
HIGHWAYSIGNCADPLUS
 72
1
 11
27.2726
 21
16.1208
  0
LINE
  8
0
 10
27.7727
 20
16.3208
 11
27.7727
 21
17.5208
  0
TEXT
  8
0
 10
29.7774
 20
16.1208
 40
0.8
  1
5.5
  7
HIGHWAYSIGNCADPLUS
 72
1
 11
30.5334
 21
16.1208
  0
LINE
  8
0
 10
31.4894
 20
16.5208
 11
33.2941
 21
16.5208
  0
LINE
  8
0
 10
32.9363
 20
16.3419
 11
33.2941
 21
16.5208
  0
LINE
  8
0
 10
32.9363
 20
16.6997
 11
33.2941
 21
16.5208
  0
LINE
  8
0
 10
33.2941
 20
16.3208
 11
33.2941
 21
17.5208
  0
LINE
  8
0
 10
29.5774
 20
16.5208
 11
27.7727
 21
16.5208
  0
LINE
  8
0
 10
28.1304
 20
16.6997
 11
27.7727
 21
16.5208
  0
LINE
  8
0
 10
28.1304
 20
16.3419
 11
27.7727
 21
16.5208
  0
TEXT
  8
0
 10
33.6391
 20
16.1208
 40
0.8
  1
1
  7
HIGHWAYSIGNCADPLUS
 72
1
 11
33.7941
 21
16.1208
  0
LINE
  8
0
 10
34.2941
 20
16.3208
 11
34.2941
 21
17.5208
  0
TEXT
  8
0
 10
34.3115
 20
15.1208
 40
0.8
  1
1.5
  7
HIGHWAYSIGNCADPLUS
 72
1
 11
35.0277
 21
15.1208
  0
LINE
  8
0
 10
35.0277
 20
16.5208
 11
35.7613
 21
16.5208
  0
LINE
  8
0
 10
35.4035
 20
16.3419
 11
35.7613
 21
16.5208
  0
LINE
  8
0
 10
35.4035
 20
16.6997
 11
35.7613
 21
16.5208
  0
LINE
  8
0
 10
35.7613
 20
16.3208
 11
35.7613
 21
17.5208
  0
LINE
  8
0
 10
35.0277
 20
16.5208
 11
34.2941
 21
16.5208
  0
LINE
  8
0
 10
34.6519
 20
16.6997
 11
34.2941
 21
16.5208
  0
LINE
  8
0
 10
34.6519
 20
16.3419
 11
34.2941
 21
16.5208
  0
TEXT
  8
0
 10
36.1063
 20
16.1208
 40
0.8
  1
1
  7
HIGHWAYSIGNCADPLUS
 72
1
 11
36.2613
 21
16.1208
  0
LINE
  8
0
 10
36.7613
 20
16.3208
 11
36.7613
 21
17.5208
  0
TEXT
  8
0
 10
39.1443
 20
16.1208
 40
0.8
  1
6.2
  7
HIGHWAYSIGNCADPLUS
 72
1
 11
39.8962
 21
16.1208
  0
LINE
  8
0
 10
40.848
 20
16.5208
 11
43.031
 21
16.5208
  0
LINE
  8
0
 10
42.6733
 20
16.3419
 11
43.031
 21
16.5208
  0
LINE
  8
0
 10
42.6733
 20
16.6997
 11
43.031
 21
16.5208
  0
LINE
  8
0
 10
43.031
 20
16.3208
 11
43.031
 21
17.5208
  0
LINE
  8
0
 10
38.9443
 20
16.5208
 11
36.7613
 21
16.5208
  0
LINE
  8
0
 10
37.1191
 20
16.6997
 11
36.7613
 21
16.5208
  0
LINE
  8
0
 10
37.1191
 20
16.3419
 11
36.7613
 21
16.5208
  0
TEXT
  8
0
 10
20.9195
 20
14.1208
 40
0.8
  1
5.3
  7
HIGHWAYSIGNCADPLUS
 72
1
 11
21.6734
 21
14.1208
  0
LINE
  8
0
 10
22.6274
 20
14.5208
 11
24.3258
 21
14.5208
  0
LINE
  8
0
 10
23.968
 20
14.3419
 11
24.3258
 21
14.5208
  0
LINE
  8
0
 10
23.968
 20
14.6997
 11
24.3258
 21
14.5208
  0
LINE
  8
0
 10
24.3258
 20
14.3208
 11
24.3258
 21
15.5208
  0
LINE
  8
0
 10
20.7195
 20
14.5208
 11
19.0211
 21
14.5208
  0
LINE
  8
0
 10
19.3789
 20
14.6997
 11
19.0211
 21
14.5208
  0
LINE
  8
0
 10
19.3789
 20
14.3419
 11
19.0211
 21
14.5208
  0
TEXT
  8
0
 10
24.8118
 20
14.1208
 40
0.8
  1
2.5
  7
HIGHWAYSIGNCADPLUS
 72
1
 11
25.5741
 21
14.1208
  0
LINE
  8
0
 10
26.8225
 20
14.3208
 11
26.8225
 21
15.5208
  0
TEXT
  8
0
 10
27.1675
 20
14.1208
 40
0.8
  1
1
  7
HIGHWAYSIGNCADPLUS
 72
1
 11
27.3225
 21
14.1208
  0
LINE
  8
0
 10
27.8225
 20
14.3208
 11
27.8225
 21
15.5208
  0
TEXT
  8
0
 10
27.3871
 20
13.1208
 40
0.8
  1
0.7
  7
HIGHWAYSIGNCADPLUS
 72
1
 11
28.1389
 21
13.1208
  0
LINE
  8
0
 10
28.4553
 20
14.3208
 11
28.4553
 21
15.5208
  0
TEXT
  8
0
 10
28.8003
 20
14.1208
 40
0.8
  1
1
  7
HIGHWAYSIGNCADPLUS
 72
1
 11
28.9553
 21
14.1208
  0
LINE
  8
0
 10
29.4553
 20
14.3208
 11
29.4553
 21
15.5208
  0
TEXT
  8
0
 10
29.5351
 20
13.1208
 40
0.8
  1
1.5
  7
HIGHWAYSIGNCADPLUS
 72
1
 11
30.2513
 21
13.1208
  0
LINE
  8
0
 10
30.2513
 20
14.5208
 11
31.0474
 21
14.5208
  0
LINE
  8
0
 10
30.6896
 20
14.3419
 11
31.0474
 21
14.5208
  0
LINE
  8
0
 10
30.6896
 20
14.6997
 11
31.0474
 21
14.5208
  0
LINE
  8
0
 10
31.0474
 20
14.3208
 11
31.0474
 21
15.5208
  0
LINE
  8
0
 10
30.2513
 20
14.5208
 11
29.4553
 21
14.5208
  0
LINE
  8
0
 10
29.8131
 20
14.6997
 11
29.4553
 21
14.5208
  0
LINE
  8
0
 10
29.8131
 20
14.3419
 11
29.4553
 21
14.5208
  0
TEXT
  8
0
 10
31.3924
 20
14.1208
 40
0.8
  1
1
  7
HIGHWAYSIGNCADPLUS
 72
1
 11
31.5474
 21
14.1208
  0
LINE
  8
0
 10
32.0474
 20
14.3208
 11
32.0474
 21
15.5208
  0
TEXT
  8
0
 10
32.9058
 20
14.1208
 40
0.8
  1
3.1
  7
HIGHWAYSIGNCADPLUS
 72
1
 11
33.5802
 21
14.1208
  0
LINE
  8
0
 10
34.4545
 20
14.5208
 11
35.113
 21
14.5208
  0
LINE
  8
0
 10
34.7552
 20
14.3419
 11
35.113
 21
14.5208
  0
LINE
  8
0
 10
34.7552
 20
14.6997
 11
35.113
 21
14.5208
  0
LINE
  8
0
 10
35.113
 20
14.3208
 11
35.113
 21
15.5208
  0
LINE
  8
0
 10
32.7058
 20
14.5208
 11
32.0474
 21
14.5208
  0
LINE
  8
0
 10
32.4051
 20
14.6997
 11
32.0474
 21
14.5208
  0
LINE
  8
0
 10
32.4051
 20
14.3419
 11
32.0474
 21
14.5208
  0
TEXT
  8
0
 10
35.458
 20
14.1208
 40
0.8
  1
1
  7
HIGHWAYSIGNCADPLUS
 72
1
 11
35.613
 21
14.1208
  0
LINE
  8
0
 10
36.113
 20
14.3208
 11
36.113
 21
15.5208
  0
TEXT
  8
0
 10
36.0263
 20
13.1208
 40
0.8
  1
1.1
  7
HIGHWAYSIGNCADPLUS
 72
1
 11
36.6629
 21
13.1208
  0
LINE
  8
0
 10
37.2128
 20
14.3208
 11
37.2128
 21
15.5208
  0
TEXT
  8
0
 10
37.5579
 20
14.1208
 40
0.8
  1
1
  7
HIGHWAYSIGNCADPLUS
 72
1
 11
37.7129
 21
14.1208
  0
LINE
  8
0
 10
38.2128
 20
14.3208
 11
38.2128
 21
15.5208
  0
TEXT
  8
0
 10
37.8574
 20
13.1208
 40
0.8
  1
0.8
  7
HIGHWAYSIGNCADPLUS
 72
1
 11
38.6113
 21
13.1208
  0
LINE
  8
0
 10
39.0097
 20
14.3208
 11
39.0097
 21
15.5208
  0
TEXT
  8
0
 10
22.3135
 20
12.1208
 40
0.8
  1
2.5
  7
HIGHWAYSIGNCADPLUS
 72
1
 11
23.0758
 21
12.1208
  0
LINE
  8
0
 10
24.3258
 20
12.3208
 11
24.3258
 21
13.5208
  0
TEXT
  8
0
 10
27.4172
 20
12.1208
 40
0.8
  1
7.7
  7
HIGHWAYSIGNCADPLUS
 72
1
 11
28.167
 21
12.1208
  0
LINE
  8
0
 10
29.1167
 20
12.5208
 11
32.0082
 21
12.5208
  0
LINE
  8
0
 10
31.6504
 20
12.3419
 11
32.0082
 21
12.5208
  0
LINE
  8
0
 10
31.6504
 20
12.6997
 11
32.0082
 21
12.5208
  0
LINE
  8
0
 10
32.0082
 20
12.3208
 11
32.0082
 21
13.5208
  0
LINE
  8
0
 10
27.2172
 20
12.5208
 11
24.3258
 21
12.5208
  0
LINE
  8
0
 10
24.6835
 20
12.6997
 11
24.3258
 21
12.5208
  0
LINE
  8
0
 10
24.6835
 20
12.3419
 11
24.3258
 21
12.5208
  0
TEXT
  8
0
 10
32.3532
 20
12.1208
 40
0.8
  1
1
  7
HIGHWAYSIGNCADPLUS
 72
1
 11
32.5082
 21
12.1208
  0
LINE
  8
0
 10
33.0082
 20
12.3208
 11
33.0082
 21
13.5208
  0
TEXT
  8
0
 10
33.6981
 20
12.1208
 40
0.8
  1
2.9
  7
HIGHWAYSIGNCADPLUS
 72
1
 11
34.4604
 21
12.1208
  0
LINE
  8
0
 10
35.4227
 20
12.5208
 11
35.9127
 21
12.5208
  0
LINE
  8
0
 10
35.5549
 20
12.3419
 11
35.9127
 21
12.5208
  0
LINE
  8
0
 10
35.5549
 20
12.6997
 11
35.9127
 21
12.5208
  0
LINE
  8
0
 10
35.9127
 20
12.3208
 11
35.9127
 21
13.5208
  0
LINE
  8
0
 10
33.4981
 20
12.5208
 11
33.0082
 21
12.5208
  0
LINE
  8
0
 10
33.3659
 20
12.6997
 11
33.0082
 21
12.5208
  0
LINE
  8
0
 10
33.3659
 20
12.3419
 11
33.0082
 21
12.5208
  0
TEXT
  8
0
 10
36.2577
 20
12.1208
 40
0.8
  1
1
  7
HIGHWAYSIGNCADPLUS
 72
1
 11
36.4127
 21
12.1208
  0
LINE
  8
0
 10
36.9127
 20
12.3208
 11
36.9127
 21
13.5208
  0
TEXT
  8
0
 10
37.363
 20
12.1208
 40
0.8
  1
2.4
  7
HIGHWAYSIGNCADPLUS
 72
1
 11
38.1233
 21
12.1208
  0
LINE
  8
0
 10
39.3338
 20
12.3208
 11
39.3338
 21
13.5208
  0
TEXT
  8
0
 10
39.6788
 20
12.1208
 40
0.8
  1
1
  7
HIGHWAYSIGNCADPLUS
 72
1
 11
39.8338
 21
12.1208
  0
LINE
  8
0
 10
40.3338
 20
12.3208
 11
40.3338
 21
13.5208
  0
TEXT
  8
0
 10
40.4094
 20
11.1208
 40
0.8
  1
1.6
  7
HIGHWAYSIGNCADPLUS
 72
1
 11
41.1298
 21
11.1208
  0
LINE
  8
0
 10
41.1298
 20
12.5208
 11
41.9258
 21
12.5208
  0
LINE
  8
0
 10
41.5681
 20
12.3419
 11
41.9258
 21
12.5208
  0
LINE
  8
0
 10
41.5681
 20
12.6997
 11
41.9258
 21
12.5208
  0
LINE
  8
0
 10
41.9258
 20
12.3208
 11
41.9258
 21
13.5208
  0
LINE
  8
0
 10
41.1298
 20
12.5208
 11
40.3338
 21
12.5208
  0
LINE
  8
0
 10
40.6916
 20
12.6997
 11
40.3338
 21
12.5208
  0
LINE
  8
0
 10
40.6916
 20
12.3419
 11
40.3338
 21
12.5208
  0
TEXT
  8
0
 10
22.8229
 20
9.1208
 40
0.8
  1
1.5
  7
HIGHWAYSIGNCADPLUS
 72
1
 11
23.5392
 21
9.1208
  0
LINE
  8
0
 10
23.5392
 20
10.5208
 11
24.3258
 21
10.5208
  0
LINE
  8
0
 10
23.968
 20
10.3419
 11
24.3258
 21
10.5208
  0
LINE
  8
0
 10
23.968
 20
10.6997
 11
24.3258
 21
10.5208
  0
LINE
  8
0
 10
24.3258
 20
10.3208
 11
24.3258
 21
11.5208
  0
LINE
  8
0
 10
23.5392
 20
10.5208
 11
22.7525
 21
10.5208
  0
LINE
  8
0
 10
23.1103
 20
10.6997
 11
22.7525
 21
10.5208
  0
LINE
  8
0
 10
23.1103
 20
10.3419
 11
22.7525
 21
10.5208
  0
TEXT
  8
0
 10
25.889
 20
10.1208
 40
0.8
  1
4.7
  7
HIGHWAYSIGNCADPLUS
 72
1
 11
26.6576
 21
10.1208
  0
LINE
  8
0
 10
27.6262
 20
10.5208
 11
28.9894
 21
10.5208
  0
LINE
  8
0
 10
28.6316
 20
10.3419
 11
28.9894
 21
10.5208
  0
LINE
  8
0
 10
28.6316
 20
10.6997
 11
28.9894
 21
10.5208
  0
LINE
  8
0
 10
28.9894
 20
10.3208
 11
28.9894
 21
11.5208
  0
LINE
  8
0
 10
25.689
 20
10.5208
 11
24.3258
 21
10.5208
  0
LINE
  8
0
 10
24.6835
 20
10.6997
 11
24.3258
 21
10.5208
  0
LINE
  8
0
 10
24.6835
 20
10.3419
 11
24.3258
 21
10.5208
  0
TEXT
  8
0
 10
29.3344
 20
10.1208
 40
0.8
  1
1
  7
HIGHWAYSIGNCADPLUS
 72
1
 11
29.4894
 21
10.1208
  0
LINE
  8
0
 10
29.9894
 20
10.3208
 11
29.9894
 21
11.5208
  0
TEXT
  8
0
 10
31.5112
 20
10.1208
 40
0.8
  1
4.6
  7
HIGHWAYSIGNCADPLUS
 72
1
 11
32.2861
 21
10.1208
  0
LINE
  8
0
 10
33.2609
 20
10.5208
 11
34.5827
 21
10.5208
  0
LINE
  8
0
 10
34.225
 20
10.3419
 11
34.5827
 21
10.5208
  0
LINE
  8
0
 10
34.225
 20
10.6997
 11
34.5827
 21
10.5208
  0
LINE
  8
0
 10
34.5827
 20
10.3208
 11
34.5827
 21
11.5208
  0
LINE
  8
0
 10
31.3112
 20
10.5208
 11
29.9894
 21
10.5208
  0
LINE
  8
0
 10
30.3472
 20
10.6997
 11
29.9894
 21
10.5208
  0
LINE
  8
0
 10
30.3472
 20
10.3419
 11
29.9894
 21
10.5208
  0
TEXT
  8
0
 10
50.9
 20
48.8046
 40
0.8
  1
1.5
 50
90
  7
HIGHWAYSIGNCADPLUS
 72
1
 11
50.9
 21
49.5208
  0
LINE
  8
0
 10
49.5
 20
49.5208
 11
49.5
 21
50.2708
  0
LINE
  8
0
 10
49.6789
 20
49.913
 11
49.5
 21
50.2708
  0
LINE
  8
0
 10
49.3211
 20
49.913
 11
49.5
 21
50.2708
  0
LINE
  8
0
 10
49.5
 20
49.5208
 11
49.5
 21
48.7708
  0
LINE
  8
0
 10
49.3211
 20
49.1286
 11
49.5
 21
48.7708
  0
LINE
  8
0
 10
49.6789
 20
49.1286
 11
49.5
 21
48.7708
  0
LINE
  8
0
 10
49.7
 20
48.7708
 11
48.5
 21
48.7708
  0
TEXT
  8
0
 10
50.9
 20
47.3046
 40
0.8
  1
1.5
 50
90
  7
HIGHWAYSIGNCADPLUS
 72
1
 11
50.9
 21
48.0208
  0
LINE
  8
0
 10
49.5
 20
48.0208
 11
49.5
 21
48.7708
  0
LINE
  8
0
 10
49.6789
 20
48.413
 11
49.5
 21
48.7708
  0
LINE
  8
0
 10
49.3211
 20
48.413
 11
49.5
 21
48.7708
  0
LINE
  8
0
 10
49.5
 20
48.0208
 11
49.5
 21
47.2708
  0
LINE
  8
0
 10
49.3211
 20
47.6286
 11
49.5
 21
47.2708
  0
LINE
  8
0
 10
49.6789
 20
47.6286
 11
49.5
 21
47.2708
  0
LINE
  8
0
 10
49.7
 20
47.2708
 11
48.5
 21
47.2708
  0
TEXT
  8
0
 10
1.0629
 20
8.1208
 40
0.8
  1
3.6
  7
HIGHWAYSIGNCADPLUS
 72
1
 11
1.821
 21
8.1208
  0
LINE
  8
0
 10
2.7791
 20
8.5208
 11
3.642
 21
8.5208
  0
LINE
  8
0
 10
3.2842
 20
8.3419
 11
3.642
 21
8.5208
  0
LINE
  8
0
 10
3.2842
 20
8.6997
 11
3.642
 21
8.5208
  0
LINE
  8
0
 10
3.642
 20
8.3208
 11
3.642
 21
9.5208
  0
LINE
  8
0
 10
0.8629
 20
8.5208
 11
0
 21
8.5208
  0
LINE
  8
0
 10
0.3578
 20
8.6997
 11
0
 21
8.5208
  0
LINE
  8
0
 10
0.3578
 20
8.3419
 11
0
 21
8.5208
  0
LINE
  8
0
 10
0
 20
8.3208
 11
0
 21
9.5208
  0
TEXT
  8
0
 10
6.5144
 20
8.1208
 40
0.8
  1
7.1
  7
HIGHWAYSIGNCADPLUS
 72
1
 11
7.1867
 21
8.1208
  0
LINE
  8
0
 10
8.0589
 20
8.5208
 11
10.7314
 21
8.5208
  0
LINE
  8
0
 10
10.3736
 20
8.3419
 11
10.7314
 21
8.5208
  0
LINE
  8
0
 10
10.3736
 20
8.6997
 11
10.7314
 21
8.5208
  0
LINE
  8
0
 10
10.7314
 20
8.3208
 11
10.7314
 21
9.5208
  0
LINE
  8
0
 10
6.3144
 20
8.5208
 11
3.642
 21
8.5208
  0
LINE
  8
0
 10
3.9997
 20
8.6997
 11
3.642
 21
8.5208
  0
LINE
  8
0
 10
3.9997
 20
8.3419
 11
3.642
 21
8.5208
  0
TEXT
  8
0
 10
11.0764
 20
8.1208
 40
0.8
  1
1
  7
HIGHWAYSIGNCADPLUS
 72
1
 11
11.2314
 21
8.1208
  0
LINE
  8
0
 10
11.7314
 20
8.3208
 11
11.7314
 21
9.5208
  0
TEXT
  8
0
 10
12.2174
 20
8.1208
 40
0.8
  1
2.5
  7
HIGHWAYSIGNCADPLUS
 72
1
 11
12.9798
 21
8.1208
  0
LINE
  8
0
 10
14.2281
 20
8.3208
 11
14.2281
 21
9.5208
  0
TEXT
  8
0
 10
14.5731
 20
8.1208
 40
0.8
  1
1
  7
HIGHWAYSIGNCADPLUS
 72
1
 11
14.7281
 21
8.1208
  0
LINE
  8
0
 10
15.2281
 20
8.3208
 11
15.2281
 21
9.5208
  0
TEXT
  8
0
 10
18.3179
 20
8.1208
 40
0.8
  1
7.7
  7
HIGHWAYSIGNCADPLUS
 72
1
 11
19.0676
 21
8.1208
  0
LINE
  8
0
 10
20.0173
 20
8.5208
 11
22.9071
 21
8.5208
  0
LINE
  8
0
 10
22.5493
 20
8.3419
 11
22.9071
 21
8.5208
  0
LINE
  8
0
 10
22.5493
 20
8.6997
 11
22.9071
 21
8.5208
  0
LINE
  8
0
 10
22.9071
 20
8.3208
 11
22.9071
 21
9.5208
  0
LINE
  8
0
 10
18.1179
 20
8.5208
 11
15.2281
 21
8.5208
  0
LINE
  8
0
 10
15.5859
 20
8.6997
 11
15.2281
 21
8.5208
  0
LINE
  8
0
 10
15.5859
 20
8.3419
 11
15.2281
 21
8.5208
  0
TEXT
  8
0
 10
50.9
 20
46.2669
 40
0.8
  1
0.5
 50
90
  7
HIGHWAYSIGNCADPLUS
 72
1
 11
50.9
 21
47.0208
  0
LINE
  8
0
 10
49.7
 20
46.7708
 11
48.5
 21
46.7708
  0
TEXT
  8
0
 10
50.9
 20
45.3046
 40
0.8
  1
1.5
 50
90
  7
HIGHWAYSIGNCADPLUS
 72
1
 11
50.9
 21
46.0208
  0
LINE
  8
0
 10
49.5
 20
46.0208
 11
49.5
 21
46.7708
  0
LINE
  8
0
 10
49.6789
 20
46.413
 11
49.5
 21
46.7708
  0
LINE
  8
0
 10
49.3211
 20
46.413
 11
49.5
 21
46.7708
  0
LINE
  8
0
 10
49.5
 20
46.0208
 11
49.5
 21
45.2708
  0
LINE
  8
0
 10
49.3211
 20
45.6286
 11
49.5
 21
45.2708
  0
LINE
  8
0
 10
49.6789
 20
45.6286
 11
49.5
 21
45.2708
  0
LINE
  8
0
 10
49.7
 20
45.2708
 11
48.5
 21
45.2708
  0
TEXT
  8
0
 10
1.0629
 20
6.1208
 40
0.8
  1
3.6
  7
HIGHWAYSIGNCADPLUS
 72
1
 11
1.821
 21
6.1208
  0
LINE
  8
0
 10
2.7791
 20
6.5208
 11
3.642
 21
6.5208
  0
LINE
  8
0
 10
3.2842
 20
6.3419
 11
3.642
 21
6.5208
  0
LINE
  8
0
 10
3.2842
 20
6.6997
 11
3.642
 21
6.5208
  0
LINE
  8
0
 10
3.642
 20
6.3208
 11
3.642
 21
7.5208
  0
LINE
  8
0
 10
0.8629
 20
6.5208
 11
0
 21
6.5208
  0
LINE
  8
0
 10
0.3578
 20
6.6997
 11
0
 21
6.5208
  0
LINE
  8
0
 10
0.3578
 20
6.3419
 11
0
 21
6.5208
  0
LINE
  8
0
 10
0
 20
6.3208
 11
0
 21
7.5208
  0
TEXT
  8
0
 10
3.2865
 20
5.1208
 40
0.8
  1
0.8
  7
HIGHWAYSIGNCADPLUS
 72
1
 11
4.0404
 21
5.1208
  0
LINE
  8
0
 10
4.4388
 20
6.3208
 11
4.4388
 21
7.5208
  0
TEXT
  8
0
 10
4.7839
 20
6.1208
 40
0.8
  1
1
  7
HIGHWAYSIGNCADPLUS
 72
1
 11
4.9388
 21
6.1208
  0
LINE
  8
0
 10
5.4388
 20
6.3208
 11
5.4388
 21
7.5208
  0
TEXT
  8
0
 10
8.5008
 20
6.1208
 40
0.8
  1
7.7
  7
HIGHWAYSIGNCADPLUS
 72
1
 11
9.2505
 21
6.1208
  0
LINE
  8
0
 10
10.2003
 20
6.5208
 11
13.0622
 21
6.5208
  0
LINE
  8
0
 10
12.7044
 20
6.3419
 11
13.0622
 21
6.5208
  0
LINE
  8
0
 10
12.7044
 20
6.6997
 11
13.0622
 21
6.5208
  0
LINE
  8
0
 10
13.0622
 20
6.3208
 11
13.0622
 21
7.5208
  0
LINE
  8
0
 10
8.3008
 20
6.5208
 11
5.4388
 21
6.5208
  0
LINE
  8
0
 10
5.7966
 20
6.6997
 11
5.4388
 21
6.5208
  0
LINE
  8
0
 10
5.7966
 20
6.3419
 11
5.4388
 21
6.5208
  0
TEXT
  8
0
 10
13.4072
 20
6.1208
 40
0.8
  1
1
  7
HIGHWAYSIGNCADPLUS
 72
1
 11
13.5622
 21
6.1208
  0
LINE
  8
0
 10
14.0622
 20
6.3208
 11
14.0622
 21
7.5208
  0
TEXT
  8
0
 10
16.6555
 20
6.1208
 40
0.8
  1
6.7
  7
HIGHWAYSIGNCADPLUS
 72
1
 11
17.4115
 21
6.1208
  0
LINE
  8
0
 10
18.3676
 20
6.5208
 11
20.7609
 21
6.5208
  0
LINE
  8
0
 10
20.4031
 20
6.3419
 11
20.7609
 21
6.5208
  0
LINE
  8
0
 10
20.4031
 20
6.6997
 11
20.7609
 21
6.5208
  0
LINE
  8
0
 10
20.7609
 20
6.3208
 11
20.7609
 21
7.5208
  0
LINE
  8
0
 10
16.4555
 20
6.5208
 11
14.0622
 21
6.5208
  0
LINE
  8
0
 10
14.42
 20
6.6997
 11
14.0622
 21
6.5208
  0
LINE
  8
0
 10
14.42
 20
6.3419
 11
14.0622
 21
6.5208
  0
TEXT
  8
0
 10
50.9
 20
44.2669
 40
0.8
  1
0.5
 50
90
  7
HIGHWAYSIGNCADPLUS
 72
1
 11
50.9
 21
45.0208
  0
LINE
  8
0
 10
49.7
 20
44.7708
 11
48.5
 21
44.7708
  0
TEXT
  8
0
 10
50.9
 20
43.3046
 40
0.8
  1
1.5
 50
90
  7
HIGHWAYSIGNCADPLUS
 72
1
 11
50.9
 21
44.0208
  0
LINE
  8
0
 10
49.5
 20
44.0208
 11
49.5
 21
44.7708
  0
LINE
  8
0
 10
49.6789
 20
44.413
 11
49.5
 21
44.7708
  0
LINE
  8
0
 10
49.3211
 20
44.413
 11
49.5
 21
44.7708
  0
LINE
  8
0
 10
49.5
 20
44.0208
 11
49.5
 21
43.2708
  0
LINE
  8
0
 10
49.3211
 20
43.6286
 11
49.5
 21
43.2708
  0
LINE
  8
0
 10
49.6789
 20
43.6286
 11
49.5
 21
43.2708
  0
LINE
  8
0
 10
49.7
 20
43.2708
 11
48.5
 21
43.2708
  0
TEXT
  8
0
 10
1.0629
 20
4.1208
 40
0.8
  1
3.6
  7
HIGHWAYSIGNCADPLUS
 72
1
 11
1.821
 21
4.1208
  0
LINE
  8
0
 10
2.7791
 20
4.5208
 11
3.642
 21
4.5208
  0
LINE
  8
0
 10
3.2842
 20
4.3419
 11
3.642
 21
4.5208
  0
LINE
  8
0
 10
3.2842
 20
4.6997
 11
3.642
 21
4.5208
  0
LINE
  8
0
 10
3.642
 20
4.3208
 11
3.642
 21
5.5208
  0
LINE
  8
0
 10
0.8629
 20
4.5208
 11
0
 21
4.5208
  0
LINE
  8
0
 10
0.3578
 20
4.6997
 11
0
 21
4.5208
  0
LINE
  8
0
 10
0.3578
 20
4.3419
 11
0
 21
4.5208
  0
LINE
  8
0
 10
0
 20
4.3208
 11
0
 21
5.5208
  0
TEXT
  8
0
 10
7.0173
 20
4.1208
 40
0.8
  1
8.3
  7
HIGHWAYSIGNCADPLUS
 72
1
 11
7.7712
 21
4.1208
  0
LINE
  8
0
 10
8.7252
 20
4.5208
 11
11.9005
 21
4.5208
  0
LINE
  8
0
 10
11.5427
 20
4.3419
 11
11.9005
 21
4.5208
  0
LINE
  8
0
 10
11.5427
 20
4.6997
 11
11.9005
 21
4.5208
  0
LINE
  8
0
 10
11.9005
 20
4.3208
 11
11.9005
 21
5.5208
  0
LINE
  8
0
 10
6.8173
 20
4.5208
 11
3.642
 21
4.5208
  0
LINE
  8
0
 10
3.9997
 20
4.6997
 11
3.642
 21
4.5208
  0
LINE
  8
0
 10
3.9997
 20
4.3419
 11
3.642
 21
4.5208
  0
TEXT
  8
0
 10
12.2455
 20
4.1208
 40
0.8
  1
1
  7
HIGHWAYSIGNCADPLUS
 72
1
 11
12.4005
 21
4.1208
  0
LINE
  8
0
 10
12.9005
 20
4.3208
 11
12.9005
 21
5.5208
  0
TEXT
  8
0
 10
13.0137
 20
3.1208
 40
0.8
  1
1.7
  7
HIGHWAYSIGNCADPLUS
 72
1
 11
13.7278
 21
3.1208
  0
LINE
  8
0
 10
13.7278
 20
4.5208
 11
14.5552
 21
4.5208
  0
LINE
  8
0
 10
14.1974
 20
4.3419
 11
14.5552
 21
4.5208
  0
LINE
  8
0
 10
14.1974
 20
4.6997
 11
14.5552
 21
4.5208
  0
LINE
  8
0
 10
14.5552
 20
4.3208
 11
14.5552
 21
5.5208
  0
LINE
  8
0
 10
13.7278
 20
4.5208
 11
12.9005
 21
4.5208
  0
LINE
  8
0
 10
13.2583
 20
4.6997
 11
12.9005
 21
4.5208
  0
LINE
  8
0
 10
13.2583
 20
4.3419
 11
12.9005
 21
4.5208
  0
TEXT
  8
0
 10
14.9002
 20
4.1208
 40
0.8
  1
1
  7
HIGHWAYSIGNCADPLUS
 72
1
 11
15.0552
 21
4.1208
  0
LINE
  8
0
 10
15.5552
 20
4.3208
 11
15.5552
 21
5.5208
  0
TEXT
  8
0
 10
17.9947
 20
4.1208
 40
0.8
  1
6.3
  7
HIGHWAYSIGNCADPLUS
 72
1
 11
18.7507
 21
4.1208
  0
LINE
  8
0
 10
19.7067
 20
4.5208
 11
21.9462
 21
4.5208
  0
LINE
  8
0
 10
21.5884
 20
4.3419
 11
21.9462
 21
4.5208
  0
LINE
  8
0
 10
21.5884
 20
4.6997
 11
21.9462
 21
4.5208
  0
LINE
  8
0
 10
21.9462
 20
4.3208
 11
21.9462
 21
5.5208
  0
LINE
  8
0
 10
17.7947
 20
4.5208
 11
15.5552
 21
4.5208
  0
LINE
  8
0
 10
15.9129
 20
4.6997
 11
15.5552
 21
4.5208
  0
LINE
  8
0
 10
15.9129
 20
4.3419
 11
15.5552
 21
4.5208
  0
TEXT
  8
0
 10
50.9
 20
42.2669
 40
0.8
  1
0.5
 50
90
  7
HIGHWAYSIGNCADPLUS
 72
1
 11
50.9
 21
43.0208
  0
LINE
  8
0
 10
49.7
 20
42.7708
 11
48.5
 21
42.7708
  0
TEXT
  8
0
 10
50.9
 20
41.3046
 40
0.8
  1
1.5
 50
90
  7
HIGHWAYSIGNCADPLUS
 72
1
 11
50.9
 21
42.0208
  0
LINE
  8
0
 10
49.5
 20
42.0208
 11
49.5
 21
42.7708
  0
LINE
  8
0
 10
49.6789
 20
42.413
 11
49.5
 21
42.7708
  0
LINE
  8
0
 10
49.3211
 20
42.413
 11
49.5
 21
42.7708
  0
LINE
  8
0
 10
49.5
 20
42.0208
 11
49.5
 21
41.2708
  0
LINE
  8
0
 10
49.3211
 20
41.6286
 11
49.5
 21
41.2708
  0
LINE
  8
0
 10
49.6789
 20
41.6286
 11
49.5
 21
41.2708
  0
LINE
  8
0
 10
49.7
 20
41.2708
 11
48.5
 21
41.2708
  0
TEXT
  8
0
 10
1.0629
 20
2.1208
 40
0.8
  1
3.6
  7
HIGHWAYSIGNCADPLUS
 72
1
 11
1.821
 21
2.1208
  0
LINE
  8
0
 10
2.7791
 20
2.5208
 11
3.642
 21
2.5208
  0
LINE
  8
0
 10
3.2842
 20
2.3419
 11
3.642
 21
2.5208
  0
LINE
  8
0
 10
3.2842
 20
2.6997
 11
3.642
 21
2.5208
  0
LINE
  8
0
 10
3.642
 20
2.3208
 11
3.642
 21
3.5208
  0
LINE
  8
0
 10
0.8629
 20
2.5208
 11
0
 21
2.5208
  0
LINE
  8
0
 10
0.3578
 20
2.6997
 11
0
 21
2.5208
  0
LINE
  8
0
 10
0.3578
 20
2.3419
 11
0
 21
2.5208
  0
LINE
  8
0
 10
0
 20
2.3208
 11
0
 21
3.5208
  0
TEXT
  8
0
 10
3.5552
 20
1.1208
 40
0.8
  1
1.1
  7
HIGHWAYSIGNCADPLUS
 72
1
 11
4.1919
 21
1.1208
  0
LINE
  8
0
 10
4.7418
 20
2.3208
 11
4.7418
 21
3.5208
  0
TEXT
  8
0
 10
5.0868
 20
2.1208
 40
0.8
  1
1
  7
HIGHWAYSIGNCADPLUS
 72
1
 11
5.2418
 21
2.1208
  0
LINE
  8
0
 10
5.7418
 20
2.3208
 11
5.7418
 21
3.5208
  0
TEXT
  8
0
 10
7.8874
 20
2.1208
 40
0.8
  1
5.8
  7
HIGHWAYSIGNCADPLUS
 72
1
 11
8.6434
 21
2.1208
  0
LINE
  8
0
 10
9.5994
 20
2.5208
 11
11.545
 21
2.5208
  0
LINE
  8
0
 10
11.1872
 20
2.3419
 11
11.545
 21
2.5208
  0
LINE
  8
0
 10
11.1872
 20
2.6997
 11
11.545
 21
2.5208
  0
LINE
  8
0
 10
11.545
 20
2.3208
 11
11.545
 21
3.5208
  0
LINE
  8
0
 10
7.6874
 20
2.5208
 11
5.7418
 21
2.5208
  0
LINE
  8
0
 10
6.0996
 20
2.6997
 11
5.7418
 21
2.5208
  0
LINE
  8
0
 10
6.0996
 20
2.3419
 11
5.7418
 21
2.5208
  0
TEXT
  8
0
 10
11.89
 20
2.1208
 40
0.8
  1
1
  7
HIGHWAYSIGNCADPLUS
 72
1
 11
12.045
 21
2.1208
  0
LINE
  8
0
 10
12.545
 20
2.3208
 11
12.545
 21
3.5208
  0
TEXT
  8
0
 10
13.0161
 20
2.1208
 40
0.8
  1
2.5
  7
HIGHWAYSIGNCADPLUS
 72
1
 11
13.7784
 21
2.1208
  0
LINE
  8
0
 10
15.0119
 20
2.3208
 11
15.0119
 21
3.5208
  0
TEXT
  8
0
 10
15.3569
 20
2.1208
 40
0.8
  1
1
  7
HIGHWAYSIGNCADPLUS
 72
1
 11
15.5119
 21
2.1208
  0
LINE
  8
0
 10
16.0119
 20
2.3208
 11
16.0119
 21
3.5208
  0
TEXT
  8
0
 10
16.2308
 20
2.1208
 40
0.8
  1
1.9
  7
HIGHWAYSIGNCADPLUS
 72
1
 11
16.947
 21
2.1208
  0
LINE
  8
0
 10
17.8822
 20
2.3208
 11
17.8822
 21
3.5208
  0
TEXT
  8
0
 10
22.9023
 20
7.1208
 40
0.8
  1
1.4
  7
HIGHWAYSIGNCADPLUS
 72
1
 11
23.6164
 21
7.1208
  0
LINE
  8
0
 10
23.6164
 20
8.5208
 11
24.3258
 21
8.5208
  0
LINE
  8
0
 10
23.968
 20
8.3419
 11
24.3258
 21
8.5208
  0
LINE
  8
0
 10
23.968
 20
8.6997
 11
24.3258
 21
8.5208
  0
LINE
  8
0
 10
24.3258
 20
8.3208
 11
24.3258
 21
9.5208
  0
LINE
  8
0
 10
23.6164
 20
8.5208
 11
22.9071
 21
8.5208
  0
LINE
  8
0
 10
23.2649
 20
8.6997
 11
22.9071
 21
8.5208
  0
LINE
  8
0
 10
23.2649
 20
8.3419
 11
22.9071
 21
8.5208
  0
TEXT
  8
0
 10
27.1982
 20
8.1208
 40
0.8
  1
7.1
  7
HIGHWAYSIGNCADPLUS
 72
1
 11
27.8705
 21
8.1208
  0
LINE
  8
0
 10
28.7427
 20
8.5208
 11
31.4152
 21
8.5208
  0
LINE
  8
0
 10
31.0574
 20
8.3419
 11
31.4152
 21
8.5208
  0
LINE
  8
0
 10
31.0574
 20
8.6997
 11
31.4152
 21
8.5208
  0
LINE
  8
0
 10
31.4152
 20
8.3208
 11
31.4152
 21
9.5208
  0
LINE
  8
0
 10
26.9982
 20
8.5208
 11
24.3258
 21
8.5208
  0
LINE
  8
0
 10
24.6835
 20
8.6997
 11
24.3258
 21
8.5208
  0
LINE
  8
0
 10
24.6835
 20
8.3419
 11
24.3258
 21
8.5208
  0
TEXT
  8
0
 10
31.7602
 20
8.1208
 40
0.8
  1
1
  7
HIGHWAYSIGNCADPLUS
 72
1
 11
31.9152
 21
8.1208
  0
LINE
  8
0
 10
32.4152
 20
8.3208
 11
32.4152
 21
9.5208
  0
TEXT
  8
0
 10
32.9013
 20
8.1208
 40
0.8
  1
2.5
  7
HIGHWAYSIGNCADPLUS
 72
1
 11
33.6636
 21
8.1208
  0
LINE
  8
0
 10
34.9119
 20
8.3208
 11
34.9119
 21
9.5208
  0
TEXT
  8
0
 10
35.257
 20
8.1208
 40
0.8
  1
1
  7
HIGHWAYSIGNCADPLUS
 72
1
 11
35.4119
 21
8.1208
  0
LINE
  8
0
 10
35.9119
 20
8.3208
 11
35.9119
 21
9.5208
  0
TEXT
  8
0
 10
39.0017
 20
8.1208
 40
0.8
  1
7.7
  7
HIGHWAYSIGNCADPLUS
 72
1
 11
39.7514
 21
8.1208
  0
LINE
  8
0
 10
40.7011
 20
8.5208
 11
43.5909
 21
8.5208
  0
LINE
  8
0
 10
43.2331
 20
8.3419
 11
43.5909
 21
8.5208
  0
LINE
  8
0
 10
43.2331
 20
8.6997
 11
43.5909
 21
8.5208
  0
LINE
  8
0
 10
43.5909
 20
8.3208
 11
43.5909
 21
9.5208
  0
LINE
  8
0
 10
38.8017
 20
8.5208
 11
35.9119
 21
8.5208
  0
LINE
  8
0
 10
36.2697
 20
8.6997
 11
35.9119
 21
8.5208
  0
LINE
  8
0
 10
36.2697
 20
8.3419
 11
35.9119
 21
8.5208
  0
TEXT
  8
0
 10
21.7894
 20
6.1208
 40
0.8
  1
3.5
  7
HIGHWAYSIGNCADPLUS
 72
1
 11
22.5433
 21
6.1208
  0
LINE
  8
0
 10
23.4972
 20
6.5208
 11
24.3258
 21
6.5208
  0
LINE
  8
0
 10
23.968
 20
6.3419
 11
24.3258
 21
6.5208
  0
LINE
  8
0
 10
23.968
 20
6.6997
 11
24.3258
 21
6.5208
  0
LINE
  8
0
 10
24.3258
 20
6.3208
 11
24.3258
 21
7.5208
  0
LINE
  8
0
 10
21.5894
 20
6.5208
 11
20.7609
 21
6.5208
  0
LINE
  8
0
 10
21.1186
 20
6.6997
 11
20.7609
 21
6.5208
  0
LINE
  8
0
 10
21.1186
 20
6.3419
 11
20.7609
 21
6.5208
  0
TEXT
  8
0
 10
23.9703
 20
5.1208
 40
0.8
  1
0.8
  7
HIGHWAYSIGNCADPLUS
 72
1
 11
24.7242
 21
5.1208
  0
LINE
  8
0
 10
25.1227
 20
6.3208
 11
25.1227
 21
7.5208
  0
TEXT
  8
0
 10
25.4677
 20
6.1208
 40
0.8
  1
1
  7
HIGHWAYSIGNCADPLUS
 72
1
 11
25.6227
 21
6.1208
  0
LINE
  8
0
 10
26.1227
 20
6.3208
 11
26.1227
 21
7.5208
  0
TEXT
  8
0
 10
27.7717
 20
6.1208
 40
0.8
  1
4.9
  7
HIGHWAYSIGNCADPLUS
 72
1
 11
28.5424
 21
6.1208
  0
LINE
  8
0
 10
29.513
 20
6.5208
 11
30.9621
 21
6.5208
  0
LINE
  8
0
 10
30.6043
 20
6.3419
 11
30.9621
 21
6.5208
  0
LINE
  8
0
 10
30.6043
 20
6.6997
 11
30.9621
 21
6.5208
  0
LINE
  8
0
 10
30.9621
 20
6.3208
 11
30.9621
 21
7.5208
  0
LINE
  8
0
 10
27.5717
 20
6.5208
 11
26.1227
 21
6.5208
  0
LINE
  8
0
 10
26.4804
 20
6.6997
 11
26.1227
 21
6.5208
  0
LINE
  8
0
 10
26.4804
 20
6.3419
 11
26.1227
 21
6.5208
  0
TEXT
  8
0
 10
31.3071
 20
6.1208
 40
0.8
  1
1
  7
HIGHWAYSIGNCADPLUS
 72
1
 11
31.4621
 21
6.1208
  0
LINE
  8
0
 10
31.9621
 20
6.3208
 11
31.9621
 21
7.5208
  0
TEXT
  8
0
 10
34.5554
 20
6.1208
 40
0.8
  1
6.7
  7
HIGHWAYSIGNCADPLUS
 72
1
 11
35.3114
 21
6.1208
  0
LINE
  8
0
 10
36.2674
 20
6.5208
 11
38.6607
 21
6.5208
  0
LINE
  8
0
 10
38.3029
 20
6.3419
 11
38.6607
 21
6.5208
  0
LINE
  8
0
 10
38.3029
 20
6.6997
 11
38.6607
 21
6.5208
  0
LINE
  8
0
 10
38.6607
 20
6.3208
 11
38.6607
 21
7.5208
  0
LINE
  8
0
 10
34.3554
 20
6.5208
 11
31.9621
 21
6.5208
  0
LINE
  8
0
 10
32.3198
 20
6.6997
 11
31.9621
 21
6.5208
  0
LINE
  8
0
 10
32.3198
 20
6.3419
 11
31.9621
 21
6.5208
  0
TEXT
  8
0
 10
22.3758
 20
4.1208
 40
0.8
  1
2.4
  7
HIGHWAYSIGNCADPLUS
 72
1
 11
23.136
 21
4.1208
  0
LINE
  8
0
 10
24.3258
 20
4.3208
 11
24.3258
 21
5.5208
  0
TEXT
  8
0
 10
27.7011
 20
4.1208
 40
0.8
  1
8.3
  7
HIGHWAYSIGNCADPLUS
 72
1
 11
28.455
 21
4.1208
  0
LINE
  8
0
 10
29.409
 20
4.5208
 11
32.5843
 21
4.5208
  0
LINE
  8
0
 10
32.2265
 20
4.3419
 11
32.5843
 21
4.5208
  0
LINE
  8
0
 10
32.2265
 20
4.6997
 11
32.5843
 21
4.5208
  0
LINE
  8
0
 10
32.5843
 20
4.3208
 11
32.5843
 21
5.5208
  0
LINE
  8
0
 10
27.5011
 20
4.5208
 11
24.3258
 21
4.5208
  0
LINE
  8
0
 10
24.6835
 20
4.6997
 11
24.3258
 21
4.5208
  0
LINE
  8
0
 10
24.6835
 20
4.3419
 11
24.3258
 21
4.5208
  0
TEXT
  8
0
 10
32.9293
 20
4.1208
 40
0.8
  1
1
  7
HIGHWAYSIGNCADPLUS
 72
1
 11
33.0843
 21
4.1208
  0
LINE
  8
0
 10
33.5843
 20
4.3208
 11
33.5843
 21
5.5208
  0
TEXT
  8
0
 10
33.6912
 20
3.1208
 40
0.8
  1
1.6
  7
HIGHWAYSIGNCADPLUS
 72
1
 11
34.4116
 21
3.1208
  0
LINE
  8
0
 10
34.4116
 20
4.5208
 11
35.239
 21
4.5208
  0
LINE
  8
0
 10
34.8812
 20
4.3419
 11
35.239
 21
4.5208
  0
LINE
  8
0
 10
34.8812
 20
4.6997
 11
35.239
 21
4.5208
  0
LINE
  8
0
 10
35.239
 20
4.3208
 11
35.239
 21
5.5208
  0
LINE
  8
0
 10
34.4116
 20
4.5208
 11
33.5843
 21
4.5208
  0
LINE
  8
0
 10
33.9421
 20
4.6997
 11
33.5843
 21
4.5208
  0
LINE
  8
0
 10
33.9421
 20
4.3419
 11
33.5843
 21
4.5208
  0
TEXT
  8
0
 10
35.584
 20
4.1208
 40
0.8
  1
1
  7
HIGHWAYSIGNCADPLUS
 72
1
 11
35.739
 21
4.1208
  0
LINE
  8
0
 10
36.239
 20
4.3208
 11
36.239
 21
5.5208
  0
TEXT
  8
0
 10
38.6785
 20
4.1208
 40
0.8
  1
6.4
  7
HIGHWAYSIGNCADPLUS
 72
1
 11
39.4345
 21
4.1208
  0
LINE
  8
0
 10
40.3905
 20
4.5208
 11
42.63
 21
4.5208
  0
LINE
  8
0
 10
42.2722
 20
4.3419
 11
42.63
 21
4.5208
  0
LINE
  8
0
 10
42.2722
 20
4.6997
 11
42.63
 21
4.5208
  0
LINE
  8
0
 10
42.63
 20
4.3208
 11
42.63
 21
5.5208
  0
LINE
  8
0
 10
38.4785
 20
4.5208
 11
36.239
 21
4.5208
  0
LINE
  8
0
 10
36.5968
 20
4.6997
 11
36.239
 21
4.5208
  0
LINE
  8
0
 10
36.5968
 20
4.3419
 11
36.239
 21
4.5208
  0
TEXT
  8
0
 10
20.348
 20
2.1208
 40
0.8
  1
6.4
  7
HIGHWAYSIGNCADPLUS
 72
1
 11
21.104
 21
2.1208
  0
LINE
  8
0
 10
22.06
 20
2.5208
 11
24.3258
 21
2.5208
  0
LINE
  8
0
 10
23.968
 20
2.3419
 11
24.3258
 21
2.5208
  0
LINE
  8
0
 10
23.968
 20
2.6997
 11
24.3258
 21
2.5208
  0
LINE
  8
0
 10
24.3258
 20
2.3208
 11
24.3258
 21
3.5208
  0
LINE
  8
0
 10
20.148
 20
2.5208
 11
17.8822
 21
2.5208
  0
LINE
  8
0
 10
18.2399
 20
2.6997
 11
17.8822
 21
2.5208
  0
LINE
  8
0
 10
18.2399
 20
2.3419
 11
17.8822
 21
2.5208
  0
TEXT
  8
0
 10
24.2391
 20
1.1208
 40
0.8
  1
1.1
  7
HIGHWAYSIGNCADPLUS
 72
1
 11
24.8757
 21
1.1208
  0
LINE
  8
0
 10
25.4256
 20
2.3208
 11
25.4256
 21
3.5208
  0
TEXT
  8
0
 10
25.7707
 20
2.1208
 40
0.8
  1
1
  7
HIGHWAYSIGNCADPLUS
 72
1
 11
25.9256
 21
2.1208
  0
LINE
  8
0
 10
26.4256
 20
2.3208
 11
26.4256
 21
3.5208
  0
TEXT
  8
0
 10
28.5712
 20
2.1208
 40
0.8
  1
5.8
  7
HIGHWAYSIGNCADPLUS
 72
1
 11
29.3272
 21
2.1208
  0
LINE
  8
0
 10
30.2832
 20
2.5208
 11
32.2288
 21
2.5208
  0
LINE
  8
0
 10
31.871
 20
2.3419
 11
32.2288
 21
2.5208
  0
LINE
  8
0
 10
31.871
 20
2.6997
 11
32.2288
 21
2.5208
  0
LINE
  8
0
 10
32.2288
 20
2.3208
 11
32.2288
 21
3.5208
  0
LINE
  8
0
 10
28.3712
 20
2.5208
 11
26.4256
 21
2.5208
  0
LINE
  8
0
 10
26.7834
 20
2.6997
 11
26.4256
 21
2.5208
  0
LINE
  8
0
 10
26.7834
 20
2.3419
 11
26.4256
 21
2.5208
  0
TEXT
  8
0
 10
32.5738
 20
2.1208
 40
0.8
  1
1
  7
HIGHWAYSIGNCADPLUS
 72
1
 11
32.7288
 21
2.1208
  0
LINE
  8
0
 10
33.2288
 20
2.3208
 11
33.2288
 21
3.5208
  0
TEXT
  8
0
 10
33.6999
 20
2.1208
 40
0.8
  1
2.5
  7
HIGHWAYSIGNCADPLUS
 72
1
 11
34.4622
 21
2.1208
  0
LINE
  8
0
 10
35.6957
 20
2.3208
 11
35.6957
 21
3.5208
  0
TEXT
  8
0
 10
36.0407
 20
2.1208
 40
0.8
  1
1
  7
HIGHWAYSIGNCADPLUS
 72
1
 11
36.1957
 21
2.1208
  0
LINE
  8
0
 10
36.6957
 20
2.3208
 11
36.6957
 21
3.5208
  0
TEXT
  8
0
 10
36.9146
 20
2.1208
 40
0.8
  1
1.9
  7
HIGHWAYSIGNCADPLUS
 72
1
 11
37.6308
 21
2.1208
  0
LINE
  8
0
 10
38.566
 20
2.3208
 11
38.566
 21
3.5208
  0
TEXT
  8
0
 10
53.9
 20
61.4114
 40
0.8
  1
48
 50
90
  7
HIGHWAYSIGNCADPLUS
 72
1
 11
53.9
 21
62.0208
  0
LINE
  8
0
 10
53.5
 20
62.8302
 11
53.5
 21
86.0208
  0
LINE
  8
0
 10
53.6789
 20
85.663
 11
53.5
 21
86.0208
  0
LINE
  8
0
 10
53.3211
 20
85.663
 11
53.5
 21
86.0208
  0
LINE
  8
0
 10
53.7
 20
86.0208
 11
48.2
 21
86.0208
  0
LINE
  8
0
 10
53.5
 20
61.2114
 11
53.5
 21
38.0208
  0
LINE
  8
0
 10
53.3211
 20
38.3786
 11
53.5
 21
38.0208
  0
LINE
  8
0
 10
53.6789
 20
38.3786
 11
53.5
 21
38.0208
  0
LINE
  8
0
 10
53.7
 20
38.0208
 11
48.2
 21
38.0208
  0
TEXT
  8
0
 10
23.3906
 20
0.1208
 40
0.8
  1
48
  7
HIGHWAYSIGNCADPLUS
 72
1
 11
24
 21
0.1208
  0
LINE
  8
0
 10
24.8094
 20
0.5208
 11
48
 21
0.5208
  0
LINE
  8
0
 10
47.6422
 20
0.3419
 11
48
 21
0.5208
  0
LINE
  8
0
 10
47.6422
 20
0.6997
 11
48
 21
0.5208
  0
LINE
  8
0
 10
48
 20
0.3208
 11
48
 21
37.8208
  0
LINE
  8
0
 10
23.1906
 20
0.5208
 11
0
 21
0.5208
  0
LINE
  8
0
 10
0.3578
 20
0.6997
 11
0
 21
0.5208
  0
LINE
  8
0
 10
0.3578
 20
0.3419
 11
0
 21
0.5208
  0
LINE
  8
0
 10
0
 20
0.3208
 11
0
 21
37.8208
  0
TEXT
  8
0
 10
3.642
 20
77.2708
 40
2
  1
S
  7
HIGHWAYBPLUS
 73
3
 11
3.642
 21
79.2708
  0
TEXT
  8
0
 10
4.7857
 20
77.2708
 40
2
  1
A
  7
HIGHWAYBPLUS
 73
3
 11
4.7857
 21
79.2708
  0
TEXT
  8
0
 10
6.1482
 20
77.2708
 40
2
  1
F
  7
HIGHWAYBPLUS
 73
3
 11
6.1482
 21
79.2708
  0
TEXT
  8
0
 10
7.1982
 20
77.2708
 40
2
  1
E
  7
HIGHWAYBPLUS
 73
3
 11
7.1982
 21
79.2708
  0
TEXT
  8
0
 10
8.1482
 20
77.2708
 40
2
  1
T
  7
HIGHWAYBPLUS
 73
3
 11
8.1482
 21
79.2708
  0
TEXT
  8
0
 10
8.9982
 20
77.2708
 40
2
  1
Y
  7
HIGHWAYBPLUS
 73
3
 11
8.9982
 21
79.2708
  0
TEXT
  8
0
 10
10.0607
 20
77.2708
 40
2
  1
 
  7
HIGHWAYBPLUS
 73
3
 11
10.0607
 21
79.2708
  0
TEXT
  8
0
 10
12.0607
 20
77.2708
 40
2
  1
B
  7
HIGHWAYBPLUS
 73
3
 11
12.0607
 21
79.2708
  0
TEXT
  8
0
 10
13.2772
 20
77.2708
 40
2
  1
E
  7
HIGHWAYBPLUS
 73
3
 11
13.2772
 21
79.2708
  0
TEXT
  8
0
 10
14.3272
 20
77.2708
 40
2
  1
L
  7
HIGHWAYBPLUS
 73
3
 11
14.3272
 21
79.2708
  0
TEXT
  8
0
 10
15.1772
 20
77.2708
 40
2
  1
T
  7
HIGHWAYBPLUS
 73
3
 11
15.1772
 21
79.2708
  0
TEXT
  8
0
 10
15.9272
 20
77.2708
 40
2
  1
 
  7
HIGHWAYBPLUS
 73
3
 11
15.9272
 21
79.2708
  0
TEXT
  8
0
 10
17.9272
 20
77.2708
 40
2
  1
U
  7
HIGHWAYBPLUS
 73
3
 11
17.9272
 21
79.2708
  0
TEXT
  8
0
 10
19.1437
 20
77.2708
 40
2
  1
S
  7
HIGHWAYBPLUS
 73
3
 11
19.1437
 21
79.2708
  0
TEXT
  8
0
 10
20.3601
 20
77.2708
 40
2
  1
E
  7
HIGHWAYBPLUS
 73
3
 11
20.3601
 21
79.2708
  0
TEXT
  8
0
 10
24.3258
 20
77.2708
 40
2
  1
C
  7
HIGHWAYBPLUS
  0
TEXT
  8
0
 10
25.3945
 20
77.2708
 40
2
  1
H
  7
HIGHWAYBPLUS
  0
TEXT
  8
0
 10
26.5178
 20
77.2708
 40
2
  1
I
  7
HIGHWAYBPLUS
  0
TEXT
  8
0
 10
27.0474
 20
77.2708
 40
2
  1
L
  7
HIGHWAYBPLUS
  0
TEXT
  8
0
 10
28.0224
 20
77.2708
 40
2
  1
D
  7
HIGHWAYBPLUS
  0
TEXT
  8
0
 10
28.8661
 20
77.2708
 40
2
  1
 
  7
HIGHWAYBPLUS
  0
TEXT
  8
0
 10
30.8661
 20
77.2708
 40
2
  1
R
  7
HIGHWAYBPLUS
  0
TEXT
  8
0
 10
31.9894
 20
77.2708
 40
2
  1
E
  7
HIGHWAYBPLUS
  0
TEXT
  8
0
 10
32.9644
 20
77.2708
 40
2
  1
S
  7
HIGHWAYBPLUS
  0
TEXT
  8
0
 10
34.0332
 20
77.2708
 40
2
  1
T
  7
HIGHWAYBPLUS
  0
TEXT
  8
0
 10
35.0082
 20
77.2708
 40
2
  1
R
  7
HIGHWAYBPLUS
  0
TEXT
  8
0
 10
36.0769
 20
77.2708
 40
2
  1
A
  7
HIGHWAYBPLUS
  0
TEXT
  8
0
 10
37.3644
 20
77.2708
 40
2
  1
I
  7
HIGHWAYBPLUS
  0
TEXT
  8
0
 10
37.894
 20
77.2708
 40
2
  1
N
  7
HIGHWAYBPLUS
  0
TEXT
  8
0
 10
38.9627
 20
77.2708
 40
2
  1
T
  7
HIGHWAYBPLUS
  0
TEXT
  8
0
 10
39.7127
 20
77.2708
 40
2
  1
 
  7
HIGHWAYBPLUS
  0
TEXT
  8
0
 10
41.7127
 20
77.2708
 40
2
  1
U
  7
HIGHWAYBPLUS
  0
TEXT
  8
0
 10
42.836
 20
77.2708
 40
2
  1
S
  7
HIGHWAYBPLUS
  0
TEXT
  8
0
 10
43.9593
 20
77.2708
 40
2
  1
E
  7
HIGHWAYBPLUS
  0
TEXT
  8
0
 10
3.642
 20
74.2708
 40
1.5
  1
F
  7
HIGHWAYBPLUS
  0
TEXT
  8
0
 10
4.4295
 20
74.2708
 40
1.5
  1
R
  7
HIGHWAYBPLUS
  0
TEXT
  8
0
 10
5.2873
 20
74.2708
 40
1.5
  1
O
  7
HIGHWAYBPLUS
  0
TEXT
  8
0
 10
6.2465
 20
74.2708
 40
1.5
  1
N
  7
HIGHWAYBPLUS
  0
TEXT
  8
0
 10
7.1043
 20
74.2708
 40
1.5
  1
T
  7
HIGHWAYBPLUS
  0
TEXT
  8
0
 10
8.6668
 20
74.2708
 40
1.5
  1
S
  7
HIGHWAYBPLUS
  0
TEXT
  8
0
 10
9.5792
 20
74.2708
 40
1.5
  1
E
  7
HIGHWAYBPLUS
  0
TEXT
  8
0
 10
10.2917
 20
74.2708
 40
1.5
  1
A
  7
HIGHWAYBPLUS
  0
TEXT
  8
0
 10
11.1636
 20
74.2708
 40
1.5
  1
T
  7
HIGHWAYBPLUS
  0
TEXT
  8
0
 10
12.7261
 20
74.2708
 40
1.5
  1
P
  7
HIGHWAYBPLUS
  0
TEXT
  8
0
 10
13.5839
 20
74.2708
 40
1.5
  1
A
  7
HIGHWAYBPLUS
  0
TEXT
  8
0
 10
14.6057
 20
74.2708
 40
1.5
  1
S
  7
HIGHWAYBPLUS
  0
TEXT
  8
0
 10
15.4636
 20
74.2708
 40
1.5
  1
S
  7
HIGHWAYBPLUS
  0
TEXT
  8
0
 10
16.3759
 20
74.2708
 40
1.5
  1
E
  7
HIGHWAYBPLUS
  0
TEXT
  8
0
 10
17.1634
 20
74.2708
 40
1.5
  1
N
  7
HIGHWAYBPLUS
  0
TEXT
  8
0
 10
18.0758
 20
74.2708
 40
1.5
  1
G
  7
HIGHWAYBPLUS
  0
TEXT
  8
0
 10
18.9881
 20
74.2708
 40
1.5
  1
E
  7
HIGHWAYBPLUS
  0
TEXT
  8
0
 10
19.7756
 20
74.2708
 40
1.5
  1
R
  7
HIGHWAYBPLUS
  0
TEXT
  8
0
 10
20.6334
 20
74.2708
 40
1.5
  1
S
  7
HIGHWAYBPLUS
  0
TEXT
  8
0
 10
3.642
 20
72.2708
 40
1.5
  1
O
  7
HIGHWAYBPLUS
  0
TEXT
  8
0
 10
4.6012
 20
72.2708
 40
1.5
  1
F
  7
HIGHWAYBPLUS
  0
TEXT
  8
0
 10
6.1637
 20
72.2708
 40
1.5
  1
C
  7
HIGHWAYBPLUS
  0
TEXT
  8
0
 10
6.9465
 20
72.2708
 40
1.5
  1
A
  7
HIGHWAYBPLUS
  0
TEXT
  8
0
 10
7.9684
 20
72.2708
 40
1.5
  1
R
  7
HIGHWAYBPLUS
  0
TEXT
  8
0
 10
8.8262
 20
72.2708
 40
1.5
  1
S
  7
HIGHWAYBPLUS
  0
TEXT
  8
0
 10
9.684
 20
72.2708
 40
1.5
  1
,
  7
HIGHWAYBPLUS
  0
TEXT
  8
0
 10
10.8715
 20
72.2708
 40
1.5
  1
V
  7
HIGHWAYBPLUS
  0
TEXT
  8
0
 10
11.6379
 20
72.2708
 40
1.5
  1
A
  7
HIGHWAYBPLUS
  0
TEXT
  8
0
 10
12.6598
 20
72.2708
 40
1.5
  1
N
  7
HIGHWAYBPLUS
  0
TEXT
  8
0
 10
13.5722
 20
72.2708
 40
1.5
  1
S
  7
HIGHWAYBPLUS
  0
TEXT
  8
0
 10
14.43
 20
72.2708
 40
1.5
  1
,
  7
HIGHWAYBPLUS
  0
TEXT
  8
0
 10
15.6175
 20
72.2708
 40
1.5
  1
A
  7
HIGHWAYBPLUS
  0
TEXT
  8
0
 10
16.6393
 20
72.2708
 40
1.5
  1
N
  7
HIGHWAYBPLUS
  0
TEXT
  8
0
 10
17.5517
 20
72.2708
 40
1.5
  1
D
  7
HIGHWAYBPLUS
  0
TEXT
  8
0
 10
3.642
 20
70.2708
 40
1.5
  1
P
  7
HIGHWAYBPLUS
  0
TEXT
  8
0
 10
4.5543
 20
70.2708
 40
1.5
  1
I
  7
HIGHWAYBPLUS
  0
TEXT
  8
0
 10
5.0214
 20
70.2708
 40
1.5
  1
C
  7
HIGHWAYBPLUS
  0
TEXT
  8
0
 10
5.8792
 20
70.2708
 40
1.5
  1
K
  7
HIGHWAYBPLUS
  0
TEXT
  8
0
 10
6.7604
 20
70.2708
 40
1.5
  1
U
  7
HIGHWAYBPLUS
  0
TEXT
  8
0
 10
7.6728
 20
70.2708
 40
1.5
  1
P
  7
HIGHWAYBPLUS
  0
TEXT
  8
0
 10
9.3056
 20
70.2708
 40
1.5
  1
T
  7
HIGHWAYBPLUS
  0
TEXT
  8
0
 10
10.0931
 20
70.2708
 40
1.5
  1
R
  7
HIGHWAYBPLUS
  0
TEXT
  8
0
 10
11.0055
 20
70.2708
 40
1.5
  1
U
  7
HIGHWAYBPLUS
  0
TEXT
  8
0
 10
11.9178
 20
70.2708
 40
1.5
  1
C
  7
HIGHWAYBPLUS
  0
TEXT
  8
0
 10
12.7756
 20
70.2708
 40
1.5
  1
K
  7
HIGHWAYBPLUS
  0
TEXT
  8
0
 10
13.6569
 20
70.2708
 40
1.5
  1
S
  7
HIGHWAYBPLUS
  0
TEXT
  8
0
 10
14.5147
 20
70.2708
 40
1.5
  1
.
  7
HIGHWAYBPLUS
  0
TEXT
  8
0
 10
24.3258
 20
74.2708
 40
1.5
  1
A
  7
HIGHWAYBPLUS
  0
TEXT
  8
0
 10
26.1227
 20
74.2708
 40
1.5
  1
C
  7
HIGHWAYBPLUS
  0
TEXT
  8
0
 10
26.9805
 20
74.2708
 40
1.5
  1
H
  7
HIGHWAYBPLUS
  0
TEXT
  8
0
 10
27.8928
 20
74.2708
 40
1.5
  1
I
  7
HIGHWAYBPLUS
  0
TEXT
  8
0
 10
28.3599
 20
74.2708
 40
1.5
  1
L
  7
HIGHWAYBPLUS
  0
TEXT
  8
0
 10
29.1474
 20
74.2708
 40
1.5
  1
D
  7
HIGHWAYBPLUS
  0
TEXT
  8
0
 10
30.7802
 20
74.2708
 40
1.5
  1
3
  7
HIGHWAYBPLUS
  0
TEXT
  8
0
 10
32.413
 20
74.2708
 40
1.5
  1
Y
  7
HIGHWAYBPLUS
  0
TEXT
  8
0
 10
33.4349
 20
74.2708
 40
1.5
  1
E
  7
HIGHWAYBPLUS
  0
TEXT
  8
0
 10
34.1474
 20
74.2708
 40
1.5
  1
A
  7
HIGHWAYBPLUS
  0
TEXT
  8
0
 10
35.1692
 20
74.2708
 40
1.5
  1
R
  7
HIGHWAYBPLUS
  0
TEXT
  8
0
 10
36.027
 20
74.2708
 40
1.5
  1
S
  7
HIGHWAYBPLUS
  0
TEXT
  8
0
 10
37.6599
 20
74.2708
 40
1.5
  1
O
  7
HIGHWAYBPLUS
  0
TEXT
  8
0
 10
38.6191
 20
74.2708
 40
1.5
  1
R
  7
HIGHWAYBPLUS
  0
TEXT
  8
0
 10
24.3258
 20
72.2708
 40
1.5
  1
Y
  7
HIGHWAYBPLUS
  0
TEXT
  8
0
 10
25.3477
 20
72.2708
 40
1.5
  1
O
  7
HIGHWAYBPLUS
  0
TEXT
  8
0
 10
26.3069
 20
72.2708
 40
1.5
  1
U
  7
HIGHWAYBPLUS
  0
TEXT
  8
0
 10
27.2192
 20
72.2708
 40
1.5
  1
N
  7
HIGHWAYBPLUS
  0
TEXT
  8
0
 10
28.1316
 20
72.2708
 40
1.5
  1
G
  7
HIGHWAYBPLUS
  0
TEXT
  8
0
 10
29.044
 20
72.2708
 40
1.5
  1
E
  7
HIGHWAYBPLUS
  0
TEXT
  8
0
 10
29.8315
 20
72.2708
 40
1.5
  1
R
  7
HIGHWAYBPLUS
  0
TEXT
  8
0
 10
31.4643
 20
72.2708
 40
1.5
  1
M
  7
HIGHWAYBPLUS
  0
TEXT
  8
0
 10
32.4704
 20
72.2708
 40
1.5
  1
U
  7
HIGHWAYBPLUS
  0
TEXT
  8
0
 10
33.3827
 20
72.2708
 40
1.5
  1
S
  7
HIGHWAYBPLUS
  0
TEXT
  8
0
 10
34.2405
 20
72.2708
 40
1.5
  1
T
  7
HIGHWAYBPLUS
  0
TEXT
  8
0
 10
35.803
 20
72.2708
 40
1.5
  1
B
  7
HIGHWAYBPLUS
  0
TEXT
  8
0
 10
36.7154
 20
72.2708
 40
1.5
  1
E
  7
HIGHWAYBPLUS
  0
TEXT
  8
0
 10
38.2779
 20
72.2708
 40
1.5
  1
I
  7
HIGHWAYBPLUS
  0
TEXT
  8
0
 10
38.7449
 20
72.2708
 40
1.5
  1
N
  7
HIGHWAYBPLUS
  0
TEXT
  8
0
 10
24.3258
 20
70.2708
 40
1.5
  1
A
  7
HIGHWAYBPLUS
  0
TEXT
  8
0
 10
26.1227
 20
70.2708
 40
1.5
  1
F
  7
HIGHWAYBPLUS
  0
TEXT
  8
0
 10
26.9102
 20
70.2708
 40
1.5
  1
E
  7
HIGHWAYBPLUS
  0
TEXT
  8
0
 10
27.6977
 20
70.2708
 40
1.5
  1
D
  7
HIGHWAYBPLUS
  0
TEXT
  8
0
 10
28.61
 20
70.2708
 40
1.5
  1
E
  7
HIGHWAYBPLUS
  0
TEXT
  8
0
 10
29.3975
 20
70.2708
 40
1.5
  1
R
  7
HIGHWAYBPLUS
  0
TEXT
  8
0
 10
30.2553
 20
70.2708
 40
1.5
  1
A
  7
HIGHWAYBPLUS
  0
TEXT
  8
0
 10
31.2772
 20
70.2708
 40
1.5
  1
L
  7
HIGHWAYBPLUS
  0
TEXT
  8
0
 10
32.0647
 20
70.2708
 40
1.5
  1
L
  7
HIGHWAYBPLUS
  0
TEXT
  8
0
 10
32.7022
 20
70.2708
 40
1.5
  1
Y
  7
HIGHWAYBPLUS
  0
TEXT
  8
0
 10
34.4991
 20
70.2708
 40
1.5
  1
A
  7
HIGHWAYBPLUS
  0
TEXT
  8
0
 10
35.5209
 20
70.2708
 40
1.5
  1
P
  7
HIGHWAYBPLUS
  0
TEXT
  8
0
 10
36.4333
 20
70.2708
 40
1.5
  1
P
  7
HIGHWAYBPLUS
  0
TEXT
  8
0
 10
37.3457
 20
70.2708
 40
1.5
  1
R
  7
HIGHWAYBPLUS
  0
TEXT
  8
0
 10
38.2035
 20
70.2708
 40
1.5
  1
O
  7
HIGHWAYBPLUS
  0
TEXT
  8
0
 10
39.1082
 20
70.2708
 40
1.5
  1
V
  7
HIGHWAYBPLUS
  0
TEXT
  8
0
 10
40.0246
 20
70.2708
 40
1.5
  1
E
  7
HIGHWAYBPLUS
  0
TEXT
  8
0
 10
40.8121
 20
70.2708
 40
1.5
  1
D
  7
HIGHWAYBPLUS
  0
TEXT
  8
0
 10
24.3258
 20
68.2708
 40
1.5
  1
C
  7
HIGHWAYBPLUS
  0
TEXT
  8
0
 10
25.1836
 20
68.2708
 40
1.5
  1
H
  7
HIGHWAYBPLUS
  0
TEXT
  8
0
 10
26.0959
 20
68.2708
 40
1.5
  1
I
  7
HIGHWAYBPLUS
  0
TEXT
  8
0
 10
26.563
 20
68.2708
 40
1.5
  1
L
  7
HIGHWAYBPLUS
  0
TEXT
  8
0
 10
27.3505
 20
68.2708
 40
1.5
  1
D
  7
HIGHWAYBPLUS
  0
TEXT
  8
0
 10
28.9833
 20
68.2708
 40
1.5
  1
R
  7
HIGHWAYBPLUS
  0
TEXT
  8
0
 10
29.8957
 20
68.2708
 40
1.5
  1
E
  7
HIGHWAYBPLUS
  0
TEXT
  8
0
 10
30.6832
 20
68.2708
 40
1.5
  1
S
  7
HIGHWAYBPLUS
  0
TEXT
  8
0
 10
31.541
 20
68.2708
 40
1.5
  1
T
  7
HIGHWAYBPLUS
  0
TEXT
  8
0
 10
32.3285
 20
68.2708
 40
1.5
  1
R
  7
HIGHWAYBPLUS
  0
TEXT
  8
0
 10
33.1863
 20
68.2708
 40
1.5
  1
A
  7
HIGHWAYBPLUS
  0
TEXT
  8
0
 10
34.2082
 20
68.2708
 40
1.5
  1
I
  7
HIGHWAYBPLUS
  0
TEXT
  8
0
 10
34.6752
 20
68.2708
 40
1.5
  1
N
  7
HIGHWAYBPLUS
  0
TEXT
  8
0
 10
35.533
 20
68.2708
 40
1.5
  1
T
  7
HIGHWAYBPLUS
  0
TEXT
  8
0
 10
37.0955
 20
68.2708
 40
1.5
  1
D
  7
HIGHWAYBPLUS
  0
TEXT
  8
0
 10
38.0079
 20
68.2708
 40
1.5
  1
E
  7
HIGHWAYBPLUS
  0
TEXT
  8
0
 10
38.7204
 20
68.2708
 40
1.5
  1
V
  7
HIGHWAYBPLUS
  0
TEXT
  8
0
 10
39.6368
 20
68.2708
 40
1.5
  1
I
  7
HIGHWAYBPLUS
  0
TEXT
  8
0
 10
40.1038
 20
68.2708
 40
1.5
  1
C
  7
HIGHWAYBPLUS
  0
TEXT
  8
0
 10
40.9616
 20
68.2708
 40
1.5
  1
E
  7
HIGHWAYBPLUS
  0
TEXT
  8
0
 10
41.8037
 20
68.2708
 40
1.5
  1
.
  7
HIGHWAYBPLUS
  0
TEXT
  8
0
 10
3.642
 20
65.2708
 40
1.5
  1
I
  7
HIGHWAYBPLUS
  0
TEXT
  8
0
 10
4.109
 20
65.2708
 40
1.5
  1
N
  7
HIGHWAYBPLUS
  0
TEXT
  8
0
 10
5.0214
 20
65.2708
 40
1.5
  1
D
  7
HIGHWAYBPLUS
  0
TEXT
  8
0
 10
5.9337
 20
65.2708
 40
1.5
  1
I
  7
HIGHWAYBPLUS
  0
TEXT
  8
0
 10
6.3462
 20
65.2708
 40
1.5
  1
V
  7
HIGHWAYBPLUS
  0
TEXT
  8
0
 10
7.2626
 20
65.2708
 40
1.5
  1
I
  7
HIGHWAYBPLUS
  0
TEXT
  8
0
 10
7.7297
 20
65.2708
 40
1.5
  1
D
  7
HIGHWAYBPLUS
  0
TEXT
  8
0
 10
8.642
 20
65.2708
 40
1.5
  1
U
  7
HIGHWAYBPLUS
  0
TEXT
  8
0
 10
9.4999
 20
65.2708
 40
1.5
  1
A
  7
HIGHWAYBPLUS
  0
TEXT
  8
0
 10
10.5217
 20
65.2708
 40
1.5
  1
L
  7
HIGHWAYBPLUS
  0
TEXT
  8
0
 10
11.3092
 20
65.2708
 40
1.5
  1
S
  7
HIGHWAYBPLUS
  0
TEXT
  8
0
 10
12.942
 20
65.2708
 40
1.5
  1
M
  7
HIGHWAYBPLUS
  0
TEXT
  8
0
 10
13.8936
 20
65.2708
 40
1.5
  1
A
  7
HIGHWAYBPLUS
  0
TEXT
  8
0
 10
14.7655
 20
65.2708
 40
1.5
  1
Y
  7
HIGHWAYBPLUS
  0
TEXT
  8
0
 10
16.5623
 20
65.2708
 40
1.5
  1
B
  7
HIGHWAYBPLUS
  0
TEXT
  8
0
 10
17.4747
 20
65.2708
 40
1.5
  1
E
  7
HIGHWAYBPLUS
  0
TEXT
  8
0
 10
3.642
 20
63.2708
 40
1.5
  1
E
  7
HIGHWAYBPLUS
  0
TEXT
  8
0
 10
4.4295
 20
63.2708
 40
1.5
  1
X
  7
HIGHWAYBPLUS
  0
TEXT
  8
0
 10
5.3459
 20
63.2708
 40
1.5
  1
E
  7
HIGHWAYBPLUS
  0
TEXT
  8
0
 10
6.1334
 20
63.2708
 40
1.5
  1
M
  7
HIGHWAYBPLUS
  0
TEXT
  8
0
 10
7.1395
 20
63.2708
 40
1.5
  1
P
  7
HIGHWAYBPLUS
  0
TEXT
  8
0
 10
7.9973
 20
63.2708
 40
1.5
  1
T
  7
HIGHWAYBPLUS
  0
TEXT
  8
0
 10
9.5598
 20
63.2708
 40
1.5
  1
W
  7
HIGHWAYBPLUS
  0
TEXT
  8
0
 10
10.7223
 20
63.2708
 40
1.5
  1
H
  7
HIGHWAYBPLUS
  0
TEXT
  8
0
 10
11.6346
 20
63.2708
 40
1.5
  1
E
  7
HIGHWAYBPLUS
  0
TEXT
  8
0
 10
12.4221
 20
63.2708
 40
1.5
  1
N
  7
HIGHWAYBPLUS
  0
TEXT
  8
0
 10
14.055
 20
63.2708
 40
1.5
  1
C
  7
HIGHWAYBPLUS
  0
TEXT
  8
0
 10
14.9128
 20
63.2708
 40
1.5
  1
E
  7
HIGHWAYBPLUS
  0
TEXT
  8
0
 10
15.7003
 20
63.2708
 40
1.5
  1
R
  7
HIGHWAYBPLUS
  0
TEXT
  8
0
 10
16.5581
 20
63.2708
 40
1.5
  1
T
  7
HIGHWAYBPLUS
  0
TEXT
  8
0
 10
17.3456
 20
63.2708
 40
1.5
  1
I
  7
HIGHWAYBPLUS
  0
TEXT
  8
0
 10
17.8126
 20
63.2708
 40
1.5
  1
F
  7
HIGHWAYBPLUS
  0
TEXT
  8
0
 10
18.6001
 20
63.2708
 40
1.5
  1
I
  7
HIGHWAYBPLUS
  0
TEXT
  8
0
 10
19.0672
 20
63.2708
 40
1.5
  1
E
  7
HIGHWAYBPLUS
  0
TEXT
  8
0
 10
19.8547
 20
63.2708
 40
1.5
  1
D
  7
HIGHWAYBPLUS
  0
TEXT
  8
0
 10
3.642
 20
61.2708
 40
1.5
  1
B
  7
HIGHWAYBPLUS
  0
TEXT
  8
0
 10
4.4998
 20
61.2708
 40
1.5
  1
Y
  7
HIGHWAYBPLUS
  0
TEXT
  8
0
 10
6.2966
 20
61.2708
 40
1.5
  1
A
  7
HIGHWAYBPLUS
  0
TEXT
  8
0
 10
8.0935
 20
61.2708
 40
1.5
  1
P
  7
HIGHWAYBPLUS
  0
TEXT
  8
0
 10
9.0059
 20
61.2708
 40
1.5
  1
H
  7
HIGHWAYBPLUS
  0
TEXT
  8
0
 10
9.8637
 20
61.2708
 40
1.5
  1
Y
  7
HIGHWAYBPLUS
  0
TEXT
  8
0
 10
10.8856
 20
61.2708
 40
1.5
  1
S
  7
HIGHWAYBPLUS
  0
TEXT
  8
0
 10
11.7979
 20
61.2708
 40
1.5
  1
I
  7
HIGHWAYBPLUS
  0
TEXT
  8
0
 10
12.265
 20
61.2708
 40
1.5
  1
C
  7
HIGHWAYBPLUS
  0
TEXT
  8
0
 10
13.1228
 20
61.2708
 40
1.5
  1
I
  7
HIGHWAYBPLUS
  0
TEXT
  8
0
 10
13.5353
 20
61.2708
 40
1.5
  1
A
  7
HIGHWAYBPLUS
  0
TEXT
  8
0
 10
14.5572
 20
61.2708
 40
1.5
  1
N
  7
HIGHWAYBPLUS
  0
TEXT
  8
0
 10
15.4695
 20
61.2708
 40
1.5
  1
.
  7
HIGHWAYBPLUS
  0
TEXT
  8
0
 10
24.3258
 20
65.2708
 40
1.5
  1
A
  7
HIGHWAYBPLUS
  0
TEXT
  8
0
 10
26.1227
 20
65.2708
 40
1.5
  1
C
  7
HIGHWAYBPLUS
  0
TEXT
  8
0
 10
26.9805
 20
65.2708
 40
1.5
  1
H
  7
HIGHWAYBPLUS
  0
TEXT
  8
0
 10
27.8928
 20
65.2708
 40
1.5
  1
I
  7
HIGHWAYBPLUS
  0
TEXT
  8
0
 10
28.3599
 20
65.2708
 40
1.5
  1
L
  7
HIGHWAYBPLUS
  0
TEXT
  8
0
 10
29.1474
 20
65.2708
 40
1.5
  1
D
  7
HIGHWAYBPLUS
  0
TEXT
  8
0
 10
30.7802
 20
65.2708
 40
1.5
  1
4
  7
HIGHWAYBPLUS
  0
TEXT
  8
0
 10
32.5067
 20
65.2708
 40
1.5
  1
O
  7
HIGHWAYBPLUS
  0
TEXT
  8
0
 10
33.466
 20
65.2708
 40
1.5
  1
R
  7
HIGHWAYBPLUS
  0
TEXT
  8
0
 10
35.0988
 20
65.2708
 40
1.5
  1
5
  7
HIGHWAYBPLUS
  0
TEXT
  8
0
 10
36.7316
 20
65.2708
 40
1.5
  1
Y
  7
HIGHWAYBPLUS
  0
TEXT
  8
0
 10
37.7535
 20
65.2708
 40
1.5
  1
E
  7
HIGHWAYBPLUS
  0
TEXT
  8
0
 10
38.466
 20
65.2708
 40
1.5
  1
A
  7
HIGHWAYBPLUS
  0
TEXT
  8
0
 10
39.4879
 20
65.2708
 40
1.5
  1
R
  7
HIGHWAYBPLUS
  0
TEXT
  8
0
 10
40.3457
 20
65.2708
 40
1.5
  1
S
  7
HIGHWAYBPLUS
  0
TEXT
  8
0
 10
41.9785
 20
65.2708
 40
1.5
  1
O
  7
HIGHWAYBPLUS
  0
TEXT
  8
0
 10
42.9377
 20
65.2708
 40
1.5
  1
L
  7
HIGHWAYBPLUS
  0
TEXT
  8
0
 10
43.7252
 20
65.2708
 40
1.5
  1
D
  7
HIGHWAYBPLUS
  0
TEXT
  8
0
 10
24.3258
 20
63.2708
 40
1.5
  1
M
  7
HIGHWAYBPLUS
  0
TEXT
  8
0
 10
25.3319
 20
63.2708
 40
1.5
  1
U
  7
HIGHWAYBPLUS
  0
TEXT
  8
0
 10
26.2442
 20
63.2708
 40
1.5
  1
S
  7
HIGHWAYBPLUS
  0
TEXT
  8
0
 10
27.1021
 20
63.2708
 40
1.5
  1
T
  7
HIGHWAYBPLUS
  0
TEXT
  8
0
 10
28.6646
 20
63.2708
 40
1.5
  1
B
  7
HIGHWAYBPLUS
  0
TEXT
  8
0
 10
29.5769
 20
63.2708
 40
1.5
  1
E
  7
HIGHWAYBPLUS
  0
TEXT
  8
0
 10
31.1394
 20
63.2708
 40
1.5
  1
I
  7
HIGHWAYBPLUS
  0
TEXT
  8
0
 10
31.6065
 20
63.2708
 40
1.5
  1
N
  7
HIGHWAYBPLUS
  0
TEXT
  8
0
 10
33.2393
 20
63.2708
 40
1.5
  1
A
  7
HIGHWAYBPLUS
  0
TEXT
  8
0
 10
35.0361
 20
63.2708
 40
1.5
  1
F
  7
HIGHWAYBPLUS
  0
TEXT
  8
0
 10
35.8236
 20
63.2708
 40
1.5
  1
E
  7
HIGHWAYBPLUS
  0
TEXT
  8
0
 10
36.6111
 20
63.2708
 40
1.5
  1
D
  7
HIGHWAYBPLUS
  0
TEXT
  8
0
 10
37.5235
 20
63.2708
 40
1.5
  1
E
  7
HIGHWAYBPLUS
  0
TEXT
  8
0
 10
38.311
 20
63.2708
 40
1.5
  1
R
  7
HIGHWAYBPLUS
  0
TEXT
  8
0
 10
39.1688
 20
63.2708
 40
1.5
  1
A
  7
HIGHWAYBPLUS
  0
TEXT
  8
0
 10
40.1907
 20
63.2708
 40
1.5
  1
L
  7
HIGHWAYBPLUS
  0
TEXT
  8
0
 10
40.9782
 20
63.2708
 40
1.5
  1
L
  7
HIGHWAYBPLUS
  0
TEXT
  8
0
 10
41.6157
 20
63.2708
 40
1.5
  1
Y
  7
HIGHWAYBPLUS
  0
TEXT
  8
0
 10
24.3258
 20
61.2708
 40
1.5
  1
A
  7
HIGHWAYBPLUS
  0
TEXT
  8
0
 10
25.3477
 20
61.2708
 40
1.5
  1
P
  7
HIGHWAYBPLUS
  0
TEXT
  8
0
 10
26.26
 20
61.2708
 40
1.5
  1
P
  7
HIGHWAYBPLUS
  0
TEXT
  8
0
 10
27.1724
 20
61.2708
 40
1.5
  1
R
  7
HIGHWAYBPLUS
  0
TEXT
  8
0
 10
28.0302
 20
61.2708
 40
1.5
  1
O
  7
HIGHWAYBPLUS
  0
TEXT
  8
0
 10
28.9349
 20
61.2708
 40
1.5
  1
V
  7
HIGHWAYBPLUS
  0
TEXT
  8
0
 10
29.8513
 20
61.2708
 40
1.5
  1
E
  7
HIGHWAYBPLUS
  0
TEXT
  8
0
 10
30.6388
 20
61.2708
 40
1.5
  1
D
  7
HIGHWAYBPLUS
  0
TEXT
  8
0
 10
32.2716
 20
61.2708
 40
1.5
  1
C
  7
HIGHWAYBPLUS
  0
TEXT
  8
0
 10
33.1294
 20
61.2708
 40
1.5
  1
H
  7
HIGHWAYBPLUS
  0
TEXT
  8
0
 10
34.0418
 20
61.2708
 40
1.5
  1
I
  7
HIGHWAYBPLUS
  0
TEXT
  8
0
 10
34.5088
 20
61.2708
 40
1.5
  1
L
  7
HIGHWAYBPLUS
  0
TEXT
  8
0
 10
35.2963
 20
61.2708
 40
1.5
  1
D
  7
HIGHWAYBPLUS
  0
TEXT
  8
0
 10
36.9291
 20
61.2708
 40
1.5
  1
R
  7
HIGHWAYBPLUS
  0
TEXT
  8
0
 10
37.8415
 20
61.2708
 40
1.5
  1
E
  7
HIGHWAYBPLUS
  0
TEXT
  8
0
 10
38.629
 20
61.2708
 40
1.5
  1
S
  7
HIGHWAYBPLUS
  0
TEXT
  8
0
 10
39.4868
 20
61.2708
 40
1.5
  1
T
  7
HIGHWAYBPLUS
  0
TEXT
  8
0
 10
40.2743
 20
61.2708
 40
1.5
  1
R
  7
HIGHWAYBPLUS
  0
TEXT
  8
0
 10
41.1321
 20
61.2708
 40
1.5
  1
A
  7
HIGHWAYBPLUS
  0
TEXT
  8
0
 10
42.154
 20
61.2708
 40
1.5
  1
I
  7
HIGHWAYBPLUS
  0
TEXT
  8
0
 10
42.621
 20
61.2708
 40
1.5
  1
N
  7
HIGHWAYBPLUS
  0
TEXT
  8
0
 10
43.4788
 20
61.2708
 40
1.5
  1
T
  7
HIGHWAYBPLUS
  0
TEXT
  8
0
 10
24.3258
 20
59.2708
 40
1.5
  1
D
  7
HIGHWAYBPLUS
  0
TEXT
  8
0
 10
25.2381
 20
59.2708
 40
1.5
  1
E
  7
HIGHWAYBPLUS
  0
TEXT
  8
0
 10
25.9506
 20
59.2708
 40
1.5
  1
V
  7
HIGHWAYBPLUS
  0
TEXT
  8
0
 10
26.867
 20
59.2708
 40
1.5
  1
I
  7
HIGHWAYBPLUS
  0
TEXT
  8
0
 10
27.3341
 20
59.2708
 40
1.5
  1
C
  7
HIGHWAYBPLUS
  0
TEXT
  8
0
 10
28.1919
 20
59.2708
 40
1.5
  1
E
  7
HIGHWAYBPLUS
  0
TEXT
  8
0
 10
29.7544
 20
59.2708
 40
1.5
  1
O
  7
HIGHWAYBPLUS
  0
TEXT
  8
0
 10
30.7136
 20
59.2708
 40
1.5
  1
R
  7
HIGHWAYBPLUS
  0
TEXT
  8
0
 10
32.3464
 20
59.2708
 40
1.5
  1
A
  7
HIGHWAYBPLUS
  0
TEXT
  8
0
 10
34.1433
 20
59.2708
 40
1.5
  1
S
  7
HIGHWAYBPLUS
  0
TEXT
  8
0
 10
35.0011
 20
59.2708
 40
1.5
  1
A
  7
HIGHWAYBPLUS
  0
TEXT
  8
0
 10
36.023
 20
59.2708
 40
1.5
  1
F
  7
HIGHWAYBPLUS
  0
TEXT
  8
0
 10
36.8105
 20
59.2708
 40
1.5
  1
E
  7
HIGHWAYBPLUS
  0
TEXT
  8
0
 10
37.523
 20
59.2708
 40
1.5
  1
T
  7
HIGHWAYBPLUS
  0
TEXT
  8
0
 10
38.1605
 20
59.2708
 40
1.5
  1
Y
  7
HIGHWAYBPLUS
  0
TEXT
  8
0
 10
39.9574
 20
59.2708
 40
1.5
  1
B
  7
HIGHWAYBPLUS
  0
TEXT
  8
0
 10
40.8697
 20
59.2708
 40
1.5
  1
E
  7
HIGHWAYBPLUS
  0
TEXT
  8
0
 10
41.6572
 20
59.2708
 40
1.5
  1
L
  7
HIGHWAYBPLUS
  0
TEXT
  8
0
 10
42.2947
 20
59.2708
 40
1.5
  1
T
  7
HIGHWAYBPLUS
  0
TEXT
  8
0
 10
42.9322
 20
59.2708
 40
1.5
  1
.
  7
HIGHWAYBPLUS
  0
TEXT
  8
0
 10
3.642
 20
56.2708
 40
1.5
  1
A
  7
HIGHWAYBPLUS
  0
TEXT
  8
0
 10
4.6638
 20
56.2708
 40
1.5
  1
L
  7
HIGHWAYBPLUS
  0
TEXT
  8
0
 10
5.4513
 20
56.2708
 40
1.5
  1
L
  7
HIGHWAYBPLUS
  0
TEXT
  8
0
 10
7.0138
 20
56.2708
 40
1.5
  1
P
  7
HIGHWAYBPLUS
  0
TEXT
  8
0
 10
7.8717
 20
56.2708
 40
1.5
  1
A
  7
HIGHWAYBPLUS
  0
TEXT
  8
0
 10
8.8935
 20
56.2708
 40
1.5
  1
S
  7
HIGHWAYBPLUS
  0
TEXT
  8
0
 10
9.7513
 20
56.2708
 40
1.5
  1
S
  7
HIGHWAYBPLUS
  0
TEXT
  8
0
 10
10.6637
 20
56.2708
 40
1.5
  1
E
  7
HIGHWAYBPLUS
  0
TEXT
  8
0
 10
11.4512
 20
56.2708
 40
1.5
  1
N
  7
HIGHWAYBPLUS
  0
TEXT
  8
0
 10
12.3636
 20
56.2708
 40
1.5
  1
G
  7
HIGHWAYBPLUS
  0
TEXT
  8
0
 10
13.2759
 20
56.2708
 40
1.5
  1
E
  7
HIGHWAYBPLUS
  0
TEXT
  8
0
 10
14.0634
 20
56.2708
 40
1.5
  1
R
  7
HIGHWAYBPLUS
  0
TEXT
  8
0
 10
14.9212
 20
56.2708
 40
1.5
  1
S
  7
HIGHWAYBPLUS
  0
TEXT
  8
0
 10
16.554
 20
56.2708
 40
1.5
  1
U
  7
HIGHWAYBPLUS
  0
TEXT
  8
0
 10
17.4664
 20
56.2708
 40
1.5
  1
N
  7
HIGHWAYBPLUS
  0
TEXT
  8
0
 10
18.3788
 20
56.2708
 40
1.5
  1
D
  7
HIGHWAYBPLUS
  0
TEXT
  8
0
 10
19.2911
 20
56.2708
 40
1.5
  1
E
  7
HIGHWAYBPLUS
  0
TEXT
  8
0
 10
20.0786
 20
56.2708
 40
1.5
  1
R
  7
HIGHWAYBPLUS
  0
TEXT
  8
0
 10
7.1387
 20
54.2708
 40
1.5
  1
1
  7
HIGHWAYBPLUS
  0
TEXT
  8
0
 10
7.7229
 20
54.2708
 40
1.5
  1
8
  7
HIGHWAYBPLUS
  0
TEXT
  8
0
 10
9.3557
 20
54.2708
 40
1.5
  1
M
  7
HIGHWAYBPLUS
  0
TEXT
  8
0
 10
10.3619
 20
54.2708
 40
1.5
  1
U
  7
HIGHWAYBPLUS
  0
TEXT
  8
0
 10
11.2742
 20
54.2708
 40
1.5
  1
S
  7
HIGHWAYBPLUS
  0
TEXT
  8
0
 10
12.132
 20
54.2708
 40
1.5
  1
T
  7
HIGHWAYBPLUS
  0
TEXT
  8
0
 10
13.6945
 20
54.2708
 40
1.5
  1
W
  7
HIGHWAYBPLUS
  0
TEXT
  8
0
 10
14.857
 20
54.2708
 40
1.5
  1
E
  7
HIGHWAYBPLUS
  0
TEXT
  8
0
 10
15.5695
 20
54.2708
 40
1.5
  1
A
  7
HIGHWAYBPLUS
  0
TEXT
  8
0
 10
16.5914
 20
54.2708
 40
1.5
  1
R
  7
HIGHWAYBPLUS
  0
TEXT
  8
0
 10
18.2242
 20
54.2708
 40
1.5
  1
A
  7
HIGHWAYBPLUS
  0
TEXT
  8
0
 10
3.642
 20
52.2708
 40
1.5
  1
S
  7
HIGHWAYBPLUS
  0
TEXT
  8
0
 10
4.4998
 20
52.2708
 40
1.5
  1
A
  7
HIGHWAYBPLUS
  0
TEXT
  8
0
 10
5.5217
 20
52.2708
 40
1.5
  1
F
  7
HIGHWAYBPLUS
  0
TEXT
  8
0
 10
6.3092
 20
52.2708
 40
1.5
  1
E
  7
HIGHWAYBPLUS
  0
TEXT
  8
0
 10
7.0217
 20
52.2708
 40
1.5
  1
T
  7
HIGHWAYBPLUS
  0
TEXT
  8
0
 10
7.6592
 20
52.2708
 40
1.5
  1
Y
  7
HIGHWAYBPLUS
  0
TEXT
  8
0
 10
9.456
 20
52.2708
 40
1.5
  1
B
  7
HIGHWAYBPLUS
  0
TEXT
  8
0
 10
10.3684
 20
52.2708
 40
1.5
  1
E
  7
HIGHWAYBPLUS
  0
TEXT
  8
0
 10
11.1559
 20
52.2708
 40
1.5
  1
L
  7
HIGHWAYBPLUS
  0
TEXT
  8
0
 10
11.7934
 20
52.2708
 40
1.5
  1
T
  7
HIGHWAYBPLUS
  0
TEXT
  8
0
 10
13.3559
 20
52.2708
 40
1.5
  1
R
  7
HIGHWAYBPLUS
  0
TEXT
  8
0
 10
14.2682
 20
52.2708
 40
1.5
  1
E
  7
HIGHWAYBPLUS
  0
TEXT
  8
0
 10
15.0557
 20
52.2708
 40
1.5
  1
G
  7
HIGHWAYBPLUS
  0
TEXT
  8
0
 10
15.9136
 20
52.2708
 40
1.5
  1
A
  7
HIGHWAYBPLUS
  0
TEXT
  8
0
 10
16.9354
 20
52.2708
 40
1.5
  1
R
  7
HIGHWAYBPLUS
  0
TEXT
  8
0
 10
17.8478
 20
52.2708
 40
1.5
  1
D
  7
HIGHWAYBPLUS
  0
TEXT
  8
0
 10
18.7601
 20
52.2708
 40
1.5
  1
L
  7
HIGHWAYBPLUS
  0
TEXT
  8
0
 10
19.5476
 20
52.2708
 40
1.5
  1
E
  7
HIGHWAYBPLUS
  0
TEXT
  8
0
 10
20.3351
 20
52.2708
 40
1.5
  1
S
  7
HIGHWAYBPLUS
  0
TEXT
  8
0
 10
21.193
 20
52.2708
 40
1.5
  1
S
  7
HIGHWAYBPLUS
  0
TEXT
  8
0
 10
21.8258
 20
52.2708
 40
1.5
  1
 
  7
HIGHWAYBPLUS
  0
TEXT
  8
0
 10
3.642
 20
50.2708
 40
1.5
  1
O
  7
HIGHWAYBPLUS
  0
TEXT
  8
0
 10
4.6012
 20
50.2708
 40
1.5
  1
F
  7
HIGHWAYBPLUS
  0
TEXT
  8
0
 10
6.1637
 20
50.2708
 40
1.5
  1
P
  7
HIGHWAYBPLUS
  0
TEXT
  8
0
 10
7.0215
 20
50.2708
 40
1.5
  1
O
  7
HIGHWAYBPLUS
  0
TEXT
  8
0
 10
7.9262
 20
50.2708
 40
1.5
  1
S
  7
HIGHWAYBPLUS
  0
TEXT
  8
0
 10
8.8386
 20
50.2708
 40
1.5
  1
I
  7
HIGHWAYBPLUS
  0
TEXT
  8
0
 10
9.2511
 20
50.2708
 40
1.5
  1
T
  7
HIGHWAYBPLUS
  0
TEXT
  8
0
 10
10.0386
 20
50.2708
 40
1.5
  1
I
  7
HIGHWAYBPLUS
  0
TEXT
  8
0
 10
10.5056
 20
50.2708
 40
1.5
  1
O
  7
HIGHWAYBPLUS
  0
TEXT
  8
0
 10
11.4648
 20
50.2708
 40
1.5
  1
N
  7
HIGHWAYBPLUS
  0
TEXT
  8
0
 10
13.0976
 20
50.2708
 40
1.5
  1
I
  7
HIGHWAYBPLUS
  0
TEXT
  8
0
 10
13.5647
 20
50.2708
 40
1.5
  1
N
  7
HIGHWAYBPLUS
  0
TEXT
  8
0
 10
15.1975
 20
50.2708
 40
1.5
  1
A
  7
HIGHWAYBPLUS
  0
TEXT
  8
0
 10
16.9944
 20
50.2708
 40
1.5
  1
V
  7
HIGHWAYBPLUS
  0
TEXT
  8
0
 10
17.9108
 20
50.2708
 40
1.5
  1
E
  7
HIGHWAYBPLUS
  0
TEXT
  8
0
 10
18.6983
 20
50.2708
 40
1.5
  1
H
  7
HIGHWAYBPLUS
  0
TEXT
  8
0
 10
19.6106
 20
50.2708
 40
1.5
  1
I
  7
HIGHWAYBPLUS
  0
TEXT
  8
0
 10
20.0777
 20
50.2708
 40
1.5
  1
C
  7
HIGHWAYBPLUS
  0
TEXT
  8
0
 10
20.9355
 20
50.2708
 40
1.5
  1
L
  7
HIGHWAYBPLUS
  0
TEXT
  8
0
 10
21.723
 20
50.2708
 40
1.5
  1
E
  7
HIGHWAYBPLUS
  0
TEXT
  8
0
 10
22.565
 20
50.2708
 40
1.5
  1
.
  7
HIGHWAYBPLUS
  0
TEXT
  8
0
 10
24.3258
 20
56.2708
 40
1.5
  1
L
  7
HIGHWAYBPLUS
  0
TEXT
  8
0
 10
24.9633
 20
56.2708
 40
1.5
  1
A
  7
HIGHWAYBPLUS
  0
TEXT
  8
0
 10
25.8352
 20
56.2708
 40
1.5
  1
W
  7
HIGHWAYBPLUS
  0
TEXT
  8
0
 10
27.7727
 20
56.2708
 40
1.5
  1
A
  7
HIGHWAYBPLUS
  0
TEXT
  8
0
 10
28.7945
 20
56.2708
 40
1.5
  1
P
  7
HIGHWAYBPLUS
  0
TEXT
  8
0
 10
29.7069
 20
56.2708
 40
1.5
  1
P
  7
HIGHWAYBPLUS
  0
TEXT
  8
0
 10
30.6192
 20
56.2708
 40
1.5
  1
L
  7
HIGHWAYBPLUS
  0
TEXT
  8
0
 10
31.4067
 20
56.2708
 40
1.5
  1
I
  7
HIGHWAYBPLUS
  0
TEXT
  8
0
 10
31.8738
 20
56.2708
 40
1.5
  1
E
  7
HIGHWAYBPLUS
  0
TEXT
  8
0
 10
32.6613
 20
56.2708
 40
1.5
  1
S
  7
HIGHWAYBPLUS
  0
TEXT
  8
0
 10
34.2941
 20
56.2708
 40
1.5
  1
T
  7
HIGHWAYBPLUS
  0
TEXT
  8
0
 10
35.0816
 20
56.2708
 40
1.5
  1
O
  7
HIGHWAYBPLUS
  0
TEXT
  8
0
 10
36.7613
 20
56.2708
 40
1.5
  1
C
  7
HIGHWAYBPLUS
  0
TEXT
  8
0
 10
37.6191
 20
56.2708
 40
1.5
  1
H
  7
HIGHWAYBPLUS
  0
TEXT
  8
0
 10
38.5315
 20
56.2708
 40
1.5
  1
I
  7
HIGHWAYBPLUS
  0
TEXT
  8
0
 10
38.9985
 20
56.2708
 40
1.5
  1
L
  7
HIGHWAYBPLUS
  0
TEXT
  8
0
 10
39.786
 20
56.2708
 40
1.5
  1
D
  7
HIGHWAYBPLUS
  0
TEXT
  8
0
 10
40.6984
 20
56.2708
 40
1.5
  1
R
  7
HIGHWAYBPLUS
  0
TEXT
  8
0
 10
41.6107
 20
56.2708
 40
1.5
  1
E
  7
HIGHWAYBPLUS
  0
TEXT
  8
0
 10
42.3982
 20
56.2708
 40
1.5
  1
N
  7
HIGHWAYBPLUS
  0
TEXT
  8
0
 10
24.3258
 20
54.2708
 40
1.5
  1
A
  7
HIGHWAYBPLUS
  0
TEXT
  8
0
 10
25.3477
 20
54.2708
 40
1.5
  1
G
  7
HIGHWAYBPLUS
  0
TEXT
  8
0
 10
26.26
 20
54.2708
 40
1.5
  1
E
  7
HIGHWAYBPLUS
  0
TEXT
  8
0
 10
27.8225
 20
54.2708
 40
1.5
  1
5
  7
HIGHWAYBPLUS
  0
TEXT
  8
0
 10
29.4553
 20
54.2708
 40
1.5
  1
O
  7
HIGHWAYBPLUS
  0
TEXT
  8
0
 10
30.4146
 20
54.2708
 40
1.5
  1
R
  7
HIGHWAYBPLUS
  0
TEXT
  8
0
 10
32.0474
 20
54.2708
 40
1.5
  1
L
  7
HIGHWAYBPLUS
  0
TEXT
  8
0
 10
32.8349
 20
54.2708
 40
1.5
  1
E
  7
HIGHWAYBPLUS
  0
TEXT
  8
0
 10
33.6224
 20
54.2708
 40
1.5
  1
S
  7
HIGHWAYBPLUS
  0
TEXT
  8
0
 10
34.4802
 20
54.2708
 40
1.5
  1
S
  7
HIGHWAYBPLUS
  0
TEXT
  8
0
 10
36.113
 20
54.2708
 40
1.5
  1
I
  7
HIGHWAYBPLUS
  0
TEXT
  8
0
 10
36.58
 20
54.2708
 40
1.5
  1
N
  7
HIGHWAYBPLUS
  0
TEXT
  8
0
 10
38.2128
 20
54.2708
 40
1.5
  1
A
  7
HIGHWAYBPLUS
  0
TEXT
  8
0
 10
24.3258
 20
52.2708
 40
1.5
  1
P
  7
HIGHWAYBPLUS
  0
TEXT
  8
0
 10
25.1836
 20
52.2708
 40
1.5
  1
A
  7
HIGHWAYBPLUS
  0
TEXT
  8
0
 10
26.2055
 20
52.2708
 40
1.5
  1
S
  7
HIGHWAYBPLUS
  0
TEXT
  8
0
 10
27.0633
 20
52.2708
 40
1.5
  1
S
  7
HIGHWAYBPLUS
  0
TEXT
  8
0
 10
27.9756
 20
52.2708
 40
1.5
  1
E
  7
HIGHWAYBPLUS
  0
TEXT
  8
0
 10
28.7631
 20
52.2708
 40
1.5
  1
N
  7
HIGHWAYBPLUS
  0
TEXT
  8
0
 10
29.6755
 20
52.2708
 40
1.5
  1
G
  7
HIGHWAYBPLUS
  0
TEXT
  8
0
 10
30.5878
 20
52.2708
 40
1.5
  1
E
  7
HIGHWAYBPLUS
  0
TEXT
  8
0
 10
31.3753
 20
52.2708
 40
1.5
  1
R
  7
HIGHWAYBPLUS
  0
TEXT
  8
0
 10
33.0082
 20
52.2708
 40
1.5
  1
C
  7
HIGHWAYBPLUS
  0
TEXT
  8
0
 10
33.791
 20
52.2708
 40
1.5
  1
A
  7
HIGHWAYBPLUS
  0
TEXT
  8
0
 10
34.8128
 20
52.2708
 40
1.5
  1
R
  7
HIGHWAYBPLUS
  0
TEXT
  8
0
 10
35.7252
 20
52.2708
 40
1.5
  1
,
  7
HIGHWAYBPLUS
  0
TEXT
  8
0
 10
36.9127
 20
52.2708
 40
1.5
  1
V
  7
HIGHWAYBPLUS
  0
TEXT
  8
0
 10
37.6791
 20
52.2708
 40
1.5
  1
A
  7
HIGHWAYBPLUS
  0
TEXT
  8
0
 10
38.701
 20
52.2708
 40
1.5
  1
N
  7
HIGHWAYBPLUS
  0
TEXT
  8
0
 10
40.3338
 20
52.2708
 40
1.5
  1
O
  7
HIGHWAYBPLUS
  0
TEXT
  8
0
 10
41.293
 20
52.2708
 40
1.5
  1
R
  7
HIGHWAYBPLUS
  0
TEXT
  8
0
 10
24.3258
 20
50.2708
 40
1.5
  1
P
  7
HIGHWAYBPLUS
  0
TEXT
  8
0
 10
25.2381
 20
50.2708
 40
1.5
  1
I
  7
HIGHWAYBPLUS
  0
TEXT
  8
0
 10
25.7052
 20
50.2708
 40
1.5
  1
C
  7
HIGHWAYBPLUS
  0
TEXT
  8
0
 10
26.563
 20
50.2708
 40
1.5
  1
K
  7
HIGHWAYBPLUS
  0
TEXT
  8
0
 10
27.4442
 20
50.2708
 40
1.5
  1
U
  7
HIGHWAYBPLUS
  0
TEXT
  8
0
 10
28.3566
 20
50.2708
 40
1.5
  1
P
  7
HIGHWAYBPLUS
  0
TEXT
  8
0
 10
29.9894
 20
50.2708
 40
1.5
  1
T
  7
HIGHWAYBPLUS
  0
TEXT
  8
0
 10
30.7769
 20
50.2708
 40
1.5
  1
R
  7
HIGHWAYBPLUS
  0
TEXT
  8
0
 10
31.6893
 20
50.2708
 40
1.5
  1
U
  7
HIGHWAYBPLUS
  0
TEXT
  8
0
 10
32.6016
 20
50.2708
 40
1.5
  1
C
  7
HIGHWAYBPLUS
  0
TEXT
  8
0
 10
33.4594
 20
50.2708
 40
1.5
  1
K
  7
HIGHWAYBPLUS
  0
TEXT
  8
0
 10
34.3952
 20
50.2708
 40
1.5
  1
.
  7
HIGHWAYBPLUS
  0
TEXT
  8
0
 10
3.642
 20
47.2708
 40
1.5
  1
V
  7
HIGHWAYBPLUS
  0
TEXT
  8
0
 10
4.5584
 20
47.2708
 40
1.5
  1
I
  7
HIGHWAYBPLUS
  0
TEXT
  8
0
 10
5.0254
 20
47.2708
 40
1.5
  1
O
  7
HIGHWAYBPLUS
  0
TEXT
  8
0
 10
5.9847
 20
47.2708
 40
1.5
  1
L
  7
HIGHWAYBPLUS
  0
TEXT
  8
0
 10
6.6222
 20
47.2708
 40
1.5
  1
A
  7
HIGHWAYBPLUS
  0
TEXT
  8
0
 10
7.494
 20
47.2708
 40
1.5
  1
T
  7
HIGHWAYBPLUS
  0
TEXT
  8
0
 10
8.2815
 20
47.2708
 40
1.5
  1
O
  7
HIGHWAYBPLUS
  0
TEXT
  8
0
 10
9.2408
 20
47.2708
 40
1.5
  1
R
  7
HIGHWAYBPLUS
  0
TEXT
  8
0
 10
10.0986
 20
47.2708
 40
1.5
  1
S
  7
HIGHWAYBPLUS
  0
TEXT
  8
0
 10
11.7314
 20
47.2708
 40
1.5
  1
A
  7
HIGHWAYBPLUS
  0
TEXT
  8
0
 10
12.7533
 20
47.2708
 40
1.5
  1
R
  7
HIGHWAYBPLUS
  0
TEXT
  8
0
 10
13.6656
 20
47.2708
 40
1.5
  1
E
  7
HIGHWAYBPLUS
  0
TEXT
  8
0
 10
15.2281
 20
47.2708
 40
1.5
  1
C
  7
HIGHWAYBPLUS
  0
TEXT
  8
0
 10
16.0859
 20
47.2708
 40
1.5
  1
O
  7
HIGHWAYBPLUS
  0
TEXT
  8
0
 10
17.0452
 20
47.2708
 40
1.5
  1
M
  7
HIGHWAYBPLUS
  0
TEXT
  8
0
 10
18.0513
 20
47.2708
 40
1.5
  1
M
  7
HIGHWAYBPLUS
  0
TEXT
  8
0
 10
19.0574
 20
47.2708
 40
1.5
  1
I
  7
HIGHWAYBPLUS
  0
TEXT
  8
0
 10
19.4699
 20
47.2708
 40
1.5
  1
T
  7
HIGHWAYBPLUS
  0
TEXT
  8
0
 10
20.1074
 20
47.2708
 40
1.5
  1
T
  7
HIGHWAYBPLUS
  0
TEXT
  8
0
 10
20.8949
 20
47.2708
 40
1.5
  1
I
  7
HIGHWAYBPLUS
  0
TEXT
  8
0
 10
21.3619
 20
47.2708
 40
1.5
  1
N
  7
HIGHWAYBPLUS
  0
TEXT
  8
0
 10
22.2743
 20
47.2708
 40
1.5
  1
G
  7
HIGHWAYBPLUS
  0
TEXT
  8
0
 10
3.642
 20
45.2708
 40
1.5
  1
A
  7
HIGHWAYBPLUS
  0
TEXT
  8
0
 10
5.4388
 20
45.2708
 40
1.5
  1
N
  7
HIGHWAYBPLUS
  0
TEXT
  8
0
 10
6.3512
 20
45.2708
 40
1.5
  1
O
  7
HIGHWAYBPLUS
  0
TEXT
  8
0
 10
7.3104
 20
45.2708
 40
1.5
  1
N
  7
HIGHWAYBPLUS
  0
TEXT
  8
0
 10
8.2228
 20
45.2708
 40
1.5
  1
M
  7
HIGHWAYBPLUS
  0
TEXT
  8
0
 10
9.2289
 20
45.2708
 40
1.5
  1
O
  7
HIGHWAYBPLUS
  0
TEXT
  8
0
 10
10.1336
 20
45.2708
 40
1.5
  1
V
  7
HIGHWAYBPLUS
  0
TEXT
  8
0
 10
11.05
 20
45.2708
 40
1.5
  1
I
  7
HIGHWAYBPLUS
  0
TEXT
  8
0
 10
11.517
 20
45.2708
 40
1.5
  1
N
  7
HIGHWAYBPLUS
  0
TEXT
  8
0
 10
12.4294
 20
45.2708
 40
1.5
  1
G
  7
HIGHWAYBPLUS
  0
TEXT
  8
0
 10
14.0622
 20
45.2708
 40
1.5
  1
V
  7
HIGHWAYBPLUS
  0
TEXT
  8
0
 10
14.9786
 20
45.2708
 40
1.5
  1
I
  7
HIGHWAYBPLUS
  0
TEXT
  8
0
 10
15.4457
 20
45.2708
 40
1.5
  1
O
  7
HIGHWAYBPLUS
  0
TEXT
  8
0
 10
16.4049
 20
45.2708
 40
1.5
  1
L
  7
HIGHWAYBPLUS
  0
TEXT
  8
0
 10
17.0424
 20
45.2708
 40
1.5
  1
A
  7
HIGHWAYBPLUS
  0
TEXT
  8
0
 10
17.9143
 20
45.2708
 40
1.5
  1
T
  7
HIGHWAYBPLUS
  0
TEXT
  8
0
 10
18.7018
 20
45.2708
 40
1.5
  1
I
  7
HIGHWAYBPLUS
  0
TEXT
  8
0
 10
19.1688
 20
45.2708
 40
1.5
  1
O
  7
HIGHWAYBPLUS
  0
TEXT
  8
0
 10
20.128
 20
45.2708
 40
1.5
  1
N
  7
HIGHWAYBPLUS
  0
TEXT
  8
0
 10
12.9005
 20
43.2708
 40
1.5
  1
A
  7
HIGHWAYBPLUS
  0
TEXT
  8
0
 10
13.9224
 20
43.2708
 40
1.5
  1
S
  7
HIGHWAYBPLUS
  0
TEXT
  8
0
 10
15.5552
 20
43.2708
 40
1.5
  1
P
  7
HIGHWAYBPLUS
  0
TEXT
  8
0
 10
16.4675
 20
43.2708
 40
1.5
  1
R
  7
HIGHWAYBPLUS
  0
TEXT
  8
0
 10
17.3253
 20
43.2708
 40
1.5
  1
O
  7
HIGHWAYBPLUS
  0
TEXT
  8
0
 10
18.23
 20
43.2708
 40
1.5
  1
V
  7
HIGHWAYBPLUS
  0
TEXT
  8
0
 10
19.1464
 20
43.2708
 40
1.5
  1
I
  7
HIGHWAYBPLUS
  0
TEXT
  8
0
 10
19.6135
 20
43.2708
 40
1.5
  1
D
  7
HIGHWAYBPLUS
  0
TEXT
  8
0
 10
20.5258
 20
43.2708
 40
1.5
  1
E
  7
HIGHWAYBPLUS
  0
TEXT
  8
0
 10
21.3133
 20
43.2708
 40
1.5
  1
D
  7
HIGHWAYBPLUS
  0
TEXT
  8
0
 10
5.7418
 20
41.2708
 40
1.5
  1
C
  7
HIGHWAYBPLUS
  0
TEXT
  8
0
 10
6.5996
 20
41.2708
 40
1.5
  1
H
  7
HIGHWAYBPLUS
  0
TEXT
  8
0
 10
7.4575
 20
41.2708
 40
1.5
  1
A
  7
HIGHWAYBPLUS
  0
TEXT
  8
0
 10
8.4793
 20
41.2708
 40
1.5
  1
P
  7
HIGHWAYBPLUS
  0
TEXT
  8
0
 10
9.3371
 20
41.2708
 40
1.5
  1
T
  7
HIGHWAYBPLUS
  0
TEXT
  8
0
 10
10.1246
 20
41.2708
 40
1.5
  1
E
  7
HIGHWAYBPLUS
  0
TEXT
  8
0
 10
10.9121
 20
41.2708
 40
1.5
  1
R
  7
HIGHWAYBPLUS
  0
TEXT
  8
0
 10
12.5449
 20
41.2708
 40
1.5
  1
3
  7
HIGHWAYBPLUS
  0
TEXT
  8
0
 10
13.4573
 20
41.2708
 40
1.5
  1
1
  7
HIGHWAYBPLUS
  0
TEXT
  8
0
 10
14.0415
 20
41.2708
 40
1.5
  1
8
  7
HIGHWAYBPLUS
  0
TEXT
  8
0
 10
14.8244
 20
41.2708
 40
1.5
  1
.
  7
HIGHWAYBPLUS
  0
TEXT
  8
0
 10
16.0119
 20
41.2708
 40
1.5
  1
F
  7
HIGHWAYBPLUS
  0
TEXT
  8
0
 10
16.6494
 20
41.2708
 40
1.5
  1
.
  7
HIGHWAYBPLUS
  0
TEXT
  8
0
 10
16.8369
 20
41.2708
 40
1.5
  1
S
  7
HIGHWAYBPLUS
  0
TEXT
  8
0
 10
17.6947
 20
41.2708
 40
1.5
  1
.
  7
HIGHWAYBPLUS
  0
TEXT
  8
0
 10
24.3258
 20
47.2708
 40
1.5
  1
V
  7
HIGHWAYBPLUS
  0
TEXT
  8
0
 10
25.2422
 20
47.2708
 40
1.5
  1
I
  7
HIGHWAYBPLUS
  0
TEXT
  8
0
 10
25.7092
 20
47.2708
 40
1.5
  1
O
  7
HIGHWAYBPLUS
  0
TEXT
  8
0
 10
26.6685
 20
47.2708
 40
1.5
  1
L
  7
HIGHWAYBPLUS
  0
TEXT
  8
0
 10
27.306
 20
47.2708
 40
1.5
  1
A
  7
HIGHWAYBPLUS
  0
TEXT
  8
0
 10
28.1778
 20
47.2708
 40
1.5
  1
T
  7
HIGHWAYBPLUS
  0
TEXT
  8
0
 10
28.9653
 20
47.2708
 40
1.5
  1
O
  7
HIGHWAYBPLUS
  0
TEXT
  8
0
 10
29.9246
 20
47.2708
 40
1.5
  1
R
  7
HIGHWAYBPLUS
  0
TEXT
  8
0
 10
30.7824
 20
47.2708
 40
1.5
  1
S
  7
HIGHWAYBPLUS
  0
TEXT
  8
0
 10
32.4152
 20
47.2708
 40
1.5
  1
A
  7
HIGHWAYBPLUS
  0
TEXT
  8
0
 10
33.4371
 20
47.2708
 40
1.5
  1
R
  7
HIGHWAYBPLUS
  0
TEXT
  8
0
 10
34.3494
 20
47.2708
 40
1.5
  1
E
  7
HIGHWAYBPLUS
  0
TEXT
  8
0
 10
35.9119
 20
47.2708
 40
1.5
  1
C
  7
HIGHWAYBPLUS
  0
TEXT
  8
0
 10
36.7697
 20
47.2708
 40
1.5
  1
O
  7
HIGHWAYBPLUS
  0
TEXT
  8
0
 10
37.729
 20
47.2708
 40
1.5
  1
M
  7
HIGHWAYBPLUS
  0
TEXT
  8
0
 10
38.7351
 20
47.2708
 40
1.5
  1
M
  7
HIGHWAYBPLUS
  0
TEXT
  8
0
 10
39.7412
 20
47.2708
 40
1.5
  1
I
  7
HIGHWAYBPLUS
  0
TEXT
  8
0
 10
40.1537
 20
47.2708
 40
1.5
  1
T
  7
HIGHWAYBPLUS
  0
TEXT
  8
0
 10
40.7912
 20
47.2708
 40
1.5
  1
T
  7
HIGHWAYBPLUS
  0
TEXT
  8
0
 10
41.5787
 20
47.2708
 40
1.5
  1
I
  7
HIGHWAYBPLUS
  0
TEXT
  8
0
 10
42.0457
 20
47.2708
 40
1.5
  1
N
  7
HIGHWAYBPLUS
  0
TEXT
  8
0
 10
42.9581
 20
47.2708
 40
1.5
  1
G
  7
HIGHWAYBPLUS
  0
TEXT
  8
0
 10
24.3258
 20
45.2708
 40
1.5
  1
A
  7
HIGHWAYBPLUS
  0
TEXT
  8
0
 10
31.9621
 20
45.2708
 40
1.5
  1
V
  7
HIGHWAYBPLUS
  0
TEXT
  8
0
 10
32.8785
 20
45.2708
 40
1.5
  1
I
  7
HIGHWAYBPLUS
  0
TEXT
  8
0
 10
33.3455
 20
45.2708
 40
1.5
  1
O
  7
HIGHWAYBPLUS
  0
TEXT
  8
0
 10
34.3048
 20
45.2708
 40
1.5
  1
L
  7
HIGHWAYBPLUS
  0
TEXT
  8
0
 10
34.9423
 20
45.2708
 40
1.5
  1
A
  7
HIGHWAYBPLUS
  0
TEXT
  8
0
 10
35.8141
 20
45.2708
 40
1.5
  1
T
  7
HIGHWAYBPLUS
  0
TEXT
  8
0
 10
36.6016
 20
45.2708
 40
1.5
  1
I
  7
HIGHWAYBPLUS
  0
TEXT
  8
0
 10
37.0687
 20
45.2708
 40
1.5
  1
O
  7
HIGHWAYBPLUS
  0
TEXT
  8
0
 10
38.0279
 20
45.2708
 40
1.5
  1
N
  7
HIGHWAYBPLUS
  0
TEXT
  8
0
 10
24.3258
 20
43.2708
 40
1.5
  1
P
  7
HIGHWAYBPLUS
  0
TEXT
  8
0
 10
25.2381
 20
43.2708
 40
1.5
  1
U
  7
HIGHWAYBPLUS
  0
TEXT
  8
0
 10
26.1505
 20
43.2708
 40
1.5
  1
N
  7
HIGHWAYBPLUS
  0
TEXT
  8
0
 10
27.0628
 20
43.2708
 40
1.5
  1
I
  7
HIGHWAYBPLUS
  0
TEXT
  8
0
 10
27.5299
 20
43.2708
 40
1.5
  1
S
  7
HIGHWAYBPLUS
  0
TEXT
  8
0
 10
28.4423
 20
43.2708
 40
1.5
  1
H
  7
HIGHWAYBPLUS
  0
TEXT
  8
0
 10
29.3001
 20
43.2708
 40
1.5
  1
A
  7
HIGHWAYBPLUS
  0
TEXT
  8
0
 10
30.3219
 20
43.2708
 40
1.5
  1
B
  7
HIGHWAYBPLUS
  0
TEXT
  8
0
 10
31.2343
 20
43.2708
 40
1.5
  1
L
  7
HIGHWAYBPLUS
  0
TEXT
  8
0
 10
32.0218
 20
43.2708
 40
1.5
  1
E
  7
HIGHWAYBPLUS
  0
TEXT
  8
0
 10
33.5843
 20
43.2708
 40
1.5
  1
A
  7
HIGHWAYBPLUS
  0
TEXT
  8
0
 10
34.6062
 20
43.2708
 40
1.5
  1
S
  7
HIGHWAYBPLUS
  0
TEXT
  8
0
 10
36.239
 20
43.2708
 40
1.5
  1
P
  7
HIGHWAYBPLUS
  0
TEXT
  8
0
 10
37.1513
 20
43.2708
 40
1.5
  1
R
  7
HIGHWAYBPLUS
  0
TEXT
  8
0
 10
38.0092
 20
43.2708
 40
1.5
  1
O
  7
HIGHWAYBPLUS
  0
TEXT
  8
0
 10
38.9138
 20
43.2708
 40
1.5
  1
V
  7
HIGHWAYBPLUS
  0
TEXT
  8
0
 10
39.8303
 20
43.2708
 40
1.5
  1
I
  7
HIGHWAYBPLUS
  0
TEXT
  8
0
 10
40.2973
 20
43.2708
 40
1.5
  1
D
  7
HIGHWAYBPLUS
  0
TEXT
  8
0
 10
41.2097
 20
43.2708
 40
1.5
  1
E
  7
HIGHWAYBPLUS
  0
TEXT
  8
0
 10
41.9972
 20
43.2708
 40
1.5
  1
D
  7
HIGHWAYBPLUS
  0
TEXT
  8
0
 10
24.3258
 20
41.2708
 40
1.5
  1
I
  7
HIGHWAYBPLUS
  0
TEXT
  8
0
 10
24.7928
 20
41.2708
 40
1.5
  1
N
  7
HIGHWAYBPLUS
  0
TEXT
  8
0
 10
26.4256
 20
41.2708
 40
1.5
  1
C
  7
HIGHWAYBPLUS
  0
TEXT
  8
0
 10
27.2835
 20
41.2708
 40
1.5
  1
H
  7
HIGHWAYBPLUS
  0
TEXT
  8
0
 10
28.1413
 20
41.2708
 40
1.5
  1
A
  7
HIGHWAYBPLUS
  0
TEXT
  8
0
 10
29.1631
 20
41.2708
 40
1.5
  1
P
  7
HIGHWAYBPLUS
  0
TEXT
  8
0
 10
30.021
 20
41.2708
 40
1.5
  1
T
  7
HIGHWAYBPLUS
  0
TEXT
  8
0
 10
30.8085
 20
41.2708
 40
1.5
  1
E
  7
HIGHWAYBPLUS
  0
TEXT
  8
0
 10
31.596
 20
41.2708
 40
1.5
  1
R
  7
HIGHWAYBPLUS
  0
TEXT
  8
0
 10
33.2288
 20
41.2708
 40
1.5
  1
3
  7
HIGHWAYBPLUS
  0
TEXT
  8
0
 10
34.1411
 20
41.2708
 40
1.5
  1
1
  7
HIGHWAYBPLUS
  0
TEXT
  8
0
 10
34.7253
 20
41.2708
 40
1.5
  1
8
  7
HIGHWAYBPLUS
  0
TEXT
  8
0
 10
35.5082
 20
41.2708
 40
1.5
  1
.
  7
HIGHWAYBPLUS
  0
TEXT
  8
0
 10
36.6957
 20
41.2708
 40
1.5
  1
F
  7
HIGHWAYBPLUS
  0
TEXT
  8
0
 10
37.3332
 20
41.2708
 40
1.5
  1
.
  7
HIGHWAYBPLUS
  0
TEXT
  8
0
 10
37.5207
 20
41.2708
 40
1.5
  1
S
  7
HIGHWAYBPLUS
  0
TEXT
  8
0
 10
38.3785
 20
41.2708
 40
1.5
  1
.
  7
HIGHWAYBPLUS
  0
TEXT
  8
0
 10
14.7204
 20
80.7708
 40
2.5
  1
F
  7
HIGHWAYCPLUS
  0
TEXT
  8
0
 10
16.3927
 20
80.7708
 40
2.5
  1
L
  7
HIGHWAYCPLUS
  0
TEXT
  8
0
 10
18.0649
 20
80.7708
 40
2.5
  1
O
  7
HIGHWAYCPLUS
  0
TEXT
  8
0
 10
20.0366
 20
80.7708
 40
2.5
  1
R
  7
HIGHWAYCPLUS
  0
TEXT
  8
0
 10
21.9302
 20
80.7708
 40
2.5
  1
I
  7
HIGHWAYCPLUS
  0
TEXT
  8
0
 10
22.8081
 20
80.7708
 40
2.5
  1
D
  7
HIGHWAYCPLUS
  0
TEXT
  8
0
 10
24.5975
 20
80.7708
 40
2.5
  1
A
  7
HIGHWAYCPLUS
  0
TEXT
  8
0
 10
26.16
 20
80.7708
 40
2.5
  1
 
  7
HIGHWAYCPLUS
  0
TEXT
  8
0
 10
28.66
 20
80.7708
 40
2.5
  1
L
  7
HIGHWAYCPLUS
  0
TEXT
  8
0
 10
30.0517
 20
80.7708
 40
2.5
  1
A
  7
HIGHWAYCPLUS
  0
TEXT
  8
0
 10
31.7558
 20
80.7708
 40
2.5
  1
W
  7
HIGHWAYCPLUS
  0
TEXT
  8
0
 10
3.642
 20
43.2708
 40
1.5
  1
P
  7
HIGHWAYBPLUS
  0
TEXT
  8
0
 10
4.5543
 20
43.2708
 40
1.5
  1
U
  7
HIGHWAYBPLUS
  0
TEXT
  8
0
 10
5.4667
 20
43.2708
 40
1.5
  1
N
  7
HIGHWAYBPLUS
  0
TEXT
  8
0
 10
6.379
 20
43.2708
 40
1.5
  1
I
  7
HIGHWAYBPLUS
  0
TEXT
  8
0
 10
6.8461
 20
43.2708
 40
1.5
  1
S
  7
HIGHWAYBPLUS
  0
TEXT
  8
0
 10
7.7584
 20
43.2708
 40
1.5
  1
H
  7
HIGHWAYBPLUS
  0
TEXT
  8
0
 10
8.6163
 20
43.2708
 40
1.5
  1
A
  7
HIGHWAYBPLUS
  0
TEXT
  8
0
 10
9.6381
 20
43.2708
 40
1.5
  1
B
  7
HIGHWAYBPLUS
  0
TEXT
  8
0
 10
10.5505
 20
43.2708
 40
1.5
  1
L
  7
HIGHWAYBPLUS
  0
TEXT
  8
0
 10
11.338
 20
43.2708
 40
1.5
  1
E
  7
HIGHWAYBPLUS
  0
TEXT
  8
0
 10
26.1227
 20
45.2708
 40
1.5
  1
M
  7
HIGHWAYBPLUS
  0
TEXT
  8
0
 10
27.1288
 20
45.2708
 40
1.5
  1
O
  7
HIGHWAYBPLUS
  0
TEXT
  8
0
 10
28.0334
 20
45.2708
 40
1.5
  1
V
  7
HIGHWAYBPLUS
  0
TEXT
  8
0
 10
28.9499
 20
45.2708
 40
1.5
  1
I
  7
HIGHWAYBPLUS
  0
TEXT
  8
0
 10
29.4169
 20
45.2708
 40
1.5
  1
N
  7
HIGHWAYBPLUS
  0
TEXT
  8
0
 10
30.3293
 20
45.2708
 40
1.5
  1
G
  7
HIGHWAYBPLUS
  0
TEXT
  8
0
 10
3.642
 20
41.2708
 40
1.5
  1
I
  7
HIGHWAYBPLUS
  0
TEXT
  8
0
 10
4.109
 20
41.2708
 40
1.5
  1
N
  7
HIGHWAYBPLUS
  0
TEXT
  8
0
 10
3.642
 20
54.2708
 40
1.5
  1
A
  7
HIGHWAYBPLUS
  0
TEXT
  8
0
 10
4.6638
 20
54.2708
 40
1.5
  1
G
  7
HIGHWAYBPLUS
  0
TEXT
  8
0
 10
5.5762
 20
54.2708
 40
1.5
  1
E
  7
HIGHWAYBPLUS
  0
ENDSEC
  0
EOF