  0
SECTION
  2
HEADER
  9
$ACADVER
  1
AC1009
  0
ENDSEC
  0
SECTION
  2
TABLES
  0
TABLE
  2
STYLE
 70
   4
  0
STYLE
  2
STANDARD
 70
    64
 40
0.0
 41
1.0
 50
0.0
 71
     0
 42
1.0
  3
txt
  4

  0
STYLE
  2
HIGHWAYEMOD2K
 70
    64
 40
0.0
 41
1.0
 50
0.0
 71
     0
 42
1.0
  3
Highway E Mod 2K
  4

  0
STYLE
  2
HIGHWAYSIGNCADPLUS
 70
    64
 40
0.0
 41
1.0
 50
0.0
 71
     0
 42
1.0
  3
Highway SignCAD Plus
  4

  0
STYLE
  2
HIGHWAYD2K
 70
    64
 40
0.0
 41
1.0
 50
0.0
 71
     0
 42
1.0
  3
Highway D 2K
  4

  0
ENDTAB
  0
ENDSEC
  0
SECTION
  2
ENTITIES
  0
ARC
  8
0
 10
207
 20
130
 40
3
 50
0
 51
90
  0
ARC
  8
0
 10
93
 20
130
 40
3
 50
90
 51
180
  0
POLYLINE
  8
0
 66
     1
 10
0
 20
0
  0
VERTEX
  8
0
 10
90
 20
115
  0
VERTEX
  8
0
 10
210
 20
115
  0
VERTEX
  8
0
 10
210
 20
130
  0
SEQEND
  0
POLYLINE
  8
0
 66
     1
 10
0
 20
0
  0
VERTEX
  8
0
 10
207
 20
133
  0
VERTEX
  8
0
 10
93
 20
133
  0
SEQEND
  0
POLYLINE
  8
0
 66
     1
 10
0
 20
0
  0
VERTEX
  8
0
 10
90
 20
130
  0
VERTEX
  8
0
 10
90
 20
115
  0
SEQEND
  0
ARC
  8
0
 10
207
 20
130
 40
2.25
 50
0
 51
90
  0
ARC
  8
0
 10
207
 20
130
 40
1
 50
0
 51
90
  0
ARC
  8
0
 10
93
 20
130
 40
2.25
 50
90
 51
180
  0
ARC
  8
0
 10
93
 20
130
 40
1
 50
90
 51
180
  0
POLYLINE
  8
0
 66
     1
 10
0
 20
0
  0
VERTEX
  8
0
 10
208
 20
115
  0
VERTEX
  8
0
 10
208
 20
130
  0
SEQEND
  0
POLYLINE
  8
0
 66
     1
 10
0
 20
0
  0
VERTEX
  8
0
 10
209.25
 20
130
  0
VERTEX
  8
0
 10
209.25
 20
115
  0
VERTEX
  8
0
 10
208
 20
115
  0
SEQEND
  0
POLYLINE
  8
0
 66
     1
 10
0
 20
0
  0
VERTEX
  8
0
 10
207
 20
131
  0
VERTEX
  8
0
 10
93
 20
131
  0
SEQEND
  0
POLYLINE
  8
0
 66
     1
 10
0
 20
0
  0
VERTEX
  8
0
 10
93
 20
132.25
  0
VERTEX
  8
0
 10
207
 20
132.25
  0
SEQEND
  0
POLYLINE
  8
0
 66
     1
 10
0
 20
0
  0
VERTEX
  8
0
 10
92
 20
130
  0
VERTEX
  8
0
 10
92
 20
115
  0
VERTEX
  8
0
 10
90.75
 20
115
  0
VERTEX
  8
0
 10
90.75
 20
130
  0
SEQEND
  0
TEXT
  8
0
 10
211.9
 20
129.6211
 40
0.8
  1
5.3
 50
90
  7
HIGHWAYSIGNCADPLUS
 72
1
 11
211.9
 21
130.375
  0
LINE
  8
0
 10
211.5
 20
131.3289
 11
211.5
 21
133
  0
LINE
  8
0
 10
211.6789
 20
132.6422
 11
211.5
 21
133
  0
LINE
  8
0
 10
211.3211
 20
132.6422
 11
211.5
 21
133
  0
LINE
  8
0
 10
211.7
 20
133
 11
210.5
 21
133
  0
LINE
  8
0
 10
211.5
 20
129.4211
 11
211.5
 21
127.75
  0
LINE
  8
0
 10
211.3211
 20
128.1078
 11
211.5
 21
127.75
  0
LINE
  8
0
 10
211.6789
 20
128.1078
 11
211.5
 21
127.75
  0
LINE
  8
0
 10
211.7
 20
127.75
 11
210.5
 21
127.75
  0
TEXT
  8
0
 10
211.9
 20
123.4757
 40
0.8
  1
8
 50
90
  7
HIGHWAYSIGNCADPLUS
 72
1
 11
211.9
 21
123.75
  0
LINE
  8
0
 10
211.5
 20
124.2243
 11
211.5
 21
127.75
  0
LINE
  8
0
 10
211.6789
 20
127.3922
 11
211.5
 21
127.75
  0
LINE
  8
0
 10
211.3211
 20
127.3922
 11
211.5
 21
127.75
  0
LINE
  8
0
 10
211.5
 20
123.2757
 11
211.5
 21
119.75
  0
LINE
  8
0
 10
211.3211
 20
120.1078
 11
211.5
 21
119.75
  0
LINE
  8
0
 10
211.6789
 20
120.1078
 11
211.5
 21
119.75
  0
LINE
  8
0
 10
211.7
 20
119.75
 11
210.5
 21
119.75
  0
TEXT
  8
0
 10
97.4034
 20
134.1
 40
0.8
  1
16.9
  7
HIGHWAYSIGNCADPLUS
 72
1
 11
98.44
 21
134.1
  0
LINE
  8
0
 10
99.6767
 20
134.5
 11
106.88
 21
134.5
  0
LINE
  8
0
 10
106.5222
 20
134.3211
 11
106.88
 21
134.5
  0
LINE
  8
0
 10
106.5222
 20
134.6789
 11
106.88
 21
134.5
  0
LINE
  8
0
 10
106.88
 20
134.7
 11
106.88
 21
133.5
  0
LINE
  8
0
 10
97.2034
 20
134.5
 11
90
 21
134.5
  0
LINE
  8
0
 10
90.3578
 20
134.6789
 11
90
 21
134.5
  0
LINE
  8
0
 10
90.3578
 20
134.3211
 11
90
 21
134.5
  0
LINE
  8
0
 10
90
 20
134.7
 11
90
 21
133.5
  0
TEXT
  8
0
 10
125.2057
 20
134.1
 40
0.8
  1
38.8
  7
HIGHWAYSIGNCADPLUS
 72
1
 11
126.28
 21
134.1
  0
LINE
  8
0
 10
127.5543
 20
134.5
 11
145.68
 21
134.5
  0
LINE
  8
0
 10
145.3222
 20
134.3211
 11
145.68
 21
134.5
  0
LINE
  8
0
 10
145.3222
 20
134.6789
 11
145.68
 21
134.5
  0
LINE
  8
0
 10
145.68
 20
134.7
 11
145.68
 21
133.5
  0
LINE
  8
0
 10
125.0057
 20
134.5
 11
106.88
 21
134.5
  0
LINE
  8
0
 10
107.2378
 20
134.6789
 11
106.88
 21
134.5
  0
LINE
  8
0
 10
107.2378
 20
134.3211
 11
106.88
 21
134.5
  0
TEXT
  8
0
 10
149.4056
 20
134.1
 40
0.8
  1
8
  7
HIGHWAYSIGNCADPLUS
 72
1
 11
149.68
 21
134.1
  0
LINE
  8
0
 10
150.1543
 20
134.5
 11
153.68
 21
134.5
  0
LINE
  8
0
 10
153.3222
 20
134.3211
 11
153.68
 21
134.5
  0
LINE
  8
0
 10
153.3222
 20
134.6789
 11
153.68
 21
134.5
  0
LINE
  8
0
 10
153.68
 20
134.7
 11
153.68
 21
133.5
  0
LINE
  8
0
 10
149.2056
 20
134.5
 11
145.68
 21
134.5
  0
LINE
  8
0
 10
146.0378
 20
134.6789
 11
145.68
 21
134.5
  0
LINE
  8
0
 10
146.0378
 20
134.3211
 11
145.68
 21
134.5
  0
TEXT
  8
0
 10
172.3277
 20
134.1
 40
0.8
  1
39.4
  7
HIGHWAYSIGNCADPLUS
 72
1
 11
173.4
 21
134.1
  0
LINE
  8
0
 10
174.6722
 20
134.5
 11
193.12
 21
134.5
  0
LINE
  8
0
 10
192.7622
 20
134.3211
 11
193.12
 21
134.5
  0
LINE
  8
0
 10
192.7622
 20
134.6789
 11
193.12
 21
134.5
  0
LINE
  8
0
 10
193.12
 20
134.7
 11
193.12
 21
133.5
  0
LINE
  8
0
 10
172.1277
 20
134.5
 11
153.68
 21
134.5
  0
LINE
  8
0
 10
154.0378
 20
134.6789
 11
153.68
 21
134.5
  0
LINE
  8
0
 10
154.0378
 20
134.3211
 11
153.68
 21
134.5
  0
TEXT
  8
0
 10
211.9
 20
117.2482
 40
0.8
  1
3.4
 50
90
  7
HIGHWAYSIGNCADPLUS
 72
1
 11
211.9
 21
118
  0
LINE
  8
0
 10
211.5
 20
118.9518
 11
211.5
 21
119.75
  0
LINE
  8
0
 10
211.6789
 20
119.3922
 11
211.5
 21
119.75
  0
LINE
  8
0
 10
211.3211
 20
119.3922
 11
211.5
 21
119.75
  0
LINE
  8
0
 10
211.5
 20
117.0482
 11
211.5
 21
116.25
  0
LINE
  8
0
 10
211.3211
 20
116.6078
 11
211.5
 21
116.25
  0
LINE
  8
0
 10
211.6789
 20
116.6078
 11
211.5
 21
116.25
  0
LINE
  8
0
 10
211.7
 20
116.25
 11
210.5
 21
116.25
  0
TEXT
  8
0
 10
212.9
 20
114.9109
 40
0.8
  1
1.3
 50
90
  7
HIGHWAYSIGNCADPLUS
 72
1
 11
212.9
 21
115.625
  0
LINE
  8
0
 10
211.5
 20
115.625
 11
211.5
 21
116.25
  0
LINE
  8
0
 10
211.6789
 20
115.8922
 11
211.5
 21
116.25
  0
LINE
  8
0
 10
211.3211
 20
115.8922
 11
211.5
 21
116.25
  0
LINE
  8
0
 10
211.5
 20
115.625
 11
211.5
 21
115
  0
LINE
  8
0
 10
211.3211
 20
115.3578
 11
211.5
 21
115
  0
LINE
  8
0
 10
211.6789
 20
115.3578
 11
211.5
 21
115
  0
LINE
  8
0
 10
211.7
 20
115
 11
210.5
 21
115
  0
TEXT
  8
0
 10
89.6211
 20
135.1
 40
0.8
  1
0.8
  7
HIGHWAYSIGNCADPLUS
 72
1
 11
90.375
 21
135.1
  0
LINE
  8
0
 10
90.75
 20
136.7
 11
90.75
 21
135.5
  0
LINE
  8
0
 10
90
 20
136.7
 11
90
 21
135.5
  0
TEXT
  8
0
 10
148.6429
 20
136.1
 40
0.8
  1
118.5
  7
HIGHWAYSIGNCADPLUS
 72
1
 11
150
 21
136.1
  0
LINE
  8
0
 10
151.5571
 20
136.5
 11
209.25
 21
136.5
  0
LINE
  8
0
 10
208.8922
 20
136.3211
 11
209.25
 21
136.5
  0
LINE
  8
0
 10
208.8922
 20
136.6789
 11
209.25
 21
136.5
  0
LINE
  8
0
 10
209.25
 20
136.7
 11
209.25
 21
135.5
  0
LINE
  8
0
 10
148.4429
 20
136.5
 11
90.75
 21
136.5
  0
LINE
  8
0
 10
91.1078
 20
136.6789
 11
90.75
 21
136.5
  0
LINE
  8
0
 10
91.1078
 20
136.3211
 11
90.75
 21
136.5
  0
TEXT
  8
0
 10
200.5233
 20
134.1
 40
0.8
  1
16.9
  7
HIGHWAYSIGNCADPLUS
 72
1
 11
201.56
 21
134.1
  0
LINE
  8
0
 10
202.7966
 20
134.5
 11
210
 21
134.5
  0
LINE
  8
0
 10
209.6422
 20
134.3211
 11
210
 21
134.5
  0
LINE
  8
0
 10
209.6422
 20
134.6789
 11
210
 21
134.5
  0
LINE
  8
0
 10
210
 20
134.7
 11
210
 21
133.5
  0
LINE
  8
0
 10
200.3233
 20
134.5
 11
193.12
 21
134.5
  0
LINE
  8
0
 10
193.4778
 20
134.6789
 11
193.12
 21
134.5
  0
LINE
  8
0
 10
193.4778
 20
134.3211
 11
193.12
 21
134.5
  0
LINE
  8
0
 10
193.12
 20
134.7
 11
193.12
 21
133.5
  0
TEXT
  8
0
 10
208.8732
 20
135.1
 40
0.8
  1
0.7
  7
HIGHWAYSIGNCADPLUS
 72
1
 11
209.625
 21
135.1
  0
LINE
  8
0
 10
210
 20
136.7
 11
210
 21
135.5
  0
LINE
  8
0
 10
209.25
 20
136.7
 11
209.25
 21
135.5
  0
TEXT
  8
0
 10
212.9
 20
114.7298
 40
0.8
  1
0
 50
90
  7
HIGHWAYSIGNCADPLUS
 72
1
 11
212.9
 21
115
  0
LINE
  8
0
 10
211.7
 20
115
 11
210.5
 21
115
  0
LINE
  8
0
 10
211.7
 20
115
 11
210.5
 21
115
  0
TEXT
  8
0
 10
213.9
 20
123.445
 40
0.8
  1
18
 50
90
  7
HIGHWAYSIGNCADPLUS
 72
1
 11
213.9
 21
124
  0
LINE
  8
0
 10
213.5
 20
124.755
 11
213.5
 21
133
  0
LINE
  8
0
 10
213.6789
 20
132.6422
 11
213.5
 21
133
  0
LINE
  8
0
 10
213.3211
 20
132.6422
 11
213.5
 21
133
  0
LINE
  8
0
 10
213.7
 20
133
 11
210.2
 21
133
  0
LINE
  8
0
 10
213.5
 20
123.245
 11
213.5
 21
115
  0
LINE
  8
0
 10
213.3211
 20
115.3578
 11
213.5
 21
115
  0
LINE
  8
0
 10
213.6789
 20
115.3578
 11
213.5
 21
115
  0
LINE
  8
0
 10
213.7
 20
115
 11
210.2
 21
115
  0
TEXT
  8
0
 10
149.1267
 20
138.1
 40
0.8
  1
120
  7
HIGHWAYSIGNCADPLUS
 72
1
 11
150
 21
138.1
  0
LINE
  8
0
 10
151.0733
 20
138.5
 11
210
 21
138.5
  0
LINE
  8
0
 10
209.6422
 20
138.3211
 11
210
 21
138.5
  0
LINE
  8
0
 10
209.6422
 20
138.6789
 11
210
 21
138.5
  0
LINE
  8
0
 10
210
 20
138.7
 11
210
 21
133.2
  0
LINE
  8
0
 10
148.9267
 20
138.5
 11
90
 21
138.5
  0
LINE
  8
0
 10
90.3578
 20
138.6789
 11
90
 21
138.5
  0
LINE
  8
0
 10
90.3578
 20
138.3211
 11
90
 21
138.5
  0
LINE
  8
0
 10
90
 20
138.7
 11
90
 21
133.2
  0
TEXT
  8
0
 10
90
 20
73.9
 40
0.8
  1
R16-4; 3.0" Radius, 1.3" Border, 0.8" Indent, Black on Yellow; 
  7
HIGHWAYSIGNCADPLUS
 73
1
 11
90
 21
73.5
  0
TEXT
  8
0
 10
90
 20
72.3
 40
0.8
  1
[FENDER BENDER] D 2K; 
  7
HIGHWAYSIGNCADPLUS
 73
1
 11
90
 21
71.9
  0
ARC
  8
0
 10
93
 20
82
 40
3
 50
180
 51
270
  0
ARC
  8
0
 10
207
 20
82
 40
3
 50
270
 51
360
  0
POLYLINE
  8
0
 66
     1
 10
0
 20
0
  0
VERTEX
  8
0
 10
93
 20
79
  0
VERTEX
  8
0
 10
207
 20
79
  0
SEQEND
  0
POLYLINE
  8
0
 66
     1
 10
0
 20
0
  0
VERTEX
  8
0
 10
210
 20
82
  0
VERTEX
  8
0
 10
210
 20
115
  0
VERTEX
  8
0
 10
90
 20
115
  0
VERTEX
  8
0
 10
90
 20
82
  0
SEQEND
  0
ARC
  8
0
 10
93
 20
82
 40
2.25
 50
180
 51
270
  0
ARC
  8
0
 10
93
 20
82
 40
1
 50
180
 51
270
  0
ARC
  8
0
 10
207
 20
82
 40
2.25
 50
270
 51
360
  0
ARC
  8
0
 10
207
 20
82
 40
1
 50
270
 51
360
  0
POLYLINE
  8
0
 66
     1
 10
0
 20
0
  0
VERTEX
  8
0
 10
93
 20
81
  0
VERTEX
  8
0
 10
207
 20
81
  0
SEQEND
  0
POLYLINE
  8
0
 66
     1
 10
0
 20
0
  0
VERTEX
  8
0
 10
207
 20
79.75
  0
VERTEX
  8
0
 10
93
 20
79.75
  0
SEQEND
  0
POLYLINE
  8
0
 66
     1
 10
0
 20
0
  0
VERTEX
  8
0
 10
208
 20
82
  0
VERTEX
  8
0
 10
208
 20
115
  0
VERTEX
  8
0
 10
209.25
 20
115
  0
VERTEX
  8
0
 10
209.25
 20
82
  0
SEQEND
  0
POLYLINE
  8
0
 66
     1
 10
0
 20
0
  0
VERTEX
  8
0
 10
92
 20
115
  0
VERTEX
  8
0
 10
92
 20
82
  0
SEQEND
  0
POLYLINE
  8
0
 66
     1
 10
0
 20
0
  0
VERTEX
  8
0
 10
90.75
 20
82
  0
VERTEX
  8
0
 10
90.75
 20
115
  0
VERTEX
  8
0
 10
92
 20
115
  0
SEQEND
  0
TEXT
  8
0
 10
211.9
 20
111.7194
 40
0.8
  1
6
 50
90
  7
HIGHWAYSIGNCADPLUS
 72
1
 11
211.9
 21
112
  0
LINE
  8
0
 10
211.5
 20
112.4806
 11
211.5
 21
115
  0
LINE
  8
0
 10
211.6789
 20
114.6422
 11
211.5
 21
115
  0
LINE
  8
0
 10
211.3211
 20
114.6422
 11
211.5
 21
115
  0
LINE
  8
0
 10
211.7
 20
115
 11
210.5
 21
115
  0
LINE
  8
0
 10
211.5
 20
111.5194
 11
211.5
 21
109
  0
LINE
  8
0
 10
211.3211
 20
109.3578
 11
211.5
 21
109
  0
LINE
  8
0
 10
211.6789
 20
109.3578
 11
211.5
 21
109
  0
LINE
  8
0
 10
211.7
 20
109
 11
210.5
 21
109
  0
TEXT
  8
0
 10
211.9
 20
104.7257
 40
0.8
  1
8
 50
90
  7
HIGHWAYSIGNCADPLUS
 72
1
 11
211.9
 21
105
  0
LINE
  8
0
 10
211.5
 20
105.4743
 11
211.5
 21
109
  0
LINE
  8
0
 10
211.6789
 20
108.6422
 11
211.5
 21
109
  0
LINE
  8
0
 10
211.3211
 20
108.6422
 11
211.5
 21
109
  0
LINE
  8
0
 10
211.5
 20
104.5257
 11
211.5
 21
101
  0
LINE
  8
0
 10
211.3211
 20
101.3578
 11
211.5
 21
101
  0
LINE
  8
0
 10
211.6789
 20
101.3578
 11
211.5
 21
101
  0
LINE
  8
0
 10
211.7
 20
101
 11
210.5
 21
101
  0
TEXT
  8
0
 10
98.3354
 20
77.1
 40
0.8
  1
18.7
  7
HIGHWAYSIGNCADPLUS
 72
1
 11
99.37
 21
77.1
  0
LINE
  8
0
 10
100.6046
 20
77.5
 11
108.74
 21
77.5
  0
LINE
  8
0
 10
108.3822
 20
77.3211
 11
108.74
 21
77.5
  0
LINE
  8
0
 10
108.3822
 20
77.6789
 11
108.74
 21
77.5
  0
LINE
  8
0
 10
108.74
 20
77.3
 11
108.74
 21
78.5
  0
LINE
  8
0
 10
98.1354
 20
77.5
 11
90
 21
77.5
  0
LINE
  8
0
 10
90.3578
 20
77.6789
 11
90
 21
77.5
  0
LINE
  8
0
 10
90.3578
 20
77.3211
 11
90
 21
77.5
  0
LINE
  8
0
 10
90
 20
77.3
 11
90
 21
78.5
  0
TEXT
  8
0
 10
121.621
 20
77.1
 40
0.8
  1
27
  7
HIGHWAYSIGNCADPLUS
 72
1
 11
122.22
 21
77.1
  0
LINE
  8
0
 10
123.019
 20
77.5
 11
135.7
 21
77.5
  0
LINE
  8
0
 10
135.3422
 20
77.3211
 11
135.7
 21
77.5
  0
LINE
  8
0
 10
135.3422
 20
77.6789
 11
135.7
 21
77.5
  0
LINE
  8
0
 10
135.7
 20
77.3
 11
135.7
 21
78.5
  0
LINE
  8
0
 10
121.421
 20
77.5
 11
108.74
 21
77.5
  0
LINE
  8
0
 10
109.0978
 20
77.6789
 11
108.74
 21
77.5
  0
LINE
  8
0
 10
109.0978
 20
77.3211
 11
108.74
 21
77.5
  0
TEXT
  8
0
 10
138.9319
 20
77.1
 40
0.8
  1
7
  7
HIGHWAYSIGNCADPLUS
 72
1
 11
139.2
 21
77.1
  0
LINE
  8
0
 10
139.6681
 20
77.5
 11
142.7
 21
77.5
  0
LINE
  8
0
 10
142.3422
 20
77.3211
 11
142.7
 21
77.5
  0
LINE
  8
0
 10
142.3422
 20
77.6789
 11
142.7
 21
77.5
  0
LINE
  8
0
 10
142.7
 20
77.3
 11
142.7
 21
78.5
  0
LINE
  8
0
 10
138.7319
 20
77.5
 11
135.7
 21
77.5
  0
LINE
  8
0
 10
136.0578
 20
77.6789
 11
135.7
 21
77.5
  0
LINE
  8
0
 10
136.0578
 20
77.3211
 11
135.7
 21
77.5
  0
TEXT
  8
0
 10
165.8847
 20
77.1
 40
0.8
  1
48.6
  7
HIGHWAYSIGNCADPLUS
 72
1
 11
166.98
 21
77.1
  0
LINE
  8
0
 10
168.2753
 20
77.5
 11
191.26
 21
77.5
  0
LINE
  8
0
 10
190.9022
 20
77.3211
 11
191.26
 21
77.5
  0
LINE
  8
0
 10
190.9022
 20
77.6789
 11
191.26
 21
77.5
  0
LINE
  8
0
 10
191.26
 20
77.3
 11
191.26
 21
78.5
  0
LINE
  8
0
 10
165.6847
 20
77.5
 11
142.7
 21
77.5
  0
LINE
  8
0
 10
143.0578
 20
77.6789
 11
142.7
 21
77.5
  0
LINE
  8
0
 10
143.0578
 20
77.3211
 11
142.7
 21
77.5
  0
TEXT
  8
0
 10
211.9
 20
97.7194
 40
0.8
  1
6
 50
90
  7
HIGHWAYSIGNCADPLUS
 72
1
 11
211.9
 21
98
  0
LINE
  8
0
 10
211.5
 20
98.4806
 11
211.5
 21
101
  0
LINE
  8
0
 10
211.6789
 20
100.6422
 11
211.5
 21
101
  0
LINE
  8
0
 10
211.3211
 20
100.6422
 11
211.5
 21
101
  0
LINE
  8
0
 10
211.5
 20
97.5194
 11
211.5
 21
95
  0
LINE
  8
0
 10
211.3211
 20
95.3578
 11
211.5
 21
95
  0
LINE
  8
0
 10
211.6789
 20
95.3578
 11
211.5
 21
95
  0
LINE
  8
0
 10
211.7
 20
95
 11
210.5
 21
95
  0
TEXT
  8
0
 10
211.9
 20
90.7257
 40
0.8
  1
8
 50
90
  7
HIGHWAYSIGNCADPLUS
 72
1
 11
211.9
 21
91
  0
LINE
  8
0
 10
211.5
 20
91.4743
 11
211.5
 21
95
  0
LINE
  8
0
 10
211.6789
 20
94.6422
 11
211.5
 21
95
  0
LINE
  8
0
 10
211.3211
 20
94.6422
 11
211.5
 21
95
  0
LINE
  8
0
 10
211.5
 20
90.5257
 11
211.5
 21
87
  0
LINE
  8
0
 10
211.3211
 20
87.3578
 11
211.5
 21
87
  0
LINE
  8
0
 10
211.6789
 20
87.3578
 11
211.5
 21
87
  0
LINE
  8
0
 10
211.7
 20
87
 11
210.5
 21
87
  0
TEXT
  8
0
 10
91.5914
 20
75.1
 40
0.8
  1
4.7
  7
HIGHWAYSIGNCADPLUS
 72
1
 11
92.36
 21
75.1
  0
LINE
  8
0
 10
93.3286
 20
75.5
 11
94.72
 21
75.5
  0
LINE
  8
0
 10
94.3622
 20
75.3211
 11
94.72
 21
75.5
  0
LINE
  8
0
 10
94.3622
 20
75.6789
 11
94.72
 21
75.5
  0
LINE
  8
0
 10
94.72
 20
75.3
 11
94.72
 21
76.5
  0
LINE
  8
0
 10
91.3914
 20
75.5
 11
90
 21
75.5
  0
LINE
  8
0
 10
90.3578
 20
75.6789
 11
90
 21
75.5
  0
LINE
  8
0
 10
90.3578
 20
75.3211
 11
90
 21
75.5
  0
LINE
  8
0
 10
90
 20
75.3
 11
90
 21
76.5
  0
TEXT
  8
0
 10
106.8773
 20
75.1
 40
0.8
  1
26.5
  7
HIGHWAYSIGNCADPLUS
 72
1
 11
107.96
 21
75.1
  0
LINE
  8
0
 10
109.2427
 20
75.5
 11
121.2
 21
75.5
  0
LINE
  8
0
 10
120.8422
 20
75.3211
 11
121.2
 21
75.5
  0
LINE
  8
0
 10
120.8422
 20
75.6789
 11
121.2
 21
75.5
  0
LINE
  8
0
 10
121.2
 20
75.3
 11
121.2
 21
76.5
  0
LINE
  8
0
 10
106.6773
 20
75.5
 11
94.72
 21
75.5
  0
LINE
  8
0
 10
95.0778
 20
75.6789
 11
94.72
 21
75.5
  0
LINE
  8
0
 10
95.0778
 20
75.3211
 11
94.72
 21
75.5
  0
TEXT
  8
0
 10
124.4319
 20
75.1
 40
0.8
  1
7
  7
HIGHWAYSIGNCADPLUS
 72
1
 11
124.7
 21
75.1
  0
LINE
  8
0
 10
125.1681
 20
75.5
 11
128.2
 21
75.5
  0
LINE
  8
0
 10
127.8422
 20
75.3211
 11
128.2
 21
75.5
  0
LINE
  8
0
 10
127.8422
 20
75.6789
 11
128.2
 21
75.5
  0
LINE
  8
0
 10
128.2
 20
75.3
 11
128.2
 21
76.5
  0
LINE
  8
0
 10
124.2319
 20
75.5
 11
121.2
 21
75.5
  0
LINE
  8
0
 10
121.5578
 20
75.6789
 11
121.2
 21
75.5
  0
LINE
  8
0
 10
121.5578
 20
75.3211
 11
121.2
 21
75.5
  0
TEXT
  8
0
 10
146.2452
 20
75.1
 40
0.8
  1
38.1
  7
HIGHWAYSIGNCADPLUS
 72
1
 11
147.24
 21
75.1
  0
LINE
  8
0
 10
148.4348
 20
75.5
 11
166.28
 21
75.5
  0
LINE
  8
0
 10
165.9222
 20
75.3211
 11
166.28
 21
75.5
  0
LINE
  8
0
 10
165.9222
 20
75.6789
 11
166.28
 21
75.5
  0
LINE
  8
0
 10
166.28
 20
75.3
 11
166.28
 21
76.5
  0
LINE
  8
0
 10
146.0452
 20
75.5
 11
128.2
 21
75.5
  0
LINE
  8
0
 10
128.5578
 20
75.6789
 11
128.2
 21
75.5
  0
LINE
  8
0
 10
128.5578
 20
75.3211
 11
128.2
 21
75.5
  0
TEXT
  8
0
 10
169.5119
 20
75.1
 40
0.8
  1
7
  7
HIGHWAYSIGNCADPLUS
 72
1
 11
169.78
 21
75.1
  0
LINE
  8
0
 10
170.2481
 20
75.5
 11
173.28
 21
75.5
  0
LINE
  8
0
 10
172.9222
 20
75.3211
 11
173.28
 21
75.5
  0
LINE
  8
0
 10
172.9222
 20
75.6789
 11
173.28
 21
75.5
  0
LINE
  8
0
 10
173.28
 20
75.3
 11
173.28
 21
76.5
  0
LINE
  8
0
 10
169.3119
 20
75.5
 11
166.28
 21
75.5
  0
LINE
  8
0
 10
166.6378
 20
75.6789
 11
166.28
 21
75.5
  0
LINE
  8
0
 10
166.6378
 20
75.3211
 11
166.28
 21
75.5
  0
TEXT
  8
0
 10
188.6936
 20
75.1
 40
0.8
  1
32
  7
HIGHWAYSIGNCADPLUS
 72
1
 11
189.28
 21
75.1
  0
LINE
  8
0
 10
190.0664
 20
75.5
 11
205.28
 21
75.5
  0
LINE
  8
0
 10
204.9222
 20
75.3211
 11
205.28
 21
75.5
  0
LINE
  8
0
 10
204.9222
 20
75.6789
 11
205.28
 21
75.5
  0
LINE
  8
0
 10
205.28
 20
75.3
 11
205.28
 21
76.5
  0
LINE
  8
0
 10
188.4936
 20
75.5
 11
173.28
 21
75.5
  0
LINE
  8
0
 10
173.6378
 20
75.6789
 11
173.28
 21
75.5
  0
LINE
  8
0
 10
173.6378
 20
75.3211
 11
173.28
 21
75.5
  0
TEXT
  8
0
 10
199.5955
 20
77.1
 40
0.8
  1
18.7
  7
HIGHWAYSIGNCADPLUS
 72
1
 11
200.63
 21
77.1
  0
LINE
  8
0
 10
201.8646
 20
77.5
 11
210
 21
77.5
  0
LINE
  8
0
 10
209.6422
 20
77.3211
 11
210
 21
77.5
  0
LINE
  8
0
 10
209.6422
 20
77.6789
 11
210
 21
77.5
  0
LINE
  8
0
 10
210
 20
77.3
 11
210
 21
78.5
  0
LINE
  8
0
 10
199.3954
 20
77.5
 11
191.26
 21
77.5
  0
LINE
  8
0
 10
191.6178
 20
77.6789
 11
191.26
 21
77.5
  0
LINE
  8
0
 10
191.6178
 20
77.3211
 11
191.26
 21
77.5
  0
LINE
  8
0
 10
191.26
 20
77.3
 11
191.26
 21
78.5
  0
TEXT
  8
0
 10
206.8714
 20
75.1
 40
0.8
  1
4.7
  7
HIGHWAYSIGNCADPLUS
 72
1
 11
207.64
 21
75.1
  0
LINE
  8
0
 10
208.6086
 20
75.5
 11
210
 21
75.5
  0
LINE
  8
0
 10
209.6422
 20
75.3211
 11
210
 21
75.5
  0
LINE
  8
0
 10
209.6422
 20
75.6789
 11
210
 21
75.5
  0
LINE
  8
0
 10
210
 20
75.3
 11
210
 21
76.5
  0
LINE
  8
0
 10
206.6714
 20
75.5
 11
205.28
 21
75.5
  0
LINE
  8
0
 10
205.6378
 20
75.6789
 11
205.28
 21
75.5
  0
LINE
  8
0
 10
205.6378
 20
75.3211
 11
205.28
 21
75.5
  0
LINE
  8
0
 10
205.28
 20
75.3
 11
205.28
 21
76.5
  0
TEXT
  8
0
 10
211.9
 20
82.7257
 40
0.8
  1
8
 50
90
  7
HIGHWAYSIGNCADPLUS
 72
1
 11
211.9
 21
83
  0
LINE
  8
0
 10
211.5
 20
83.4743
 11
211.5
 21
87
  0
LINE
  8
0
 10
211.6789
 20
86.6422
 11
211.5
 21
87
  0
LINE
  8
0
 10
211.3211
 20
86.6422
 11
211.5
 21
87
  0
LINE
  8
0
 10
211.7
 20
87
 11
210.5
 21
87
  0
LINE
  8
0
 10
211.5
 20
82.5257
 11
211.5
 21
79
  0
LINE
  8
0
 10
211.3211
 20
79.3578
 11
211.5
 21
79
  0
LINE
  8
0
 10
211.6789
 20
79.3578
 11
211.5
 21
79
  0
LINE
  8
0
 10
211.7
 20
79
 11
210.5
 21
79
  0
TEXT
  8
0
 10
213.9
 20
96.4031
 40
0.8
  1
36
 50
90
  7
HIGHWAYSIGNCADPLUS
 72
1
 11
213.9
 21
97
  0
LINE
  8
0
 10
213.5
 20
97.7969
 11
213.5
 21
115
  0
LINE
  8
0
 10
213.6789
 20
114.6422
 11
213.5
 21
115
  0
LINE
  8
0
 10
213.3211
 20
114.6422
 11
213.5
 21
115
  0
LINE
  8
0
 10
213.7
 20
115
 11
210.2
 21
115
  0
LINE
  8
0
 10
213.5
 20
96.2031
 11
213.5
 21
79
  0
LINE
  8
0
 10
213.3211
 20
79.3578
 11
213.5
 21
79
  0
LINE
  8
0
 10
213.6789
 20
79.3578
 11
213.5
 21
79
  0
LINE
  8
0
 10
213.7
 20
79
 11
210.2
 21
79
  0
TEXT
  8
0
 10
90
 20
70.7
 40
0.8
  1
3.0" Radius, 1.3" Border, 0.8" Indent, Black on White; 
  7
HIGHWAYSIGNCADPLUS
 73
1
 11
90
 21
70.3
  0
TEXT
  8
0
 10
90
 20
69.1
 40
0.8
  1
[MOVE VEHICLES] D 2K; [FROM TRAVEL LANES] D 2K; 
  7
HIGHWAYSIGNCADPLUS
 73
1
 11
90
 21
68.7
  0
POLYLINE
  8
0
 66
     1
 10
0
 20
0
  0
VERTEX
  8
0
 10
90.75
 20
116.25
  0
VERTEX
  8
0
 10
209.25
 20
116.25
  0
VERTEX
  8
0
 10
209.25
 20
115
  0
VERTEX
  8
0
 10
90.75
 20
115
  0
VERTEX
  8
0
 10
90.75
 20
116.25
  0
SEQEND
  0
TEXT
  8
0
 10
106.88
 20
119.75
 40
8
  1
F
  7
HIGHWAYD2K
  0
TEXT
  8
0
 10
113.04
 20
119.75
 40
8
  1
E
  7
HIGHWAYD2K
  0
TEXT
  8
0
 10
119.36
 20
119.75
 40
8
  1
N
  7
HIGHWAYD2K
  0
TEXT
  8
0
 10
126.72
 20
119.75
 40
8
  1
D
  7
HIGHWAYD2K
  0
TEXT
  8
0
 10
133.92
 20
119.75
 40
8
  1
E
  7
HIGHWAYD2K
  0
TEXT
  8
0
 10
140.24
 20
119.75
 40
8
  1
R
  7
HIGHWAYD2K
  0
TEXT
  8
0
 10
145.68
 20
119.75
 40
8
  1
 
  7
HIGHWAYD2K
  0
TEXT
  8
0
 10
153.68
 20
119.75
 40
8
  1
B
  7
HIGHWAYD2K
  0
TEXT
  8
0
 10
160.48
 20
119.75
 40
8
  1
E
  7
HIGHWAYD2K
  0
TEXT
  8
0
 10
166.8
 20
119.75
 40
8
  1
N
  7
HIGHWAYD2K
  0
TEXT
  8
0
 10
174.16
 20
119.75
 40
8
  1
D
  7
HIGHWAYD2K
  0
TEXT
  8
0
 10
181.36
 20
119.75
 40
8
  1
E
  7
HIGHWAYD2K
  0
TEXT
  8
0
 10
187.68
 20
119.75
 40
8
  1
R
  7
HIGHWAYD2K
  0
TEXT
  8
0
 10
108.74
 20
101
 40
8
  1
M
  7
HIGHWAYD2K
  0
TEXT
  8
0
 10
116.74
 20
101
 40
8
  1
O
  7
HIGHWAYD2K
  0
TEXT
  8
0
 10
123.46
 20
101
 40
8
  1
V
  7
HIGHWAYD2K
  0
TEXT
  8
0
 10
130.74
 20
101
 40
8
  1
E
  7
HIGHWAYD2K
  0
TEXT
  8
0
 10
135.7
 20
101.5
 40
7
  1
 
  7
HIGHWAYD2K
  0
TEXT
  8
0
 10
142.7
 20
101
 40
8
  1
V
  7
HIGHWAYD2K
  0
TEXT
  8
0
 10
149.98
 20
101
 40
8
  1
E
  7
HIGHWAYD2K
  0
TEXT
  8
0
 10
156.3
 20
101
 40
8
  1
H
  7
HIGHWAYD2K
  0
TEXT
  8
0
 10
163.66
 20
101
 40
8
  1
I
  7
HIGHWAYD2K
  0
TEXT
  8
0
 10
166.7
 20
101
 40
8
  1
C
  7
HIGHWAYD2K
  0
TEXT
  8
0
 10
173.9
 20
101
 40
8
  1
L
  7
HIGHWAYD2K
  0
TEXT
  8
0
 10
180.06
 20
101
 40
8
  1
E
  7
HIGHWAYD2K
  0
TEXT
  8
0
 10
185.82
 20
101
 40
8
  1
S
  7
HIGHWAYD2K
  0
TEXT
  8
0
 10
94.72
 20
87
 40
8
  1
F
  7
HIGHWAYD2K
  0
TEXT
  8
0
 10
100.88
 20
87
 40
8
  1
R
  7
HIGHWAYD2K
  0
TEXT
  8
0
 10
107.52
 20
87
 40
8
  1
O
  7
HIGHWAYD2K
  0
TEXT
  8
0
 10
114.96
 20
87
 40
8
  1
M
  7
HIGHWAYD2K
  0
TEXT
  8
0
 10
121.2
 20
87.5
 40
7
  1
 
  7
HIGHWAYD2K
  0
TEXT
  8
0
 10
128.2
 20
87
 40
8
  1
T
  7
HIGHWAYD2K
  0
TEXT
  8
0
 10
134.36
 20
87
 40
8
  1
R
  7
HIGHWAYD2K
  0
TEXT
  8
0
 10
140.44
 20
87
 40
8
  1
A
  7
HIGHWAYD2K
  0
TEXT
  8
0
 10
147.72
 20
87
 40
8
  1
V
  7
HIGHWAYD2K
  0
TEXT
  8
0
 10
155
 20
87
 40
8
  1
E
  7
HIGHWAYD2K
  0
TEXT
  8
0
 10
161.32
 20
87
 40
8
  1
L
  7
HIGHWAYD2K
  0
TEXT
  8
0
 10
166.28
 20
87.5
 40
7
  1
 
  7
HIGHWAYD2K
  0
TEXT
  8
0
 10
173.28
 20
87
 40
8
  1
L
  7
HIGHWAYD2K
  0
TEXT
  8
0
 10
178.72
 20
87
 40
8
  1
A
  7
HIGHWAYD2K
  0
TEXT
  8
0
 10
186.72
 20
87
 40
8
  1
N
  7
HIGHWAYD2K
  0
TEXT
  8
0
 10
194.08
 20
87
 40
8
  1
E
  7
HIGHWAYD2K
  0
TEXT
  8
0
 10
199.84
 20
87
 40
8
  1
S
  7
HIGHWAYD2K
  0
ENDSEC
  0
EOF