  0
SECTION
  2
HEADER
  9
$ACADVER
  1
AC1009
  0
ENDSEC
  0
SECTION
  2
TABLES
  0
TABLE
  2
STYLE
 70
   6
  0
STYLE
  2
STANDARD
 70
    64
 40
0.0
 41
1.0
 50
0.0
 71
     0
 42
1.0
  3
txt
  4

  0
STYLE
  2
HIGHWAYEMOD2K
 70
    64
 40
0.0
 41
1.0
 50
0.0
 71
     0
 42
1.0
  3
Highway E Mod 2K
  4

  0
STYLE
  2
HIGHWAYSIGNCADPLUS
 70
    64
 40
0.0
 41
1.0
 50
0.0
 71
     0
 42
1.0
  3
Highway SignCAD Plus
  4

  0
STYLE
  2
HIGHWAYC2K
 70
    64
 40
0.0
 41
1.0
 50
0.0
 71
     0
 42
1.0
  3
Highway C 2K
  4

  0
STYLE
  2
HIGHWAYD2K
 70
    64
 40
0.0
 41
1.0
 50
0.0
 71
     0
 42
1.0
  3
Highway D 2K
  4

  0
STYLE
  2
ARIAL
 70
    64
 40
0.0
 41
1.0
 50
0.0
 71
     0
 42
1.0
  3
Arial
  4

  0
ENDTAB
  0
ENDSEC
  0
SECTION
  2
ENTITIES
  0
TEXT
  8
0
 10
119.425
 20
86.0369
 40
1.3
  1
54
 50
90
  7
HIGHWAYSIGNCADPLUS
 72
1
 11
119.425
 21
87
  0
LINE
  8
0
 10
118.775
 20
88.2881
 11
118.775
 21
114
  0
LINE
  8
0
 10
119.0657
 20
113.4186
 11
118.775
 21
114
  0
LINE
  8
0
 10
118.4843
 20
113.4186
 11
118.775
 21
114
  0
LINE
  8
0
 10
119.1
 20
114
 11
116.6625
 21
114
  0
LINE
  8
0
 10
118.775
 20
85.7119
 11
118.775
 21
60
  0
LINE
  8
0
 10
118.4843
 20
60.5814
 11
118.775
 21
60
  0
LINE
  8
0
 10
119.0657
 20
60.5814
 11
118.775
 21
60
  0
LINE
  8
0
 10
119.1
 20
60
 11
116.6625
 21
60
  0
TEXT
  8
0
 10
80
 20
51.7125
 40
1.3
  1
RECOMMENDED FOR 40 MPH OR MORE; 
  7
HIGHWAYSIGNCADPLUS
 73
1
 11
80
 21
51.0625
  0
ARC
  8
0
 10
108.125
 20
70.125
 40
1.875
 50
0
 51
90
  0
LINE
  8
0
 10
108.125
 20
72
 11
81.875
 21
72
  0
ARC
  8
0
 10
81.875
 20
70.125
 40
1.875
 50
90
 51
180
  0
LINE
  8
0
 10
80
 20
70.125
 11
80
 21
61.875
  0
ARC
  8
0
 10
81.875
 20
61.875
 40
1.875
 50
180
 51
270
  0
LINE
  8
0
 10
81.875
 20
60
 11
108.125
 21
60
  0
ARC
  8
0
 10
108.125
 20
61.875
 40
1.875
 50
270
 51
360
  0
LINE
  8
0
 10
110
 20
61.875
 11
110
 21
70.125
  0
ARC
  8
0
 10
108.125
 20
70.125
 40
1.375
 50
0
 51
90
  0
ARC
  8
0
 10
108.125
 20
70.125
 40
0.625
 50
0
 51
90
  0
ARC
  8
0
 10
81.875
 20
70.125
 40
1.375
 50
90
 51
180
  0
ARC
  8
0
 10
81.875
 20
70.125
 40
0.625
 50
90
 51
180
  0
ARC
  8
0
 10
81.875
 20
61.875
 40
1.375
 50
180
 51
270
  0
ARC
  8
0
 10
81.875
 20
61.875
 40
0.625
 50
180
 51
270
  0
ARC
  8
0
 10
108.125
 20
61.875
 40
1.375
 50
270
 51
360
  0
ARC
  8
0
 10
108.125
 20
61.875
 40
0.625
 50
270
 51
360
  0
POLYLINE
  8
0
 66
     1
 10
0
 20
0
  0
VERTEX
  8
0
 10
108.125
 20
71.5
  0
VERTEX
  8
0
 10
81.875
 20
71.5
  0
SEQEND
  0
POLYLINE
  8
0
 66
     1
 10
0
 20
0
  0
VERTEX
  8
0
 10
81.875
 20
70.75
  0
VERTEX
  8
0
 10
108.125
 20
70.75
  0
SEQEND
  0
POLYLINE
  8
0
 66
     1
 10
0
 20
0
  0
VERTEX
  8
0
 10
80.5
 20
70.125
  0
VERTEX
  8
0
 10
80.5
 20
61.875
  0
SEQEND
  0
POLYLINE
  8
0
 66
     1
 10
0
 20
0
  0
VERTEX
  8
0
 10
81.25
 20
61.875
  0
VERTEX
  8
0
 10
81.25
 20
70.125
  0
SEQEND
  0
POLYLINE
  8
0
 66
     1
 10
0
 20
0
  0
VERTEX
  8
0
 10
81.875
 20
60.5
  0
VERTEX
  8
0
 10
108.125
 20
60.5
  0
SEQEND
  0
POLYLINE
  8
0
 66
     1
 10
0
 20
0
  0
VERTEX
  8
0
 10
108.125
 20
61.25
  0
VERTEX
  8
0
 10
81.875
 20
61.25
  0
SEQEND
  0
POLYLINE
  8
0
 66
     1
 10
0
 20
0
  0
VERTEX
  8
0
 10
109.5
 20
61.875
  0
VERTEX
  8
0
 10
109.5
 20
70.125
  0
SEQEND
  0
POLYLINE
  8
0
 66
     1
 10
0
 20
0
  0
VERTEX
  8
0
 10
108.75
 20
70.125
  0
VERTEX
  8
0
 10
108.75
 20
61.875
  0
SEQEND
  0
TEXT
  8
0
 10
114.7125
 20
69.1815
 40
1.3
  1
2.13
 50
90
  7
HIGHWAYSIGNCADPLUS
 72
1
 11
114.7125
 21
70.9375
  0
LINE
  8
0
 10
112.4375
 20
70.9375
 11
112.4375
 21
72
  0
LINE
  8
0
 10
112.7282
 20
71.4186
 11
112.4375
 21
72
  0
LINE
  8
0
 10
112.1468
 20
71.4186
 11
112.4375
 21
72
  0
LINE
  8
0
 10
112.7625
 20
72
 11
110.8125
 21
72
  0
LINE
  8
0
 10
112.4375
 20
70.9375
 11
112.4375
 21
69.875
  0
LINE
  8
0
 10
112.1468
 20
70.4564
 11
112.4375
 21
69.875
  0
LINE
  8
0
 10
112.7282
 20
70.4564
 11
112.4375
 21
69.875
  0
LINE
  8
0
 10
112.7625
 20
69.875
 11
110.8125
 21
69.875
  0
TEXT
  8
0
 10
113.0875
 20
67.936
 40
1.3
  1
3
 50
90
  7
HIGHWAYSIGNCADPLUS
 72
1
 11
113.0875
 21
68.375
  0
LINE
  8
0
 10
112.4375
 20
69.139
 11
112.4375
 21
69.875
  0
LINE
  8
0
 10
112.7282
 20
69.2936
 11
112.4375
 21
69.875
  0
LINE
  8
0
 10
112.1468
 20
69.2936
 11
112.4375
 21
69.875
  0
LINE
  8
0
 10
112.4375
 20
67.611
 11
112.4375
 21
66.875
  0
LINE
  8
0
 10
112.1468
 20
67.4564
 11
112.4375
 21
66.875
  0
LINE
  8
0
 10
112.7282
 20
67.4564
 11
112.4375
 21
66.875
  0
LINE
  8
0
 10
112.7625
 20
66.875
 11
110.8125
 21
66.875
  0
TEXT
  8
0
 10
81.1185
 20
56.9125
 40
1.3
  1
5.72
  7
HIGHWAYSIGNCADPLUS
 72
1
 11
82.8575
 21
56.9125
  0
LINE
  8
0
 10
84.9215
 20
57.5625
 11
85.715
 21
57.5625
  0
LINE
  8
0
 10
85.1336
 20
57.2718
 11
85.715
 21
57.5625
  0
LINE
  8
0
 10
85.1336
 20
57.8532
 11
85.715
 21
57.5625
  0
LINE
  8
0
 10
85.715
 20
57.2375
 11
85.715
 21
59.1875
  0
LINE
  8
0
 10
80.7935
 20
57.5625
 11
80
 21
57.5625
  0
LINE
  8
0
 10
80.5814
 20
57.8532
 11
80
 21
57.5625
  0
LINE
  8
0
 10
80.5814
 20
57.2718
 11
80
 21
57.5625
  0
LINE
  8
0
 10
80
 20
57.2375
 11
80
 21
59.1875
  0
TEXT
  8
0
 10
92.8016
 20
56.9125
 40
1.3
  1
18.57
  7
HIGHWAYSIGNCADPLUS
 72
1
 11
95
 21
56.9125
  0
LINE
  8
0
 10
97.5234
 20
57.5625
 11
104.285
 21
57.5625
  0
LINE
  8
0
 10
103.7036
 20
57.2718
 11
104.285
 21
57.5625
  0
LINE
  8
0
 10
103.7036
 20
57.8532
 11
104.285
 21
57.5625
  0
LINE
  8
0
 10
104.285
 20
57.2375
 11
104.285
 21
59.1875
  0
LINE
  8
0
 10
92.4766
 20
57.5625
 11
85.715
 21
57.5625
  0
LINE
  8
0
 10
86.2964
 20
57.8532
 11
85.715
 21
57.5625
  0
LINE
  8
0
 10
86.2964
 20
57.2718
 11
85.715
 21
57.5625
  0
TEXT
  8
0
 10
114.7125
 20
64.3188
 40
1.3
  1
1.75
 50
90
  7
HIGHWAYSIGNCADPLUS
 72
1
 11
114.7125
 21
66
  0
LINE
  8
0
 10
112.7625
 20
65.125
 11
110.8125
 21
65.125
  0
TEXT
  8
0
 10
113.0875
 20
63.186
 40
1.3
  1
3
 50
90
  7
HIGHWAYSIGNCADPLUS
 72
1
 11
113.0875
 21
63.625
  0
LINE
  8
0
 10
112.4375
 20
64.389
 11
112.4375
 21
65.125
  0
LINE
  8
0
 10
112.7282
 20
64.5436
 11
112.4375
 21
65.125
  0
LINE
  8
0
 10
112.1468
 20
64.5436
 11
112.4375
 21
65.125
  0
LINE
  8
0
 10
112.4375
 20
62.861
 11
112.4375
 21
62.125
  0
LINE
  8
0
 10
112.1468
 20
62.7064
 11
112.4375
 21
62.125
  0
LINE
  8
0
 10
112.7282
 20
62.7064
 11
112.4375
 21
62.125
  0
LINE
  8
0
 10
112.7625
 20
62.125
 11
110.8125
 21
62.125
  0
TEXT
  8
0
 10
80.4283
 20
53.6625
 40
1.3
  1
3.3
  7
HIGHWAYSIGNCADPLUS
 72
1
 11
81.65
 21
53.6625
  0
LINE
  8
0
 10
83.3
 20
53.9875
 11
83.3
 21
55.9375
  0
LINE
  8
0
 10
80
 20
53.9875
 11
80
 21
55.9375
  0
TEXT
  8
0
 10
86.4716
 20
53.6625
 40
1.3
  1
10.74
  7
HIGHWAYSIGNCADPLUS
 72
1
 11
88.67
 21
53.6625
  0
LINE
  8
0
 10
91.1934
 20
54.3125
 11
94.04
 21
54.3125
  0
LINE
  8
0
 10
93.4586
 20
54.0218
 11
94.04
 21
54.3125
  0
LINE
  8
0
 10
93.4586
 20
54.6032
 11
94.04
 21
54.3125
  0
LINE
  8
0
 10
94.04
 20
53.9875
 11
94.04
 21
55.9375
  0
LINE
  8
0
 10
86.1466
 20
54.3125
 11
83.3
 21
54.3125
  0
LINE
  8
0
 10
83.8814
 20
54.6032
 11
83.3
 21
54.3125
  0
LINE
  8
0
 10
83.8814
 20
54.0218
 11
83.3
 21
54.3125
  0
TEXT
  8
0
 10
95.101
 20
53.6625
 40
1.3
  1
3
  7
HIGHWAYSIGNCADPLUS
 72
1
 11
95.54
 21
53.6625
  0
LINE
  8
0
 10
96.304
 20
54.3125
 11
97.04
 21
54.3125
  0
LINE
  8
0
 10
96.4586
 20
54.0218
 11
97.04
 21
54.3125
  0
LINE
  8
0
 10
96.4586
 20
54.6032
 11
97.04
 21
54.3125
  0
LINE
  8
0
 10
97.04
 20
53.9875
 11
97.04
 21
55.9375
  0
LINE
  8
0
 10
94.776
 20
54.3125
 11
94.04
 21
54.3125
  0
LINE
  8
0
 10
94.6214
 20
54.6032
 11
94.04
 21
54.3125
  0
LINE
  8
0
 10
94.6214
 20
54.0218
 11
94.04
 21
54.3125
  0
TEXT
  8
0
 10
100.114
 20
53.6625
 40
1.3
  1
9.66
  7
HIGHWAYSIGNCADPLUS
 72
1
 11
101.87
 21
53.6625
  0
LINE
  8
0
 10
103.951
 20
54.3125
 11
106.7
 21
54.3125
  0
LINE
  8
0
 10
106.1186
 20
54.0218
 11
106.7
 21
54.3125
  0
LINE
  8
0
 10
106.1186
 20
54.6032
 11
106.7
 21
54.3125
  0
LINE
  8
0
 10
106.7
 20
53.9875
 11
106.7
 21
55.9375
  0
LINE
  8
0
 10
99.789
 20
54.3125
 11
97.04
 21
54.3125
  0
LINE
  8
0
 10
97.6214
 20
54.6032
 11
97.04
 21
54.3125
  0
LINE
  8
0
 10
97.6214
 20
54.0218
 11
97.04
 21
54.3125
  0
TEXT
  8
0
 10
105.5226
 20
56.9125
 40
1.3
  1
5.71
  7
HIGHWAYSIGNCADPLUS
 72
1
 11
107.1425
 21
56.9125
  0
LINE
  8
0
 10
109.0874
 20
57.5625
 11
110
 21
57.5625
  0
LINE
  8
0
 10
109.4186
 20
57.2718
 11
110
 21
57.5625
  0
LINE
  8
0
 10
109.4186
 20
57.8532
 11
110
 21
57.5625
  0
LINE
  8
0
 10
110
 20
57.2375
 11
110
 21
59.1875
  0
LINE
  8
0
 10
105.1976
 20
57.5625
 11
104.285
 21
57.5625
  0
LINE
  8
0
 10
104.8664
 20
57.8532
 11
104.285
 21
57.5625
  0
LINE
  8
0
 10
104.8664
 20
57.2718
 11
104.285
 21
57.5625
  0
LINE
  8
0
 10
104.285
 20
57.2375
 11
104.285
 21
59.1875
  0
TEXT
  8
0
 10
107.1283
 20
53.6625
 40
1.3
  1
3.3
  7
HIGHWAYSIGNCADPLUS
 72
1
 11
108.35
 21
53.6625
  0
LINE
  8
0
 10
110
 20
53.9875
 11
110
 21
55.9375
  0
LINE
  8
0
 10
106.7
 20
53.9875
 11
106.7
 21
55.9375
  0
TEXT
  8
0
 10
114.7125
 20
59.3133
 40
1.3
  1
2.12
 50
90
  7
HIGHWAYSIGNCADPLUS
 72
1
 11
114.7125
 21
61.0625
  0
LINE
  8
0
 10
112.4375
 20
61.0625
 11
112.4375
 21
62.125
  0
LINE
  8
0
 10
112.7282
 20
61.5436
 11
112.4375
 21
62.125
  0
LINE
  8
0
 10
112.1468
 20
61.5436
 11
112.4375
 21
62.125
  0
LINE
  8
0
 10
112.7625
 20
62.125
 11
110.8125
 21
62.125
  0
LINE
  8
0
 10
112.4375
 20
61.0625
 11
112.4375
 21
60
  0
LINE
  8
0
 10
112.1468
 20
60.5814
 11
112.4375
 21
60
  0
LINE
  8
0
 10
112.7282
 20
60.5814
 11
112.4375
 21
60
  0
LINE
  8
0
 10
112.7625
 20
60
 11
110.8125
 21
60
  0
TEXT
  8
0
 10
116.3375
 20
65.1118
 40
1.3
  1
12
 50
90
  7
HIGHWAYSIGNCADPLUS
 72
1
 11
116.3375
 21
66
  0
LINE
  8
0
 10
115.6875
 20
67.2132
 11
115.6875
 21
72
  0
LINE
  8
0
 10
115.9782
 20
71.4186
 11
115.6875
 21
72
  0
LINE
  8
0
 10
115.3968
 20
71.4186
 11
115.6875
 21
72
  0
LINE
  8
0
 10
116.0125
 20
72
 11
110.325
 21
72
  0
LINE
  8
0
 10
115.6875
 20
64.7868
 11
115.6875
 21
60
  0
LINE
  8
0
 10
115.3968
 20
60.5814
 11
115.6875
 21
60
  0
LINE
  8
0
 10
115.9782
 20
60.5814
 11
115.6875
 21
60
  0
LINE
  8
0
 10
116.0125
 20
60
 11
110.325
 21
60
  0
TEXT
  8
0
 10
80
 20
38.7125
 40
1.3
  1
AUXILLIARY PANEL; 
  7
HIGHWAYSIGNCADPLUS
 73
1
 11
80
 21
38.0625
  0
TEXT
  8
0
 10
80
 20
36.1125
 40
1.3
  1
1.88" Radius, 0.75" Border, 0.50" Indent, Black on White; 
  7
HIGHWAYSIGNCADPLUS
 73
1
 11
80
 21
35.4625
  0
TEXT
  8
0
 10
80
 20
33.5125
 40
1.3
  1
[INCLUDES] D 2K; 
  7
HIGHWAYSIGNCADPLUS
 73
1
 11
80
 21
32.8625
  0
TEXT
  8
0
 10
80
 20
30.9125
 40
1.3
  1
[RIGHT TURN] D 2K; 
  7
HIGHWAYSIGNCADPLUS
 73
1
 11
80
 21
30.2625
  0
ARC
  8
0
 10
108.125
 20
112.125
 40
1.875
 50
0
 51
90
  0
LINE
  8
0
 10
108.125
 20
114
 11
81.875
 21
114
  0
ARC
  8
0
 10
81.875
 20
112.125
 40
1.875
 50
90
 51
180
  0
LINE
  8
0
 10
80
 20
112.125
 11
80
 21
73.875
  0
ARC
  8
0
 10
81.875
 20
73.875
 40
1.875
 50
180
 51
270
  0
LINE
  8
0
 10
81.875
 20
72
 11
108.125
 21
72
  0
ARC
  8
0
 10
108.125
 20
73.875
 40
1.875
 50
270
 51
360
  0
LINE
  8
0
 10
110
 20
73.875
 11
110
 21
112.125
  0
ARC
  8
0
 10
108.125
 20
112.125
 40
1.375
 50
0
 51
90
  0
ARC
  8
0
 10
108.125
 20
112.125
 40
0.625
 50
0
 51
90
  0
ARC
  8
0
 10
81.875
 20
112.125
 40
1.375
 50
90
 51
180
  0
ARC
  8
0
 10
81.875
 20
112.125
 40
0.625
 50
90
 51
180
  0
ARC
  8
0
 10
81.875
 20
73.875
 40
1.375
 50
180
 51
270
  0
ARC
  8
0
 10
81.875
 20
73.875
 40
0.625
 50
180
 51
270
  0
ARC
  8
0
 10
108.125
 20
73.875
 40
1.375
 50
270
 51
360
  0
ARC
  8
0
 10
108.125
 20
73.875
 40
0.625
 50
270
 51
360
  0
POLYLINE
  8
0
 66
     1
 10
0
 20
0
  0
VERTEX
  8
0
 10
108.125
 20
113.5
  0
VERTEX
  8
0
 10
81.875
 20
113.5
  0
SEQEND
  0
POLYLINE
  8
0
 66
     1
 10
0
 20
0
  0
VERTEX
  8
0
 10
81.875
 20
112.75
  0
VERTEX
  8
0
 10
108.125
 20
112.75
  0
SEQEND
  0
POLYLINE
  8
0
 66
     1
 10
0
 20
0
  0
VERTEX
  8
0
 10
80.5
 20
112.125
  0
VERTEX
  8
0
 10
80.5
 20
73.875
  0
SEQEND
  0
POLYLINE
  8
0
 66
     1
 10
0
 20
0
  0
VERTEX
  8
0
 10
81.25
 20
73.875
  0
VERTEX
  8
0
 10
81.25
 20
112.125
  0
SEQEND
  0
POLYLINE
  8
0
 66
     1
 10
0
 20
0
  0
VERTEX
  8
0
 10
81.875
 20
72.5
  0
VERTEX
  8
0
 10
108.125
 20
72.5
  0
SEQEND
  0
POLYLINE
  8
0
 66
     1
 10
0
 20
0
  0
VERTEX
  8
0
 10
108.125
 20
73.25
  0
VERTEX
  8
0
 10
81.875
 20
73.25
  0
SEQEND
  0
POLYLINE
  8
0
 66
     1
 10
0
 20
0
  0
VERTEX
  8
0
 10
109.5
 20
73.875
  0
VERTEX
  8
0
 10
109.5
 20
112.125
  0
SEQEND
  0
POLYLINE
  8
0
 66
     1
 10
0
 20
0
  0
VERTEX
  8
0
 10
108.75
 20
112.125
  0
VERTEX
  8
0
 10
108.75
 20
73.875
  0
SEQEND
  0
TEXT
  8
0
 10
113.0875
 20
112.061
 40
1.3
  1
3
 50
90
  7
HIGHWAYSIGNCADPLUS
 72
1
 11
113.0875
 21
112.5
  0
LINE
  8
0
 10
112.4375
 20
113.264
 11
112.4375
 21
114
  0
LINE
  8
0
 10
112.7282
 20
113.4186
 11
112.4375
 21
114
  0
LINE
  8
0
 10
112.1468
 20
113.4186
 11
112.4375
 21
114
  0
LINE
  8
0
 10
112.7625
 20
114
 11
110.8125
 21
114
  0
LINE
  8
0
 10
112.4375
 20
111.736
 11
112.4375
 21
111
  0
LINE
  8
0
 10
112.1468
 20
111.5814
 11
112.4375
 21
111
  0
LINE
  8
0
 10
112.7282
 20
111.5814
 11
112.4375
 21
111
  0
LINE
  8
0
 10
112.7625
 20
111
 11
110.8125
 21
111
  0
TEXT
  8
0
 10
113.0875
 20
98.5267
 40
1.3
  1
23
 50
90
  7
HIGHWAYSIGNCADPLUS
 72
1
 11
113.0875
 21
99.5
  0
LINE
  8
0
 10
112.4375
 20
100.7983
 11
112.4375
 21
111
  0
LINE
  8
0
 10
112.7282
 20
110.4186
 11
112.4375
 21
111
  0
LINE
  8
0
 10
112.1468
 20
110.4186
 11
112.4375
 21
111
  0
LINE
  8
0
 10
112.4375
 20
98.2017
 11
112.4375
 21
88
  0
LINE
  8
0
 10
112.1468
 20
88.5814
 11
112.4375
 21
88
  0
LINE
  8
0
 10
112.7282
 20
88.5814
 11
112.4375
 21
88
  0
LINE
  8
0
 10
112.7625
 20
88
 11
110.8125
 21
88
  0
TEXT
  8
0
 10
83.1732
 20
115.7875
 40
1.3
  1
10.75
  7
HIGHWAYSIGNCADPLUS
 72
1
 11
85.375
 21
115.7875
  0
LINE
  8
0
 10
87.9018
 20
116.4375
 11
90.75
 21
116.4375
  0
LINE
  8
0
 10
90.1686
 20
116.1468
 11
90.75
 21
116.4375
  0
LINE
  8
0
 10
90.1686
 20
116.7282
 11
90.75
 21
116.4375
  0
LINE
  8
0
 10
90.75
 20
116.7625
 11
90.75
 21
114.8125
  0
LINE
  8
0
 10
82.8482
 20
116.4375
 11
80
 21
116.4375
  0
LINE
  8
0
 10
80.5814
 20
116.7282
 11
80
 21
116.4375
  0
LINE
  8
0
 10
80.5814
 20
116.1468
 11
80
 21
116.4375
  0
LINE
  8
0
 10
80
 20
116.7625
 11
80
 21
114.8125
  0
TEXT
  8
0
 10
93.7681
 20
115.7875
 40
1.3
  1
8.5
  7
HIGHWAYSIGNCADPLUS
 72
1
 11
95
 21
115.7875
  0
LINE
  8
0
 10
96.5569
 20
116.4375
 11
99.25
 21
116.4375
  0
LINE
  8
0
 10
98.6686
 20
116.1468
 11
99.25
 21
116.4375
  0
LINE
  8
0
 10
98.6686
 20
116.7282
 11
99.25
 21
116.4375
  0
LINE
  8
0
 10
99.25
 20
116.7625
 11
99.25
 21
114.8125
  0
LINE
  8
0
 10
93.4431
 20
116.4375
 11
90.75
 21
116.4375
  0
LINE
  8
0
 10
91.3314
 20
116.7282
 11
90.75
 21
116.4375
  0
LINE
  8
0
 10
91.3314
 20
116.1468
 11
90.75
 21
116.4375
  0
TEXT
  8
0
 10
114.7125
 20
85.1156
 40
1.3
  1
2.25
 50
90
  7
HIGHWAYSIGNCADPLUS
 72
1
 11
114.7125
 21
86.875
  0
LINE
  8
0
 10
112.4375
 20
86.875
 11
112.4375
 21
88
  0
LINE
  8
0
 10
112.7282
 20
87.4186
 11
112.4375
 21
88
  0
LINE
  8
0
 10
112.1468
 20
87.4186
 11
112.4375
 21
88
  0
LINE
  8
0
 10
112.4375
 20
86.875
 11
112.4375
 21
85.75
  0
LINE
  8
0
 10
112.1468
 20
86.3314
 11
112.4375
 21
85.75
  0
LINE
  8
0
 10
112.7282
 20
86.3314
 11
112.4375
 21
85.75
  0
LINE
  8
0
 10
112.7625
 20
85.75
 11
110.8125
 21
85.75
  0
TEXT
  8
0
 10
113.0875
 20
83.2838
 40
1.3
  1
4
 50
90
  7
HIGHWAYSIGNCADPLUS
 72
1
 11
113.0875
 21
83.75
  0
LINE
  8
0
 10
112.4375
 20
84.5412
 11
112.4375
 21
85.75
  0
LINE
  8
0
 10
112.7282
 20
85.1686
 11
112.4375
 21
85.75
  0
LINE
  8
0
 10
112.1468
 20
85.1686
 11
112.4375
 21
85.75
  0
LINE
  8
0
 10
112.4375
 20
82.9588
 11
112.4375
 21
81.75
  0
LINE
  8
0
 10
112.1468
 20
82.3314
 11
112.4375
 21
81.75
  0
LINE
  8
0
 10
112.7282
 20
82.3314
 11
112.4375
 21
81.75
  0
LINE
  8
0
 10
112.7625
 20
81.75
 11
110.8125
 21
81.75
  0
TEXT
  8
0
 10
81.7208
 20
119.0375
 40
1.3
  1
6.94
  7
HIGHWAYSIGNCADPLUS
 72
1
 11
83.47
 21
119.0375
  0
LINE
  8
0
 10
85.5442
 20
119.6875
 11
86.94
 21
119.6875
  0
LINE
  8
0
 10
86.3586
 20
119.3968
 11
86.94
 21
119.6875
  0
LINE
  8
0
 10
86.3586
 20
119.9782
 11
86.94
 21
119.6875
  0
LINE
  8
0
 10
86.94
 20
120.0125
 11
86.94
 21
118.0625
  0
LINE
  8
0
 10
81.3958
 20
119.6875
 11
80
 21
119.6875
  0
LINE
  8
0
 10
80.5814
 20
119.9782
 11
80
 21
119.6875
  0
LINE
  8
0
 10
80.5814
 20
119.3968
 11
80
 21
119.6875
  0
LINE
  8
0
 10
80
 20
120.0125
 11
80
 21
118.0625
  0
TEXT
  8
0
 10
92.8084
 20
119.0375
 40
1.3
  1
16.12
  7
HIGHWAYSIGNCADPLUS
 72
1
 11
95
 21
119.0375
  0
LINE
  8
0
 10
97.5166
 20
119.6875
 11
103.06
 21
119.6875
  0
LINE
  8
0
 10
102.4786
 20
119.3968
 11
103.06
 21
119.6875
  0
LINE
  8
0
 10
102.4786
 20
119.9782
 11
103.06
 21
119.6875
  0
LINE
  8
0
 10
103.06
 20
120.0125
 11
103.06
 21
118.0625
  0
LINE
  8
0
 10
92.4834
 20
119.6875
 11
86.94
 21
119.6875
  0
LINE
  8
0
 10
87.5214
 20
119.9782
 11
86.94
 21
119.6875
  0
LINE
  8
0
 10
87.5214
 20
119.3968
 11
86.94
 21
119.6875
  0
TEXT
  8
0
 10
114.7125
 20
79.2613
 40
1.3
  1
2.5
 50
90
  7
HIGHWAYSIGNCADPLUS
 72
1
 11
114.7125
 21
80.5
  0
LINE
  8
0
 10
112.4375
 20
80.5
 11
112.4375
 21
81.75
  0
LINE
  8
0
 10
112.7282
 20
81.1686
 11
112.4375
 21
81.75
  0
LINE
  8
0
 10
112.1468
 20
81.1686
 11
112.4375
 21
81.75
  0
LINE
  8
0
 10
112.4375
 20
80.5
 11
112.4375
 21
79.25
  0
LINE
  8
0
 10
112.1468
 20
79.8314
 11
112.4375
 21
79.25
  0
LINE
  8
0
 10
112.7282
 20
79.8314
 11
112.4375
 21
79.25
  0
LINE
  8
0
 10
112.7625
 20
79.25
 11
110.8125
 21
79.25
  0
TEXT
  8
0
 10
113.0875
 20
76.7838
 40
1.3
  1
4
 50
90
  7
HIGHWAYSIGNCADPLUS
 72
1
 11
113.0875
 21
77.25
  0
LINE
  8
0
 10
112.4375
 20
78.0412
 11
112.4375
 21
79.25
  0
LINE
  8
0
 10
112.7282
 20
78.6686
 11
112.4375
 21
79.25
  0
LINE
  8
0
 10
112.1468
 20
78.6686
 11
112.4375
 21
79.25
  0
LINE
  8
0
 10
112.4375
 20
76.4588
 11
112.4375
 21
75.25
  0
LINE
  8
0
 10
112.1468
 20
75.8314
 11
112.4375
 21
75.25
  0
LINE
  8
0
 10
112.7282
 20
75.8314
 11
112.4375
 21
75.25
  0
LINE
  8
0
 10
112.7625
 20
75.25
 11
110.8125
 21
75.25
  0
TEXT
  8
0
 10
79.414
 20
120.6625
 40
1.3
  1
2.34
  7
HIGHWAYSIGNCADPLUS
 72
1
 11
81.17
 21
120.6625
  0
LINE
  8
0
 10
81.17
 20
122.9375
 11
82.34
 21
122.9375
  0
LINE
  8
0
 10
81.7586
 20
122.6468
 11
82.34
 21
122.9375
  0
LINE
  8
0
 10
81.7586
 20
123.2282
 11
82.34
 21
122.9375
  0
LINE
  8
0
 10
82.34
 20
123.2625
 11
82.34
 21
121.3125
  0
LINE
  8
0
 10
81.17
 20
122.9375
 11
80
 21
122.9375
  0
LINE
  8
0
 10
80.5814
 20
123.2282
 11
80
 21
122.9375
  0
LINE
  8
0
 10
80.5814
 20
122.6468
 11
80
 21
122.9375
  0
LINE
  8
0
 10
80
 20
123.2625
 11
80
 21
121.3125
  0
TEXT
  8
0
 10
92.7301
 20
122.2875
 40
1.3
  1
25.32
  7
HIGHWAYSIGNCADPLUS
 72
1
 11
95
 21
122.2875
  0
LINE
  8
0
 10
97.5949
 20
122.9375
 11
107.66
 21
122.9375
  0
LINE
  8
0
 10
107.0786
 20
122.6468
 11
107.66
 21
122.9375
  0
LINE
  8
0
 10
107.0786
 20
123.2282
 11
107.66
 21
122.9375
  0
LINE
  8
0
 10
107.66
 20
123.2625
 11
107.66
 21
121.3125
  0
LINE
  8
0
 10
92.4051
 20
122.9375
 11
82.34
 21
122.9375
  0
LINE
  8
0
 10
82.9214
 20
123.2282
 11
82.34
 21
122.9375
  0
LINE
  8
0
 10
82.9214
 20
122.6468
 11
82.34
 21
122.9375
  0
TEXT
  8
0
 10
102.4232
 20
115.7875
 40
1.3
  1
10.75
  7
HIGHWAYSIGNCADPLUS
 72
1
 11
104.625
 21
115.7875
  0
LINE
  8
0
 10
107.1518
 20
116.4375
 11
110
 21
116.4375
  0
LINE
  8
0
 10
109.4186
 20
116.1468
 11
110
 21
116.4375
  0
LINE
  8
0
 10
109.4186
 20
116.7282
 11
110
 21
116.4375
  0
LINE
  8
0
 10
110
 20
116.7625
 11
110
 21
114.8125
  0
LINE
  8
0
 10
102.0982
 20
116.4375
 11
99.25
 21
116.4375
  0
LINE
  8
0
 10
99.8314
 20
116.7282
 11
99.25
 21
116.4375
  0
LINE
  8
0
 10
99.8314
 20
116.1468
 11
99.25
 21
116.4375
  0
LINE
  8
0
 10
99.25
 20
116.7625
 11
99.25
 21
114.8125
  0
TEXT
  8
0
 10
104.7808
 20
119.0375
 40
1.3
  1
6.94
  7
HIGHWAYSIGNCADPLUS
 72
1
 11
106.53
 21
119.0375
  0
LINE
  8
0
 10
108.6042
 20
119.6875
 11
110
 21
119.6875
  0
LINE
  8
0
 10
109.4186
 20
119.3968
 11
110
 21
119.6875
  0
LINE
  8
0
 10
109.4186
 20
119.9782
 11
110
 21
119.6875
  0
LINE
  8
0
 10
110
 20
120.0125
 11
110
 21
118.0625
  0
LINE
  8
0
 10
104.4558
 20
119.6875
 11
103.06
 21
119.6875
  0
LINE
  8
0
 10
103.6414
 20
119.9782
 11
103.06
 21
119.6875
  0
LINE
  8
0
 10
103.6414
 20
119.3968
 11
103.06
 21
119.6875
  0
LINE
  8
0
 10
103.06
 20
120.0125
 11
103.06
 21
118.0625
  0
TEXT
  8
0
 10
107.074
 20
120.6625
 40
1.3
  1
2.34
  7
HIGHWAYSIGNCADPLUS
 72
1
 11
108.83
 21
120.6625
  0
LINE
  8
0
 10
108.83
 20
122.9375
 11
110
 21
122.9375
  0
LINE
  8
0
 10
109.4186
 20
122.6468
 11
110
 21
122.9375
  0
LINE
  8
0
 10
109.4186
 20
123.2282
 11
110
 21
122.9375
  0
LINE
  8
0
 10
110
 20
123.2625
 11
110
 21
121.3125
  0
LINE
  8
0
 10
108.83
 20
122.9375
 11
107.66
 21
122.9375
  0
LINE
  8
0
 10
108.2414
 20
123.2282
 11
107.66
 21
122.9375
  0
LINE
  8
0
 10
108.2414
 20
122.6468
 11
107.66
 21
122.9375
  0
LINE
  8
0
 10
107.66
 20
123.2625
 11
107.66
 21
121.3125
  0
TEXT
  8
0
 10
114.7125
 20
71.8792
 40
1.3
  1
3.25
 50
90
  7
HIGHWAYSIGNCADPLUS
 72
1
 11
114.7125
 21
73.625
  0
LINE
  8
0
 10
112.4375
 20
73.625
 11
112.4375
 21
75.25
  0
LINE
  8
0
 10
112.7282
 20
74.6686
 11
112.4375
 21
75.25
  0
LINE
  8
0
 10
112.1468
 20
74.6686
 11
112.4375
 21
75.25
  0
LINE
  8
0
 10
112.7625
 20
75.25
 11
110.8125
 21
75.25
  0
LINE
  8
0
 10
112.4375
 20
73.625
 11
112.4375
 21
72
  0
LINE
  8
0
 10
112.1468
 20
72.5814
 11
112.4375
 21
72
  0
LINE
  8
0
 10
112.7282
 20
72.5814
 11
112.4375
 21
72
  0
LINE
  8
0
 10
112.7625
 20
72
 11
110.8125
 21
72
  0
TEXT
  8
0
 10
116.3375
 20
92.0199
 40
1.3
  1
42
 50
90
  7
HIGHWAYSIGNCADPLUS
 72
1
 11
116.3375
 21
93
  0
LINE
  8
0
 10
115.6875
 20
94.3051
 11
115.6875
 21
114
  0
LINE
  8
0
 10
115.9782
 20
113.4186
 11
115.6875
 21
114
  0
LINE
  8
0
 10
115.3968
 20
113.4186
 11
115.6875
 21
114
  0
LINE
  8
0
 10
116.0125
 20
114
 11
110.325
 21
114
  0
LINE
  8
0
 10
115.6875
 20
91.6949
 11
115.6875
 21
72
  0
LINE
  8
0
 10
115.3968
 20
72.5814
 11
115.6875
 21
72
  0
LINE
  8
0
 10
115.9782
 20
72.5814
 11
115.6875
 21
72
  0
LINE
  8
0
 10
116.0125
 20
72
 11
110.325
 21
72
  0
TEXT
  8
0
 10
94.0403
 20
125.5375
 40
1.3
  1
30
  7
HIGHWAYSIGNCADPLUS
 72
1
 11
95
 21
125.5375
  0
LINE
  8
0
 10
96.2847
 20
126.1875
 11
110
 21
126.1875
  0
LINE
  8
0
 10
109.4186
 20
125.8968
 11
110
 21
126.1875
  0
LINE
  8
0
 10
109.4186
 20
126.4782
 11
110
 21
126.1875
  0
LINE
  8
0
 10
110
 20
126.5125
 11
110
 21
114.325
  0
LINE
  8
0
 10
93.7153
 20
126.1875
 11
80
 21
126.1875
  0
LINE
  8
0
 10
80.5814
 20
126.4782
 11
80
 21
126.1875
  0
LINE
  8
0
 10
80.5814
 20
125.8968
 11
80
 21
126.1875
  0
LINE
  8
0
 10
80
 20
126.5125
 11
80
 21
114.325
  0
TEXT
  8
0
 10
80
 20
49.1125
 40
1.3
  1
R10-18a,  (IA-12)  MUTCD TRAFFIC PHOTO ENFORCED 12/10; 
  7
HIGHWAYSIGNCADPLUS
 73
1
 11
80
 21
48.4625
  0
TEXT
  8
0
 10
80
 20
46.5125
 40
1.3
  1
1.88" Radius, 0.75" Border, 0.50" Indent, Black on White; 
  7
HIGHWAYSIGNCADPLUS
 73
1
 11
80
 21
45.8625
  0
TEXT
  8
0
 10
80
 20
43.9125
 40
1.3
  1
[PHOTO] D 2K; 
  7
HIGHWAYSIGNCADPLUS
 73
1
 11
80
 21
43.2625
  0
TEXT
  8
0
 10
80
 20
41.3125
 40
1.3
  1
[ENFORCED] D 2K 80} spacing; 
  7
HIGHWAYSIGNCADPLUS
 73
1
 11
80
 21
40.6625
  0
TEXT
  8
0
 10
86.94
 20
81.75
 40
4
  1
P
  7
HIGHWAYD2K
  0
TEXT
  8
0
 10
90.26
 20
81.75
 40
4
  1
H
  7
HIGHWAYD2K
  0
TEXT
  8
0
 10
93.86
 20
81.75
 40
4
  1
O
  7
HIGHWAYD2K
  0
TEXT
  8
0
 10
97.22
 20
81.75
 40
4
  1
T
  7
HIGHWAYD2K
  0
TEXT
  8
0
 10
100.22
 20
81.75
 40
4
  1
O
  7
HIGHWAYD2K
  0
TEXT
  8
0
 10
85.715
 20
66.875
 40
3
  1
I
  7
HIGHWAYD2K
  0
TEXT
  8
0
 10
86.915
 20
66.875
 40
3
  1
N
  7
HIGHWAYD2K
  0
TEXT
  8
0
 10
89.615
 20
66.875
 40
3
  1
C
  7
HIGHWAYD2K
  0
TEXT
  8
0
 10
92.315
 20
66.875
 40
3
  1
L
  7
HIGHWAYD2K
  0
TEXT
  8
0
 10
94.625
 20
66.875
 40
3
  1
U
  7
HIGHWAYD2K
  0
TEXT
  8
0
 10
97.385
 20
66.875
 40
3
  1
D
  7
HIGHWAYD2K
  0
TEXT
  8
0
 10
100.085
 20
66.875
 40
3
  1
E
  7
HIGHWAYD2K
  0
TEXT
  8
0
 10
102.245
 20
66.875
 40
3
  1
S
  7
HIGHWAYD2K
  0
TEXT
  8
0
 10
83.3
 20
62.125
 40
3
  1
R
  7
HIGHWAYD2K
  0
TEXT
  8
0
 10
85.85
 20
62.125
 40
3
  1
I
  7
HIGHWAYD2K
  0
TEXT
  8
0
 10
86.99
 20
62.125
 40
3
  1
G
  7
HIGHWAYD2K
  0
TEXT
  8
0
 10
89.69
 20
62.125
 40
3
  1
H
  7
HIGHWAYD2K
  0
TEXT
  8
0
 10
92.18
 20
62.125
 40
3
  1
T
  7
HIGHWAYD2K
  0
TEXT
  8
0
 10
94.04
 20
62.125
 40
3
  1
 
  7
HIGHWAYD2K
  0
TEXT
  8
0
 10
97.04
 20
62.125
 40
3
  1
T
  7
HIGHWAYD2K
  0
TEXT
  8
0
 10
99.35
 20
62.125
 40
3
  1
U
  7
HIGHWAYD2K
  0
TEXT
  8
0
 10
102.11
 20
62.125
 40
3
  1
R
  7
HIGHWAYD2K
  0
TEXT
  8
0
 10
104.66
 20
62.125
 40
3
  1
N
  7
HIGHWAYD2K
  0
TEXT
  8
0
 10
82.34
 20
75.25
 40
4
  1
E
  7
HIGHWAYD2K
  0
TEXT
  8
0
 10
85.364
 20
75.25
 40
4
  1
N
  7
HIGHWAYD2K
  0
TEXT
  8
0
 10
88.852
 20
75.25
 40
4
  1
F
  7
HIGHWAYD2K
  0
TEXT
  8
0
 10
91.748
 20
75.25
 40
4
  1
O
  7
HIGHWAYD2K
  0
TEXT
  8
0
 10
95.292
 20
75.25
 40
4
  1
R
  7
HIGHWAYD2K
  0
TEXT
  8
0
 10
98.492
 20
75.25
 40
4
  1
C
  7
HIGHWAYD2K
  0
TEXT
  8
0
 10
101.916
 20
75.25
 40
4
  1
E
  7
HIGHWAYD2K
  0
TEXT
  8
0
 10
104.94
 20
75.25
 40
4
  1
D
  7
HIGHWAYD2K
  0
POLYLINE
  8
0
 66
     1
 10
0
 20
0
  0
VERTEX
  8
0
 10
99.25
 20
111
  0
VERTEX
  8
0
 10
90.75
 20
111
  0
VERTEX
  8
0
 10
90.75
 20
88
  0
VERTEX
  8
0
 10
99.25
 20
88
  0
VERTEX
  8
0
 10
99.25
 20
111
  0
SEQEND
  0
LINE
  8
0
 10
98.1159
 20
99.5288
 11
94.9708
 21
99.5288
  0
LINE
  8
0
 10
94.9708
 20
99.5288
 11
98.1159
 21
99.5288
  0
CIRCLE
  8
0
 10
94.9708
 20
99.5288
 40
3.14507
  0
LINE
  8
0
 10
98.1159
 20
106.8382
 11
94.9708
 21
106.8382
  0
LINE
  8
0
 10
94.9708
 20
106.8382
 11
98.1159
 21
106.8382
  0
CIRCLE
  8
0
 10
94.9708
 20
106.8382
 40
3.14507
  0
LINE
  8
0
 10
98.1159
 20
92.2194
 11
94.9708
 21
92.2194
  0
LINE
  8
0
 10
94.9708
 20
92.2194
 11
98.1159
 21
92.2194
  0
CIRCLE
  8
0
 10
94.9708
 20
92.2194
 40
3.14507
  0
ENDSEC
  0
EOF