  0
SECTION
  2
HEADER
  9
$ACADVER
  1
AC1009
  0
ENDSEC
  0
SECTION
  2
TABLES
  0
TABLE
  2
STYLE
 70
   5
  0
STYLE
  2
STANDARD
 70
    64
 40
0.0
 41
1.0
 50
0.0
 71
     0
 42
1.0
  3
txt
  4

  0
STYLE
  2
HIGHWAYEMODPLUS
 70
    64
 40
0.0
 41
1.0
 50
0.0
 71
     0
 42
1.0
  3
Highway E Mod Plus
  4

  0
STYLE
  2
HIGHWAYSIGNCADPLUS
 70
    64
 40
0.0
 41
1.0
 50
0.0
 71
     0
 42
1.0
  3
Highway SignCAD Plus
  4

  0
STYLE
  2
HIGHWAYCPLUS
 70
    64
 40
0.0
 41
1.0
 50
0.0
 71
     0
 42
1.0
  3
Highway C Plus
  4

  0
STYLE
  2
HIGHWAYDPLUS
 70
    64
 40
0.0
 41
1.0
 50
0.0
 71
     0
 42
1.0
  3
Highway D Plus
  4

  0
ENDTAB
  0
ENDSEC
  0
SECTION
  2
ENTITIES
  0
ARC
  8
0
 10
94.4187
 20
84.875
 40
1.5
 50
180
 51
270
  0
ARC
  8
0
 10
127.4187
 20
84.875
 40
1.5
 50
270
 51
360
  0
ARC
  8
0
 10
127.4187
 20
117.875
 40
1.5
 50
0
 51
90
  0
ARC
  8
0
 10
94.4187
 20
117.875
 40
1.5
 50
90
 51
180
  0
POLYLINE
  8
0
 66
     1
 10
0
 20
0
  0
VERTEX
  8
0
 10
94.4187
 20
83.375
  0
VERTEX
  8
0
 10
127.4187
 20
83.375
  0
SEQEND
  0
POLYLINE
  8
0
 66
     1
 10
0
 20
0
  0
VERTEX
  8
0
 10
128.9187
 20
84.875
  0
VERTEX
  8
0
 10
128.9187
 20
117.875
  0
SEQEND
  0
POLYLINE
  8
0
 66
     1
 10
0
 20
0
  0
VERTEX
  8
0
 10
127.4187
 20
119.375
  0
VERTEX
  8
0
 10
94.4187
 20
119.375
  0
SEQEND
  0
POLYLINE
  8
0
 66
     1
 10
0
 20
0
  0
VERTEX
  8
0
 10
92.9187
 20
117.875
  0
VERTEX
  8
0
 10
92.9187
 20
84.875
  0
SEQEND
  0
ARC
  8
0
 10
94.4187
 20
84.875
 40
1
 50
180
 51
270
  0
ARC
  8
0
 10
94.4187
 20
84.875
 40
0.25
 50
180
 51
270
  0
ARC
  8
0
 10
127.4187
 20
84.875
 40
1
 50
270
 51
360
  0
ARC
  8
0
 10
127.4187
 20
84.875
 40
0.25
 50
270
 51
360
  0
ARC
  8
0
 10
127.4187
 20
117.875
 40
1
 50
0
 51
90
  0
ARC
  8
0
 10
127.4187
 20
117.875
 40
0.25
 50
0
 51
90
  0
ARC
  8
0
 10
94.4187
 20
117.875
 40
1
 50
90
 51
180
  0
ARC
  8
0
 10
94.4187
 20
117.875
 40
0.25
 50
90
 51
180
  0
POLYLINE
  8
0
 66
     1
 10
0
 20
0
  0
VERTEX
  8
0
 10
94.4187
 20
84.625
  0
VERTEX
  8
0
 10
127.4187
 20
84.625
  0
SEQEND
  0
POLYLINE
  8
0
 66
     1
 10
0
 20
0
  0
VERTEX
  8
0
 10
127.4187
 20
83.875
  0
VERTEX
  8
0
 10
94.4187
 20
83.875
  0
SEQEND
  0
POLYLINE
  8
0
 66
     1
 10
0
 20
0
  0
VERTEX
  8
0
 10
127.6687
 20
84.875
  0
VERTEX
  8
0
 10
127.6687
 20
117.875
  0
SEQEND
  0
POLYLINE
  8
0
 66
     1
 10
0
 20
0
  0
VERTEX
  8
0
 10
128.4187
 20
117.875
  0
VERTEX
  8
0
 10
128.4187
 20
84.875
  0
SEQEND
  0
POLYLINE
  8
0
 66
     1
 10
0
 20
0
  0
VERTEX
  8
0
 10
127.4187
 20
118.125
  0
VERTEX
  8
0
 10
94.4187
 20
118.125
  0
SEQEND
  0
POLYLINE
  8
0
 66
     1
 10
0
 20
0
  0
VERTEX
  8
0
 10
94.4187
 20
118.875
  0
VERTEX
  8
0
 10
127.4187
 20
118.875
  0
SEQEND
  0
POLYLINE
  8
0
 66
     1
 10
0
 20
0
  0
VERTEX
  8
0
 10
94.1687
 20
117.875
  0
VERTEX
  8
0
 10
94.1687
 20
84.875
  0
SEQEND
  0
POLYLINE
  8
0
 66
     1
 10
0
 20
0
  0
VERTEX
  8
0
 10
93.4187
 20
84.875
  0
VERTEX
  8
0
 10
93.4187
 20
117.875
  0
SEQEND
  0
TEXT
  8
0
 10
132.4812
 20
117.3685
 40
1.5
  1
3
 50
90
  7
HIGHWAYSIGNCADPLUS
 72
1
 11
132.4812
 21
117.875
  0
LINE
  8
0
 10
132.1062
 20
119.375
 11
129.8562
 21
119.375
  0
LINE
  8
0
 10
132.1062
 20
116.375
 11
129.8562
 21
116.375
  0
TEXT
  8
0
 10
132.4812
 20
114.3685
 40
1.5
  1
3
 50
90
  7
HIGHWAYSIGNCADPLUS
 72
1
 11
132.4812
 21
114.875
  0
LINE
  8
0
 10
132.1062
 20
113.375
 11
129.8562
 21
113.375
  0
TEXT
  8
0
 10
94.9644
 20
79.8125
 40
1.5
  1
6.9
  7
HIGHWAYSIGNCADPLUS
 72
1
 11
96.3859
 21
79.8125
  0
LINE
  8
0
 10
98.1823
 20
80.5625
 11
99.853
 21
80.5625
  0
LINE
  8
0
 10
99.1822
 20
80.2271
 11
99.853
 21
80.5625
  0
LINE
  8
0
 10
99.1822
 20
80.8979
 11
99.853
 21
80.5625
  0
LINE
  8
0
 10
99.853
 20
80.1875
 11
99.853
 21
82.4375
  0
LINE
  8
0
 10
94.5894
 20
80.5625
 11
92.9187
 21
80.5625
  0
LINE
  8
0
 10
93.5896
 20
80.8979
 11
92.9187
 21
80.5625
  0
LINE
  8
0
 10
93.5896
 20
80.2271
 11
92.9187
 21
80.5625
  0
LINE
  8
0
 10
92.9187
 20
80.1875
 11
92.9187
 21
82.4375
  0
TEXT
  8
0
 10
101.3796
 20
79.8125
 40
1.5
  1
5.9
  7
HIGHWAYSIGNCADPLUS
 72
1
 11
102.7972
 21
79.8125
  0
LINE
  8
0
 10
104.5897
 20
80.5625
 11
105.7414
 21
80.5625
  0
LINE
  8
0
 10
105.0705
 20
80.2271
 11
105.7414
 21
80.5625
  0
LINE
  8
0
 10
105.0705
 20
80.8979
 11
105.7414
 21
80.5625
  0
LINE
  8
0
 10
105.7414
 20
80.1875
 11
105.7414
 21
82.4375
  0
LINE
  8
0
 10
101.0046
 20
80.5625
 11
99.853
 21
80.5625
  0
LINE
  8
0
 10
100.5238
 20
80.8979
 11
99.853
 21
80.5625
  0
LINE
  8
0
 10
100.5238
 20
80.2271
 11
99.853
 21
80.5625
  0
TEXT
  8
0
 10
106.7348
 20
79.8125
 40
1.5
  1
3
  7
HIGHWAYSIGNCADPLUS
 72
1
 11
107.2414
 21
79.8125
  0
LINE
  8
0
 10
108.7414
 20
80.1875
 11
108.7414
 21
82.4375
  0
TEXT
  8
0
 10
113.4231
 20
79.8125
 40
1.5
  1
13.3
  7
HIGHWAYSIGNCADPLUS
 72
1
 11
115.3629
 21
79.8125
  0
LINE
  8
0
 10
117.6777
 20
80.5625
 11
121.9845
 21
80.5625
  0
LINE
  8
0
 10
121.3137
 20
80.2271
 11
121.9845
 21
80.5625
  0
LINE
  8
0
 10
121.3137
 20
80.8979
 11
121.9845
 21
80.5625
  0
LINE
  8
0
 10
121.9845
 20
80.1875
 11
121.9845
 21
82.4375
  0
LINE
  8
0
 10
113.0481
 20
80.5625
 11
108.7414
 21
80.5625
  0
LINE
  8
0
 10
109.4122
 20
80.8979
 11
108.7414
 21
80.5625
  0
LINE
  8
0
 10
109.4122
 20
80.2271
 11
108.7414
 21
80.5625
  0
TEXT
  8
0
 10
132.4812
 20
111.8606
 40
1.5
  1
2
 50
90
  7
HIGHWAYSIGNCADPLUS
 72
1
 11
132.4812
 21
112.375
  0
LINE
  8
0
 10
132.1062
 20
111.375
 11
129.8562
 21
111.375
  0
TEXT
  8
0
 10
132.4812
 20
109.3685
 40
1.5
  1
3
 50
90
  7
HIGHWAYSIGNCADPLUS
 72
1
 11
132.4812
 21
109.875
  0
LINE
  8
0
 10
132.1062
 20
108.375
 11
129.8562
 21
108.375
  0
TEXT
  8
0
 10
93.9222
 20
76.0625
 40
1.5
  1
3
  7
HIGHWAYSIGNCADPLUS
 72
1
 11
94.4287
 21
76.0625
  0
LINE
  8
0
 10
95.9386
 20
76.4375
 11
95.9386
 21
78.6875
  0
LINE
  8
0
 10
92.9187
 20
76.4375
 11
92.9187
 21
78.6875
  0
TEXT
  8
0
 10
98.6881
 20
76.0625
 40
1.5
  1
8.1
  7
HIGHWAYSIGNCADPLUS
 72
1
 11
99.9565
 21
76.0625
  0
LINE
  8
0
 10
101.5998
 20
76.8125
 11
103.9743
 21
76.8125
  0
LINE
  8
0
 10
103.3034
 20
76.4771
 11
103.9743
 21
76.8125
  0
LINE
  8
0
 10
103.3034
 20
77.1479
 11
103.9743
 21
76.8125
  0
LINE
  8
0
 10
103.9743
 20
76.4375
 11
103.9743
 21
78.6875
  0
LINE
  8
0
 10
98.3131
 20
76.8125
 11
95.9386
 21
76.8125
  0
LINE
  8
0
 10
96.6095
 20
77.1479
 11
95.9386
 21
76.8125
  0
LINE
  8
0
 10
96.6095
 20
76.4771
 11
95.9386
 21
76.8125
  0
TEXT
  8
0
 10
104.9677
 20
76.0625
 40
1.5
  1
3
  7
HIGHWAYSIGNCADPLUS
 72
1
 11
105.4743
 21
76.0625
  0
LINE
  8
0
 10
106.9743
 20
76.4375
 11
106.9743
 21
78.6875
  0
TEXT
  8
0
 10
114.4928
 20
76.0625
 40
1.5
  1
18.9
  7
HIGHWAYSIGNCADPLUS
 72
1
 11
116.4366
 21
76.0625
  0
LINE
  8
0
 10
118.7553
 20
76.8125
 11
125.8989
 21
76.8125
  0
LINE
  8
0
 10
125.228
 20
76.4771
 11
125.8989
 21
76.8125
  0
LINE
  8
0
 10
125.228
 20
77.1479
 11
125.8989
 21
76.8125
  0
LINE
  8
0
 10
125.8989
 20
76.4375
 11
125.8989
 21
78.6875
  0
LINE
  8
0
 10
114.1178
 20
76.8125
 11
106.9743
 21
76.8125
  0
LINE
  8
0
 10
107.6451
 20
77.1479
 11
106.9743
 21
76.8125
  0
LINE
  8
0
 10
107.6451
 20
76.4771
 11
106.9743
 21
76.8125
  0
TEXT
  8
0
 10
132.4812
 20
106.8606
 40
1.5
  1
2
 50
90
  7
HIGHWAYSIGNCADPLUS
 72
1
 11
132.4812
 21
107.375
  0
LINE
  8
0
 10
132.1062
 20
106.375
 11
129.8562
 21
106.375
  0
TEXT
  8
0
 10
132.4812
 20
103.3606
 40
1.5
  1
5
 50
90
  7
HIGHWAYSIGNCADPLUS
 72
1
 11
132.4812
 21
103.875
  0
LINE
  8
0
 10
131.7312
 20
104.7644
 11
131.7312
 21
106.375
  0
LINE
  8
0
 10
132.0667
 20
105.7042
 11
131.7312
 21
106.375
  0
LINE
  8
0
 10
131.3958
 20
105.7042
 11
131.7312
 21
106.375
  0
LINE
  8
0
 10
131.7312
 20
102.9856
 11
131.7312
 21
101.375
  0
LINE
  8
0
 10
131.3958
 20
102.0458
 11
131.7312
 21
101.375
  0
LINE
  8
0
 10
132.0667
 20
102.0458
 11
131.7312
 21
101.375
  0
LINE
  8
0
 10
132.1062
 20
101.375
 11
129.8562
 21
101.375
  0
TEXT
  8
0
 10
96.423
 20
72.3125
 40
1.5
  1
9.8
  7
HIGHWAYSIGNCADPLUS
 72
1
 11
97.8366
 21
72.3125
  0
LINE
  8
0
 10
99.6252
 20
73.0625
 11
102.7545
 21
73.0625
  0
LINE
  8
0
 10
102.0837
 20
72.7271
 11
102.7545
 21
73.0625
  0
LINE
  8
0
 10
102.0837
 20
73.3979
 11
102.7545
 21
73.0625
  0
LINE
  8
0
 10
102.7545
 20
72.6875
 11
102.7545
 21
74.9375
  0
LINE
  8
0
 10
96.048
 20
73.0625
 11
92.9187
 21
73.0625
  0
LINE
  8
0
 10
93.5896
 20
73.3979
 11
92.9187
 21
73.0625
  0
LINE
  8
0
 10
93.5896
 20
72.7271
 11
92.9187
 21
73.0625
  0
LINE
  8
0
 10
92.9187
 20
72.6875
 11
92.9187
 21
74.9375
  0
TEXT
  8
0
 10
108.979
 20
72.3125
 40
1.5
  1
16.4
  7
HIGHWAYSIGNCADPLUS
 72
1
 11
110.9187
 21
72.3125
  0
LINE
  8
0
 10
113.2335
 20
73.0625
 11
119.083
 21
73.0625
  0
LINE
  8
0
 10
118.4122
 20
72.7271
 11
119.083
 21
73.0625
  0
LINE
  8
0
 10
118.4122
 20
73.3979
 11
119.083
 21
73.0625
  0
LINE
  8
0
 10
119.083
 20
72.6875
 11
119.083
 21
74.9375
  0
LINE
  8
0
 10
108.604
 20
73.0625
 11
102.7545
 21
73.0625
  0
LINE
  8
0
 10
103.4253
 20
73.3979
 11
102.7545
 21
73.0625
  0
LINE
  8
0
 10
103.4253
 20
72.7271
 11
102.7545
 21
73.0625
  0
TEXT
  8
0
 10
132.4812
 20
99.8606
 40
1.5
  1
2
 50
90
  7
HIGHWAYSIGNCADPLUS
 72
1
 11
132.4812
 21
100.375
  0
LINE
  8
0
 10
132.1062
 20
99.375
 11
129.8562
 21
99.375
  0
TEXT
  8
0
 10
132.4812
 20
97.3685
 40
1.5
  1
3
 50
90
  7
HIGHWAYSIGNCADPLUS
 72
1
 11
132.4812
 21
97.875
  0
LINE
  8
0
 10
132.1062
 20
96.375
 11
129.8562
 21
96.375
  0
TEXT
  8
0
 10
97.5895
 20
68.5625
 40
1.5
  1
13.2
  7
HIGHWAYSIGNCADPLUS
 72
1
 11
99.5215
 21
68.5625
  0
LINE
  8
0
 10
101.8284
 20
69.3125
 11
106.1242
 21
69.3125
  0
LINE
  8
0
 10
105.4533
 20
68.9771
 11
106.1242
 21
69.3125
  0
LINE
  8
0
 10
105.4533
 20
69.6479
 11
106.1242
 21
69.3125
  0
LINE
  8
0
 10
106.1242
 20
68.9375
 11
106.1242
 21
71.1875
  0
LINE
  8
0
 10
97.2145
 20
69.3125
 11
92.9187
 21
69.3125
  0
LINE
  8
0
 10
93.5896
 20
69.6479
 11
92.9187
 21
69.3125
  0
LINE
  8
0
 10
93.5896
 20
68.9771
 11
92.9187
 21
69.3125
  0
LINE
  8
0
 10
92.9187
 20
68.9375
 11
92.9187
 21
71.1875
  0
TEXT
  8
0
 10
109.4973
 20
68.5625
 40
1.5
  1
9.6
  7
HIGHWAYSIGNCADPLUS
 72
1
 11
110.9187
 21
68.5625
  0
LINE
  8
0
 10
112.7152
 20
69.3125
 11
115.7133
 21
69.3125
  0
LINE
  8
0
 10
115.0425
 20
68.9771
 11
115.7133
 21
69.3125
  0
LINE
  8
0
 10
115.0425
 20
69.6479
 11
115.7133
 21
69.3125
  0
LINE
  8
0
 10
115.7133
 20
68.9375
 11
115.7133
 21
71.1875
  0
LINE
  8
0
 10
109.1223
 20
69.3125
 11
106.1242
 21
69.3125
  0
LINE
  8
0
 10
106.795
 20
69.6479
 11
106.1242
 21
69.3125
  0
LINE
  8
0
 10
106.795
 20
68.9771
 11
106.1242
 21
69.3125
  0
TEXT
  8
0
 10
132.4812
 20
94.8606
 40
1.5
  1
2
 50
90
  7
HIGHWAYSIGNCADPLUS
 72
1
 11
132.4812
 21
95.375
  0
LINE
  8
0
 10
132.1062
 20
94.375
 11
129.8562
 21
94.375
  0
TEXT
  8
0
 10
132.4812
 20
92.3685
 40
1.5
  1
3
 50
90
  7
HIGHWAYSIGNCADPLUS
 72
1
 11
132.4812
 21
92.875
  0
LINE
  8
0
 10
132.1062
 20
91.375
 11
129.8562
 21
91.375
  0
TEXT
  8
0
 10
93.9392
 20
64.8125
 40
1.5
  1
4.9
  7
HIGHWAYSIGNCADPLUS
 72
1
 11
95.3842
 21
64.8125
  0
LINE
  8
0
 10
97.8497
 20
65.1875
 11
97.8497
 21
67.4375
  0
LINE
  8
0
 10
92.9187
 20
65.1875
 11
92.9187
 21
67.4375
  0
TEXT
  8
0
 10
102.2469
 20
64.8125
 40
1.5
  1
12.7
  7
HIGHWAYSIGNCADPLUS
 72
1
 11
104.1867
 21
64.8125
  0
LINE
  8
0
 10
106.5015
 20
65.5625
 11
110.5236
 21
65.5625
  0
LINE
  8
0
 10
109.8528
 20
65.2271
 11
110.5236
 21
65.5625
  0
LINE
  8
0
 10
109.8528
 20
65.8979
 11
110.5236
 21
65.5625
  0
LINE
  8
0
 10
110.5236
 20
65.1875
 11
110.5236
 21
67.4375
  0
LINE
  8
0
 10
101.8719
 20
65.5625
 11
97.8497
 21
65.5625
  0
LINE
  8
0
 10
98.5205
 20
65.8979
 11
97.8497
 21
65.5625
  0
LINE
  8
0
 10
98.5205
 20
65.2271
 11
97.8497
 21
65.5625
  0
TEXT
  8
0
 10
111.5171
 20
64.8125
 40
1.5
  1
3
  7
HIGHWAYSIGNCADPLUS
 72
1
 11
112.0236
 21
64.8125
  0
LINE
  8
0
 10
113.5236
 20
65.1875
 11
113.5236
 21
67.4375
  0
TEXT
  8
0
 10
116.812
 20
64.8125
 40
1.5
  1
10.5
  7
HIGHWAYSIGNCADPLUS
 72
1
 11
118.7557
 21
64.8125
  0
LINE
  8
0
 10
121.0744
 20
65.5625
 11
123.9878
 21
65.5625
  0
LINE
  8
0
 10
123.317
 20
65.2271
 11
123.9878
 21
65.5625
  0
LINE
  8
0
 10
123.317
 20
65.8979
 11
123.9878
 21
65.5625
  0
LINE
  8
0
 10
123.9878
 20
65.1875
 11
123.9878
 21
67.4375
  0
LINE
  8
0
 10
116.437
 20
65.5625
 11
113.5236
 21
65.5625
  0
LINE
  8
0
 10
114.1945
 20
65.8979
 11
113.5236
 21
65.5625
  0
LINE
  8
0
 10
114.1945
 20
65.2271
 11
113.5236
 21
65.5625
  0
TEXT
  8
0
 10
132.4812
 20
89.8606
 40
1.5
  1
2
 50
90
  7
HIGHWAYSIGNCADPLUS
 72
1
 11
132.4812
 21
90.375
  0
LINE
  8
0
 10
132.1062
 20
89.375
 11
129.8562
 21
89.375
  0
TEXT
  8
0
 10
132.4812
 20
87.3685
 40
1.5
  1
3
 50
90
  7
HIGHWAYSIGNCADPLUS
 72
1
 11
132.4812
 21
87.875
  0
LINE
  8
0
 10
132.1062
 20
86.375
 11
129.8562
 21
86.375
  0
TEXT
  8
0
 10
92.7166
 20
59.1875
 40
1.5
  1
2.5
  7
HIGHWAYSIGNCADPLUS
 72
1
 11
94.1459
 21
59.1875
  0
LINE
  8
0
 10
94.1459
 20
61.8125
 11
95.3731
 21
61.8125
  0
LINE
  8
0
 10
94.7023
 20
61.4771
 11
95.3731
 21
61.8125
  0
LINE
  8
0
 10
94.7023
 20
62.1479
 11
95.3731
 21
61.8125
  0
LINE
  8
0
 10
95.3731
 20
61.4375
 11
95.3731
 21
63.6875
  0
LINE
  8
0
 10
94.1459
 20
61.8125
 11
92.9187
 21
61.8125
  0
LINE
  8
0
 10
93.5896
 20
62.1479
 11
92.9187
 21
61.8125
  0
LINE
  8
0
 10
93.5896
 20
61.4771
 11
92.9187
 21
61.8125
  0
LINE
  8
0
 10
92.9187
 20
61.4375
 11
92.9187
 21
63.6875
  0
TEXT
  8
0
 10
98.1024
 20
61.0625
 40
1.5
  1
8.2
  7
HIGHWAYSIGNCADPLUS
 72
1
 11
99.5081
 21
61.0625
  0
LINE
  8
0
 10
101.2889
 20
61.8125
 11
103.6431
 21
61.8125
  0
LINE
  8
0
 10
102.9723
 20
61.4771
 11
103.6431
 21
61.8125
  0
LINE
  8
0
 10
102.9723
 20
62.1479
 11
103.6431
 21
61.8125
  0
LINE
  8
0
 10
103.6431
 20
61.4375
 11
103.6431
 21
63.6875
  0
LINE
  8
0
 10
97.7274
 20
61.8125
 11
95.3731
 21
61.8125
  0
LINE
  8
0
 10
96.0439
 20
62.1479
 11
95.3731
 21
61.8125
  0
LINE
  8
0
 10
96.0439
 20
61.4771
 11
95.3731
 21
61.8125
  0
TEXT
  8
0
 10
104.6366
 20
61.0625
 40
1.5
  1
3
  7
HIGHWAYSIGNCADPLUS
 72
1
 11
105.1431
 21
61.0625
  0
LINE
  8
0
 10
106.6431
 20
61.4375
 11
106.6431
 21
63.6875
  0
TEXT
  8
0
 10
108.1085
 20
61.0625
 40
1.5
  1
4
  7
HIGHWAYSIGNCADPLUS
 72
1
 11
108.6465
 21
61.0625
  0
LINE
  8
0
 10
109.5594
 20
61.8125
 11
110.6498
 21
61.8125
  0
LINE
  8
0
 10
109.979
 20
61.4771
 11
110.6498
 21
61.8125
  0
LINE
  8
0
 10
109.979
 20
62.1479
 11
110.6498
 21
61.8125
  0
LINE
  8
0
 10
110.6498
 20
61.4375
 11
110.6498
 21
63.6875
  0
LINE
  8
0
 10
107.7335
 20
61.8125
 11
106.6431
 21
61.8125
  0
LINE
  8
0
 10
107.3139
 20
62.1479
 11
106.6431
 21
61.8125
  0
LINE
  8
0
 10
107.3139
 20
61.4771
 11
106.6431
 21
61.8125
  0
TEXT
  8
0
 10
111.6432
 20
61.0625
 40
1.5
  1
3
  7
HIGHWAYSIGNCADPLUS
 72
1
 11
112.1498
 21
61.0625
  0
LINE
  8
0
 10
113.6498
 20
61.4375
 11
113.6498
 21
63.6875
  0
TEXT
  8
0
 10
118.1134
 20
61.0625
 40
1.5
  1
12.8
  7
HIGHWAYSIGNCADPLUS
 72
1
 11
120.0571
 21
61.0625
  0
LINE
  8
0
 10
122.3758
 20
61.8125
 11
126.4644
 21
61.8125
  0
LINE
  8
0
 10
125.7936
 20
61.4771
 11
126.4644
 21
61.8125
  0
LINE
  8
0
 10
125.7936
 20
62.1479
 11
126.4644
 21
61.8125
  0
LINE
  8
0
 10
126.4644
 20
61.4375
 11
126.4644
 21
63.6875
  0
LINE
  8
0
 10
117.7384
 20
61.8125
 11
113.6498
 21
61.8125
  0
LINE
  8
0
 10
114.3206
 20
62.1479
 11
113.6498
 21
61.8125
  0
LINE
  8
0
 10
114.3206
 20
61.4771
 11
113.6498
 21
61.8125
  0
TEXT
  8
0
 10
124.0301
 20
79.8125
 40
1.5
  1
6.9
  7
HIGHWAYSIGNCADPLUS
 72
1
 11
125.4516
 21
79.8125
  0
LINE
  8
0
 10
127.2481
 20
80.5625
 11
128.9187
 21
80.5625
  0
LINE
  8
0
 10
128.2479
 20
80.2271
 11
128.9187
 21
80.5625
  0
LINE
  8
0
 10
128.2479
 20
80.8979
 11
128.9187
 21
80.5625
  0
LINE
  8
0
 10
128.9187
 20
80.1875
 11
128.9187
 21
82.4375
  0
LINE
  8
0
 10
123.6551
 20
80.5625
 11
121.9845
 21
80.5625
  0
LINE
  8
0
 10
122.6553
 20
80.8979
 11
121.9845
 21
80.5625
  0
LINE
  8
0
 10
122.6553
 20
80.2271
 11
121.9845
 21
80.5625
  0
LINE
  8
0
 10
121.9845
 20
80.1875
 11
121.9845
 21
82.4375
  0
TEXT
  8
0
 10
126.9023
 20
76.0625
 40
1.5
  1
3
  7
HIGHWAYSIGNCADPLUS
 72
1
 11
127.4088
 21
76.0625
  0
LINE
  8
0
 10
128.9187
 20
76.4375
 11
128.9187
 21
78.6875
  0
LINE
  8
0
 10
125.8989
 20
76.4375
 11
125.8989
 21
78.6875
  0
TEXT
  8
0
 10
122.5872
 20
72.3125
 40
1.5
  1
9.8
  7
HIGHWAYSIGNCADPLUS
 72
1
 11
124.0009
 21
72.3125
  0
LINE
  8
0
 10
125.7895
 20
73.0625
 11
128.9187
 21
73.0625
  0
LINE
  8
0
 10
128.2479
 20
72.7271
 11
128.9187
 21
73.0625
  0
LINE
  8
0
 10
128.2479
 20
73.3979
 11
128.9187
 21
73.0625
  0
LINE
  8
0
 10
128.9187
 20
72.6875
 11
128.9187
 21
74.9375
  0
LINE
  8
0
 10
122.2122
 20
73.0625
 11
119.083
 21
73.0625
  0
LINE
  8
0
 10
119.7538
 20
73.3979
 11
119.083
 21
73.0625
  0
LINE
  8
0
 10
119.7538
 20
72.7271
 11
119.083
 21
73.0625
  0
LINE
  8
0
 10
119.083
 20
72.6875
 11
119.083
 21
74.9375
  0
TEXT
  8
0
 10
120.3841
 20
68.5625
 40
1.5
  1
13.2
  7
HIGHWAYSIGNCADPLUS
 72
1
 11
122.316
 21
68.5625
  0
LINE
  8
0
 10
124.623
 20
69.3125
 11
128.9187
 21
69.3125
  0
LINE
  8
0
 10
128.2479
 20
68.9771
 11
128.9187
 21
69.3125
  0
LINE
  8
0
 10
128.2479
 20
69.6479
 11
128.9187
 21
69.3125
  0
LINE
  8
0
 10
128.9187
 20
68.9375
 11
128.9187
 21
71.1875
  0
LINE
  8
0
 10
120.0091
 20
69.3125
 11
115.7133
 21
69.3125
  0
LINE
  8
0
 10
116.3841
 20
69.6479
 11
115.7133
 21
69.3125
  0
LINE
  8
0
 10
116.3841
 20
68.9771
 11
115.7133
 21
69.3125
  0
LINE
  8
0
 10
115.7133
 20
68.9375
 11
115.7133
 21
71.1875
  0
TEXT
  8
0
 10
125.0083
 20
64.8125
 40
1.5
  1
4.9
  7
HIGHWAYSIGNCADPLUS
 72
1
 11
126.4533
 21
64.8125
  0
LINE
  8
0
 10
128.9187
 20
65.1875
 11
128.9187
 21
67.4375
  0
LINE
  8
0
 10
123.9878
 20
65.1875
 11
123.9878
 21
67.4375
  0
TEXT
  8
0
 10
126.2622
 20
59.1875
 40
1.5
  1
2.5
  7
HIGHWAYSIGNCADPLUS
 72
1
 11
127.6916
 21
59.1875
  0
LINE
  8
0
 10
127.6916
 20
61.8125
 11
128.9187
 21
61.8125
  0
LINE
  8
0
 10
128.2479
 20
61.4771
 11
128.9187
 21
61.8125
  0
LINE
  8
0
 10
128.2479
 20
62.1479
 11
128.9187
 21
61.8125
  0
LINE
  8
0
 10
128.9187
 20
61.4375
 11
128.9187
 21
63.6875
  0
LINE
  8
0
 10
127.6916
 20
61.8125
 11
126.4644
 21
61.8125
  0
LINE
  8
0
 10
127.1352
 20
62.1479
 11
126.4644
 21
61.8125
  0
LINE
  8
0
 10
127.1352
 20
61.4771
 11
126.4644
 21
61.8125
  0
LINE
  8
0
 10
126.4644
 20
61.4375
 11
126.4644
 21
63.6875
  0
TEXT
  8
0
 10
132.4812
 20
84.3685
 40
1.5
  1
3
 50
90
  7
HIGHWAYSIGNCADPLUS
 72
1
 11
132.4812
 21
84.875
  0
LINE
  8
0
 10
132.1062
 20
86.375
 11
129.8562
 21
86.375
  0
LINE
  8
0
 10
132.1062
 20
83.375
 11
129.8562
 21
83.375
  0
TEXT
  8
0
 10
136.2312
 20
100.2559
 40
1.5
  1
36
 50
90
  7
HIGHWAYSIGNCADPLUS
 72
1
 11
136.2312
 21
101.375
  0
LINE
  8
0
 10
135.4812
 20
102.8691
 11
135.4812
 21
119.375
  0
LINE
  8
0
 10
135.8167
 20
118.7042
 11
135.4812
 21
119.375
  0
LINE
  8
0
 10
135.1458
 20
118.7042
 11
135.4812
 21
119.375
  0
LINE
  8
0
 10
135.8562
 20
119.375
 11
129.2937
 21
119.375
  0
LINE
  8
0
 10
135.4812
 20
99.8809
 11
135.4812
 21
83.375
  0
LINE
  8
0
 10
135.1458
 20
84.0458
 11
135.4812
 21
83.375
  0
LINE
  8
0
 10
135.8167
 20
84.0458
 11
135.4812
 21
83.375
  0
LINE
  8
0
 10
135.8562
 20
83.375
 11
129.2937
 21
83.375
  0
TEXT
  8
0
 10
109.7996
 20
57.3125
 40
1.5
  1
36
  7
HIGHWAYSIGNCADPLUS
 72
1
 11
110.9187
 21
57.3125
  0
LINE
  8
0
 10
112.4129
 20
58.0625
 11
128.9187
 21
58.0625
  0
LINE
  8
0
 10
128.2479
 20
57.7271
 11
128.9187
 21
58.0625
  0
LINE
  8
0
 10
128.2479
 20
58.3979
 11
128.9187
 21
58.0625
  0
LINE
  8
0
 10
128.9187
 20
57.6875
 11
128.9187
 21
83
  0
LINE
  8
0
 10
109.4246
 20
58.0625
 11
92.9187
 21
58.0625
  0
LINE
  8
0
 10
93.5896
 20
58.3979
 11
92.9187
 21
58.0625
  0
LINE
  8
0
 10
93.5896
 20
57.7271
 11
92.9187
 21
58.0625
  0
LINE
  8
0
 10
92.9187
 20
57.6875
 11
92.9187
 21
83
  0
TEXT
  8
0
 10
92.9187
 20
55.0625
 40
1.5
  1
SSD20 802350; 
  7
HIGHWAYSIGNCADPLUS
 73
1
 11
92.9187
 21
54.3125
  0
TEXT
  8
0
 10
92.9187
 20
52.0625
 40
1.5
  1
1.5" Radius, 0.8" Border, 0.5" Indent, Black on White; 
  7
HIGHWAYSIGNCADPLUS
 73
1
 11
92.9187
 21
51.3125
  0
TEXT
  8
0
 10
92.9187
 20
49.0625
 40
1.5
  1
[ALL TRAFFIC] C; 
  7
HIGHWAYSIGNCADPLUS
 73
1
 11
92.9187
 21
48.3125
  0
TEXT
  8
0
 10
92.9187
 20
46.0625
 40
1.5
  1
[BOTH DIRECTIONS] C; 
  7
HIGHWAYSIGNCADPLUS
 73
1
 11
92.9187
 21
45.3125
  0
TEXT
  8
0
 10
92.9187
 20
43.0625
 40
1.5
  1
[STOP] D; [WHILE] C; 
  7
HIGHWAYSIGNCADPLUS
 73
1
 11
92.9187
 21
42.3125
  0
TEXT
  8
0
 10
92.9187
 20
40.0625
 40
1.5
  1
[SCHOOL BUSES] C; 
  7
HIGHWAYSIGNCADPLUS
 73
1
 11
92.9187
 21
39.3125
  0
TEXT
  8
0
 10
92.9187
 20
37.0625
 40
1.5
  1
[LOAD OR UNLOAD] C; 
  7
HIGHWAYSIGNCADPLUS
 73
1
 11
92.9187
 21
36.3125
  0
TEXT
  8
0
 10
99.853
 20
113.375
 40
3
  1
A
  7
HIGHWAYCPLUS
  0
TEXT
  8
0
 10
102.2347
 20
113.375
 40
3
  1
L
  7
HIGHWAYCPLUS
  0
TEXT
  8
0
 10
104.2414
 20
113.375
 40
3
  1
L
  7
HIGHWAYCPLUS
  0
TEXT
  8
0
 10
105.7414
 20
113.375
 40
3
  1
 
  7
HIGHWAYCPLUS
  0
TEXT
  8
0
 10
108.7414
 20
113.375
 40
3
  1
T
  7
HIGHWAYCPLUS
  0
TEXT
  8
0
 10
110.748
 20
113.375
 40
3
  1
R
  7
HIGHWAYCPLUS
  0
TEXT
  8
0
 10
112.8953
 20
113.375
 40
3
  1
A
  7
HIGHWAYCPLUS
  0
TEXT
  8
0
 10
115.277
 20
113.375
 40
3
  1
F
  7
HIGHWAYCPLUS
  0
TEXT
  8
0
 10
117.2836
 20
113.375
 40
3
  1
F
  7
HIGHWAYCPLUS
  0
TEXT
  8
0
 10
119.2903
 20
113.375
 40
3
  1
I
  7
HIGHWAYCPLUS
  0
TEXT
  8
0
 10
120.3439
 20
113.375
 40
3
  1
C
  7
HIGHWAYCPLUS
  0
TEXT
  8
0
 10
95.9386
 20
108.375
 40
3
  1
B
  7
HIGHWAYCPLUS
  0
TEXT
  8
0
 10
98.0859
 20
108.375
 40
3
  1
O
  7
HIGHWAYCPLUS
  0
TEXT
  8
0
 10
100.327
 20
108.375
 40
3
  1
T
  7
HIGHWAYCPLUS
  0
TEXT
  8
0
 10
102.3336
 20
108.375
 40
3
  1
H
  7
HIGHWAYCPLUS
  0
TEXT
  8
0
 10
103.9743
 20
108.375
 40
3
  1
 
  7
HIGHWAYCPLUS
  0
TEXT
  8
0
 10
106.9743
 20
108.375
 40
3
  1
D
  7
HIGHWAYCPLUS
  0
TEXT
  8
0
 10
109.2466
 20
108.375
 40
3
  1
I
  7
HIGHWAYCPLUS
  0
TEXT
  8
0
 10
110.3001
 20
108.375
 40
3
  1
R
  7
HIGHWAYCPLUS
  0
TEXT
  8
0
 10
112.5724
 20
108.375
 40
3
  1
E
  7
HIGHWAYCPLUS
  0
TEXT
  8
0
 10
114.5791
 20
108.375
 40
3
  1
C
  7
HIGHWAYCPLUS
  0
TEXT
  8
0
 10
116.5597
 20
108.375
 40
3
  1
T
  7
HIGHWAYCPLUS
  0
TEXT
  8
0
 10
118.5664
 20
108.375
 40
3
  1
I
  7
HIGHWAYCPLUS
  0
TEXT
  8
0
 10
119.6199
 20
108.375
 40
3
  1
O
  7
HIGHWAYCPLUS
  0
TEXT
  8
0
 10
121.9859
 20
108.375
 40
3
  1
N
  7
HIGHWAYCPLUS
  0
TEXT
  8
0
 10
124.2582
 20
108.375
 40
3
  1
S
  7
HIGHWAYCPLUS
  0
TEXT
  8
0
 10
102.7545
 20
101.375
 40
5
  1
S
  7
HIGHWAYDPLUS
  0
TEXT
  8
0
 10
107.0514
 20
101.375
 40
5
  1
T
  7
HIGHWAYDPLUS
  0
TEXT
  8
0
 10
111.0358
 20
101.375
 40
5
  1
O
  7
HIGHWAYDPLUS
  0
TEXT
  8
0
 10
115.7236
 20
101.375
 40
5
  1
P
  7
HIGHWAYDPLUS
  0
TEXT
  8
0
 10
106.1242
 20
96.375
 40
3
  1
W
  7
HIGHWAYCPLUS
  0
TEXT
  8
0
 10
108.8808
 20
96.375
 40
3
  1
H
  7
HIGHWAYCPLUS
  0
TEXT
  8
0
 10
111.1531
 20
96.375
 40
3
  1
I
  7
HIGHWAYCPLUS
  0
TEXT
  8
0
 10
112.2067
 20
96.375
 40
3
  1
L
  7
HIGHWAYCPLUS
  0
TEXT
  8
0
 10
114.2133
 20
96.375
 40
3
  1
E
  7
HIGHWAYCPLUS
  0
TEXT
  8
0
 10
97.8497
 20
91.375
 40
3
  1
S
  7
HIGHWAYCPLUS
  0
TEXT
  8
0
 10
99.997
 20
91.375
 40
3
  1
C
  7
HIGHWAYCPLUS
  0
TEXT
  8
0
 10
102.1443
 20
91.375
 40
3
  1
H
  7
HIGHWAYCPLUS
  0
TEXT
  8
0
 10
104.4166
 20
91.375
 40
3
  1
O
  7
HIGHWAYCPLUS
  0
TEXT
  8
0
 10
106.6576
 20
91.375
 40
3
  1
O
  7
HIGHWAYCPLUS
  0
TEXT
  8
0
 10
109.0236
 20
91.375
 40
3
  1
L
  7
HIGHWAYCPLUS
  0
TEXT
  8
0
 10
110.5236
 20
91.375
 40
3
  1
 
  7
HIGHWAYCPLUS
  0
TEXT
  8
0
 10
113.5236
 20
91.375
 40
3
  1
B
  7
HIGHWAYCPLUS
  0
TEXT
  8
0
 10
115.7959
 20
91.375
 40
3
  1
U
  7
HIGHWAYCPLUS
  0
TEXT
  8
0
 10
118.0682
 20
91.375
 40
3
  1
S
  7
HIGHWAYCPLUS
  0
TEXT
  8
0
 10
120.3405
 20
91.375
 40
3
  1
E
  7
HIGHWAYCPLUS
  0
TEXT
  8
0
 10
122.3472
 20
91.375
 40
3
  1
S
  7
HIGHWAYCPLUS
  0
TEXT
  8
0
 10
95.3731
 20
86.375
 40
3
  1
L
  7
HIGHWAYCPLUS
  0
TEXT
  8
0
 10
97.3798
 20
86.375
 40
3
  1
O
  7
HIGHWAYCPLUS
  0
TEXT
  8
0
 10
99.6208
 20
86.375
 40
3
  1
A
  7
HIGHWAYCPLUS
  0
TEXT
  8
0
 10
102.0025
 20
86.375
 40
3
  1
D
  7
HIGHWAYCPLUS
  0
TEXT
  8
0
 10
103.6431
 20
86.375
 40
3
  1
 
  7
HIGHWAYCPLUS
  0
TEXT
  8
0
 10
106.6431
 20
86.375
 40
3
  1
O
  7
HIGHWAYCPLUS
  0
TEXT
  8
0
 10
109.0092
 20
86.375
 40
3
  1
R
  7
HIGHWAYCPLUS
  0
TEXT
  8
0
 10
110.6498
 20
86.375
 40
3
  1
 
  7
HIGHWAYCPLUS
  0
TEXT
  8
0
 10
113.6498
 20
86.375
 40
3
  1
U
  7
HIGHWAYCPLUS
  0
TEXT
  8
0
 10
115.9221
 20
86.375
 40
3
  1
N
  7
HIGHWAYCPLUS
  0
TEXT
  8
0
 10
118.1944
 20
86.375
 40
3
  1
L
  7
HIGHWAYCPLUS
  0
TEXT
  8
0
 10
120.201
 20
86.375
 40
3
  1
O
  7
HIGHWAYCPLUS
  0
TEXT
  8
0
 10
122.4421
 20
86.375
 40
3
  1
A
  7
HIGHWAYCPLUS
  0
TEXT
  8
0
 10
124.8237
 20
86.375
 40
3
  1
D
  7
HIGHWAYCPLUS
  0
ENDSEC
  0
EOF