  0
SECTION
  2
HEADER
  9
$ACADVER
  1
AC1009
  0
ENDSEC
  0
SECTION
  2
TABLES
  0
TABLE
  2
STYLE
 70
   3
  0
STYLE
  2
STANDARD
 70
    64
 40
0.0
 41
1.0
 50
0.0
 71
     0
 42
1.0
  3
txt
  4

  0
STYLE
  2
HIGHWAYEMOD2K
 70
    64
 40
0.0
 41
1.0
 50
0.0
 71
     0
 42
1.0
  3
Highway E Mod 2K
  4

  0
STYLE
  2
HIGHWAYSIGNCADPLUS
 70
    64
 40
0.0
 41
1.0
 50
0.0
 71
     0
 42
1.0
  3
Highway SignCAD Plus
  4

  0
ENDTAB
  0
ENDSEC
  0
SECTION
  2
ENTITIES
  0
ARC
  8
0
 10
65.5
 20
167.5
 40
1.5
 50
0
 51
90
  0
LINE
  8
0
 10
65.5
 20
169
 11
44.5
 21
169
  0
ARC
  8
0
 10
44.5
 20
167.5
 40
1.5
 50
90
 51
180
  0
LINE
  8
0
 10
43
 20
167.5
 11
43
 21
146.5
  0
ARC
  8
0
 10
44.5
 20
146.5
 40
1.5
 50
180
 51
270
  0
LINE
  8
0
 10
44.5
 20
145
 11
65.5
 21
145
  0
ARC
  8
0
 10
65.5
 20
146.5
 40
1.5
 50
270
 51
360
  0
LINE
  8
0
 10
67
 20
146.5
 11
67
 21
167.5
  0
ARC
  8
0
 10
65.5
 20
167.5
 40
1.5
 50
0
 51
90
  0
ARC
  8
0
 10
65.5
 20
167.5
 40
1
 50
0
 51
90
  0
ARC
  8
0
 10
44.5
 20
167.5
 40
1.5
 50
90
 51
180
  0
ARC
  8
0
 10
44.5
 20
167.5
 40
1
 50
90
 51
180
  0
ARC
  8
0
 10
44.5
 20
146.5
 40
1.5
 50
180
 51
270
  0
ARC
  8
0
 10
44.5
 20
146.5
 40
1
 50
180
 51
270
  0
ARC
  8
0
 10
65.5
 20
146.5
 40
1.5
 50
270
 51
360
  0
ARC
  8
0
 10
65.5
 20
146.5
 40
1
 50
270
 51
360
  0
POLYLINE
  8
0
 66
     1
 10
0
 20
0
  0
VERTEX
  8
0
 10
65.5
 20
169
  0
VERTEX
  8
0
 10
44.5
 20
169
  0
SEQEND
  0
POLYLINE
  8
0
 66
     1
 10
0
 20
0
  0
VERTEX
  8
0
 10
44.5
 20
168.5
  0
VERTEX
  8
0
 10
65.5
 20
168.5
  0
SEQEND
  0
POLYLINE
  8
0
 66
     1
 10
0
 20
0
  0
VERTEX
  8
0
 10
43
 20
167.5
  0
VERTEX
  8
0
 10
43
 20
146.5
  0
SEQEND
  0
POLYLINE
  8
0
 66
     1
 10
0
 20
0
  0
VERTEX
  8
0
 10
43.5
 20
146.5
  0
VERTEX
  8
0
 10
43.5
 20
167.5
  0
SEQEND
  0
POLYLINE
  8
0
 66
     1
 10
0
 20
0
  0
VERTEX
  8
0
 10
44.5
 20
145
  0
VERTEX
  8
0
 10
65.5
 20
145
  0
SEQEND
  0
POLYLINE
  8
0
 66
     1
 10
0
 20
0
  0
VERTEX
  8
0
 10
65.5
 20
145.5
  0
VERTEX
  8
0
 10
44.5
 20
145.5
  0
SEQEND
  0
POLYLINE
  8
0
 66
     1
 10
0
 20
0
  0
VERTEX
  8
0
 10
67
 20
146.5
  0
VERTEX
  8
0
 10
67
 20
167.5
  0
SEQEND
  0
POLYLINE
  8
0
 66
     1
 10
0
 20
0
  0
VERTEX
  8
0
 10
66.5
 20
167.5
  0
VERTEX
  8
0
 10
66.5
 20
146.5
  0
SEQEND
  0
TEXT
  8
0
 10
69.9
 20
166.7923
 40
0.8
  1
2.25
 50
90
  7
HIGHWAYSIGNCADPLUS
 72
1
 11
69.9
 21
167.875
  0
LINE
  8
0
 10
68.5
 20
167.875
 11
68.5
 21
169
  0
LINE
  8
0
 10
68.6789
 20
168.6422
 11
68.5
 21
169
  0
LINE
  8
0
 10
68.3211
 20
168.6422
 11
68.5
 21
169
  0
LINE
  8
0
 10
68.7
 20
169
 11
67.5
 21
169
  0
LINE
  8
0
 10
68.5
 20
167.875
 11
68.5
 21
166.75
  0
LINE
  8
0
 10
68.3211
 20
167.1078
 11
68.5
 21
166.75
  0
LINE
  8
0
 10
68.6789
 20
167.1078
 11
68.5
 21
166.75
  0
LINE
  8
0
 10
68.7
 20
166.75
 11
67.5
 21
166.75
  0
TEXT
  8
0
 10
68.9
 20
155.9654
 40
0.8
  1
19.5
 50
90
  7
HIGHWAYSIGNCADPLUS
 72
1
 11
68.9
 21
157
  0
LINE
  8
0
 10
68.5
 20
158.2346
 11
68.5
 21
166.75
  0
LINE
  8
0
 10
68.6789
 20
166.3922
 11
68.5
 21
166.75
  0
LINE
  8
0
 10
68.3211
 20
166.3922
 11
68.5
 21
166.75
  0
LINE
  8
0
 10
68.5
 20
155.7654
 11
68.5
 21
147.25
  0
LINE
  8
0
 10
68.3211
 20
147.6078
 11
68.5
 21
147.25
  0
LINE
  8
0
 10
68.6789
 20
147.6078
 11
68.5
 21
147.25
  0
LINE
  8
0
 10
68.7
 20
147.25
 11
67.5
 21
147.25
  0
TEXT
  8
0
 10
43.7257
 20
143.1
 40
0.8
  1
2
  7
HIGHWAYSIGNCADPLUS
 72
1
 11
44
 21
143.1
  0
LINE
  8
0
 10
44.4743
 20
143.5
 11
45
 21
143.5
  0
LINE
  8
0
 10
44.6422
 20
143.3211
 11
45
 21
143.5
  0
LINE
  8
0
 10
44.6422
 20
143.6789
 11
45
 21
143.5
  0
LINE
  8
0
 10
45
 20
143.3
 11
45
 21
144.5
  0
LINE
  8
0
 10
43.5257
 20
143.5
 11
43
 21
143.5
  0
LINE
  8
0
 10
43.3578
 20
143.6789
 11
43
 21
143.5
  0
LINE
  8
0
 10
43.3578
 20
143.3211
 11
43
 21
143.5
  0
LINE
  8
0
 10
43
 20
143.3
 11
43
 21
144.5
  0
TEXT
  8
0
 10
54.401
 20
143.1
 40
0.8
  1
20
  7
HIGHWAYSIGNCADPLUS
 72
1
 11
55
 21
143.1
  0
LINE
  8
0
 10
55.799
 20
143.5
 11
65
 21
143.5
  0
LINE
  8
0
 10
64.6422
 20
143.3211
 11
65
 21
143.5
  0
LINE
  8
0
 10
64.6422
 20
143.6789
 11
65
 21
143.5
  0
LINE
  8
0
 10
65
 20
143.3
 11
65
 21
144.5
  0
LINE
  8
0
 10
54.201
 20
143.5
 11
45
 21
143.5
  0
LINE
  8
0
 10
45.3578
 20
143.6789
 11
45
 21
143.5
  0
LINE
  8
0
 10
45.3578
 20
143.3211
 11
45
 21
143.5
  0
TEXT
  8
0
 10
65.7257
 20
143.1
 40
0.8
  1
2
  7
HIGHWAYSIGNCADPLUS
 72
1
 11
66
 21
143.1
  0
LINE
  8
0
 10
66.4743
 20
143.5
 11
67
 21
143.5
  0
LINE
  8
0
 10
66.6422
 20
143.3211
 11
67
 21
143.5
  0
LINE
  8
0
 10
66.6422
 20
143.6789
 11
67
 21
143.5
  0
LINE
  8
0
 10
67
 20
143.3
 11
67
 21
144.5
  0
LINE
  8
0
 10
65.5257
 20
143.5
 11
65
 21
143.5
  0
LINE
  8
0
 10
65.3578
 20
143.6789
 11
65
 21
143.5
  0
LINE
  8
0
 10
65.3578
 20
143.3211
 11
65
 21
143.5
  0
LINE
  8
0
 10
65
 20
143.3
 11
65
 21
144.5
  0
TEXT
  8
0
 10
69.9
 20
145.0423
 40
0.8
  1
2.25
 50
90
  7
HIGHWAYSIGNCADPLUS
 72
1
 11
69.9
 21
146.125
  0
LINE
  8
0
 10
68.5
 20
146.125
 11
68.5
 21
147.25
  0
LINE
  8
0
 10
68.6789
 20
146.8922
 11
68.5
 21
147.25
  0
LINE
  8
0
 10
68.3211
 20
146.8922
 11
68.5
 21
147.25
  0
LINE
  8
0
 10
68.7
 20
147.25
 11
67.5
 21
147.25
  0
LINE
  8
0
 10
68.5
 20
146.125
 11
68.5
 21
145
  0
LINE
  8
0
 10
68.3211
 20
145.3578
 11
68.5
 21
145
  0
LINE
  8
0
 10
68.6789
 20
145.3578
 11
68.5
 21
145
  0
LINE
  8
0
 10
68.7
 20
145
 11
67.5
 21
145
  0
TEXT
  8
0
 10
70.9
 20
156.401
 40
0.8
  1
24
 50
90
  7
HIGHWAYSIGNCADPLUS
 72
1
 11
70.9
 21
157
  0
LINE
  8
0
 10
70.5
 20
157.799
 11
70.5
 21
169
  0
LINE
  8
0
 10
70.6789
 20
168.6422
 11
70.5
 21
169
  0
LINE
  8
0
 10
70.3211
 20
168.6422
 11
70.5
 21
169
  0
LINE
  8
0
 10
70.7
 20
169
 11
67.2
 21
169
  0
LINE
  8
0
 10
70.5
 20
156.201
 11
70.5
 21
145
  0
LINE
  8
0
 10
70.3211
 20
145.3578
 11
70.5
 21
145
  0
LINE
  8
0
 10
70.6789
 20
145.3578
 11
70.5
 21
145
  0
LINE
  8
0
 10
70.7
 20
145
 11
67.2
 21
145
  0
TEXT
  8
0
 10
54.401
 20
141.1
 40
0.8
  1
24
  7
HIGHWAYSIGNCADPLUS
 72
1
 11
55
 21
141.1
  0
LINE
  8
0
 10
55.799
 20
141.5
 11
67
 21
141.5
  0
LINE
  8
0
 10
66.6422
 20
141.3211
 11
67
 21
141.5
  0
LINE
  8
0
 10
66.6422
 20
141.6789
 11
67
 21
141.5
  0
LINE
  8
0
 10
67
 20
141.3
 11
67
 21
144.8
  0
LINE
  8
0
 10
54.201
 20
141.5
 11
43
 21
141.5
  0
LINE
  8
0
 10
43.3578
 20
141.6789
 11
43
 21
141.5
  0
LINE
  8
0
 10
43.3578
 20
141.3211
 11
43
 21
141.5
  0
LINE
  8
0
 10
43
 20
141.3
 11
43
 21
144.8
  0
TEXT
  8
0
 10
43
 20
139.9
 40
0.8
  1
RS-076_24x24; 
  7
HIGHWAYSIGNCADPLUS
 73
1
 11
43
 21
139.5
  0
TEXT
  8
0
 10
43
 20
138.3
 40
0.8
  1
1.50" Radius, 0.50" Border, White on Brown; 
  7
HIGHWAYSIGNCADPLUS
 73
1
 11
43
 21
137.9
  0
TEXT
  8
0
 10
43
 20
136.7
 40
0.8
  1
Wildlife Viewing; 
  7
HIGHWAYSIGNCADPLUS
 73
1
 11
43
 21
136.3
  0
POLYLINE
  8
0
 66
     1
 10
0
 20
0
  0
VERTEX
  8
0
 10
53.2071
 20
166.75
  0
VERTEX
  8
0
 10
53.2071
 20
164.0006
  0
VERTEX
  8
0
 10
53.2071
 20
164.0006
  0
VERTEX
  8
0
 10
49.3698
 20
164.0006
  0
VERTEX
  8
0
 10
49.3698
 20
164.0006
  0
VERTEX
  8
0
 10
49.3698
 20
166.75
  0
VERTEX
  8
0
 10
49.3698
 20
166.75
  0
VERTEX
  8
0
 10
53.2071
 20
166.75
  0
SEQEND
  0
POLYLINE
  8
0
 66
     1
 10
0
 20
0
  0
VERTEX
  8
0
 10
60.6505
 20
166.75
  0
VERTEX
  8
0
 10
60.6505
 20
164.0006
  0
VERTEX
  8
0
 10
60.6505
 20
164.0006
  0
VERTEX
  8
0
 10
56.8132
 20
164.0006
  0
VERTEX
  8
0
 10
56.8132
 20
164.0006
  0
VERTEX
  8
0
 10
56.8132
 20
166.75
  0
VERTEX
  8
0
 10
56.8132
 20
166.75
  0
VERTEX
  8
0
 10
60.6505
 20
166.75
  0
SEQEND
  0
POLYLINE
  8
0
 66
     1
 10
0
 20
0
  0
VERTEX
  8
0
 10
62.5635
 20
163.196
  0
VERTEX
  8
0
 10
64.9742
 20
153.1107
  0
VERTEX
  8
0
 10
64.9742
 20
153.1107
  0
VERTEX
  8
0
 10
64.9995
 20
147.7934
  0
VERTEX
  8
0
 10
64.9995
 20
147.7934
  0
VERTEX
  8
0
 10
64.9996
 20
147.7928
  0
VERTEX
  8
0
 10
64.9996
 20
147.7912
  0
VERTEX
  8
0
 10
64.9998
 20
147.7887
  0
VERTEX
  8
0
 10
64.9999
 20
147.7852
  0
VERTEX
  8
0
 10
65
 20
147.7807
  0
VERTEX
  8
0
 10
65
 20
147.7754
  0
VERTEX
  8
0
 10
65
 20
147.7692
  0
VERTEX
  8
0
 10
64.9999
 20
147.7622
  0
VERTEX
  8
0
 10
64.9996
 20
147.7545
  0
VERTEX
  8
0
 10
64.9992
 20
147.7461
  0
VERTEX
  8
0
 10
64.9987
 20
147.7369
  0
VERTEX
  8
0
 10
64.998
 20
147.7272
  0
VERTEX
  8
0
 10
64.997
 20
147.7168
  0
VERTEX
  8
0
 10
64.9959
 20
147.7059
  0
VERTEX
  8
0
 10
64.9944
 20
147.6944
  0
VERTEX
  8
0
 10
64.9927
 20
147.6825
  0
VERTEX
  8
0
 10
64.9907
 20
147.6701
  0
VERTEX
  8
0
 10
64.9884
 20
147.6573
  0
VERTEX
  8
0
 10
64.9857
 20
147.6442
  0
VERTEX
  8
0
 10
64.9826
 20
147.6307
  0
VERTEX
  8
0
 10
64.9791
 20
147.617
  0
VERTEX
  8
0
 10
64.9752
 20
147.603
  0
VERTEX
  8
0
 10
64.9708
 20
147.5888
  0
VERTEX
  8
0
 10
64.966
 20
147.5745
  0
VERTEX
  8
0
 10
64.9607
 20
147.56
  0
VERTEX
  8
0
 10
64.9548
 20
147.5454
  0
VERTEX
  8
0
 10
64.9485
 20
147.5308
  0
VERTEX
  8
0
 10
64.9415
 20
147.5162
  0
VERTEX
  8
0
 10
64.934
 20
147.5016
  0
VERTEX
  8
0
 10
64.9258
 20
147.4871
  0
VERTEX
  8
0
 10
64.917
 20
147.4727
  0
VERTEX
  8
0
 10
64.9075
 20
147.4585
  0
VERTEX
  8
0
 10
64.8974
 20
147.4445
  0
VERTEX
  8
0
 10
64.8865
 20
147.4307
  0
VERTEX
  8
0
 10
64.875
 20
147.4171
  0
VERTEX
  8
0
 10
64.8626
 20
147.4039
  0
VERTEX
  8
0
 10
64.8495
 20
147.391
  0
VERTEX
  8
0
 10
64.8356
 20
147.3786
  0
VERTEX
  8
0
 10
64.8208
 20
147.3665
  0
VERTEX
  8
0
 10
64.8052
 20
147.355
  0
VERTEX
  8
0
 10
64.7887
 20
147.3439
  0
VERTEX
  8
0
 10
64.7713
 20
147.3334
  0
VERTEX
  8
0
 10
64.753
 20
147.3235
  0
VERTEX
  8
0
 10
64.7338
 20
147.3142
  0
VERTEX
  8
0
 10
64.7135
 20
147.3056
  0
VERTEX
  8
0
 10
64.6923
 20
147.2977
  0
VERTEX
  8
0
 10
64.6701
 20
147.2906
  0
VERTEX
  8
0
 10
64.6468
 20
147.2842
  0
VERTEX
  8
0
 10
64.6225
 20
147.2787
  0
VERTEX
  8
0
 10
64.597
 20
147.2741
  0
VERTEX
  8
0
 10
64.5705
 20
147.2703
  0
VERTEX
  8
0
 10
64.5428
 20
147.2675
  0
VERTEX
  8
0
 10
64.514
 20
147.2657
  0
VERTEX
  8
0
 10
64.484
 20
147.265
  0
VERTEX
  8
0
 10
64.484
 20
147.265
  0
VERTEX
  8
0
 10
64.476
 20
147.2649
  0
VERTEX
  8
0
 10
64.4524
 20
147.2648
  0
VERTEX
  8
0
 10
64.414
 20
147.2647
  0
VERTEX
  8
0
 10
64.3614
 20
147.2645
  0
VERTEX
  8
0
 10
64.2954
 20
147.2642
  0
VERTEX
  8
0
 10
64.2165
 20
147.2639
  0
VERTEX
  8
0
 10
64.1256
 20
147.2636
  0
VERTEX
  8
0
 10
64.0232
 20
147.2632
  0
VERTEX
  8
0
 10
63.9102
 20
147.2627
  0
VERTEX
  8
0
 10
63.7871
 20
147.2623
  0
VERTEX
  8
0
 10
63.6547
 20
147.2618
  0
VERTEX
  8
0
 10
63.5137
 20
147.2613
  0
VERTEX
  8
0
 10
63.3647
 20
147.2607
  0
VERTEX
  8
0
 10
63.2085
 20
147.2601
  0
VERTEX
  8
0
 10
63.0457
 20
147.2596
  0
VERTEX
  8
0
 10
62.8771
 20
147.259
  0
VERTEX
  8
0
 10
62.7032
 20
147.2584
  0
VERTEX
  8
0
 10
62.5249
 20
147.2578
  0
VERTEX
  8
0
 10
62.3428
 20
147.2572
  0
VERTEX
  8
0
 10
62.1576
 20
147.2566
  0
VERTEX
  8
0
 10
61.9699
 20
147.256
  0
VERTEX
  8
0
 10
61.7805
 20
147.2554
  0
VERTEX
  8
0
 10
61.5901
 20
147.2548
  0
VERTEX
  8
0
 10
61.3994
 20
147.2542
  0
VERTEX
  8
0
 10
61.209
 20
147.2537
  0
VERTEX
  8
0
 10
61.0197
 20
147.2532
  0
VERTEX
  8
0
 10
60.8321
 20
147.2527
  0
VERTEX
  8
0
 10
60.6469
 20
147.2522
  0
VERTEX
  8
0
 10
60.4648
 20
147.2518
  0
VERTEX
  8
0
 10
60.2865
 20
147.2514
  0
VERTEX
  8
0
 10
60.1128
 20
147.251
  0
VERTEX
  8
0
 10
59.9442
 20
147.2507
  0
VERTEX
  8
0
 10
59.7815
 20
147.2505
  0
VERTEX
  8
0
 10
59.6254
 20
147.2503
  0
VERTEX
  8
0
 10
59.4765
 20
147.2501
  0
VERTEX
  8
0
 10
59.3356
 20
147.25
  0
VERTEX
  8
0
 10
59.2034
 20
147.25
  0
VERTEX
  8
0
 10
59.0804
 20
147.25
  0
VERTEX
  8
0
 10
58.9676
 20
147.2501
  0
VERTEX
  8
0
 10
58.8654
 20
147.2503
  0
VERTEX
  8
0
 10
58.7746
 20
147.2506
  0
VERTEX
  8
0
 10
58.696
 20
147.2509
  0
VERTEX
  8
0
 10
58.6301
 20
147.2513
  0
VERTEX
  8
0
 10
58.5778
 20
147.2519
  0
VERTEX
  8
0
 10
58.5396
 20
147.2525
  0
VERTEX
  8
0
 10
58.5396
 20
147.2525
  0
VERTEX
  8
0
 10
58.5094
 20
147.2539
  0
VERTEX
  8
0
 10
58.4807
 20
147.2568
  0
VERTEX
  8
0
 10
58.4534
 20
147.2611
  0
VERTEX
  8
0
 10
58.4275
 20
147.2668
  0
VERTEX
  8
0
 10
58.403
 20
147.2737
  0
VERTEX
  8
0
 10
58.3797
 20
147.2818
  0
VERTEX
  8
0
 10
58.3577
 20
147.2911
  0
VERTEX
  8
0
 10
58.3369
 20
147.3015
  0
VERTEX
  8
0
 10
58.3173
 20
147.3128
  0
VERTEX
  8
0
 10
58.2989
 20
147.3251
  0
VERTEX
  8
0
 10
58.2816
 20
147.3383
  0
VERTEX
  8
0
 10
58.2654
 20
147.3522
  0
VERTEX
  8
0
 10
58.2502
 20
147.3668
  0
VERTEX
  8
0
 10
58.2361
 20
147.3821
  0
VERTEX
  8
0
 10
58.223
 20
147.398
  0
VERTEX
  8
0
 10
58.2108
 20
147.4144
  0
VERTEX
  8
0
 10
58.1995
 20
147.4312
  0
VERTEX
  8
0
 10
58.1891
 20
147.4484
  0
VERTEX
  8
0
 10
58.1795
 20
147.4659
  0
VERTEX
  8
0
 10
58.1708
 20
147.4836
  0
VERTEX
  8
0
 10
58.1628
 20
147.5015
  0
VERTEX
  8
0
 10
58.1556
 20
147.5195
  0
VERTEX
  8
0
 10
58.1491
 20
147.5375
  0
VERTEX
  8
0
 10
58.1432
 20
147.5554
  0
VERTEX
  8
0
 10
58.138
 20
147.5733
  0
VERTEX
  8
0
 10
58.1333
 20
147.5909
  0
VERTEX
  8
0
 10
58.1293
 20
147.6083
  0
VERTEX
  8
0
 10
58.1257
 20
147.6253
  0
VERTEX
  8
0
 10
58.1227
 20
147.642
  0
VERTEX
  8
0
 10
58.1201
 20
147.6582
  0
VERTEX
  8
0
 10
58.1179
 20
147.6738
  0
VERTEX
  8
0
 10
58.1162
 20
147.6889
  0
VERTEX
  8
0
 10
58.1147
 20
147.7032
  0
VERTEX
  8
0
 10
58.1136
 20
147.7168
  0
VERTEX
  8
0
 10
58.1128
 20
147.7296
  0
VERTEX
  8
0
 10
58.1122
 20
147.7415
  0
VERTEX
  8
0
 10
58.1118
 20
147.7525
  0
VERTEX
  8
0
 10
58.1116
 20
147.7624
  0
VERTEX
  8
0
 10
58.1116
 20
147.7712
  0
VERTEX
  8
0
 10
58.1116
 20
147.7789
  0
VERTEX
  8
0
 10
58.1117
 20
147.7853
  0
VERTEX
  8
0
 10
58.1119
 20
147.7904
  0
VERTEX
  8
0
 10
58.1121
 20
147.7942
  0
VERTEX
  8
0
 10
58.1122
 20
147.7965
  0
VERTEX
  8
0
 10
58.1122
 20
147.7973
  0
VERTEX
  8
0
 10
58.1122
 20
147.7973
  0
VERTEX
  8
0
 10
58.1074
 20
155.0753
  0
VERTEX
  8
0
 10
58.1074
 20
155.0753
  0
VERTEX
  8
0
 10
57.274
 20
155.0791
  0
VERTEX
  8
0
 10
57.274
 20
155.0791
  0
VERTEX
  8
0
 10
57.244
 20
155.0806
  0
VERTEX
  8
0
 10
57.2155
 20
155.0833
  0
VERTEX
  8
0
 10
57.1884
 20
155.087
  0
VERTEX
  8
0
 10
57.1627
 20
155.0918
  0
VERTEX
  8
0
 10
57.1384
 20
155.0976
  0
VERTEX
  8
0
 10
57.1154
 20
155.1043
  0
VERTEX
  8
0
 10
57.0937
 20
155.1119
  0
VERTEX
  8
0
 10
57.0732
 20
155.1203
  0
VERTEX
  8
0
 10
57.054
 20
155.1294
  0
VERTEX
  8
0
 10
57.036
 20
155.1393
  0
VERTEX
  8
0
 10
57.0191
 20
155.1497
  0
VERTEX
  8
0
 10
57.0033
 20
155.1608
  0
VERTEX
  8
0
 10
56.9886
 20
155.1723
  0
VERTEX
  8
0
 10
56.9749
 20
155.1844
  0
VERTEX
  8
0
 10
56.9622
 20
155.1968
  0
VERTEX
  8
0
 10
56.9505
 20
155.2096
  0
VERTEX
  8
0
 10
56.9397
 20
155.2227
  0
VERTEX
  8
0
 10
56.9297
 20
155.2361
  0
VERTEX
  8
0
 10
56.9206
 20
155.2496
  0
VERTEX
  8
0
 10
56.9124
 20
155.2632
  0
VERTEX
  8
0
 10
56.9049
 20
155.2769
  0
VERTEX
  8
0
 10
56.8981
 20
155.2906
  0
VERTEX
  8
0
 10
56.892
 20
155.3043
  0
VERTEX
  8
0
 10
56.8866
 20
155.3178
  0
VERTEX
  8
0
 10
56.8818
 20
155.3312
  0
VERTEX
  8
0
 10
56.8776
 20
155.3443
  0
VERTEX
  8
0
 10
56.874
 20
155.3572
  0
VERTEX
  8
0
 10
56.8708
 20
155.3698
  0
VERTEX
  8
0
 10
56.8682
 20
155.3819
  0
VERTEX
  8
0
 10
56.8659
 20
155.3936
  0
VERTEX
  8
0
 10
56.8641
 20
155.4048
  0
VERTEX
  8
0
 10
56.8626
 20
155.4154
  0
VERTEX
  8
0
 10
56.8615
 20
155.4254
  0
VERTEX
  8
0
 10
56.8606
 20
155.4348
  0
VERTEX
  8
0
 10
56.86
 20
155.4433
  0
VERTEX
  8
0
 10
56.8596
 20
155.4511
  0
VERTEX
  8
0
 10
56.8594
 20
155.4581
  0
VERTEX
  8
0
 10
56.8593
 20
155.4641
  0
VERTEX
  8
0
 10
56.8593
 20
155.4692
  0
VERTEX
  8
0
 10
56.8593
 20
155.4732
  0
VERTEX
  8
0
 10
56.8594
 20
155.4761
  0
VERTEX
  8
0
 10
56.8595
 20
155.478
  0
VERTEX
  8
0
 10
56.8596
 20
155.4786
  0
VERTEX
  8
0
 10
56.8596
 20
155.4786
  0
VERTEX
  8
0
 10
56.8849
 20
163.1916
  0
VERTEX
  8
0
 10
56.8849
 20
163.1916
  0
VERTEX
  8
0
 10
62.5635
 20
163.196
  0
SEQEND
  0
POLYLINE
  8
0
 66
     1
 10
0
 20
0
  0
VERTEX
  8
0
 10
56.0272
 20
163.1758
  0
VERTEX
  8
0
 10
56.0272
 20
156.2564
  0
VERTEX
  8
0
 10
56.0272
 20
156.2564
  0
VERTEX
  8
0
 10
53.993
 20
156.2564
  0
VERTEX
  8
0
 10
53.993
 20
156.2564
  0
VERTEX
  8
0
 10
53.993
 20
163.1758
  0
VERTEX
  8
0
 10
53.993
 20
163.1758
  0
VERTEX
  8
0
 10
56.0272
 20
163.1758
  0
SEQEND
  0
POLYLINE
  8
0
 66
     1
 10
0
 20
0
  0
VERTEX
  8
0
 10
47.4365
 20
163.204
  0
VERTEX
  8
0
 10
45.0258
 20
153.1187
  0
VERTEX
  8
0
 10
45.0258
 20
153.1187
  0
VERTEX
  8
0
 10
45.0005
 20
147.8014
  0
VERTEX
  8
0
 10
45.0005
 20
147.8014
  0
VERTEX
  8
0
 10
45.0004
 20
147.8009
  0
VERTEX
  8
0
 10
45.0004
 20
147.7993
  0
VERTEX
  8
0
 10
45.0002
 20
147.7966
  0
VERTEX
  8
0
 10
45.0001
 20
147.7929
  0
VERTEX
  8
0
 10
45
 20
147.7883
  0
VERTEX
  8
0
 10
45
 20
147.7828
  0
VERTEX
  8
0
 10
45
 20
147.7764
  0
VERTEX
  8
0
 10
45.0001
 20
147.7691
  0
VERTEX
  8
0
 10
45.0004
 20
147.7611
  0
VERTEX
  8
0
 10
45.0008
 20
147.7524
  0
VERTEX
  8
0
 10
45.0013
 20
147.7429
  0
VERTEX
  8
0
 10
45.002
 20
147.7328
  0
VERTEX
  8
0
 10
45.003
 20
147.722
  0
VERTEX
  8
0
 10
45.0041
 20
147.7107
  0
VERTEX
  8
0
 10
45.0056
 20
147.6988
  0
VERTEX
  8
0
 10
45.0073
 20
147.6864
  0
VERTEX
  8
0
 10
45.0093
 20
147.6735
  0
VERTEX
  8
0
 10
45.0116
 20
147.6603
  0
VERTEX
  8
0
 10
45.0143
 20
147.6466
  0
VERTEX
  8
0
 10
45.0174
 20
147.6327
  0
VERTEX
  8
0
 10
45.0209
 20
147.6184
  0
VERTEX
  8
0
 10
45.0248
 20
147.6039
  0
VERTEX
  8
0
 10
45.0292
 20
147.5892
  0
VERTEX
  8
0
 10
45.034
 20
147.5743
  0
VERTEX
  8
0
 10
45.0393
 20
147.5592
  0
VERTEX
  8
0
 10
45.0452
 20
147.5441
  0
VERTEX
  8
0
 10
45.0515
 20
147.529
  0
VERTEX
  8
0
 10
45.0585
 20
147.5138
  0
VERTEX
  8
0
 10
45.066
 20
147.4987
  0
VERTEX
  8
0
 10
45.0742
 20
147.4836
  0
VERTEX
  8
0
 10
45.083
 20
147.4687
  0
VERTEX
  8
0
 10
45.0925
 20
147.4539
  0
VERTEX
  8
0
 10
45.1026
 20
147.4394
  0
VERTEX
  8
0
 10
45.1135
 20
147.4251
  0
VERTEX
  8
0
 10
45.125
 20
147.411
  0
VERTEX
  8
0
 10
45.1374
 20
147.3973
  0
VERTEX
  8
0
 10
45.1505
 20
147.384
  0
VERTEX
  8
0
 10
45.1644
 20
147.371
  0
VERTEX
  8
0
 10
45.1792
 20
147.3585
  0
VERTEX
  8
0
 10
45.1948
 20
147.3465
  0
VERTEX
  8
0
 10
45.2113
 20
147.3351
  0
VERTEX
  8
0
 10
45.2287
 20
147.3242
  0
VERTEX
  8
0
 10
45.247
 20
147.3139
  0
VERTEX
  8
0
 10
45.2662
 20
147.3043
  0
VERTEX
  8
0
 10
45.2865
 20
147.2954
  0
VERTEX
  8
0
 10
45.3077
 20
147.2872
  0
VERTEX
  8
0
 10
45.3299
 20
147.2798
  0
VERTEX
  8
0
 10
45.3532
 20
147.2732
  0
VERTEX
  8
0
 10
45.3775
 20
147.2675
  0
VERTEX
  8
0
 10
45.403
 20
147.2626
  0
VERTEX
  8
0
 10
45.4295
 20
147.2588
  0
VERTEX
  8
0
 10
45.4572
 20
147.2559
  0
VERTEX
  8
0
 10
45.486
 20
147.254
  0
VERTEX
  8
0
 10
45.516
 20
147.2532
  0
VERTEX
  8
0
 10
45.516
 20
147.2532
  0
VERTEX
  8
0
 10
45.524
 20
147.2532
  0
VERTEX
  8
0
 10
45.5476
 20
147.2532
  0
VERTEX
  8
0
 10
45.586
 20
147.2532
  0
VERTEX
  8
0
 10
45.6386
 20
147.2532
  0
VERTEX
  8
0
 10
45.7046
 20
147.2532
  0
VERTEX
  8
0
 10
45.7835
 20
147.2531
  0
VERTEX
  8
0
 10
45.8744
 20
147.2531
  0
VERTEX
  8
0
 10
45.9768
 20
147.2531
  0
VERTEX
  8
0
 10
46.0898
 20
147.2531
  0
VERTEX
  8
0
 10
46.2129
 20
147.253
  0
VERTEX
  8
0
 10
46.3453
 20
147.253
  0
VERTEX
  8
0
 10
46.4863
 20
147.253
  0
VERTEX
  8
0
 10
46.6353
 20
147.253
  0
VERTEX
  8
0
 10
46.7915
 20
147.253
  0
VERTEX
  8
0
 10
46.9543
 20
147.253
  0
VERTEX
  8
0
 10
47.1229
 20
147.253
  0
VERTEX
  8
0
 10
47.2968
 20
147.253
  0
VERTEX
  8
0
 10
47.4751
 20
147.253
  0
VERTEX
  8
0
 10
47.6572
 20
147.253
  0
VERTEX
  8
0
 10
47.8424
 20
147.2531
  0
VERTEX
  8
0
 10
48.0301
 20
147.2531
  0
VERTEX
  8
0
 10
48.2195
 20
147.2532
  0
VERTEX
  8
0
 10
48.4099
 20
147.2533
  0
VERTEX
  8
0
 10
48.6006
 20
147.2534
  0
VERTEX
  8
0
 10
48.791
 20
147.2535
  0
VERTEX
  8
0
 10
48.9803
 20
147.2536
  0
VERTEX
  8
0
 10
49.1679
 20
147.2538
  0
VERTEX
  8
0
 10
49.3531
 20
147.2539
  0
VERTEX
  8
0
 10
49.5352
 20
147.2541
  0
VERTEX
  8
0
 10
49.7135
 20
147.2543
  0
VERTEX
  8
0
 10
49.8872
 20
147.2546
  0
VERTEX
  8
0
 10
50.0558
 20
147.2548
  0
VERTEX
  8
0
 10
50.2185
 20
147.2551
  0
VERTEX
  8
0
 10
50.3746
 20
147.2554
  0
VERTEX
  8
0
 10
50.5235
 20
147.2557
  0
VERTEX
  8
0
 10
50.6644
 20
147.256
  0
VERTEX
  8
0
 10
50.7966
 20
147.2564
  0
VERTEX
  8
0
 10
50.9196
 20
147.2568
  0
VERTEX
  8
0
 10
51.0324
 20
147.2573
  0
VERTEX
  8
0
 10
51.1346
 20
147.2577
  0
VERTEX
  8
0
 10
51.2254
 20
147.2582
  0
VERTEX
  8
0
 10
51.304
 20
147.2588
  0
VERTEX
  8
0
 10
51.3699
 20
147.2593
  0
VERTEX
  8
0
 10
51.4222
 20
147.2599
  0
VERTEX
  8
0
 10
51.4604
 20
147.2605
  0
VERTEX
  8
0
 10
51.4604
 20
147.2605
  0
VERTEX
  8
0
 10
51.4906
 20
147.2619
  0
VERTEX
  8
0
 10
51.5193
 20
147.2649
  0
VERTEX
  8
0
 10
51.5466
 20
147.2692
  0
VERTEX
  8
0
 10
51.5725
 20
147.2748
  0
VERTEX
  8
0
 10
51.597
 20
147.2818
  0
VERTEX
  8
0
 10
51.6203
 20
147.2899
  0
VERTEX
  8
0
 10
51.6423
 20
147.2992
  0
VERTEX
  8
0
 10
51.6631
 20
147.3096
  0
VERTEX
  8
0
 10
51.6827
 20
147.3209
  0
VERTEX
  8
0
 10
51.7011
 20
147.3332
  0
VERTEX
  8
0
 10
51.7184
 20
147.3463
  0
VERTEX
  8
0
 10
51.7346
 20
147.3603
  0
VERTEX
  8
0
 10
51.7498
 20
147.3749
  0
VERTEX
  8
0
 10
51.7639
 20
147.3902
  0
VERTEX
  8
0
 10
51.777
 20
147.4061
  0
VERTEX
  8
0
 10
51.7892
 20
147.4225
  0
VERTEX
  8
0
 10
51.8005
 20
147.4393
  0
VERTEX
  8
0
 10
51.8109
 20
147.4565
  0
VERTEX
  8
0
 10
51.8205
 20
147.474
  0
VERTEX
  8
0
 10
51.8292
 20
147.4917
  0
VERTEX
  8
0
 10
51.8372
 20
147.5096
  0
VERTEX
  8
0
 10
51.8444
 20
147.5276
  0
VERTEX
  8
0
 10
51.8509
 20
147.5456
  0
VERTEX
  8
0
 10
51.8568
 20
147.5635
  0
VERTEX
  8
0
 10
51.862
 20
147.5814
  0
VERTEX
  8
0
 10
51.8667
 20
147.599
  0
VERTEX
  8
0
 10
51.8707
 20
147.6164
  0
VERTEX
  8
0
 10
51.8743
 20
147.6334
  0
VERTEX
  8
0
 10
51.8773
 20
147.6501
  0
VERTEX
  8
0
 10
51.8799
 20
147.6663
  0
VERTEX
  8
0
 10
51.8821
 20
147.6819
  0
VERTEX
  8
0
 10
51.8838
 20
147.6969
  0
VERTEX
  8
0
 10
51.8853
 20
147.7113
  0
VERTEX
  8
0
 10
51.8864
 20
147.7249
  0
VERTEX
  8
0
 10
51.8872
 20
147.7377
  0
VERTEX
  8
0
 10
51.8878
 20
147.7496
  0
VERTEX
  8
0
 10
51.8882
 20
147.7606
  0
VERTEX
  8
0
 10
51.8884
 20
147.7705
  0
VERTEX
  8
0
 10
51.8884
 20
147.7793
  0
VERTEX
  8
0
 10
51.8884
 20
147.787
  0
VERTEX
  8
0
 10
51.8883
 20
147.7934
  0
VERTEX
  8
0
 10
51.8881
 20
147.7985
  0
VERTEX
  8
0
 10
51.8879
 20
147.8023
  0
VERTEX
  8
0
 10
51.8878
 20
147.8046
  0
VERTEX
  8
0
 10
51.8878
 20
147.8053
  0
VERTEX
  8
0
 10
51.8878
 20
147.8053
  0
VERTEX
  8
0
 10
51.8926
 20
155.0834
  0
VERTEX
  8
0
 10
51.8926
 20
155.0834
  0
VERTEX
  8
0
 10
52.726
 20
155.0872
  0
VERTEX
  8
0
 10
52.726
 20
155.0872
  0
VERTEX
  8
0
 10
52.756
 20
155.0887
  0
VERTEX
  8
0
 10
52.7845
 20
155.0913
  0
VERTEX
  8
0
 10
52.8116
 20
155.0951
  0
VERTEX
  8
0
 10
52.8373
 20
155.0999
  0
VERTEX
  8
0
 10
52.8616
 20
155.1057
  0
VERTEX
  8
0
 10
52.8846
 20
155.1124
  0
VERTEX
  8
0
 10
52.9063
 20
155.12
  0
VERTEX
  8
0
 10
52.9268
 20
155.1284
  0
VERTEX
  8
0
 10
52.946
 20
155.1375
  0
VERTEX
  8
0
 10
52.964
 20
155.1473
  0
VERTEX
  8
0
 10
52.9809
 20
155.1578
  0
VERTEX
  8
0
 10
52.9967
 20
155.1689
  0
VERTEX
  8
0
 10
53.0114
 20
155.1804
  0
VERTEX
  8
0
 10
53.0251
 20
155.1925
  0
VERTEX
  8
0
 10
53.0378
 20
155.2049
  0
VERTEX
  8
0
 10
53.0495
 20
155.2177
  0
VERTEX
  8
0
 10
53.0603
 20
155.2308
  0
VERTEX
  8
0
 10
53.0703
 20
155.2441
  0
VERTEX
  8
0
 10
53.0794
 20
155.2577
  0
VERTEX
  8
0
 10
53.0876
 20
155.2713
  0
VERTEX
  8
0
 10
53.0951
 20
155.285
  0
VERTEX
  8
0
 10
53.1019
 20
155.2987
  0
VERTEX
  8
0
 10
53.108
 20
155.3123
  0
VERTEX
  8
0
 10
53.1134
 20
155.3259
  0
VERTEX
  8
0
 10
53.1182
 20
155.3393
  0
VERTEX
  8
0
 10
53.1224
 20
155.3524
  0
VERTEX
  8
0
 10
53.126
 20
155.3653
  0
VERTEX
  8
0
 10
53.1292
 20
155.3779
  0
VERTEX
  8
0
 10
53.1318
 20
155.39
  0
VERTEX
  8
0
 10
53.1341
 20
155.4017
  0
VERTEX
  8
0
 10
53.1359
 20
155.4129
  0
VERTEX
  8
0
 10
53.1374
 20
155.4235
  0
VERTEX
  8
0
 10
53.1385
 20
155.4335
  0
VERTEX
  8
0
 10
53.1394
 20
155.4428
  0
VERTEX
  8
0
 10
53.14
 20
155.4514
  0
VERTEX
  8
0
 10
53.1404
 20
155.4592
  0
VERTEX
  8
0
 10
53.1406
 20
155.4661
  0
VERTEX
  8
0
 10
53.1407
 20
155.4722
  0
VERTEX
  8
0
 10
53.1407
 20
155.4772
  0
VERTEX
  8
0
 10
53.1407
 20
155.4813
  0
VERTEX
  8
0
 10
53.1406
 20
155.4842
  0
VERTEX
  8
0
 10
53.1405
 20
155.486
  0
VERTEX
  8
0
 10
53.1404
 20
155.4867
  0
VERTEX
  8
0
 10
53.1404
 20
155.4867
  0
VERTEX
  8
0
 10
53.1151
 20
163.1997
  0
VERTEX
  8
0
 10
53.1151
 20
163.1997
  0
VERTEX
  8
0
 10
47.4365
 20
163.204
  0
SEQEND
  0
ENDSEC
  0
EOF