  0
SECTION
  2
HEADER
  9
$ACADVER
  1
AC1009
  0
ENDSEC
  0
SECTION
  2
TABLES
  0
TABLE
  2
STYLE
 70
   1
  0
STYLE
  2
STANDARD
 70
    64
 40
0.0
 41
1.0
 50
0.0
 71
     0
 42
1.0
  3
txt
  4

  0
ENDTAB
  0
ENDSEC
  0
SECTION
  2
ENTITIES
  0
ARC
  8
0
 10
63.5
 20
87.5
 40
1.5
 50
180
 51
270
  0
ARC
  8
0
 10
84.5
 20
87.5
 40
1.5
 50
270
 51
360
  0
ARC
  8
0
 10
84.5
 20
102.5
 40
1.5
 50
0
 51
90
  0
ARC
  8
0
 10
63.5
 20
102.5
 40
1.5
 50
90
 51
180
  0
POLYLINE
  8
0
 66
     1
 10
0
 20
0
  0
VERTEX
  8
0
 10
63.5
 20
86
  0
VERTEX
  8
0
 10
84.5
 20
86
  0
SEQEND
  0
POLYLINE
  8
0
 66
     1
 10
0
 20
0
  0
VERTEX
  8
0
 10
86
 20
87.5
  0
VERTEX
  8
0
 10
86
 20
102.5
  0
SEQEND
  0
POLYLINE
  8
0
 66
     1
 10
0
 20
0
  0
VERTEX
  8
0
 10
84.5
 20
104
  0
VERTEX
  8
0
 10
63.5
 20
104
  0
SEQEND
  0
POLYLINE
  8
0
 66
     1
 10
0
 20
0
  0
VERTEX
  8
0
 10
62
 20
102.5
  0
VERTEX
  8
0
 10
62
 20
87.5
  0
SEQEND
  0
ARC
  8
0
 10
63.5
 20
87.5
 40
1.5
 50
180
 51
270
  0
ARC
  8
0
 10
63.5
 20
87.5
 40
1
 50
180
 51
270
  0
ARC
  8
0
 10
84.5
 20
87.5
 40
1.5
 50
270
 51
360
  0
ARC
  8
0
 10
84.5
 20
87.5
 40
1
 50
270
 51
360
  0
ARC
  8
0
 10
84.5
 20
102.5
 40
1.5
 50
0
 51
90
  0
ARC
  8
0
 10
84.5
 20
102.5
 40
1
 50
0
 51
90
  0
ARC
  8
0
 10
63.5
 20
102.5
 40
1.5
 50
90
 51
180
  0
ARC
  8
0
 10
63.5
 20
102.5
 40
1
 50
90
 51
180
  0
POLYLINE
  8
0
 66
     1
 10
0
 20
0
  0
VERTEX
  8
0
 10
63.5
 20
86.5
  0
VERTEX
  8
0
 10
84.5
 20
86.5
  0
SEQEND
  0
POLYLINE
  8
0
 66
     1
 10
0
 20
0
  0
VERTEX
  8
0
 10
84.5
 20
86
  0
VERTEX
  8
0
 10
63.5
 20
86
  0
SEQEND
  0
POLYLINE
  8
0
 66
     1
 10
0
 20
0
  0
VERTEX
  8
0
 10
85.5
 20
87.5
  0
VERTEX
  8
0
 10
85.5
 20
102.5
  0
SEQEND
  0
POLYLINE
  8
0
 66
     1
 10
0
 20
0
  0
VERTEX
  8
0
 10
86
 20
102.5
  0
VERTEX
  8
0
 10
86
 20
87.5
  0
SEQEND
  0
POLYLINE
  8
0
 66
     1
 10
0
 20
0
  0
VERTEX
  8
0
 10
84.5
 20
103.5
  0
VERTEX
  8
0
 10
63.5
 20
103.5
  0
SEQEND
  0
POLYLINE
  8
0
 66
     1
 10
0
 20
0
  0
VERTEX
  8
0
 10
63.5
 20
104
  0
VERTEX
  8
0
 10
84.5
 20
104
  0
SEQEND
  0
POLYLINE
  8
0
 66
     1
 10
0
 20
0
  0
VERTEX
  8
0
 10
62.5
 20
102.5
  0
VERTEX
  8
0
 10
62.5
 20
87.5
  0
SEQEND
  0
POLYLINE
  8
0
 66
     1
 10
0
 20
0
  0
VERTEX
  8
0
 10
62
 20
87.5
  0
VERTEX
  8
0
 10
62
 20
102.5
  0
SEQEND
  0
POLYLINE
  8
0
 66
     1
 10
0
 20
0
  0
VERTEX
  8
0
 10
87.8064
 20
103.2773
  0
VERTEX
  8
0
 10
87.9024
 20
103.2773
  0
VERTEX
  8
0
 10
87.9024
 20
102.7333
  0
VERTEX
  8
0
 10
87.8584
 20
102.7373
  0
VERTEX
  8
0
 10
87.8134
 20
102.7517
  0
VERTEX
  8
0
 10
87.7675
 20
102.7764
  0
VERTEX
  8
0
 10
87.7205
 20
102.8115
  0
VERTEX
  8
0
 10
87.6611
 20
102.868
  0
VERTEX
  8
0
 10
87.5943
 20
102.9443
  0
VERTEX
  8
0
 10
87.5429
 20
103.005
  0
VERTEX
  8
0
 10
87.4993
 20
103.053
  0
VERTEX
  8
0
 10
87.4636
 20
103.0883
  0
VERTEX
  8
0
 10
87.4181
 20
103.1255
  0
VERTEX
  8
0
 10
87.3748
 20
103.152
  0
VERTEX
  8
0
 10
87.3337
 20
103.168
  0
VERTEX
  8
0
 10
87.2948
 20
103.1733
  0
VERTEX
  8
0
 10
87.2361
 20
103.1617
  0
VERTEX
  8
0
 10
87.1896
 20
103.1271
  0
VERTEX
  8
0
 10
87.1605
 20
103.0779
  0
VERTEX
  8
0
 10
87.1504
 20
103.018
  0
VERTEX
  8
0
 10
87.1613
 20
102.9507
  0
VERTEX
  8
0
 10
87.1954
 20
102.8998
  0
VERTEX
  8
0
 10
87.2488
 20
102.8676
  0
VERTEX
  8
0
 10
87.3178
 20
102.8565
  0
VERTEX
  8
0
 10
87.307
 20
102.7525
  0
VERTEX
  8
0
 10
87.252
 20
102.7613
  0
VERTEX
  8
0
 10
87.2039
 20
102.7776
  0
VERTEX
  8
0
 10
87.1626
 20
102.8015
  0
VERTEX
  8
0
 10
87.1283
 20
102.8329
  0
VERTEX
  8
0
 10
87.0939
 20
102.885
  0
VERTEX
  8
0
 10
87.0733
 20
102.9474
  0
VERTEX
  8
0
 10
87.0664
 20
103.0202
  0
VERTEX
  8
0
 10
87.073
 20
103.0888
  0
VERTEX
  8
0
 10
87.093
 20
103.149
  0
VERTEX
  8
0
 10
87.1262
 20
103.2008
  0
VERTEX
  8
0
 10
87.1609
 20
103.2342
  0
VERTEX
  8
0
 10
87.2011
 20
103.2581
  0
VERTEX
  8
0
 10
87.2469
 20
103.2725
  0
VERTEX
  8
0
 10
87.2983
 20
103.2773
  0
VERTEX
  8
0
 10
87.3482
 20
103.2718
  0
VERTEX
  8
0
 10
87.3982
 20
103.2553
  0
VERTEX
  8
0
 10
87.4484
 20
103.2279
  0
VERTEX
  8
0
 10
87.4988
 20
103.1896
  0
VERTEX
  8
0
 10
87.5396
 20
103.1508
  0
VERTEX
  8
0
 10
87.5886
 20
103.0989
  0
VERTEX
  8
0
 10
87.6458
 20
103.034
  0
VERTEX
  8
0
 10
87.6816
 20
102.9919
  0
VERTEX
  8
0
 10
87.7065
 20
102.9633
  0
VERTEX
  8
0
 10
87.7204
 20
102.948
  0
VERTEX
  8
0
 10
87.7641
 20
102.906
  0
VERTEX
  8
0
 10
87.8064
 20
102.8743
  0
VERTEX
  8
0
 10
87.8064
 20
103.2773
  0
SEQEND
  0
LINE
  8
0
 10
87.5
 20
103.4743
 11
87.5
 21
104
  0
LINE
  8
0
 10
87.6789
 20
103.6422
 11
87.5
 21
104
  0
LINE
  8
0
 10
87.3211
 20
103.6422
 11
87.5
 21
104
  0
LINE
  8
0
 10
87.7
 20
104
 11
86.5
 21
104
  0
LINE
  8
0
 10
87.5
 20
102.5257
 11
87.5
 21
102
  0
LINE
  8
0
 10
87.3211
 20
102.3578
 11
87.5
 21
102
  0
LINE
  8
0
 10
87.6789
 20
102.3578
 11
87.5
 21
102
  0
LINE
  8
0
 10
87.7
 20
102
 11
86.5
 21
102
  0
POLYLINE
  8
0
 66
     1
 10
0
 20
0
  0
VERTEX
  8
0
 10
87.6801
 20
100.2333
  0
VERTEX
  8
0
 10
87.6665
 20
100.3344
  0
VERTEX
  8
0
 10
87.7008
 20
100.3426
  0
VERTEX
  8
0
 10
87.7311
 20
100.3532
  0
VERTEX
  8
0
 10
87.7573
 20
100.3663
  0
VERTEX
  8
0
 10
87.7795
 20
100.3818
  0
VERTEX
  8
0
 10
87.7977
 20
100.3997
  0
VERTEX
  8
0
 10
87.8119
 20
100.42
  0
VERTEX
  8
0
 10
87.8221
 20
100.4428
  0
VERTEX
  8
0
 10
87.8282
 20
100.468
  0
VERTEX
  8
0
 10
87.8304
 20
100.4956
  0
VERTEX
  8
0
 10
87.8182
 20
100.562
  0
VERTEX
  8
0
 10
87.7803
 20
100.6164
  0
VERTEX
  8
0
 10
87.7241
 20
100.6528
  0
VERTEX
  8
0
 10
87.6564
 20
100.6653
  0
VERTEX
  8
0
 10
87.5921
 20
100.6542
  0
VERTEX
  8
0
 10
87.5402
 20
100.6199
  0
VERTEX
  8
0
 10
87.5058
 20
100.5681
  0
VERTEX
  8
0
 10
87.4944
 20
100.5046
  0
VERTEX
  8
0
 10
87.4975
 20
100.4718
  0
VERTEX
  8
0
 10
87.5068
 20
100.4336
  0
VERTEX
  8
0
 10
87.4184
 20
100.4448
  0
VERTEX
  8
0
 10
87.4184
 20
100.4517
  0
VERTEX
  8
0
 10
87.4184
 20
100.4611
  0
VERTEX
  8
0
 10
87.41
 20
100.5252
  0
VERTEX
  8
0
 10
87.385
 20
100.577
  0
VERTEX
  8
0
 10
87.3401
 20
100.6159
  0
VERTEX
  8
0
 10
87.2799
 20
100.6293
  0
VERTEX
  8
0
 10
87.2277
 20
100.62
  0
VERTEX
  8
0
 10
87.1866
 20
100.5912
  0
VERTEX
  8
0
 10
87.1597
 20
100.5476
  0
VERTEX
  8
0
 10
87.1504
 20
100.4941
  0
VERTEX
  8
0
 10
87.152
 20
100.4674
  0
VERTEX
  8
0
 10
87.1574
 20
100.4433
  0
VERTEX
  8
0
 10
87.1665
 20
100.4217
  0
VERTEX
  8
0
 10
87.1794
 20
100.4026
  0
VERTEX
  8
0
 10
87.1961
 20
100.386
  0
VERTEX
  8
0
 10
87.2165
 20
100.3719
  0
VERTEX
  8
0
 10
87.2407
 20
100.3604
  0
VERTEX
  8
0
 10
87.2686
 20
100.3513
  0
VERTEX
  8
0
 10
87.3003
 20
100.3448
  0
VERTEX
  8
0
 10
87.2821
 20
100.2435
  0
VERTEX
  8
0
 10
87.2199
 20
100.2607
  0
VERTEX
  8
0
 10
87.1673
 20
100.2884
  0
VERTEX
  8
0
 10
87.1243
 20
100.3265
  0
VERTEX
  8
0
 10
87.0924
 20
100.3738
  0
VERTEX
  8
0
 10
87.0731
 20
100.4288
  0
VERTEX
  8
0
 10
87.0664
 20
100.4918
  0
VERTEX
  8
0
 10
87.0729
 20
100.5538
  0
VERTEX
  8
0
 10
87.0936
 20
100.6116
  0
VERTEX
  8
0
 10
87.1284
 20
100.6643
  0
VERTEX
  8
0
 10
87.1751
 20
100.7029
  0
VERTEX
  8
0
 10
87.227
 20
100.7257
  0
VERTEX
  8
0
 10
87.2821
 20
100.7333
  0
VERTEX
  8
0
 10
87.3188
 20
100.7301
  0
VERTEX
  8
0
 10
87.3521
 20
100.7207
  0
VERTEX
  8
0
 10
87.3818
 20
100.705
  0
VERTEX
  8
0
 10
87.4081
 20
100.6831
  0
VERTEX
  8
0
 10
87.4309
 20
100.6548
  0
VERTEX
  8
0
 10
87.4502
 20
100.6203
  0
VERTEX
  8
0
 10
87.4771
 20
100.6861
  0
VERTEX
  8
0
 10
87.5226
 20
100.7348
  0
VERTEX
  8
0
 10
87.5822
 20
100.7636
  0
VERTEX
  8
0
 10
87.6546
 20
100.7733
  0
VERTEX
  8
0
 10
87.7071
 20
100.7684
  0
VERTEX
  8
0
 10
87.7553
 20
100.7536
  0
VERTEX
  8
0
 10
87.7992
 20
100.7291
  0
VERTEX
  8
0
 10
87.8388
 20
100.6948
  0
VERTEX
  8
0
 10
87.8717
 20
100.6529
  0
VERTEX
  8
0
 10
87.8952
 20
100.6057
  0
VERTEX
  8
0
 10
87.9094
 20
100.5532
  0
VERTEX
  8
0
 10
87.9144
 20
100.4954
  0
VERTEX
  8
0
 10
87.9073
 20
100.4277
  0
VERTEX
  8
0
 10
87.8861
 20
100.368
  0
VERTEX
  8
0
 10
87.8508
 20
100.3162
  0
VERTEX
  8
0
 10
87.8036
 20
100.2751
  0
VERTEX
  8
0
 10
87.7467
 20
100.2475
  0
VERTEX
  8
0
 10
87.6801
 20
100.2333
  0
VERTEX
  8
0
 10
87.6801
 20
100.2333
  0
SEQEND
  0
LINE
  8
0
 10
87.5
 20
100.9702
 11
87.5
 21
102
  0
LINE
  8
0
 10
87.6789
 20
101.6422
 11
87.5
 21
102
  0
LINE
  8
0
 10
87.3211
 20
101.6422
 11
87.5
 21
102
  0
LINE
  8
0
 10
87.5
 20
100.0298
 11
87.5
 21
99
  0
LINE
  8
0
 10
87.3211
 20
99.3578
 11
87.5
 21
99
  0
LINE
  8
0
 10
87.6789
 20
99.3578
 11
87.5
 21
99
  0
LINE
  8
0
 10
87.7
 20
99
 11
86.5
 21
99
  0
POLYLINE
  8
0
 66
     1
 10
0
 20
0
  0
VERTEX
  8
0
 10
63.0024
 20
84.1973
  0
VERTEX
  8
0
 10
63.0024
 20
84.1013
  0
VERTEX
  8
0
 10
62.4584
 20
84.1013
  0
VERTEX
  8
0
 10
62.4624
 20
84.1452
  0
VERTEX
  8
0
 10
62.4768
 20
84.1902
  0
VERTEX
  8
0
 10
62.5015
 20
84.2362
  0
VERTEX
  8
0
 10
62.5366
 20
84.2831
  0
VERTEX
  8
0
 10
62.5931
 20
84.3425
  0
VERTEX
  8
0
 10
62.6694
 20
84.4093
  0
VERTEX
  8
0
 10
62.7301
 20
84.4607
  0
VERTEX
  8
0
 10
62.7782
 20
84.5043
  0
VERTEX
  8
0
 10
62.8134
 20
84.5401
  0
VERTEX
  8
0
 10
62.8506
 20
84.5856
  0
VERTEX
  8
0
 10
62.8771
 20
84.6289
  0
VERTEX
  8
0
 10
62.8931
 20
84.67
  0
VERTEX
  8
0
 10
62.8984
 20
84.7089
  0
VERTEX
  8
0
 10
62.8868
 20
84.7676
  0
VERTEX
  8
0
 10
62.8523
 20
84.814
  0
VERTEX
  8
0
 10
62.803
 20
84.8432
  0
VERTEX
  8
0
 10
62.7431
 20
84.8533
  0
VERTEX
  8
0
 10
62.6759
 20
84.8423
  0
VERTEX
  8
0
 10
62.6249
 20
84.8083
  0
VERTEX
  8
0
 10
62.5927
 20
84.7549
  0
VERTEX
  8
0
 10
62.5816
 20
84.6858
  0
VERTEX
  8
0
 10
62.4776
 20
84.6966
  0
VERTEX
  8
0
 10
62.4864
 20
84.7516
  0
VERTEX
  8
0
 10
62.5027
 20
84.7998
  0
VERTEX
  8
0
 10
62.5266
 20
84.841
  0
VERTEX
  8
0
 10
62.558
 20
84.8754
  0
VERTEX
  8
0
 10
62.6101
 20
84.9098
  0
VERTEX
  8
0
 10
62.6725
 20
84.9304
  0
VERTEX
  8
0
 10
62.7453
 20
84.9373
  0
VERTEX
  8
0
 10
62.8139
 20
84.9306
  0
VERTEX
  8
0
 10
62.8741
 20
84.9107
  0
VERTEX
  8
0
 10
62.9259
 20
84.8775
  0
VERTEX
  8
0
 10
62.9593
 20
84.8428
  0
VERTEX
  8
0
 10
62.9833
 20
84.8025
  0
VERTEX
  8
0
 10
62.9976
 20
84.7567
  0
VERTEX
  8
0
 10
63.0024
 20
84.7054
  0
VERTEX
  8
0
 10
62.9969
 20
84.6555
  0
VERTEX
  8
0
 10
62.9805
 20
84.6054
  0
VERTEX
  8
0
 10
62.9531
 20
84.5552
  0
VERTEX
  8
0
 10
62.9147
 20
84.5049
  0
VERTEX
  8
0
 10
62.8759
 20
84.464
  0
VERTEX
  8
0
 10
62.8241
 20
84.415
  0
VERTEX
  8
0
 10
62.7591
 20
84.3579
  0
VERTEX
  8
0
 10
62.717
 20
84.322
  0
VERTEX
  8
0
 10
62.6884
 20
84.2971
  0
VERTEX
  8
0
 10
62.6731
 20
84.2833
  0
VERTEX
  8
0
 10
62.6311
 20
84.2395
  0
VERTEX
  8
0
 10
62.5994
 20
84.1973
  0
VERTEX
  8
0
 10
63.0024
 20
84.1973
  0
SEQEND
  0
POLYLINE
  8
0
 66
     1
 10
0
 20
0
  0
VERTEX
  8
0
 10
63.1664
 20
84.1013
  0
VERTEX
  8
0
 10
63.1664
 20
84.2213
  0
VERTEX
  8
0
 10
63.2824
 20
84.2213
  0
VERTEX
  8
0
 10
63.2824
 20
84.1013
  0
VERTEX
  8
0
 10
63.1664
 20
84.1013
  0
SEQEND
  0
POLYLINE
  8
0
 66
     1
 10
0
 20
0
  0
VERTEX
  8
0
 10
63.7584
 20
84.1013
  0
VERTEX
  8
0
 10
63.7584
 20
84.3053
  0
VERTEX
  8
0
 10
63.3984
 20
84.3053
  0
VERTEX
  8
0
 10
63.3984
 20
84.3973
  0
VERTEX
  8
0
 10
63.7758
 20
84.9333
  0
VERTEX
  8
0
 10
63.8584
 20
84.9333
  0
VERTEX
  8
0
 10
63.8584
 20
84.3973
  0
VERTEX
  8
0
 10
63.9704
 20
84.3973
  0
VERTEX
  8
0
 10
63.9704
 20
84.3053
  0
VERTEX
  8
0
 10
63.8584
 20
84.3053
  0
VERTEX
  8
0
 10
63.8584
 20
84.1013
  0
VERTEX
  8
0
 10
63.7584
 20
84.1013
  0
SEQEND
  0
POLYLINE
  8
0
 66
     1
 10
0
 20
0
  0
VERTEX
  8
0
 10
63.7584
 20
84.3973
  0
VERTEX
  8
0
 10
63.7584
 20
84.7766
  0
VERTEX
  8
0
 10
63.4956
 20
84.3964
  0
VERTEX
  8
0
 10
63.7584
 20
84.3973
  0
SEQEND
  0
LINE
  8
0
 10
64.4278
 20
84.3
 11
64.4278
 21
85.5
  0
LINE
  8
0
 10
62
 20
84.3
 11
62
 21
85.5
  0
POLYLINE
  8
0
 66
     1
 10
0
 20
0
  0
VERTEX
  8
0
 10
73.2744
 20
84.1013
  0
VERTEX
  8
0
 10
73.1744
 20
84.1013
  0
VERTEX
  8
0
 10
73.1744
 20
84.7524
  0
VERTEX
  8
0
 10
73.0832
 20
84.6837
  0
VERTEX
  8
0
 10
72.9704
 20
84.63
  0
VERTEX
  8
0
 10
72.9704
 20
84.7286
  0
VERTEX
  8
0
 10
73.0261
 20
84.7576
  0
VERTEX
  8
0
 10
73.0755
 20
84.7888
  0
VERTEX
  8
0
 10
73.1184
 20
84.8225
  0
VERTEX
  8
0
 10
73.155
 20
84.8584
  0
VERTEX
  8
0
 10
73.1852
 20
84.8967
  0
VERTEX
  8
0
 10
73.2091
 20
84.9373
  0
VERTEX
  8
0
 10
73.2744
 20
84.9373
  0
VERTEX
  8
0
 10
73.2744
 20
84.1013
  0
SEQEND
  0
POLYLINE
  8
0
 66
     1
 10
0
 20
0
  0
VERTEX
  8
0
 10
73.5349
 20
84.2519
  0
VERTEX
  8
0
 10
73.6328
 20
84.261
  0
VERTEX
  8
0
 10
73.6478
 20
84.2252
  0
VERTEX
  8
0
 10
73.6803
 20
84.1945
  0
VERTEX
  8
0
 10
73.7204
 20
84.1789
  0
VERTEX
  8
0
 10
73.7809
 20
84.1733
  0
VERTEX
  8
0
 10
73.8243
 20
84.1784
  0
VERTEX
  8
0
 10
73.8629
 20
84.1948
  0
VERTEX
  8
0
 10
73.8942
 20
84.2198
  0
VERTEX
  8
0
 10
73.9206
 20
84.2539
  0
VERTEX
  8
0
 10
73.9423
 20
84.2971
  0
VERTEX
  8
0
 10
73.9591
 20
84.3495
  0
VERTEX
  8
0
 10
73.9706
 20
84.4107
  0
VERTEX
  8
0
 10
73.9744
 20
84.4742
  0
VERTEX
  8
0
 10
73.9742
 20
84.485
  0
VERTEX
  8
0
 10
73.9738
 20
84.4946
  0
VERTEX
  8
0
 10
73.9493
 20
84.4613
  0
VERTEX
  8
0
 10
73.9214
 20
84.4341
  0
VERTEX
  8
0
 10
73.8901
 20
84.4129
  0
VERTEX
  8
0
 10
73.8554
 20
84.3977
  0
VERTEX
  8
0
 10
73.8173
 20
84.3885
  0
VERTEX
  8
0
 10
73.7759
 20
84.3853
  0
VERTEX
  8
0
 10
73.7228
 20
84.3901
  0
VERTEX
  8
0
 10
73.6751
 20
84.4052
  0
VERTEX
  8
0
 10
73.6326
 20
84.4306
  0
VERTEX
  8
0
 10
73.5954
 20
84.4662
  0
VERTEX
  8
0
 10
73.5593
 20
84.5219
  0
VERTEX
  8
0
 10
73.5376
 20
84.5855
  0
VERTEX
  8
0
 10
73.5304
 20
84.657
  0
VERTEX
  8
0
 10
73.535
 20
84.7173
  0
VERTEX
  8
0
 10
73.5489
 20
84.7712
  0
VERTEX
  8
0
 10
73.572
 20
84.8189
  0
VERTEX
  8
0
 10
73.6043
 20
84.8603
  0
VERTEX
  8
0
 10
73.6437
 20
84.8937
  0
VERTEX
  8
0
 10
73.6878
 20
84.9177
  0
VERTEX
  8
0
 10
73.7368
 20
84.9322
  0
VERTEX
  8
0
 10
73.7905
 20
84.9373
  0
VERTEX
  8
0
 10
73.8697
 20
84.9264
  0
VERTEX
  8
0
 10
73.9401
 20
84.8925
  0
VERTEX
  8
0
 10
73.9979
 20
84.839
  0
VERTEX
  8
0
 10
74.0394
 20
84.769
  0
VERTEX
  8
0
 10
74.0588
 20
84.7071
  0
VERTEX
  8
0
 10
74.0705
 20
84.6293
  0
VERTEX
  8
0
 10
74.0744
 20
84.5356
  0
VERTEX
  8
0
 10
74.0734
 20
84.4874
  0
VERTEX
  8
0
 10
74.0706
 20
84.4418
  0
VERTEX
  8
0
 10
74.0658
 20
84.3991
  0
VERTEX
  8
0
 10
74.0591
 20
84.3591
  0
VERTEX
  8
0
 10
74.0506
 20
84.3219
  0
VERTEX
  8
0
 10
74.0401
 20
84.2874
  0
VERTEX
  8
0
 10
74.0277
 20
84.2557
  0
VERTEX
  8
0
 10
74.0134
 20
84.2268
  0
VERTEX
  8
0
 10
73.9972
 20
84.2006
  0
VERTEX
  8
0
 10
73.9792
 20
84.1771
  0
VERTEX
  8
0
 10
73.9592
 20
84.1565
  0
VERTEX
  8
0
 10
73.9373
 20
84.1386
  0
VERTEX
  8
0
 10
73.8636
 20
84.1016
  0
VERTEX
  8
0
 10
73.7781
 20
84.0893
  0
VERTEX
  8
0
 10
73.7231
 20
84.092
  0
VERTEX
  8
0
 10
73.6766
 20
84.1002
  0
VERTEX
  8
0
 10
73.6385
 20
84.114
  0
VERTEX
  8
0
 10
73.6089
 20
84.1332
  0
VERTEX
  8
0
 10
73.5571
 20
84.1917
  0
VERTEX
  8
0
 10
73.5349
 20
84.2519
  0
VERTEX
  8
0
 10
73.5349
 20
84.2519
  0
SEQEND
  0
POLYLINE
  8
0
 66
     1
 10
0
 20
0
  0
VERTEX
  8
0
 10
73.9624
 20
84.6613
  0
VERTEX
  8
0
 10
73.9523
 20
84.7332
  0
VERTEX
  8
0
 10
73.9221
 20
84.7929
  0
VERTEX
  8
0
 10
73.8893
 20
84.8262
  0
VERTEX
  8
0
 10
73.8496
 20
84.8463
  0
VERTEX
  8
0
 10
73.8032
 20
84.8533
  0
VERTEX
  8
0
 10
73.7553
 20
84.8465
  0
VERTEX
  8
0
 10
73.7138
 20
84.8254
  0
VERTEX
  8
0
 10
73.6786
 20
84.79
  0
VERTEX
  8
0
 10
73.6457
 20
84.7269
  0
VERTEX
  8
0
 10
73.6344
 20
84.6527
  0
VERTEX
  8
0
 10
73.6453
 20
84.5828
  0
VERTEX
  8
0
 10
73.6791
 20
84.5257
  0
VERTEX
  8
0
 10
73.7327
 20
84.4864
  0
VERTEX
  8
0
 10
73.8004
 20
84.4733
  0
VERTEX
  8
0
 10
73.8487
 20
84.4795
  0
VERTEX
  8
0
 10
73.8892
 20
84.4981
  0
VERTEX
  8
0
 10
73.9221
 20
84.5291
  0
VERTEX
  8
0
 10
73.9523
 20
84.5881
  0
VERTEX
  8
0
 10
73.9624
 20
84.6613
  0
VERTEX
  8
0
 10
73.9624
 20
84.6613
  0
SEQEND
  0
POLYLINE
  8
0
 66
     1
 10
0
 20
0
  0
VERTEX
  8
0
 10
74.2264
 20
84.1013
  0
VERTEX
  8
0
 10
74.2264
 20
84.2213
  0
VERTEX
  8
0
 10
74.3424
 20
84.2213
  0
VERTEX
  8
0
 10
74.3424
 20
84.1013
  0
VERTEX
  8
0
 10
74.2264
 20
84.1013
  0
SEQEND
  0
POLYLINE
  8
0
 66
     1
 10
0
 20
0
  0
VERTEX
  8
0
 10
75.0264
 20
84.1973
  0
VERTEX
  8
0
 10
75.0264
 20
84.1013
  0
VERTEX
  8
0
 10
74.4824
 20
84.1013
  0
VERTEX
  8
0
 10
74.4864
 20
84.1452
  0
VERTEX
  8
0
 10
74.5008
 20
84.1902
  0
VERTEX
  8
0
 10
74.5255
 20
84.2362
  0
VERTEX
  8
0
 10
74.5606
 20
84.2831
  0
VERTEX
  8
0
 10
74.6171
 20
84.3425
  0
VERTEX
  8
0
 10
74.6934
 20
84.4093
  0
VERTEX
  8
0
 10
74.7541
 20
84.4607
  0
VERTEX
  8
0
 10
74.8022
 20
84.5043
  0
VERTEX
  8
0
 10
74.8374
 20
84.5401
  0
VERTEX
  8
0
 10
74.8746
 20
84.5856
  0
VERTEX
  8
0
 10
74.9011
 20
84.6289
  0
VERTEX
  8
0
 10
74.9171
 20
84.67
  0
VERTEX
  8
0
 10
74.9224
 20
84.7089
  0
VERTEX
  8
0
 10
74.9108
 20
84.7676
  0
VERTEX
  8
0
 10
74.8763
 20
84.814
  0
VERTEX
  8
0
 10
74.827
 20
84.8432
  0
VERTEX
  8
0
 10
74.7671
 20
84.8533
  0
VERTEX
  8
0
 10
74.6999
 20
84.8423
  0
VERTEX
  8
0
 10
74.6489
 20
84.8083
  0
VERTEX
  8
0
 10
74.6167
 20
84.7549
  0
VERTEX
  8
0
 10
74.6056
 20
84.6858
  0
VERTEX
  8
0
 10
74.5016
 20
84.6966
  0
VERTEX
  8
0
 10
74.5104
 20
84.7516
  0
VERTEX
  8
0
 10
74.5267
 20
84.7998
  0
VERTEX
  8
0
 10
74.5506
 20
84.841
  0
VERTEX
  8
0
 10
74.582
 20
84.8754
  0
VERTEX
  8
0
 10
74.6341
 20
84.9098
  0
VERTEX
  8
0
 10
74.6965
 20
84.9304
  0
VERTEX
  8
0
 10
74.7693
 20
84.9373
  0
VERTEX
  8
0
 10
74.8379
 20
84.9306
  0
VERTEX
  8
0
 10
74.8981
 20
84.9107
  0
VERTEX
  8
0
 10
74.9499
 20
84.8775
  0
VERTEX
  8
0
 10
74.9833
 20
84.8428
  0
VERTEX
  8
0
 10
75.0073
 20
84.8025
  0
VERTEX
  8
0
 10
75.0216
 20
84.7567
  0
VERTEX
  8
0
 10
75.0264
 20
84.7054
  0
VERTEX
  8
0
 10
75.0209
 20
84.6555
  0
VERTEX
  8
0
 10
75.0045
 20
84.6054
  0
VERTEX
  8
0
 10
74.9771
 20
84.5552
  0
VERTEX
  8
0
 10
74.9387
 20
84.5049
  0
VERTEX
  8
0
 10
74.8999
 20
84.464
  0
VERTEX
  8
0
 10
74.8481
 20
84.415
  0
VERTEX
  8
0
 10
74.7831
 20
84.3579
  0
VERTEX
  8
0
 10
74.741
 20
84.322
  0
VERTEX
  8
0
 10
74.7124
 20
84.2971
  0
VERTEX
  8
0
 10
74.6971
 20
84.2833
  0
VERTEX
  8
0
 10
74.6551
 20
84.2395
  0
VERTEX
  8
0
 10
74.6234
 20
84.1973
  0
VERTEX
  8
0
 10
75.0264
 20
84.1973
  0
SEQEND
  0
LINE
  8
0
 10
75.2283
 20
84.5
 11
83.5722
 21
84.5
  0
LINE
  8
0
 10
83.2145
 20
84.3211
 11
83.5722
 21
84.5
  0
LINE
  8
0
 10
83.2145
 20
84.6789
 11
83.5722
 21
84.5
  0
LINE
  8
0
 10
83.5722
 20
84.3
 11
83.5722
 21
85.5
  0
LINE
  8
0
 10
72.7717
 20
84.5
 11
64.4278
 21
84.5
  0
LINE
  8
0
 10
64.7855
 20
84.6789
 11
64.4278
 21
84.5
  0
LINE
  8
0
 10
64.7855
 20
84.3211
 11
64.4278
 21
84.5
  0
POLYLINE
  8
0
 66
     1
 10
0
 20
0
  0
VERTEX
  8
0
 10
87.8064
 20
98.2773
  0
VERTEX
  8
0
 10
87.9024
 20
98.2773
  0
VERTEX
  8
0
 10
87.9024
 20
97.7333
  0
VERTEX
  8
0
 10
87.8584
 20
97.7373
  0
VERTEX
  8
0
 10
87.8134
 20
97.7517
  0
VERTEX
  8
0
 10
87.7675
 20
97.7764
  0
VERTEX
  8
0
 10
87.7205
 20
97.8115
  0
VERTEX
  8
0
 10
87.6611
 20
97.868
  0
VERTEX
  8
0
 10
87.5943
 20
97.9443
  0
VERTEX
  8
0
 10
87.5429
 20
98.005
  0
VERTEX
  8
0
 10
87.4993
 20
98.053
  0
VERTEX
  8
0
 10
87.4636
 20
98.0883
  0
VERTEX
  8
0
 10
87.4181
 20
98.1255
  0
VERTEX
  8
0
 10
87.3748
 20
98.152
  0
VERTEX
  8
0
 10
87.3337
 20
98.168
  0
VERTEX
  8
0
 10
87.2948
 20
98.1733
  0
VERTEX
  8
0
 10
87.2361
 20
98.1617
  0
VERTEX
  8
0
 10
87.1896
 20
98.1271
  0
VERTEX
  8
0
 10
87.1605
 20
98.0779
  0
VERTEX
  8
0
 10
87.1504
 20
98.018
  0
VERTEX
  8
0
 10
87.1613
 20
97.9507
  0
VERTEX
  8
0
 10
87.1954
 20
97.8998
  0
VERTEX
  8
0
 10
87.2488
 20
97.8676
  0
VERTEX
  8
0
 10
87.3178
 20
97.8565
  0
VERTEX
  8
0
 10
87.307
 20
97.7525
  0
VERTEX
  8
0
 10
87.252
 20
97.7613
  0
VERTEX
  8
0
 10
87.2039
 20
97.7776
  0
VERTEX
  8
0
 10
87.1626
 20
97.8015
  0
VERTEX
  8
0
 10
87.1283
 20
97.8329
  0
VERTEX
  8
0
 10
87.0939
 20
97.885
  0
VERTEX
  8
0
 10
87.0733
 20
97.9474
  0
VERTEX
  8
0
 10
87.0664
 20
98.0202
  0
VERTEX
  8
0
 10
87.073
 20
98.0888
  0
VERTEX
  8
0
 10
87.093
 20
98.149
  0
VERTEX
  8
0
 10
87.1262
 20
98.2008
  0
VERTEX
  8
0
 10
87.1609
 20
98.2342
  0
VERTEX
  8
0
 10
87.2011
 20
98.2581
  0
VERTEX
  8
0
 10
87.2469
 20
98.2725
  0
VERTEX
  8
0
 10
87.2983
 20
98.2773
  0
VERTEX
  8
0
 10
87.3482
 20
98.2718
  0
VERTEX
  8
0
 10
87.3982
 20
98.2553
  0
VERTEX
  8
0
 10
87.4484
 20
98.2279
  0
VERTEX
  8
0
 10
87.4988
 20
98.1896
  0
VERTEX
  8
0
 10
87.5396
 20
98.1508
  0
VERTEX
  8
0
 10
87.5886
 20
98.0989
  0
VERTEX
  8
0
 10
87.6458
 20
98.034
  0
VERTEX
  8
0
 10
87.6816
 20
97.9919
  0
VERTEX
  8
0
 10
87.7065
 20
97.9633
  0
VERTEX
  8
0
 10
87.7204
 20
97.948
  0
VERTEX
  8
0
 10
87.7641
 20
97.906
  0
VERTEX
  8
0
 10
87.8064
 20
97.8743
  0
VERTEX
  8
0
 10
87.8064
 20
98.2773
  0
SEQEND
  0
LINE
  8
0
 10
87.5
 20
98.4743
 11
87.5
 21
99
  0
LINE
  8
0
 10
87.6789
 20
98.6422
 11
87.5
 21
99
  0
LINE
  8
0
 10
87.3211
 20
98.6422
 11
87.5
 21
99
  0
LINE
  8
0
 10
87.5
 20
97.5257
 11
87.5
 21
97
  0
LINE
  8
0
 10
87.3211
 20
97.3578
 11
87.5
 21
97
  0
LINE
  8
0
 10
87.6789
 20
97.3578
 11
87.5
 21
97
  0
LINE
  8
0
 10
87.7
 20
97
 11
86.5
 21
97
  0
POLYLINE
  8
0
 66
     1
 10
0
 20
0
  0
VERTEX
  8
0
 10
87.6801
 20
95.2333
  0
VERTEX
  8
0
 10
87.6665
 20
95.3344
  0
VERTEX
  8
0
 10
87.7008
 20
95.3426
  0
VERTEX
  8
0
 10
87.7311
 20
95.3532
  0
VERTEX
  8
0
 10
87.7573
 20
95.3663
  0
VERTEX
  8
0
 10
87.7795
 20
95.3818
  0
VERTEX
  8
0
 10
87.7977
 20
95.3997
  0
VERTEX
  8
0
 10
87.8119
 20
95.42
  0
VERTEX
  8
0
 10
87.8221
 20
95.4428
  0
VERTEX
  8
0
 10
87.8282
 20
95.468
  0
VERTEX
  8
0
 10
87.8304
 20
95.4956
  0
VERTEX
  8
0
 10
87.8182
 20
95.562
  0
VERTEX
  8
0
 10
87.7803
 20
95.6164
  0
VERTEX
  8
0
 10
87.7241
 20
95.6528
  0
VERTEX
  8
0
 10
87.6564
 20
95.6653
  0
VERTEX
  8
0
 10
87.5921
 20
95.6542
  0
VERTEX
  8
0
 10
87.5402
 20
95.6199
  0
VERTEX
  8
0
 10
87.5058
 20
95.5681
  0
VERTEX
  8
0
 10
87.4944
 20
95.5046
  0
VERTEX
  8
0
 10
87.4975
 20
95.4718
  0
VERTEX
  8
0
 10
87.5068
 20
95.4336
  0
VERTEX
  8
0
 10
87.4184
 20
95.4448
  0
VERTEX
  8
0
 10
87.4184
 20
95.4517
  0
VERTEX
  8
0
 10
87.4184
 20
95.4611
  0
VERTEX
  8
0
 10
87.41
 20
95.5252
  0
VERTEX
  8
0
 10
87.385
 20
95.577
  0
VERTEX
  8
0
 10
87.3401
 20
95.6159
  0
VERTEX
  8
0
 10
87.2799
 20
95.6293
  0
VERTEX
  8
0
 10
87.2277
 20
95.62
  0
VERTEX
  8
0
 10
87.1866
 20
95.5912
  0
VERTEX
  8
0
 10
87.1597
 20
95.5476
  0
VERTEX
  8
0
 10
87.1504
 20
95.4941
  0
VERTEX
  8
0
 10
87.152
 20
95.4674
  0
VERTEX
  8
0
 10
87.1574
 20
95.4433
  0
VERTEX
  8
0
 10
87.1665
 20
95.4217
  0
VERTEX
  8
0
 10
87.1794
 20
95.4026
  0
VERTEX
  8
0
 10
87.1961
 20
95.386
  0
VERTEX
  8
0
 10
87.2165
 20
95.3719
  0
VERTEX
  8
0
 10
87.2407
 20
95.3604
  0
VERTEX
  8
0
 10
87.2686
 20
95.3513
  0
VERTEX
  8
0
 10
87.3003
 20
95.3448
  0
VERTEX
  8
0
 10
87.2821
 20
95.2435
  0
VERTEX
  8
0
 10
87.2199
 20
95.2607
  0
VERTEX
  8
0
 10
87.1673
 20
95.2884
  0
VERTEX
  8
0
 10
87.1243
 20
95.3265
  0
VERTEX
  8
0
 10
87.0924
 20
95.3738
  0
VERTEX
  8
0
 10
87.0731
 20
95.4288
  0
VERTEX
  8
0
 10
87.0664
 20
95.4918
  0
VERTEX
  8
0
 10
87.0729
 20
95.5538
  0
VERTEX
  8
0
 10
87.0936
 20
95.6116
  0
VERTEX
  8
0
 10
87.1284
 20
95.6643
  0
VERTEX
  8
0
 10
87.1751
 20
95.7029
  0
VERTEX
  8
0
 10
87.227
 20
95.7257
  0
VERTEX
  8
0
 10
87.2821
 20
95.7333
  0
VERTEX
  8
0
 10
87.3188
 20
95.7301
  0
VERTEX
  8
0
 10
87.3521
 20
95.7207
  0
VERTEX
  8
0
 10
87.3818
 20
95.705
  0
VERTEX
  8
0
 10
87.4081
 20
95.6831
  0
VERTEX
  8
0
 10
87.4309
 20
95.6548
  0
VERTEX
  8
0
 10
87.4502
 20
95.6203
  0
VERTEX
  8
0
 10
87.4771
 20
95.6861
  0
VERTEX
  8
0
 10
87.5226
 20
95.7348
  0
VERTEX
  8
0
 10
87.5822
 20
95.7636
  0
VERTEX
  8
0
 10
87.6546
 20
95.7733
  0
VERTEX
  8
0
 10
87.7071
 20
95.7684
  0
VERTEX
  8
0
 10
87.7553
 20
95.7536
  0
VERTEX
  8
0
 10
87.7992
 20
95.7291
  0
VERTEX
  8
0
 10
87.8388
 20
95.6948
  0
VERTEX
  8
0
 10
87.8717
 20
95.6529
  0
VERTEX
  8
0
 10
87.8952
 20
95.6057
  0
VERTEX
  8
0
 10
87.9094
 20
95.5532
  0
VERTEX
  8
0
 10
87.9144
 20
95.4954
  0
VERTEX
  8
0
 10
87.9073
 20
95.4277
  0
VERTEX
  8
0
 10
87.8861
 20
95.368
  0
VERTEX
  8
0
 10
87.8508
 20
95.3162
  0
VERTEX
  8
0
 10
87.8036
 20
95.2751
  0
VERTEX
  8
0
 10
87.7467
 20
95.2475
  0
VERTEX
  8
0
 10
87.6801
 20
95.2333
  0
VERTEX
  8
0
 10
87.6801
 20
95.2333
  0
SEQEND
  0
LINE
  8
0
 10
87.5
 20
95.9702
 11
87.5
 21
97
  0
LINE
  8
0
 10
87.6789
 20
96.6422
 11
87.5
 21
97
  0
LINE
  8
0
 10
87.3211
 20
96.6422
 11
87.5
 21
97
  0
LINE
  8
0
 10
87.5
 20
95.0298
 11
87.5
 21
94
  0
LINE
  8
0
 10
87.3211
 20
94.3578
 11
87.5
 21
94
  0
LINE
  8
0
 10
87.6789
 20
94.3578
 11
87.5
 21
94
  0
LINE
  8
0
 10
87.7
 20
94
 11
86.5
 21
94
  0
POLYLINE
  8
0
 66
     1
 10
0
 20
0
  0
VERTEX
  8
0
 10
65.6358
 20
82.5538
  0
VERTEX
  8
0
 10
65.6025
 20
82.5683
  0
VERTEX
  8
0
 10
65.5744
 20
82.5861
  0
VERTEX
  8
0
 10
65.5513
 20
82.6071
  0
VERTEX
  8
0
 10
65.5334
 20
82.6313
  0
VERTEX
  8
0
 10
65.5206
 20
82.6587
  0
VERTEX
  8
0
 10
65.5129
 20
82.6893
  0
VERTEX
  8
0
 10
65.5104
 20
82.7231
  0
VERTEX
  8
0
 10
65.5148
 20
82.77
  0
VERTEX
  8
0
 10
65.5282
 20
82.8119
  0
VERTEX
  8
0
 10
65.5505
 20
82.849
  0
VERTEX
  8
0
 10
65.5818
 20
82.8812
  0
VERTEX
  8
0
 10
65.6298
 20
82.9121
  0
VERTEX
  8
0
 10
65.6855
 20
82.9308
  0
VERTEX
  8
0
 10
65.7489
 20
82.9373
  0
VERTEX
  8
0
 10
65.8125
 20
82.9309
  0
VERTEX
  8
0
 10
65.8688
 20
82.9118
  0
VERTEX
  8
0
 10
65.9178
 20
82.8801
  0
VERTEX
  8
0
 10
65.9496
 20
82.8471
  0
VERTEX
  8
0
 10
65.9722
 20
82.8095
  0
VERTEX
  8
0
 10
65.9858
 20
82.7673
  0
VERTEX
  8
0
 10
65.9904
 20
82.7203
  0
VERTEX
  8
0
 10
65.9879
 20
82.6876
  0
VERTEX
  8
0
 10
65.9804
 20
82.6579
  0
VERTEX
  8
0
 10
65.9678
 20
82.6312
  0
VERTEX
  8
0
 10
65.9503
 20
82.6074
  0
VERTEX
  8
0
 10
65.9278
 20
82.5865
  0
VERTEX
  8
0
 10
65.9002
 20
82.5687
  0
VERTEX
  8
0
 10
65.8677
 20
82.5538
  0
VERTEX
  8
0
 10
65.9
 20
82.5412
  0
VERTEX
  8
0
 10
65.9286
 20
82.5258
  0
VERTEX
  8
0
 10
65.9534
 20
82.5077
  0
VERTEX
  8
0
 10
65.9744
 20
82.4868
  0
VERTEX
  8
0
 10
65.9915
 20
82.4631
  0
VERTEX
  8
0
 10
66.0049
 20
82.4367
  0
VERTEX
  8
0
 10
66.0145
 20
82.4075
  0
VERTEX
  8
0
 10
66.0204
 20
82.3755
  0
VERTEX
  8
0
 10
66.0224
 20
82.3408
  0
VERTEX
  8
0
 10
66.0176
 20
82.2866
  0
VERTEX
  8
0
 10
66.0025
 20
82.2378
  0
VERTEX
  8
0
 10
65.9773
 20
82.1945
  0
VERTEX
  8
0
 10
65.9419
 20
82.1567
  0
VERTEX
  8
0
 10
65.8865
 20
82.1192
  0
VERTEX
  8
0
 10
65.8227
 20
82.0968
  0
VERTEX
  8
0
 10
65.7504
 20
82.0893
  0
VERTEX
  8
0
 10
65.6769
 20
82.0968
  0
VERTEX
  8
0
 10
65.6127
 20
82.1195
  0
VERTEX
  8
0
 10
65.5578
 20
82.1573
  0
VERTEX
  8
0
 10
65.5232
 20
82.1955
  0
VERTEX
  8
0
 10
65.4985
 20
82.2392
  0
VERTEX
  8
0
 10
65.4836
 20
82.2886
  0
VERTEX
  8
0
 10
65.4784
 20
82.3436
  0
VERTEX
  8
0
 10
65.4799
 20
82.3759
  0
VERTEX
  8
0
 10
65.4845
 20
82.4056
  0
VERTEX
  8
0
 10
65.4923
 20
82.4329
  0
VERTEX
  8
0
 10
65.5033
 20
82.4577
  0
VERTEX
  8
0
 10
65.5175
 20
82.48
  0
VERTEX
  8
0
 10
65.5348
 20
82.4997
  0
VERTEX
  8
0
 10
65.5553
 20
82.517
  0
VERTEX
  8
0
 10
65.579
 20
82.5318
  0
VERTEX
  8
0
 10
65.6058
 20
82.544
  0
VERTEX
  8
0
 10
65.6358
 20
82.5538
  0
VERTEX
  8
0
 10
65.6358
 20
82.5538
  0
SEQEND
  0
POLYLINE
  8
0
 66
     1
 10
0
 20
0
  0
VERTEX
  8
0
 10
65.6144
 20
82.7266
  0
VERTEX
  8
0
 10
65.6235
 20
82.674
  0
VERTEX
  8
0
 10
65.6519
 20
82.6311
  0
VERTEX
  8
0
 10
65.6959
 20
82.6027
  0
VERTEX
  8
0
 10
65.7515
 20
82.5933
  0
VERTEX
  8
0
 10
65.8042
 20
82.6022
  0
VERTEX
  8
0
 10
65.8474
 20
82.6289
  0
VERTEX
  8
0
 10
65.8764
 20
82.6697
  0
VERTEX
  8
0
 10
65.8864
 20
82.721
  0
VERTEX
  8
0
 10
65.877
 20
82.7717
  0
VERTEX
  8
0
 10
65.8477
 20
82.8143
  0
VERTEX
  8
0
 10
65.8037
 20
82.8432
  0
VERTEX
  8
0
 10
65.7504
 20
82.8533
  0
VERTEX
  8
0
 10
65.6962
 20
82.8437
  0
VERTEX
  8
0
 10
65.6508
 20
82.8137
  0
VERTEX
  8
0
 10
65.6238
 20
82.7738
  0
VERTEX
  8
0
 10
65.6144
 20
82.7266
  0
VERTEX
  8
0
 10
65.6144
 20
82.7266
  0
SEQEND
  0
POLYLINE
  8
0
 66
     1
 10
0
 20
0
  0
VERTEX
  8
0
 10
65.5824
 20
82.343
  0
VERTEX
  8
0
 10
65.5855
 20
82.3043
  0
VERTEX
  8
0
 10
65.5952
 20
82.2702
  0
VERTEX
  8
0
 10
65.6115
 20
82.2407
  0
VERTEX
  8
0
 10
65.6344
 20
82.2157
  0
VERTEX
  8
0
 10
65.664
 20
82.1953
  0
VERTEX
  8
0
 10
65.7058
 20
82.1788
  0
VERTEX
  8
0
 10
65.7513
 20
82.1733
  0
VERTEX
  8
0
 10
65.8175
 20
82.1849
  0
VERTEX
  8
0
 10
65.8711
 20
82.2199
  0
VERTEX
  8
0
 10
65.9066
 20
82.2732
  0
VERTEX
  8
0
 10
65.9184
 20
82.3396
  0
VERTEX
  8
0
 10
65.9063
 20
82.4067
  0
VERTEX
  8
0
 10
65.87
 20
82.4609
  0
VERTEX
  8
0
 10
65.8152
 20
82.4969
  0
VERTEX
  8
0
 10
65.7478
 20
82.5093
  0
VERTEX
  8
0
 10
65.6822
 20
82.4979
  0
VERTEX
  8
0
 10
65.6294
 20
82.4626
  0
VERTEX
  8
0
 10
65.5944
 20
82.4091
  0
VERTEX
  8
0
 10
65.5824
 20
82.343
  0
VERTEX
  8
0
 10
65.5824
 20
82.343
  0
SEQEND
  0
POLYLINE
  8
0
 66
     1
 10
0
 20
0
  0
VERTEX
  8
0
 10
66.1784
 20
82.1013
  0
VERTEX
  8
0
 10
66.1784
 20
82.2213
  0
VERTEX
  8
0
 10
66.2944
 20
82.2213
  0
VERTEX
  8
0
 10
66.2944
 20
82.1013
  0
VERTEX
  8
0
 10
66.1784
 20
82.1013
  0
SEQEND
  0
POLYLINE
  8
0
 66
     1
 10
0
 20
0
  0
VERTEX
  8
0
 10
66.4424
 20
82.3218
  0
VERTEX
  8
0
 10
66.5489
 20
82.331
  0
VERTEX
  8
0
 10
66.5555
 20
82.2979
  0
VERTEX
  8
0
 10
66.5649
 20
82.2687
  0
VERTEX
  8
0
 10
66.577
 20
82.2433
  0
VERTEX
  8
0
 10
66.5919
 20
82.2219
  0
VERTEX
  8
0
 10
66.6096
 20
82.2044
  0
VERTEX
  8
0
 10
66.63
 20
82.1908
  0
VERTEX
  8
0
 10
66.6532
 20
82.1811
  0
VERTEX
  8
0
 10
66.6791
 20
82.1752
  0
VERTEX
  8
0
 10
66.7078
 20
82.1733
  0
VERTEX
  8
0
 10
66.7582
 20
82.1802
  0
VERTEX
  8
0
 10
66.8014
 20
82.201
  0
VERTEX
  8
0
 10
66.8373
 20
82.2358
  0
VERTEX
  8
0
 10
66.8711
 20
82.2994
  0
VERTEX
  8
0
 10
66.8824
 20
82.3766
  0
VERTEX
  8
0
 10
66.8707
 20
82.4527
  0
VERTEX
  8
0
 10
66.8356
 20
82.5127
  0
VERTEX
  8
0
 10
66.8005
 20
82.5417
  0
VERTEX
  8
0
 10
66.7573
 20
82.5592
  0
VERTEX
  8
0
 10
66.7061
 20
82.5653
  0
VERTEX
  8
0
 10
66.6603
 20
82.5604
  0
VERTEX
  8
0
 10
66.62
 20
82.5452
  0
VERTEX
  8
0
 10
66.5851
 20
82.5197
  0
VERTEX
  8
0
 10
66.5556
 20
82.4838
  0
VERTEX
  8
0
 10
66.4604
 20
82.4963
  0
VERTEX
  8
0
 10
66.5406
 20
82.9213
  0
VERTEX
  8
0
 10
66.9519
 20
82.9213
  0
VERTEX
  8
0
 10
66.9519
 20
82.8253
  0
VERTEX
  8
0
 10
66.6243
 20
82.8253
  0
VERTEX
  8
0
 10
66.578
 20
82.6016
  0
VERTEX
  8
0
 10
66.6541
 20
82.6401
  0
VERTEX
  8
0
 10
66.7338
 20
82.6533
  0
VERTEX
  8
0
 10
66.7876
 20
82.6486
  0
VERTEX
  8
0
 10
66.8365
 20
82.634
  0
VERTEX
  8
0
 10
66.8805
 20
82.6096
  0
VERTEX
  8
0
 10
66.9195
 20
82.5752
  0
VERTEX
  8
0
 10
66.9505
 20
82.5346
  0
VERTEX
  8
0
 10
66.9727
 20
82.4894
  0
VERTEX
  8
0
 10
66.9859
 20
82.4393
  0
VERTEX
  8
0
 10
66.9904
 20
82.3846
  0
VERTEX
  8
0
 10
66.9831
 20
82.3132
  0
VERTEX
  8
0
 10
66.9613
 20
82.2483
  0
VERTEX
  8
0
 10
66.925
 20
82.19
  0
VERTEX
  8
0
 10
66.8909
 20
82.1539
  0
VERTEX
  8
0
 10
66.8521
 20
82.1258
  0
VERTEX
  8
0
 10
66.8087
 20
82.1056
  0
VERTEX
  8
0
 10
66.7606
 20
82.0935
  0
VERTEX
  8
0
 10
66.7079
 20
82.0893
  0
VERTEX
  8
0
 10
66.6389
 20
82.096
  0
VERTEX
  8
0
 10
66.5784
 20
82.1163
  0
VERTEX
  8
0
 10
66.5264
 20
82.1501
  0
VERTEX
  8
0
 10
66.4845
 20
82.197
  0
VERTEX
  8
0
 10
66.4565
 20
82.2542
  0
VERTEX
  8
0
 10
66.4424
 20
82.3218
  0
VERTEX
  8
0
 10
66.4424
 20
82.3218
  0
SEQEND
  0
LINE
  8
0
 10
67.1893
 20
82.5
 11
70.4666
 21
82.5
  0
LINE
  8
0
 10
70.1088
 20
82.3211
 11
70.4666
 21
82.5
  0
LINE
  8
0
 10
70.1088
 20
82.6789
 11
70.4666
 21
82.5
  0
LINE
  8
0
 10
70.4666
 20
82.3
 11
70.4666
 21
83.5
  0
LINE
  8
0
 10
65.2773
 20
82.5
 11
62
 21
82.5
  0
LINE
  8
0
 10
62.3578
 20
82.6789
 11
62
 21
82.5
  0
LINE
  8
0
 10
62.3578
 20
82.3211
 11
62
 21
82.5
  0
LINE
  8
0
 10
62
 20
82.3
 11
62
 21
83.5
  0
POLYLINE
  8
0
 66
     1
 10
0
 20
0
  0
VERTEX
  8
0
 10
73.7304
 20
82.8253
  0
VERTEX
  8
0
 10
73.7304
 20
82.9213
  0
VERTEX
  8
0
 10
74.2658
 20
82.9213
  0
VERTEX
  8
0
 10
74.2658
 20
82.842
  0
VERTEX
  8
0
 10
74.1871
 20
82.7436
  0
VERTEX
  8
0
 10
74.1089
 20
82.6175
  0
VERTEX
  8
0
 10
74.0415
 20
82.4784
  0
VERTEX
  8
0
 10
73.9893
 20
82.3296
  0
VERTEX
  8
0
 10
73.9644
 20
82.2201
  0
VERTEX
  8
0
 10
73.9504
 20
82.1013
  0
VERTEX
  8
0
 10
73.846
 20
82.1013
  0
VERTEX
  8
0
 10
73.8583
 20
82.2249
  0
VERTEX
  8
0
 10
73.8906
 20
82.3615
  0
VERTEX
  8
0
 10
73.9344
 20
82.4888
  0
VERTEX
  8
0
 10
73.9893
 20
82.607
  0
VERTEX
  8
0
 10
74.0603
 20
82.7267
  0
VERTEX
  8
0
 10
74.1354
 20
82.8253
  0
VERTEX
  8
0
 10
73.7304
 20
82.8253
  0
SEQEND
  0
LINE
  8
0
 10
74.4681
 20
82.5
 11
77.5334
 21
82.5
  0
LINE
  8
0
 10
77.1757
 20
82.3211
 11
77.5334
 21
82.5
  0
LINE
  8
0
 10
77.1757
 20
82.6789
 11
77.5334
 21
82.5
  0
LINE
  8
0
 10
77.5334
 20
82.3
 11
77.5334
 21
83.5
  0
LINE
  8
0
 10
73.5319
 20
82.5
 11
70.4666
 21
82.5
  0
LINE
  8
0
 10
70.8243
 20
82.6789
 11
70.4666
 21
82.5
  0
LINE
  8
0
 10
70.8243
 20
82.3211
 11
70.4666
 21
82.5
  0
POLYLINE
  8
0
 66
     1
 10
0
 20
0
  0
VERTEX
  8
0
 10
87.8064
 20
93.2773
  0
VERTEX
  8
0
 10
87.9024
 20
93.2773
  0
VERTEX
  8
0
 10
87.9024
 20
92.7333
  0
VERTEX
  8
0
 10
87.8584
 20
92.7373
  0
VERTEX
  8
0
 10
87.8134
 20
92.7517
  0
VERTEX
  8
0
 10
87.7675
 20
92.7764
  0
VERTEX
  8
0
 10
87.7205
 20
92.8115
  0
VERTEX
  8
0
 10
87.6611
 20
92.868
  0
VERTEX
  8
0
 10
87.5943
 20
92.9443
  0
VERTEX
  8
0
 10
87.5429
 20
93.005
  0
VERTEX
  8
0
 10
87.4993
 20
93.053
  0
VERTEX
  8
0
 10
87.4636
 20
93.0883
  0
VERTEX
  8
0
 10
87.4181
 20
93.1255
  0
VERTEX
  8
0
 10
87.3748
 20
93.152
  0
VERTEX
  8
0
 10
87.3337
 20
93.168
  0
VERTEX
  8
0
 10
87.2948
 20
93.1733
  0
VERTEX
  8
0
 10
87.2361
 20
93.1617
  0
VERTEX
  8
0
 10
87.1896
 20
93.1271
  0
VERTEX
  8
0
 10
87.1605
 20
93.0779
  0
VERTEX
  8
0
 10
87.1504
 20
93.018
  0
VERTEX
  8
0
 10
87.1613
 20
92.9507
  0
VERTEX
  8
0
 10
87.1954
 20
92.8998
  0
VERTEX
  8
0
 10
87.2488
 20
92.8676
  0
VERTEX
  8
0
 10
87.3178
 20
92.8565
  0
VERTEX
  8
0
 10
87.307
 20
92.7525
  0
VERTEX
  8
0
 10
87.252
 20
92.7613
  0
VERTEX
  8
0
 10
87.2039
 20
92.7776
  0
VERTEX
  8
0
 10
87.1626
 20
92.8015
  0
VERTEX
  8
0
 10
87.1283
 20
92.8329
  0
VERTEX
  8
0
 10
87.0939
 20
92.885
  0
VERTEX
  8
0
 10
87.0733
 20
92.9474
  0
VERTEX
  8
0
 10
87.0664
 20
93.0202
  0
VERTEX
  8
0
 10
87.073
 20
93.0888
  0
VERTEX
  8
0
 10
87.093
 20
93.149
  0
VERTEX
  8
0
 10
87.1262
 20
93.2008
  0
VERTEX
  8
0
 10
87.1609
 20
93.2342
  0
VERTEX
  8
0
 10
87.2011
 20
93.2581
  0
VERTEX
  8
0
 10
87.2469
 20
93.2725
  0
VERTEX
  8
0
 10
87.2983
 20
93.2773
  0
VERTEX
  8
0
 10
87.3482
 20
93.2718
  0
VERTEX
  8
0
 10
87.3982
 20
93.2553
  0
VERTEX
  8
0
 10
87.4484
 20
93.2279
  0
VERTEX
  8
0
 10
87.4988
 20
93.1896
  0
VERTEX
  8
0
 10
87.5396
 20
93.1508
  0
VERTEX
  8
0
 10
87.5886
 20
93.0989
  0
VERTEX
  8
0
 10
87.6458
 20
93.034
  0
VERTEX
  8
0
 10
87.6816
 20
92.9919
  0
VERTEX
  8
0
 10
87.7065
 20
92.9633
  0
VERTEX
  8
0
 10
87.7204
 20
92.948
  0
VERTEX
  8
0
 10
87.7641
 20
92.906
  0
VERTEX
  8
0
 10
87.8064
 20
92.8743
  0
VERTEX
  8
0
 10
87.8064
 20
93.2773
  0
SEQEND
  0
LINE
  8
0
 10
87.5
 20
93.4743
 11
87.5
 21
94
  0
LINE
  8
0
 10
87.6789
 20
93.6422
 11
87.5
 21
94
  0
LINE
  8
0
 10
87.3211
 20
93.6422
 11
87.5
 21
94
  0
LINE
  8
0
 10
87.5
 20
92.5257
 11
87.5
 21
92
  0
LINE
  8
0
 10
87.3211
 20
92.3578
 11
87.5
 21
92
  0
LINE
  8
0
 10
87.6789
 20
92.3578
 11
87.5
 21
92
  0
LINE
  8
0
 10
87.7
 20
92
 11
86.5
 21
92
  0
POLYLINE
  8
0
 66
     1
 10
0
 20
0
  0
VERTEX
  8
0
 10
87.9024
 20
90.0773
  0
VERTEX
  8
0
 10
87.6984
 20
90.0773
  0
VERTEX
  8
0
 10
87.6984
 20
89.7173
  0
VERTEX
  8
0
 10
87.6064
 20
89.7173
  0
VERTEX
  8
0
 10
87.0704
 20
90.0947
  0
VERTEX
  8
0
 10
87.0704
 20
90.1773
  0
VERTEX
  8
0
 10
87.6064
 20
90.1773
  0
VERTEX
  8
0
 10
87.6064
 20
90.2893
  0
VERTEX
  8
0
 10
87.6984
 20
90.2893
  0
VERTEX
  8
0
 10
87.6984
 20
90.1773
  0
VERTEX
  8
0
 10
87.9024
 20
90.1773
  0
VERTEX
  8
0
 10
87.9024
 20
90.0773
  0
SEQEND
  0
POLYLINE
  8
0
 66
     1
 10
0
 20
0
  0
VERTEX
  8
0
 10
87.6064
 20
90.0773
  0
VERTEX
  8
0
 10
87.2271
 20
90.0773
  0
VERTEX
  8
0
 10
87.6073
 20
89.8145
  0
VERTEX
  8
0
 10
87.6064
 20
90.0773
  0
SEQEND
  0
LINE
  8
0
 10
87.5
 20
90.4869
 11
87.5
 21
92
  0
LINE
  8
0
 10
87.6789
 20
91.6422
 11
87.5
 21
92
  0
LINE
  8
0
 10
87.3211
 20
91.6422
 11
87.5
 21
92
  0
LINE
  8
0
 10
87.5
 20
89.5131
 11
87.5
 21
88
  0
LINE
  8
0
 10
87.3211
 20
88.3578
 11
87.5
 21
88
  0
LINE
  8
0
 10
87.6789
 20
88.3578
 11
87.5
 21
88
  0
LINE
  8
0
 10
87.7
 20
88
 11
86.5
 21
88
  0
POLYLINE
  8
0
 66
     1
 10
0
 20
0
  0
VERTEX
  8
0
 10
63.1944
 20
80.1973
  0
VERTEX
  8
0
 10
63.1944
 20
80.1013
  0
VERTEX
  8
0
 10
62.6504
 20
80.1013
  0
VERTEX
  8
0
 10
62.6544
 20
80.1452
  0
VERTEX
  8
0
 10
62.6688
 20
80.1902
  0
VERTEX
  8
0
 10
62.6935
 20
80.2362
  0
VERTEX
  8
0
 10
62.7286
 20
80.2831
  0
VERTEX
  8
0
 10
62.7851
 20
80.3425
  0
VERTEX
  8
0
 10
62.8614
 20
80.4093
  0
VERTEX
  8
0
 10
62.9221
 20
80.4607
  0
VERTEX
  8
0
 10
62.9702
 20
80.5043
  0
VERTEX
  8
0
 10
63.0054
 20
80.5401
  0
VERTEX
  8
0
 10
63.0426
 20
80.5856
  0
VERTEX
  8
0
 10
63.0691
 20
80.6289
  0
VERTEX
  8
0
 10
63.0851
 20
80.67
  0
VERTEX
  8
0
 10
63.0904
 20
80.7089
  0
VERTEX
  8
0
 10
63.0788
 20
80.7676
  0
VERTEX
  8
0
 10
63.0443
 20
80.814
  0
VERTEX
  8
0
 10
62.995
 20
80.8432
  0
VERTEX
  8
0
 10
62.9351
 20
80.8533
  0
VERTEX
  8
0
 10
62.8679
 20
80.8423
  0
VERTEX
  8
0
 10
62.8169
 20
80.8083
  0
VERTEX
  8
0
 10
62.7847
 20
80.7549
  0
VERTEX
  8
0
 10
62.7736
 20
80.6858
  0
VERTEX
  8
0
 10
62.6696
 20
80.6966
  0
VERTEX
  8
0
 10
62.6784
 20
80.7516
  0
VERTEX
  8
0
 10
62.6947
 20
80.7998
  0
VERTEX
  8
0
 10
62.7186
 20
80.841
  0
VERTEX
  8
0
 10
62.75
 20
80.8754
  0
VERTEX
  8
0
 10
62.8021
 20
80.9098
  0
VERTEX
  8
0
 10
62.8645
 20
80.9304
  0
VERTEX
  8
0
 10
62.9373
 20
80.9373
  0
VERTEX
  8
0
 10
63.0059
 20
80.9306
  0
VERTEX
  8
0
 10
63.0661
 20
80.9107
  0
VERTEX
  8
0
 10
63.1179
 20
80.8775
  0
VERTEX
  8
0
 10
63.1513
 20
80.8428
  0
VERTEX
  8
0
 10
63.1753
 20
80.8025
  0
VERTEX
  8
0
 10
63.1896
 20
80.7567
  0
VERTEX
  8
0
 10
63.1944
 20
80.7054
  0
VERTEX
  8
0
 10
63.1889
 20
80.6555
  0
VERTEX
  8
0
 10
63.1725
 20
80.6054
  0
VERTEX
  8
0
 10
63.1451
 20
80.5552
  0
VERTEX
  8
0
 10
63.1067
 20
80.5049
  0
VERTEX
  8
0
 10
63.0679
 20
80.464
  0
VERTEX
  8
0
 10
63.0161
 20
80.415
  0
VERTEX
  8
0
 10
62.9511
 20
80.3579
  0
VERTEX
  8
0
 10
62.909
 20
80.322
  0
VERTEX
  8
0
 10
62.8804
 20
80.2971
  0
VERTEX
  8
0
 10
62.8651
 20
80.2833
  0
VERTEX
  8
0
 10
62.8231
 20
80.2395
  0
VERTEX
  8
0
 10
62.7914
 20
80.1973
  0
VERTEX
  8
0
 10
63.1944
 20
80.1973
  0
SEQEND
  0
POLYLINE
  8
0
 66
     1
 10
0
 20
0
  0
VERTEX
  8
0
 10
63.3584
 20
80.1013
  0
VERTEX
  8
0
 10
63.3584
 20
80.2213
  0
VERTEX
  8
0
 10
63.4744
 20
80.2213
  0
VERTEX
  8
0
 10
63.4744
 20
80.1013
  0
VERTEX
  8
0
 10
63.3584
 20
80.1013
  0
SEQEND
  0
POLYLINE
  8
0
 66
     1
 10
0
 20
0
  0
VERTEX
  8
0
 10
63.7798
 20
80.5538
  0
VERTEX
  8
0
 10
63.7465
 20
80.5683
  0
VERTEX
  8
0
 10
63.7184
 20
80.5861
  0
VERTEX
  8
0
 10
63.6953
 20
80.6071
  0
VERTEX
  8
0
 10
63.6774
 20
80.6313
  0
VERTEX
  8
0
 10
63.6646
 20
80.6587
  0
VERTEX
  8
0
 10
63.6569
 20
80.6893
  0
VERTEX
  8
0
 10
63.6544
 20
80.7231
  0
VERTEX
  8
0
 10
63.6588
 20
80.77
  0
VERTEX
  8
0
 10
63.6722
 20
80.8119
  0
VERTEX
  8
0
 10
63.6945
 20
80.849
  0
VERTEX
  8
0
 10
63.7258
 20
80.8812
  0
VERTEX
  8
0
 10
63.7738
 20
80.9121
  0
VERTEX
  8
0
 10
63.8295
 20
80.9308
  0
VERTEX
  8
0
 10
63.8929
 20
80.9373
  0
VERTEX
  8
0
 10
63.9565
 20
80.9309
  0
VERTEX
  8
0
 10
64.0128
 20
80.9118
  0
VERTEX
  8
0
 10
64.0618
 20
80.8801
  0
VERTEX
  8
0
 10
64.0936
 20
80.8471
  0
VERTEX
  8
0
 10
64.1162
 20
80.8095
  0
VERTEX
  8
0
 10
64.1298
 20
80.7673
  0
VERTEX
  8
0
 10
64.1344
 20
80.7203
  0
VERTEX
  8
0
 10
64.1319
 20
80.6876
  0
VERTEX
  8
0
 10
64.1244
 20
80.6579
  0
VERTEX
  8
0
 10
64.1118
 20
80.6312
  0
VERTEX
  8
0
 10
64.0943
 20
80.6074
  0
VERTEX
  8
0
 10
64.0718
 20
80.5865
  0
VERTEX
  8
0
 10
64.0442
 20
80.5687
  0
VERTEX
  8
0
 10
64.0117
 20
80.5538
  0
VERTEX
  8
0
 10
64.044
 20
80.5412
  0
VERTEX
  8
0
 10
64.0726
 20
80.5258
  0
VERTEX
  8
0
 10
64.0974
 20
80.5077
  0
VERTEX
  8
0
 10
64.1184
 20
80.4868
  0
VERTEX
  8
0
 10
64.1355
 20
80.4631
  0
VERTEX
  8
0
 10
64.1489
 20
80.4367
  0
VERTEX
  8
0
 10
64.1585
 20
80.4075
  0
VERTEX
  8
0
 10
64.1644
 20
80.3755
  0
VERTEX
  8
0
 10
64.1664
 20
80.3408
  0
VERTEX
  8
0
 10
64.1616
 20
80.2866
  0
VERTEX
  8
0
 10
64.1465
 20
80.2378
  0
VERTEX
  8
0
 10
64.1213
 20
80.1945
  0
VERTEX
  8
0
 10
64.0859
 20
80.1567
  0
VERTEX
  8
0
 10
64.0305
 20
80.1192
  0
VERTEX
  8
0
 10
63.9667
 20
80.0968
  0
VERTEX
  8
0
 10
63.8944
 20
80.0893
  0
VERTEX
  8
0
 10
63.8209
 20
80.0968
  0
VERTEX
  8
0
 10
63.7567
 20
80.1195
  0
VERTEX
  8
0
 10
63.7018
 20
80.1573
  0
VERTEX
  8
0
 10
63.6672
 20
80.1955
  0
VERTEX
  8
0
 10
63.6425
 20
80.2392
  0
VERTEX
  8
0
 10
63.6276
 20
80.2886
  0
VERTEX
  8
0
 10
63.6224
 20
80.3436
  0
VERTEX
  8
0
 10
63.6239
 20
80.3759
  0
VERTEX
  8
0
 10
63.6285
 20
80.4056
  0
VERTEX
  8
0
 10
63.6363
 20
80.4329
  0
VERTEX
  8
0
 10
63.6473
 20
80.4577
  0
VERTEX
  8
0
 10
63.6615
 20
80.48
  0
VERTEX
  8
0
 10
63.6788
 20
80.4997
  0
VERTEX
  8
0
 10
63.6993
 20
80.517
  0
VERTEX
  8
0
 10
63.723
 20
80.5318
  0
VERTEX
  8
0
 10
63.7498
 20
80.544
  0
VERTEX
  8
0
 10
63.7798
 20
80.5538
  0
VERTEX
  8
0
 10
63.7798
 20
80.5538
  0
SEQEND
  0
POLYLINE
  8
0
 66
     1
 10
0
 20
0
  0
VERTEX
  8
0
 10
63.7584
 20
80.7266
  0
VERTEX
  8
0
 10
63.7675
 20
80.674
  0
VERTEX
  8
0
 10
63.7959
 20
80.6311
  0
VERTEX
  8
0
 10
63.8399
 20
80.6027
  0
VERTEX
  8
0
 10
63.8955
 20
80.5933
  0
VERTEX
  8
0
 10
63.9482
 20
80.6022
  0
VERTEX
  8
0
 10
63.9914
 20
80.6289
  0
VERTEX
  8
0
 10
64.0204
 20
80.6697
  0
VERTEX
  8
0
 10
64.0304
 20
80.721
  0
VERTEX
  8
0
 10
64.021
 20
80.7717
  0
VERTEX
  8
0
 10
63.9917
 20
80.8143
  0
VERTEX
  8
0
 10
63.9477
 20
80.8432
  0
VERTEX
  8
0
 10
63.8944
 20
80.8533
  0
VERTEX
  8
0
 10
63.8402
 20
80.8437
  0
VERTEX
  8
0
 10
63.7948
 20
80.8137
  0
VERTEX
  8
0
 10
63.7678
 20
80.7738
  0
VERTEX
  8
0
 10
63.7584
 20
80.7266
  0
VERTEX
  8
0
 10
63.7584
 20
80.7266
  0
SEQEND
  0
POLYLINE
  8
0
 66
     1
 10
0
 20
0
  0
VERTEX
  8
0
 10
63.7264
 20
80.343
  0
VERTEX
  8
0
 10
63.7295
 20
80.3043
  0
VERTEX
  8
0
 10
63.7392
 20
80.2702
  0
VERTEX
  8
0
 10
63.7555
 20
80.2407
  0
VERTEX
  8
0
 10
63.7784
 20
80.2157
  0
VERTEX
  8
0
 10
63.808
 20
80.1953
  0
VERTEX
  8
0
 10
63.8498
 20
80.1788
  0
VERTEX
  8
0
 10
63.8953
 20
80.1733
  0
VERTEX
  8
0
 10
63.9615
 20
80.1849
  0
VERTEX
  8
0
 10
64.0151
 20
80.2199
  0
VERTEX
  8
0
 10
64.0506
 20
80.2732
  0
VERTEX
  8
0
 10
64.0624
 20
80.3396
  0
VERTEX
  8
0
 10
64.0503
 20
80.4067
  0
VERTEX
  8
0
 10
64.014
 20
80.4609
  0
VERTEX
  8
0
 10
63.9592
 20
80.4969
  0
VERTEX
  8
0
 10
63.8918
 20
80.5093
  0
VERTEX
  8
0
 10
63.8262
 20
80.4979
  0
VERTEX
  8
0
 10
63.7734
 20
80.4626
  0
VERTEX
  8
0
 10
63.7384
 20
80.4091
  0
VERTEX
  8
0
 10
63.7264
 20
80.343
  0
VERTEX
  8
0
 10
63.7264
 20
80.343
  0
SEQEND
  0
LINE
  8
0
 10
64.3656
 20
80.5
 11
64.8108
 21
80.5
  0
LINE
  8
0
 10
64.4531
 20
80.3211
 11
64.8108
 21
80.5
  0
LINE
  8
0
 10
64.4531
 20
80.6789
 11
64.8108
 21
80.5
  0
LINE
  8
0
 10
64.8108
 20
80.3
 11
64.8108
 21
81.5
  0
LINE
  8
0
 10
62.4452
 20
80.5
 11
62
 21
80.5
  0
LINE
  8
0
 10
62.3578
 20
80.6789
 11
62
 21
80.5
  0
LINE
  8
0
 10
62.3578
 20
80.3211
 11
62
 21
80.5
  0
LINE
  8
0
 10
62
 20
80.3
 11
62
 21
81.5
  0
POLYLINE
  8
0
 66
     1
 10
0
 20
0
  0
VERTEX
  8
0
 10
68.6949
 20
80.2519
  0
VERTEX
  8
0
 10
68.7928
 20
80.261
  0
VERTEX
  8
0
 10
68.8078
 20
80.2252
  0
VERTEX
  8
0
 10
68.8403
 20
80.1945
  0
VERTEX
  8
0
 10
68.8804
 20
80.1789
  0
VERTEX
  8
0
 10
68.9409
 20
80.1733
  0
VERTEX
  8
0
 10
68.9843
 20
80.1784
  0
VERTEX
  8
0
 10
69.0229
 20
80.1948
  0
VERTEX
  8
0
 10
69.0542
 20
80.2198
  0
VERTEX
  8
0
 10
69.0806
 20
80.2539
  0
VERTEX
  8
0
 10
69.1023
 20
80.2971
  0
VERTEX
  8
0
 10
69.1191
 20
80.3495
  0
VERTEX
  8
0
 10
69.1306
 20
80.4107
  0
VERTEX
  8
0
 10
69.1344
 20
80.4742
  0
VERTEX
  8
0
 10
69.1342
 20
80.485
  0
VERTEX
  8
0
 10
69.1338
 20
80.4946
  0
VERTEX
  8
0
 10
69.1093
 20
80.4613
  0
VERTEX
  8
0
 10
69.0814
 20
80.4341
  0
VERTEX
  8
0
 10
69.0501
 20
80.4129
  0
VERTEX
  8
0
 10
69.0154
 20
80.3977
  0
VERTEX
  8
0
 10
68.9773
 20
80.3885
  0
VERTEX
  8
0
 10
68.9359
 20
80.3853
  0
VERTEX
  8
0
 10
68.8828
 20
80.3901
  0
VERTEX
  8
0
 10
68.8351
 20
80.4052
  0
VERTEX
  8
0
 10
68.7926
 20
80.4306
  0
VERTEX
  8
0
 10
68.7554
 20
80.4662
  0
VERTEX
  8
0
 10
68.7193
 20
80.5219
  0
VERTEX
  8
0
 10
68.6976
 20
80.5855
  0
VERTEX
  8
0
 10
68.6904
 20
80.657
  0
VERTEX
  8
0
 10
68.695
 20
80.7173
  0
VERTEX
  8
0
 10
68.7089
 20
80.7712
  0
VERTEX
  8
0
 10
68.732
 20
80.8189
  0
VERTEX
  8
0
 10
68.7643
 20
80.8603
  0
VERTEX
  8
0
 10
68.8037
 20
80.8937
  0
VERTEX
  8
0
 10
68.8478
 20
80.9177
  0
VERTEX
  8
0
 10
68.8968
 20
80.9322
  0
VERTEX
  8
0
 10
68.9505
 20
80.9373
  0
VERTEX
  8
0
 10
69.0297
 20
80.9264
  0
VERTEX
  8
0
 10
69.1001
 20
80.8925
  0
VERTEX
  8
0
 10
69.1579
 20
80.839
  0
VERTEX
  8
0
 10
69.1994
 20
80.769
  0
VERTEX
  8
0
 10
69.2188
 20
80.7071
  0
VERTEX
  8
0
 10
69.2305
 20
80.6293
  0
VERTEX
  8
0
 10
69.2344
 20
80.5356
  0
VERTEX
  8
0
 10
69.2334
 20
80.4874
  0
VERTEX
  8
0
 10
69.2306
 20
80.4418
  0
VERTEX
  8
0
 10
69.2258
 20
80.3991
  0
VERTEX
  8
0
 10
69.2191
 20
80.3591
  0
VERTEX
  8
0
 10
69.2106
 20
80.3219
  0
VERTEX
  8
0
 10
69.2001
 20
80.2874
  0
VERTEX
  8
0
 10
69.1877
 20
80.2557
  0
VERTEX
  8
0
 10
69.1734
 20
80.2268
  0
VERTEX
  8
0
 10
69.1572
 20
80.2006
  0
VERTEX
  8
0
 10
69.1392
 20
80.1771
  0
VERTEX
  8
0
 10
69.1192
 20
80.1565
  0
VERTEX
  8
0
 10
69.0973
 20
80.1386
  0
VERTEX
  8
0
 10
69.0236
 20
80.1016
  0
VERTEX
  8
0
 10
68.9381
 20
80.0893
  0
VERTEX
  8
0
 10
68.8831
 20
80.092
  0
VERTEX
  8
0
 10
68.8366
 20
80.1002
  0
VERTEX
  8
0
 10
68.7985
 20
80.114
  0
VERTEX
  8
0
 10
68.7689
 20
80.1332
  0
VERTEX
  8
0
 10
68.7171
 20
80.1917
  0
VERTEX
  8
0
 10
68.6949
 20
80.2519
  0
VERTEX
  8
0
 10
68.6949
 20
80.2519
  0
SEQEND
  0
POLYLINE
  8
0
 66
     1
 10
0
 20
0
  0
VERTEX
  8
0
 10
69.1224
 20
80.6613
  0
VERTEX
  8
0
 10
69.1123
 20
80.7332
  0
VERTEX
  8
0
 10
69.0821
 20
80.7929
  0
VERTEX
  8
0
 10
69.0493
 20
80.8262
  0
VERTEX
  8
0
 10
69.0096
 20
80.8463
  0
VERTEX
  8
0
 10
68.9632
 20
80.8533
  0
VERTEX
  8
0
 10
68.9153
 20
80.8465
  0
VERTEX
  8
0
 10
68.8738
 20
80.8254
  0
VERTEX
  8
0
 10
68.8386
 20
80.79
  0
VERTEX
  8
0
 10
68.8057
 20
80.7269
  0
VERTEX
  8
0
 10
68.7944
 20
80.6527
  0
VERTEX
  8
0
 10
68.8053
 20
80.5828
  0
VERTEX
  8
0
 10
68.8391
 20
80.5257
  0
VERTEX
  8
0
 10
68.8927
 20
80.4864
  0
VERTEX
  8
0
 10
68.9604
 20
80.4733
  0
VERTEX
  8
0
 10
69.0087
 20
80.4795
  0
VERTEX
  8
0
 10
69.0492
 20
80.4981
  0
VERTEX
  8
0
 10
69.0821
 20
80.5291
  0
VERTEX
  8
0
 10
69.1123
 20
80.5881
  0
VERTEX
  8
0
 10
69.1224
 20
80.6613
  0
VERTEX
  8
0
 10
69.1224
 20
80.6613
  0
SEQEND
  0
POLYLINE
  8
0
 66
     1
 10
0
 20
0
  0
VERTEX
  8
0
 10
69.3904
 20
80.1013
  0
VERTEX
  8
0
 10
69.3904
 20
80.2213
  0
VERTEX
  8
0
 10
69.5064
 20
80.2213
  0
VERTEX
  8
0
 10
69.5064
 20
80.1013
  0
VERTEX
  8
0
 10
69.3904
 20
80.1013
  0
SEQEND
  0
POLYLINE
  8
0
 66
     1
 10
0
 20
0
  0
VERTEX
  8
0
 10
70.0384
 20
80.1013
  0
VERTEX
  8
0
 10
69.9384
 20
80.1013
  0
VERTEX
  8
0
 10
69.9384
 20
80.7524
  0
VERTEX
  8
0
 10
69.8472
 20
80.6837
  0
VERTEX
  8
0
 10
69.7344
 20
80.63
  0
VERTEX
  8
0
 10
69.7344
 20
80.7286
  0
VERTEX
  8
0
 10
69.7901
 20
80.7576
  0
VERTEX
  8
0
 10
69.8395
 20
80.7888
  0
VERTEX
  8
0
 10
69.8824
 20
80.8225
  0
VERTEX
  8
0
 10
69.919
 20
80.8584
  0
VERTEX
  8
0
 10
69.9492
 20
80.8967
  0
VERTEX
  8
0
 10
69.9731
 20
80.9373
  0
VERTEX
  8
0
 10
70.0384
 20
80.9373
  0
VERTEX
  8
0
 10
70.0384
 20
80.1013
  0
SEQEND
  0
LINE
  8
0
 10
70.2418
 20
80.5
 11
73.9199
 21
80.5
  0
LINE
  8
0
 10
73.5621
 20
80.3211
 11
73.9199
 21
80.5
  0
LINE
  8
0
 10
73.5621
 20
80.6789
 11
73.9199
 21
80.5
  0
LINE
  8
0
 10
73.9199
 20
80.3
 11
73.9199
 21
81.5
  0
LINE
  8
0
 10
68.4889
 20
80.5
 11
64.8108
 21
80.5
  0
LINE
  8
0
 10
65.1686
 20
80.6789
 11
64.8108
 21
80.5
  0
LINE
  8
0
 10
65.1686
 20
80.3211
 11
64.8108
 21
80.5
  0
POLYLINE
  8
0
 66
     1
 10
0
 20
0
  0
VERTEX
  8
0
 10
75.9944
 20
80.1013
  0
VERTEX
  8
0
 10
75.9944
 20
80.3053
  0
VERTEX
  8
0
 10
75.6344
 20
80.3053
  0
VERTEX
  8
0
 10
75.6344
 20
80.3973
  0
VERTEX
  8
0
 10
76.0118
 20
80.9333
  0
VERTEX
  8
0
 10
76.0944
 20
80.9333
  0
VERTEX
  8
0
 10
76.0944
 20
80.3973
  0
VERTEX
  8
0
 10
76.2064
 20
80.3973
  0
VERTEX
  8
0
 10
76.2064
 20
80.3053
  0
VERTEX
  8
0
 10
76.0944
 20
80.3053
  0
VERTEX
  8
0
 10
76.0944
 20
80.1013
  0
VERTEX
  8
0
 10
75.9944
 20
80.1013
  0
SEQEND
  0
POLYLINE
  8
0
 66
     1
 10
0
 20
0
  0
VERTEX
  8
0
 10
75.9944
 20
80.3973
  0
VERTEX
  8
0
 10
75.9944
 20
80.7766
  0
VERTEX
  8
0
 10
75.7316
 20
80.3964
  0
VERTEX
  8
0
 10
75.9944
 20
80.3973
  0
SEQEND
  0
LINE
  8
0
 10
76.4068
 20
80.5
 11
77.9199
 21
80.5
  0
LINE
  8
0
 10
77.5621
 20
80.3211
 11
77.9199
 21
80.5
  0
LINE
  8
0
 10
77.5621
 20
80.6789
 11
77.9199
 21
80.5
  0
LINE
  8
0
 10
77.9199
 20
80.3
 11
77.9199
 21
81.5
  0
LINE
  8
0
 10
75.4329
 20
80.5
 11
73.9199
 21
80.5
  0
LINE
  8
0
 10
74.2776
 20
80.6789
 11
73.9199
 21
80.5
  0
LINE
  8
0
 10
74.2776
 20
80.3211
 11
73.9199
 21
80.5
  0
POLYLINE
  8
0
 66
     1
 10
0
 20
0
  0
VERTEX
  8
0
 10
79.8024
 20
80.3218
  0
VERTEX
  8
0
 10
79.9089
 20
80.331
  0
VERTEX
  8
0
 10
79.9155
 20
80.2979
  0
VERTEX
  8
0
 10
79.9249
 20
80.2687
  0
VERTEX
  8
0
 10
79.937
 20
80.2433
  0
VERTEX
  8
0
 10
79.9519
 20
80.2219
  0
VERTEX
  8
0
 10
79.9696
 20
80.2044
  0
VERTEX
  8
0
 10
79.99
 20
80.1908
  0
VERTEX
  8
0
 10
80.0132
 20
80.1811
  0
VERTEX
  8
0
 10
80.0391
 20
80.1752
  0
VERTEX
  8
0
 10
80.0678
 20
80.1733
  0
VERTEX
  8
0
 10
80.1182
 20
80.1802
  0
VERTEX
  8
0
 10
80.1614
 20
80.201
  0
VERTEX
  8
0
 10
80.1973
 20
80.2358
  0
VERTEX
  8
0
 10
80.2311
 20
80.2994
  0
VERTEX
  8
0
 10
80.2424
 20
80.3766
  0
VERTEX
  8
0
 10
80.2307
 20
80.4527
  0
VERTEX
  8
0
 10
80.1956
 20
80.5127
  0
VERTEX
  8
0
 10
80.1605
 20
80.5417
  0
VERTEX
  8
0
 10
80.1173
 20
80.5592
  0
VERTEX
  8
0
 10
80.0661
 20
80.5653
  0
VERTEX
  8
0
 10
80.0203
 20
80.5604
  0
VERTEX
  8
0
 10
79.98
 20
80.5452
  0
VERTEX
  8
0
 10
79.9451
 20
80.5197
  0
VERTEX
  8
0
 10
79.9156
 20
80.4838
  0
VERTEX
  8
0
 10
79.8204
 20
80.4963
  0
VERTEX
  8
0
 10
79.9006
 20
80.9213
  0
VERTEX
  8
0
 10
80.3119
 20
80.9213
  0
VERTEX
  8
0
 10
80.3119
 20
80.8253
  0
VERTEX
  8
0
 10
79.9843
 20
80.8253
  0
VERTEX
  8
0
 10
79.938
 20
80.6016
  0
VERTEX
  8
0
 10
80.0141
 20
80.6401
  0
VERTEX
  8
0
 10
80.0938
 20
80.6533
  0
VERTEX
  8
0
 10
80.1476
 20
80.6486
  0
VERTEX
  8
0
 10
80.1965
 20
80.634
  0
VERTEX
  8
0
 10
80.2405
 20
80.6096
  0
VERTEX
  8
0
 10
80.2795
 20
80.5752
  0
VERTEX
  8
0
 10
80.3105
 20
80.5346
  0
VERTEX
  8
0
 10
80.3327
 20
80.4894
  0
VERTEX
  8
0
 10
80.346
 20
80.4393
  0
VERTEX
  8
0
 10
80.3504
 20
80.3846
  0
VERTEX
  8
0
 10
80.3431
 20
80.3132
  0
VERTEX
  8
0
 10
80.3213
 20
80.2483
  0
VERTEX
  8
0
 10
80.285
 20
80.19
  0
VERTEX
  8
0
 10
80.2509
 20
80.1539
  0
VERTEX
  8
0
 10
80.2121
 20
80.1258
  0
VERTEX
  8
0
 10
80.1687
 20
80.1056
  0
VERTEX
  8
0
 10
80.1206
 20
80.0935
  0
VERTEX
  8
0
 10
80.0679
 20
80.0893
  0
VERTEX
  8
0
 10
79.9989
 20
80.096
  0
VERTEX
  8
0
 10
79.9384
 20
80.1163
  0
VERTEX
  8
0
 10
79.8864
 20
80.1501
  0
VERTEX
  8
0
 10
79.8445
 20
80.197
  0
VERTEX
  8
0
 10
79.8165
 20
80.2542
  0
VERTEX
  8
0
 10
79.8024
 20
80.3218
  0
VERTEX
  8
0
 10
79.8024
 20
80.3218
  0
SEQEND
  0
POLYLINE
  8
0
 66
     1
 10
0
 20
0
  0
VERTEX
  8
0
 10
80.4984
 20
80.1013
  0
VERTEX
  8
0
 10
80.4984
 20
80.2213
  0
VERTEX
  8
0
 10
80.6144
 20
80.2213
  0
VERTEX
  8
0
 10
80.6144
 20
80.1013
  0
VERTEX
  8
0
 10
80.4984
 20
80.1013
  0
SEQEND
  0
POLYLINE
  8
0
 66
     1
 10
0
 20
0
  0
VERTEX
  8
0
 10
80.7664
 20
80.3235
  0
VERTEX
  8
0
 10
80.8675
 20
80.3371
  0
VERTEX
  8
0
 10
80.8757
 20
80.3029
  0
VERTEX
  8
0
 10
80.8863
 20
80.2726
  0
VERTEX
  8
0
 10
80.8994
 20
80.2463
  0
VERTEX
  8
0
 10
80.9149
 20
80.2241
  0
VERTEX
  8
0
 10
80.9328
 20
80.2059
  0
VERTEX
  8
0
 10
80.9531
 20
80.1917
  0
VERTEX
  8
0
 10
80.9759
 20
80.1816
  0
VERTEX
  8
0
 10
81.0011
 20
80.1754
  0
VERTEX
  8
0
 10
81.0288
 20
80.1733
  0
VERTEX
  8
0
 10
81.0952
 20
80.1855
  0
VERTEX
  8
0
 10
81.1495
 20
80.2233
  0
VERTEX
  8
0
 10
81.1859
 20
80.2796
  0
VERTEX
  8
0
 10
81.1984
 20
80.3473
  0
VERTEX
  8
0
 10
81.1873
 20
80.4115
  0
VERTEX
  8
0
 10
81.153
 20
80.4635
  0
VERTEX
  8
0
 10
81.1013
 20
80.4978
  0
VERTEX
  8
0
 10
81.0378
 20
80.5093
  0
VERTEX
  8
0
 10
81.0049
 20
80.5062
  0
VERTEX
  8
0
 10
80.9667
 20
80.4968
  0
VERTEX
  8
0
 10
80.9779
 20
80.5853
  0
VERTEX
  8
0
 10
80.9848
 20
80.5853
  0
VERTEX
  8
0
 10
80.9943
 20
80.5853
  0
VERTEX
  8
0
 10
81.0584
 20
80.5936
  0
VERTEX
  8
0
 10
81.1101
 20
80.6186
  0
VERTEX
  8
0
 10
81.149
 20
80.6636
  0
VERTEX
  8
0
 10
81.1624
 20
80.7238
  0
VERTEX
  8
0
 10
81.1532
 20
80.7759
  0
VERTEX
  8
0
 10
81.1243
 20
80.8171
  0
VERTEX
  8
0
 10
81.0808
 20
80.8439
  0
VERTEX
  8
0
 10
81.0272
 20
80.8533
  0
VERTEX
  8
0
 10
81.0005
 20
80.8516
  0
VERTEX
  8
0
 10
80.9764
 20
80.8462
  0
VERTEX
  8
0
 10
80.9548
 20
80.8371
  0
VERTEX
  8
0
 10
80.9357
 20
80.8242
  0
VERTEX
  8
0
 10
80.9191
 20
80.8075
  0
VERTEX
  8
0
 10
80.9051
 20
80.7871
  0
VERTEX
  8
0
 10
80.8935
 20
80.763
  0
VERTEX
  8
0
 10
80.8845
 20
80.735
  0
VERTEX
  8
0
 10
80.8779
 20
80.7033
  0
VERTEX
  8
0
 10
80.7766
 20
80.7215
  0
VERTEX
  8
0
 10
80.7938
 20
80.7837
  0
VERTEX
  8
0
 10
80.8215
 20
80.8363
  0
VERTEX
  8
0
 10
80.8596
 20
80.8794
  0
VERTEX
  8
0
 10
80.9069
 20
80.9113
  0
VERTEX
  8
0
 10
80.962
 20
80.9306
  0
VERTEX
  8
0
 10
81.0249
 20
80.9373
  0
VERTEX
  8
0
 10
81.0869
 20
80.9307
  0
VERTEX
  8
0
 10
81.1448
 20
80.9101
  0
VERTEX
  8
0
 10
81.1974
 20
80.8753
  0
VERTEX
  8
0
 10
81.236
 20
80.8286
  0
VERTEX
  8
0
 10
81.2588
 20
80.7766
  0
VERTEX
  8
0
 10
81.2664
 20
80.7216
  0
VERTEX
  8
0
 10
81.2632
 20
80.6848
  0
VERTEX
  8
0
 10
81.2538
 20
80.6516
  0
VERTEX
  8
0
 10
81.2381
 20
80.6218
  0
VERTEX
  8
0
 10
81.2162
 20
80.5955
  0
VERTEX
  8
0
 10
81.188
 20
80.5727
  0
VERTEX
  8
0
 10
81.1534
 20
80.5535
  0
VERTEX
  8
0
 10
81.2192
 20
80.5266
  0
VERTEX
  8
0
 10
81.2679
 20
80.481
  0
VERTEX
  8
0
 10
81.2968
 20
80.4214
  0
VERTEX
  8
0
 10
81.3064
 20
80.3491
  0
VERTEX
  8
0
 10
81.3015
 20
80.2966
  0
VERTEX
  8
0
 10
81.2868
 20
80.2484
  0
VERTEX
  8
0
 10
81.2622
 20
80.2045
  0
VERTEX
  8
0
 10
81.2279
 20
80.1648
  0
VERTEX
  8
0
 10
81.186
 20
80.132
  0
VERTEX
  8
0
 10
81.1388
 20
80.1084
  0
VERTEX
  8
0
 10
81.0863
 20
80.0942
  0
VERTEX
  8
0
 10
81.0285
 20
80.0893
  0
VERTEX
  8
0
 10
80.9608
 20
80.0963
  0
VERTEX
  8
0
 10
80.9011
 20
80.1175
  0
VERTEX
  8
0
 10
80.8493
 20
80.1528
  0
VERTEX
  8
0
 10
80.8083
 20
80.2
  0
VERTEX
  8
0
 10
80.7806
 20
80.2569
  0
VERTEX
  8
0
 10
80.7664
 20
80.3235
  0
VERTEX
  8
0
 10
80.7664
 20
80.3235
  0
SEQEND
  0
LINE
  8
0
 10
81.5084
 20
80.5
 11
83.1892
 21
80.5
  0
LINE
  8
0
 10
82.8314
 20
80.3211
 11
83.1892
 21
80.5
  0
LINE
  8
0
 10
82.8314
 20
80.6789
 11
83.1892
 21
80.5
  0
LINE
  8
0
 10
83.1892
 20
80.3
 11
83.1892
 21
81.5
  0
LINE
  8
0
 10
79.6006
 20
80.5
 11
77.9199
 21
80.5
  0
LINE
  8
0
 10
78.2776
 20
80.6789
 11
77.9199
 21
80.5
  0
LINE
  8
0
 10
78.2776
 20
80.3211
 11
77.9199
 21
80.5
  0
POLYLINE
  8
0
 66
     1
 10
0
 20
0
  0
VERTEX
  8
0
 10
84.5744
 20
84.1973
  0
VERTEX
  8
0
 10
84.5744
 20
84.1013
  0
VERTEX
  8
0
 10
84.0304
 20
84.1013
  0
VERTEX
  8
0
 10
84.0344
 20
84.1452
  0
VERTEX
  8
0
 10
84.0488
 20
84.1902
  0
VERTEX
  8
0
 10
84.0735
 20
84.2362
  0
VERTEX
  8
0
 10
84.1086
 20
84.2831
  0
VERTEX
  8
0
 10
84.1651
 20
84.3425
  0
VERTEX
  8
0
 10
84.2414
 20
84.4093
  0
VERTEX
  8
0
 10
84.3021
 20
84.4607
  0
VERTEX
  8
0
 10
84.3502
 20
84.5043
  0
VERTEX
  8
0
 10
84.3854
 20
84.5401
  0
VERTEX
  8
0
 10
84.4226
 20
84.5856
  0
VERTEX
  8
0
 10
84.4491
 20
84.6289
  0
VERTEX
  8
0
 10
84.4651
 20
84.67
  0
VERTEX
  8
0
 10
84.4704
 20
84.7089
  0
VERTEX
  8
0
 10
84.4588
 20
84.7676
  0
VERTEX
  8
0
 10
84.4243
 20
84.814
  0
VERTEX
  8
0
 10
84.375
 20
84.8432
  0
VERTEX
  8
0
 10
84.3151
 20
84.8533
  0
VERTEX
  8
0
 10
84.2479
 20
84.8423
  0
VERTEX
  8
0
 10
84.1969
 20
84.8083
  0
VERTEX
  8
0
 10
84.1647
 20
84.7549
  0
VERTEX
  8
0
 10
84.1536
 20
84.6858
  0
VERTEX
  8
0
 10
84.0496
 20
84.6966
  0
VERTEX
  8
0
 10
84.0584
 20
84.7516
  0
VERTEX
  8
0
 10
84.0747
 20
84.7998
  0
VERTEX
  8
0
 10
84.0986
 20
84.841
  0
VERTEX
  8
0
 10
84.13
 20
84.8754
  0
VERTEX
  8
0
 10
84.1821
 20
84.9098
  0
VERTEX
  8
0
 10
84.2445
 20
84.9304
  0
VERTEX
  8
0
 10
84.3173
 20
84.9373
  0
VERTEX
  8
0
 10
84.3859
 20
84.9306
  0
VERTEX
  8
0
 10
84.4461
 20
84.9107
  0
VERTEX
  8
0
 10
84.4979
 20
84.8775
  0
VERTEX
  8
0
 10
84.5313
 20
84.8428
  0
VERTEX
  8
0
 10
84.5553
 20
84.8025
  0
VERTEX
  8
0
 10
84.5696
 20
84.7567
  0
VERTEX
  8
0
 10
84.5744
 20
84.7054
  0
VERTEX
  8
0
 10
84.5689
 20
84.6555
  0
VERTEX
  8
0
 10
84.5525
 20
84.6054
  0
VERTEX
  8
0
 10
84.5251
 20
84.5552
  0
VERTEX
  8
0
 10
84.4867
 20
84.5049
  0
VERTEX
  8
0
 10
84.4479
 20
84.464
  0
VERTEX
  8
0
 10
84.3961
 20
84.415
  0
VERTEX
  8
0
 10
84.3311
 20
84.3579
  0
VERTEX
  8
0
 10
84.289
 20
84.322
  0
VERTEX
  8
0
 10
84.2604
 20
84.2971
  0
VERTEX
  8
0
 10
84.2451
 20
84.2833
  0
VERTEX
  8
0
 10
84.2031
 20
84.2395
  0
VERTEX
  8
0
 10
84.1714
 20
84.1973
  0
VERTEX
  8
0
 10
84.5744
 20
84.1973
  0
SEQEND
  0
POLYLINE
  8
0
 66
     1
 10
0
 20
0
  0
VERTEX
  8
0
 10
84.7384
 20
84.1013
  0
VERTEX
  8
0
 10
84.7384
 20
84.2213
  0
VERTEX
  8
0
 10
84.8544
 20
84.2213
  0
VERTEX
  8
0
 10
84.8544
 20
84.1013
  0
VERTEX
  8
0
 10
84.7384
 20
84.1013
  0
SEQEND
  0
POLYLINE
  8
0
 66
     1
 10
0
 20
0
  0
VERTEX
  8
0
 10
85.3344
 20
84.1013
  0
VERTEX
  8
0
 10
85.3344
 20
84.3053
  0
VERTEX
  8
0
 10
84.9744
 20
84.3053
  0
VERTEX
  8
0
 10
84.9744
 20
84.3973
  0
VERTEX
  8
0
 10
85.3518
 20
84.9333
  0
VERTEX
  8
0
 10
85.4344
 20
84.9333
  0
VERTEX
  8
0
 10
85.4344
 20
84.3973
  0
VERTEX
  8
0
 10
85.5464
 20
84.3973
  0
VERTEX
  8
0
 10
85.5464
 20
84.3053
  0
VERTEX
  8
0
 10
85.4344
 20
84.3053
  0
VERTEX
  8
0
 10
85.4344
 20
84.1013
  0
VERTEX
  8
0
 10
85.3344
 20
84.1013
  0
SEQEND
  0
POLYLINE
  8
0
 66
     1
 10
0
 20
0
  0
VERTEX
  8
0
 10
85.3344
 20
84.3973
  0
VERTEX
  8
0
 10
85.3344
 20
84.7766
  0
VERTEX
  8
0
 10
85.0716
 20
84.3964
  0
VERTEX
  8
0
 10
85.3344
 20
84.3973
  0
SEQEND
  0
LINE
  8
0
 10
86
 20
84.3
 11
86
 21
85.5
  0
LINE
  8
0
 10
83.5722
 20
84.3
 11
83.5722
 21
85.5
  0
POLYLINE
  8
0
 66
     1
 10
0
 20
0
  0
VERTEX
  8
0
 10
81.1678
 20
82.5538
  0
VERTEX
  8
0
 10
81.1345
 20
82.5683
  0
VERTEX
  8
0
 10
81.1064
 20
82.5861
  0
VERTEX
  8
0
 10
81.0833
 20
82.6071
  0
VERTEX
  8
0
 10
81.0654
 20
82.6313
  0
VERTEX
  8
0
 10
81.0526
 20
82.6587
  0
VERTEX
  8
0
 10
81.0449
 20
82.6893
  0
VERTEX
  8
0
 10
81.0424
 20
82.7231
  0
VERTEX
  8
0
 10
81.0468
 20
82.77
  0
VERTEX
  8
0
 10
81.0602
 20
82.8119
  0
VERTEX
  8
0
 10
81.0825
 20
82.849
  0
VERTEX
  8
0
 10
81.1138
 20
82.8812
  0
VERTEX
  8
0
 10
81.1618
 20
82.9121
  0
VERTEX
  8
0
 10
81.2175
 20
82.9308
  0
VERTEX
  8
0
 10
81.2809
 20
82.9373
  0
VERTEX
  8
0
 10
81.3445
 20
82.9309
  0
VERTEX
  8
0
 10
81.4008
 20
82.9118
  0
VERTEX
  8
0
 10
81.4498
 20
82.8801
  0
VERTEX
  8
0
 10
81.4816
 20
82.8471
  0
VERTEX
  8
0
 10
81.5042
 20
82.8095
  0
VERTEX
  8
0
 10
81.5178
 20
82.7673
  0
VERTEX
  8
0
 10
81.5224
 20
82.7203
  0
VERTEX
  8
0
 10
81.5199
 20
82.6876
  0
VERTEX
  8
0
 10
81.5124
 20
82.6579
  0
VERTEX
  8
0
 10
81.4998
 20
82.6312
  0
VERTEX
  8
0
 10
81.4823
 20
82.6074
  0
VERTEX
  8
0
 10
81.4598
 20
82.5865
  0
VERTEX
  8
0
 10
81.4322
 20
82.5687
  0
VERTEX
  8
0
 10
81.3997
 20
82.5538
  0
VERTEX
  8
0
 10
81.432
 20
82.5412
  0
VERTEX
  8
0
 10
81.4606
 20
82.5258
  0
VERTEX
  8
0
 10
81.4854
 20
82.5077
  0
VERTEX
  8
0
 10
81.5064
 20
82.4868
  0
VERTEX
  8
0
 10
81.5235
 20
82.4631
  0
VERTEX
  8
0
 10
81.5369
 20
82.4367
  0
VERTEX
  8
0
 10
81.5465
 20
82.4075
  0
VERTEX
  8
0
 10
81.5524
 20
82.3755
  0
VERTEX
  8
0
 10
81.5544
 20
82.3408
  0
VERTEX
  8
0
 10
81.5496
 20
82.2866
  0
VERTEX
  8
0
 10
81.5345
 20
82.2378
  0
VERTEX
  8
0
 10
81.5093
 20
82.1945
  0
VERTEX
  8
0
 10
81.4739
 20
82.1567
  0
VERTEX
  8
0
 10
81.4185
 20
82.1192
  0
VERTEX
  8
0
 10
81.3547
 20
82.0968
  0
VERTEX
  8
0
 10
81.2824
 20
82.0893
  0
VERTEX
  8
0
 10
81.2089
 20
82.0968
  0
VERTEX
  8
0
 10
81.1447
 20
82.1195
  0
VERTEX
  8
0
 10
81.0898
 20
82.1573
  0
VERTEX
  8
0
 10
81.0552
 20
82.1955
  0
VERTEX
  8
0
 10
81.0305
 20
82.2392
  0
VERTEX
  8
0
 10
81.0156
 20
82.2886
  0
VERTEX
  8
0
 10
81.0104
 20
82.3436
  0
VERTEX
  8
0
 10
81.0119
 20
82.3759
  0
VERTEX
  8
0
 10
81.0165
 20
82.4056
  0
VERTEX
  8
0
 10
81.0243
 20
82.4329
  0
VERTEX
  8
0
 10
81.0353
 20
82.4577
  0
VERTEX
  8
0
 10
81.0495
 20
82.48
  0
VERTEX
  8
0
 10
81.0668
 20
82.4997
  0
VERTEX
  8
0
 10
81.0873
 20
82.517
  0
VERTEX
  8
0
 10
81.111
 20
82.5318
  0
VERTEX
  8
0
 10
81.1378
 20
82.544
  0
VERTEX
  8
0
 10
81.1678
 20
82.5538
  0
VERTEX
  8
0
 10
81.1678
 20
82.5538
  0
SEQEND
  0
POLYLINE
  8
0
 66
     1
 10
0
 20
0
  0
VERTEX
  8
0
 10
81.1464
 20
82.7266
  0
VERTEX
  8
0
 10
81.1555
 20
82.674
  0
VERTEX
  8
0
 10
81.1839
 20
82.6311
  0
VERTEX
  8
0
 10
81.2279
 20
82.6027
  0
VERTEX
  8
0
 10
81.2835
 20
82.5933
  0
VERTEX
  8
0
 10
81.3362
 20
82.6022
  0
VERTEX
  8
0
 10
81.3794
 20
82.6289
  0
VERTEX
  8
0
 10
81.4084
 20
82.6697
  0
VERTEX
  8
0
 10
81.4184
 20
82.721
  0
VERTEX
  8
0
 10
81.409
 20
82.7717
  0
VERTEX
  8
0
 10
81.3797
 20
82.8143
  0
VERTEX
  8
0
 10
81.3357
 20
82.8432
  0
VERTEX
  8
0
 10
81.2824
 20
82.8533
  0
VERTEX
  8
0
 10
81.2282
 20
82.8437
  0
VERTEX
  8
0
 10
81.1828
 20
82.8137
  0
VERTEX
  8
0
 10
81.1558
 20
82.7738
  0
VERTEX
  8
0
 10
81.1464
 20
82.7266
  0
VERTEX
  8
0
 10
81.1464
 20
82.7266
  0
SEQEND
  0
POLYLINE
  8
0
 66
     1
 10
0
 20
0
  0
VERTEX
  8
0
 10
81.1144
 20
82.343
  0
VERTEX
  8
0
 10
81.1175
 20
82.3043
  0
VERTEX
  8
0
 10
81.1272
 20
82.2702
  0
VERTEX
  8
0
 10
81.1435
 20
82.2407
  0
VERTEX
  8
0
 10
81.1664
 20
82.2157
  0
VERTEX
  8
0
 10
81.196
 20
82.1953
  0
VERTEX
  8
0
 10
81.2378
 20
82.1788
  0
VERTEX
  8
0
 10
81.2833
 20
82.1733
  0
VERTEX
  8
0
 10
81.3495
 20
82.1849
  0
VERTEX
  8
0
 10
81.4031
 20
82.2199
  0
VERTEX
  8
0
 10
81.4386
 20
82.2732
  0
VERTEX
  8
0
 10
81.4504
 20
82.3396
  0
VERTEX
  8
0
 10
81.4383
 20
82.4067
  0
VERTEX
  8
0
 10
81.402
 20
82.4609
  0
VERTEX
  8
0
 10
81.3472
 20
82.4969
  0
VERTEX
  8
0
 10
81.2798
 20
82.5093
  0
VERTEX
  8
0
 10
81.2142
 20
82.4979
  0
VERTEX
  8
0
 10
81.1614
 20
82.4626
  0
VERTEX
  8
0
 10
81.1264
 20
82.4091
  0
VERTEX
  8
0
 10
81.1144
 20
82.343
  0
VERTEX
  8
0
 10
81.1144
 20
82.343
  0
SEQEND
  0
POLYLINE
  8
0
 66
     1
 10
0
 20
0
  0
VERTEX
  8
0
 10
81.7104
 20
82.1013
  0
VERTEX
  8
0
 10
81.7104
 20
82.2213
  0
VERTEX
  8
0
 10
81.8264
 20
82.2213
  0
VERTEX
  8
0
 10
81.8264
 20
82.1013
  0
VERTEX
  8
0
 10
81.7104
 20
82.1013
  0
SEQEND
  0
POLYLINE
  8
0
 66
     1
 10
0
 20
0
  0
VERTEX
  8
0
 10
81.9744
 20
82.3218
  0
VERTEX
  8
0
 10
82.0809
 20
82.331
  0
VERTEX
  8
0
 10
82.0875
 20
82.2979
  0
VERTEX
  8
0
 10
82.0969
 20
82.2687
  0
VERTEX
  8
0
 10
82.109
 20
82.2433
  0
VERTEX
  8
0
 10
82.1239
 20
82.2219
  0
VERTEX
  8
0
 10
82.1416
 20
82.2044
  0
VERTEX
  8
0
 10
82.162
 20
82.1908
  0
VERTEX
  8
0
 10
82.1852
 20
82.1811
  0
VERTEX
  8
0
 10
82.2111
 20
82.1752
  0
VERTEX
  8
0
 10
82.2398
 20
82.1733
  0
VERTEX
  8
0
 10
82.2902
 20
82.1802
  0
VERTEX
  8
0
 10
82.3334
 20
82.201
  0
VERTEX
  8
0
 10
82.3693
 20
82.2358
  0
VERTEX
  8
0
 10
82.4031
 20
82.2994
  0
VERTEX
  8
0
 10
82.4144
 20
82.3766
  0
VERTEX
  8
0
 10
82.4027
 20
82.4527
  0
VERTEX
  8
0
 10
82.3676
 20
82.5127
  0
VERTEX
  8
0
 10
82.3325
 20
82.5417
  0
VERTEX
  8
0
 10
82.2893
 20
82.5592
  0
VERTEX
  8
0
 10
82.2381
 20
82.5653
  0
VERTEX
  8
0
 10
82.1923
 20
82.5604
  0
VERTEX
  8
0
 10
82.152
 20
82.5452
  0
VERTEX
  8
0
 10
82.1171
 20
82.5197
  0
VERTEX
  8
0
 10
82.0876
 20
82.4838
  0
VERTEX
  8
0
 10
81.9924
 20
82.4963
  0
VERTEX
  8
0
 10
82.0726
 20
82.9213
  0
VERTEX
  8
0
 10
82.4839
 20
82.9213
  0
VERTEX
  8
0
 10
82.4839
 20
82.8253
  0
VERTEX
  8
0
 10
82.1563
 20
82.8253
  0
VERTEX
  8
0
 10
82.11
 20
82.6016
  0
VERTEX
  8
0
 10
82.1861
 20
82.6401
  0
VERTEX
  8
0
 10
82.2658
 20
82.6533
  0
VERTEX
  8
0
 10
82.3196
 20
82.6486
  0
VERTEX
  8
0
 10
82.3685
 20
82.634
  0
VERTEX
  8
0
 10
82.4125
 20
82.6096
  0
VERTEX
  8
0
 10
82.4515
 20
82.5752
  0
VERTEX
  8
0
 10
82.4825
 20
82.5346
  0
VERTEX
  8
0
 10
82.5047
 20
82.4894
  0
VERTEX
  8
0
 10
82.518
 20
82.4393
  0
VERTEX
  8
0
 10
82.5224
 20
82.3846
  0
VERTEX
  8
0
 10
82.5151
 20
82.3132
  0
VERTEX
  8
0
 10
82.4933
 20
82.2483
  0
VERTEX
  8
0
 10
82.457
 20
82.19
  0
VERTEX
  8
0
 10
82.4229
 20
82.1539
  0
VERTEX
  8
0
 10
82.3841
 20
82.1258
  0
VERTEX
  8
0
 10
82.3407
 20
82.1056
  0
VERTEX
  8
0
 10
82.2926
 20
82.0935
  0
VERTEX
  8
0
 10
82.2399
 20
82.0893
  0
VERTEX
  8
0
 10
82.1709
 20
82.096
  0
VERTEX
  8
0
 10
82.1104
 20
82.1163
  0
VERTEX
  8
0
 10
82.0584
 20
82.1501
  0
VERTEX
  8
0
 10
82.0165
 20
82.197
  0
VERTEX
  8
0
 10
81.9885
 20
82.2542
  0
VERTEX
  8
0
 10
81.9744
 20
82.3218
  0
VERTEX
  8
0
 10
81.9744
 20
82.3218
  0
SEQEND
  0
LINE
  8
0
 10
82.7227
 20
82.5
 11
86
 21
82.5
  0
LINE
  8
0
 10
85.6422
 20
82.3211
 11
86
 21
82.5
  0
LINE
  8
0
 10
85.6422
 20
82.6789
 11
86
 21
82.5
  0
LINE
  8
0
 10
86
 20
82.3
 11
86
 21
83.5
  0
LINE
  8
0
 10
80.8107
 20
82.5
 11
77.5334
 21
82.5
  0
LINE
  8
0
 10
77.8912
 20
82.6789
 11
77.5334
 21
82.5
  0
LINE
  8
0
 10
77.8912
 20
82.3211
 11
77.5334
 21
82.5
  0
LINE
  8
0
 10
77.5334
 20
82.3
 11
77.5334
 21
83.5
  0
POLYLINE
  8
0
 66
     1
 10
0
 20
0
  0
VERTEX
  8
0
 10
84.3824
 20
80.1973
  0
VERTEX
  8
0
 10
84.3824
 20
80.1013
  0
VERTEX
  8
0
 10
83.8384
 20
80.1013
  0
VERTEX
  8
0
 10
83.8424
 20
80.1452
  0
VERTEX
  8
0
 10
83.8568
 20
80.1902
  0
VERTEX
  8
0
 10
83.8815
 20
80.2362
  0
VERTEX
  8
0
 10
83.9166
 20
80.2831
  0
VERTEX
  8
0
 10
83.9731
 20
80.3425
  0
VERTEX
  8
0
 10
84.0494
 20
80.4093
  0
VERTEX
  8
0
 10
84.1101
 20
80.4607
  0
VERTEX
  8
0
 10
84.1582
 20
80.5043
  0
VERTEX
  8
0
 10
84.1934
 20
80.5401
  0
VERTEX
  8
0
 10
84.2306
 20
80.5856
  0
VERTEX
  8
0
 10
84.2571
 20
80.6289
  0
VERTEX
  8
0
 10
84.2731
 20
80.67
  0
VERTEX
  8
0
 10
84.2784
 20
80.7089
  0
VERTEX
  8
0
 10
84.2668
 20
80.7676
  0
VERTEX
  8
0
 10
84.2323
 20
80.814
  0
VERTEX
  8
0
 10
84.183
 20
80.8432
  0
VERTEX
  8
0
 10
84.1231
 20
80.8533
  0
VERTEX
  8
0
 10
84.0559
 20
80.8423
  0
VERTEX
  8
0
 10
84.0049
 20
80.8083
  0
VERTEX
  8
0
 10
83.9727
 20
80.7549
  0
VERTEX
  8
0
 10
83.9616
 20
80.6858
  0
VERTEX
  8
0
 10
83.8576
 20
80.6966
  0
VERTEX
  8
0
 10
83.8664
 20
80.7516
  0
VERTEX
  8
0
 10
83.8827
 20
80.7998
  0
VERTEX
  8
0
 10
83.9066
 20
80.841
  0
VERTEX
  8
0
 10
83.938
 20
80.8754
  0
VERTEX
  8
0
 10
83.9901
 20
80.9098
  0
VERTEX
  8
0
 10
84.0525
 20
80.9304
  0
VERTEX
  8
0
 10
84.1253
 20
80.9373
  0
VERTEX
  8
0
 10
84.1939
 20
80.9306
  0
VERTEX
  8
0
 10
84.2541
 20
80.9107
  0
VERTEX
  8
0
 10
84.3059
 20
80.8775
  0
VERTEX
  8
0
 10
84.3393
 20
80.8428
  0
VERTEX
  8
0
 10
84.3633
 20
80.8025
  0
VERTEX
  8
0
 10
84.3776
 20
80.7567
  0
VERTEX
  8
0
 10
84.3824
 20
80.7054
  0
VERTEX
  8
0
 10
84.3769
 20
80.6555
  0
VERTEX
  8
0
 10
84.3605
 20
80.6054
  0
VERTEX
  8
0
 10
84.3331
 20
80.5552
  0
VERTEX
  8
0
 10
84.2947
 20
80.5049
  0
VERTEX
  8
0
 10
84.2559
 20
80.464
  0
VERTEX
  8
0
 10
84.2041
 20
80.415
  0
VERTEX
  8
0
 10
84.1391
 20
80.3579
  0
VERTEX
  8
0
 10
84.097
 20
80.322
  0
VERTEX
  8
0
 10
84.0684
 20
80.2971
  0
VERTEX
  8
0
 10
84.0531
 20
80.2833
  0
VERTEX
  8
0
 10
84.0111
 20
80.2395
  0
VERTEX
  8
0
 10
83.9794
 20
80.1973
  0
VERTEX
  8
0
 10
84.3824
 20
80.1973
  0
SEQEND
  0
POLYLINE
  8
0
 66
     1
 10
0
 20
0
  0
VERTEX
  8
0
 10
84.5464
 20
80.1013
  0
VERTEX
  8
0
 10
84.5464
 20
80.2213
  0
VERTEX
  8
0
 10
84.6624
 20
80.2213
  0
VERTEX
  8
0
 10
84.6624
 20
80.1013
  0
VERTEX
  8
0
 10
84.5464
 20
80.1013
  0
SEQEND
  0
POLYLINE
  8
0
 66
     1
 10
0
 20
0
  0
VERTEX
  8
0
 10
84.9678
 20
80.5538
  0
VERTEX
  8
0
 10
84.9345
 20
80.5683
  0
VERTEX
  8
0
 10
84.9064
 20
80.5861
  0
VERTEX
  8
0
 10
84.8833
 20
80.6071
  0
VERTEX
  8
0
 10
84.8654
 20
80.6313
  0
VERTEX
  8
0
 10
84.8526
 20
80.6587
  0
VERTEX
  8
0
 10
84.8449
 20
80.6893
  0
VERTEX
  8
0
 10
84.8424
 20
80.7231
  0
VERTEX
  8
0
 10
84.8468
 20
80.77
  0
VERTEX
  8
0
 10
84.8602
 20
80.8119
  0
VERTEX
  8
0
 10
84.8825
 20
80.849
  0
VERTEX
  8
0
 10
84.9138
 20
80.8812
  0
VERTEX
  8
0
 10
84.9618
 20
80.9121
  0
VERTEX
  8
0
 10
85.0175
 20
80.9308
  0
VERTEX
  8
0
 10
85.0809
 20
80.9373
  0
VERTEX
  8
0
 10
85.1445
 20
80.9309
  0
VERTEX
  8
0
 10
85.2008
 20
80.9118
  0
VERTEX
  8
0
 10
85.2498
 20
80.8801
  0
VERTEX
  8
0
 10
85.2816
 20
80.8471
  0
VERTEX
  8
0
 10
85.3042
 20
80.8095
  0
VERTEX
  8
0
 10
85.3178
 20
80.7673
  0
VERTEX
  8
0
 10
85.3224
 20
80.7203
  0
VERTEX
  8
0
 10
85.3199
 20
80.6876
  0
VERTEX
  8
0
 10
85.3124
 20
80.6579
  0
VERTEX
  8
0
 10
85.2998
 20
80.6312
  0
VERTEX
  8
0
 10
85.2823
 20
80.6074
  0
VERTEX
  8
0
 10
85.2598
 20
80.5865
  0
VERTEX
  8
0
 10
85.2322
 20
80.5687
  0
VERTEX
  8
0
 10
85.1997
 20
80.5538
  0
VERTEX
  8
0
 10
85.232
 20
80.5412
  0
VERTEX
  8
0
 10
85.2606
 20
80.5258
  0
VERTEX
  8
0
 10
85.2854
 20
80.5077
  0
VERTEX
  8
0
 10
85.3064
 20
80.4868
  0
VERTEX
  8
0
 10
85.3235
 20
80.4631
  0
VERTEX
  8
0
 10
85.3369
 20
80.4367
  0
VERTEX
  8
0
 10
85.3465
 20
80.4075
  0
VERTEX
  8
0
 10
85.3524
 20
80.3755
  0
VERTEX
  8
0
 10
85.3544
 20
80.3408
  0
VERTEX
  8
0
 10
85.3496
 20
80.2866
  0
VERTEX
  8
0
 10
85.3345
 20
80.2378
  0
VERTEX
  8
0
 10
85.3093
 20
80.1945
  0
VERTEX
  8
0
 10
85.2739
 20
80.1567
  0
VERTEX
  8
0
 10
85.2185
 20
80.1192
  0
VERTEX
  8
0
 10
85.1547
 20
80.0968
  0
VERTEX
  8
0
 10
85.0824
 20
80.0893
  0
VERTEX
  8
0
 10
85.0089
 20
80.0968
  0
VERTEX
  8
0
 10
84.9447
 20
80.1195
  0
VERTEX
  8
0
 10
84.8898
 20
80.1573
  0
VERTEX
  8
0
 10
84.8552
 20
80.1955
  0
VERTEX
  8
0
 10
84.8305
 20
80.2392
  0
VERTEX
  8
0
 10
84.8156
 20
80.2886
  0
VERTEX
  8
0
 10
84.8104
 20
80.3436
  0
VERTEX
  8
0
 10
84.8119
 20
80.3759
  0
VERTEX
  8
0
 10
84.8165
 20
80.4056
  0
VERTEX
  8
0
 10
84.8243
 20
80.4329
  0
VERTEX
  8
0
 10
84.8353
 20
80.4577
  0
VERTEX
  8
0
 10
84.8495
 20
80.48
  0
VERTEX
  8
0
 10
84.8668
 20
80.4997
  0
VERTEX
  8
0
 10
84.8873
 20
80.517
  0
VERTEX
  8
0
 10
84.911
 20
80.5318
  0
VERTEX
  8
0
 10
84.9378
 20
80.544
  0
VERTEX
  8
0
 10
84.9678
 20
80.5538
  0
VERTEX
  8
0
 10
84.9678
 20
80.5538
  0
SEQEND
  0
POLYLINE
  8
0
 66
     1
 10
0
 20
0
  0
VERTEX
  8
0
 10
84.9464
 20
80.7266
  0
VERTEX
  8
0
 10
84.9555
 20
80.674
  0
VERTEX
  8
0
 10
84.9839
 20
80.6311
  0
VERTEX
  8
0
 10
85.0279
 20
80.6027
  0
VERTEX
  8
0
 10
85.0835
 20
80.5933
  0
VERTEX
  8
0
 10
85.1362
 20
80.6022
  0
VERTEX
  8
0
 10
85.1794
 20
80.6289
  0
VERTEX
  8
0
 10
85.2084
 20
80.6697
  0
VERTEX
  8
0
 10
85.2184
 20
80.721
  0
VERTEX
  8
0
 10
85.209
 20
80.7717
  0
VERTEX
  8
0
 10
85.1797
 20
80.8143
  0
VERTEX
  8
0
 10
85.1357
 20
80.8432
  0
VERTEX
  8
0
 10
85.0824
 20
80.8533
  0
VERTEX
  8
0
 10
85.0282
 20
80.8437
  0
VERTEX
  8
0
 10
84.9828
 20
80.8137
  0
VERTEX
  8
0
 10
84.9558
 20
80.7738
  0
VERTEX
  8
0
 10
84.9464
 20
80.7266
  0
VERTEX
  8
0
 10
84.9464
 20
80.7266
  0
SEQEND
  0
POLYLINE
  8
0
 66
     1
 10
0
 20
0
  0
VERTEX
  8
0
 10
84.9144
 20
80.343
  0
VERTEX
  8
0
 10
84.9175
 20
80.3043
  0
VERTEX
  8
0
 10
84.9272
 20
80.2702
  0
VERTEX
  8
0
 10
84.9435
 20
80.2407
  0
VERTEX
  8
0
 10
84.9664
 20
80.2157
  0
VERTEX
  8
0
 10
84.996
 20
80.1953
  0
VERTEX
  8
0
 10
85.0378
 20
80.1788
  0
VERTEX
  8
0
 10
85.0833
 20
80.1733
  0
VERTEX
  8
0
 10
85.1495
 20
80.1849
  0
VERTEX
  8
0
 10
85.2031
 20
80.2199
  0
VERTEX
  8
0
 10
85.2386
 20
80.2732
  0
VERTEX
  8
0
 10
85.2504
 20
80.3396
  0
VERTEX
  8
0
 10
85.2383
 20
80.4067
  0
VERTEX
  8
0
 10
85.202
 20
80.4609
  0
VERTEX
  8
0
 10
85.1472
 20
80.4969
  0
VERTEX
  8
0
 10
85.0798
 20
80.5093
  0
VERTEX
  8
0
 10
85.0142
 20
80.4979
  0
VERTEX
  8
0
 10
84.9614
 20
80.4626
  0
VERTEX
  8
0
 10
84.9264
 20
80.4091
  0
VERTEX
  8
0
 10
84.9144
 20
80.343
  0
VERTEX
  8
0
 10
84.9144
 20
80.343
  0
SEQEND
  0
LINE
  8
0
 10
85.5548
 20
80.5
 11
86
 21
80.5
  0
LINE
  8
0
 10
85.6422
 20
80.3211
 11
86
 21
80.5
  0
LINE
  8
0
 10
85.6422
 20
80.6789
 11
86
 21
80.5
  0
LINE
  8
0
 10
86
 20
80.3
 11
86
 21
81.5
  0
LINE
  8
0
 10
83.6344
 20
80.5
 11
83.1892
 21
80.5
  0
LINE
  8
0
 10
83.5469
 20
80.6789
 11
83.1892
 21
80.5
  0
LINE
  8
0
 10
83.5469
 20
80.3211
 11
83.1892
 21
80.5
  0
LINE
  8
0
 10
83.1892
 20
80.3
 11
83.1892
 21
81.5
  0
POLYLINE
  8
0
 66
     1
 10
0
 20
0
  0
VERTEX
  8
0
 10
87.8064
 20
87.2773
  0
VERTEX
  8
0
 10
87.9024
 20
87.2773
  0
VERTEX
  8
0
 10
87.9024
 20
86.7333
  0
VERTEX
  8
0
 10
87.8584
 20
86.7373
  0
VERTEX
  8
0
 10
87.8134
 20
86.7517
  0
VERTEX
  8
0
 10
87.7675
 20
86.7764
  0
VERTEX
  8
0
 10
87.7205
 20
86.8115
  0
VERTEX
  8
0
 10
87.6611
 20
86.868
  0
VERTEX
  8
0
 10
87.5943
 20
86.9443
  0
VERTEX
  8
0
 10
87.5429
 20
87.005
  0
VERTEX
  8
0
 10
87.4993
 20
87.053
  0
VERTEX
  8
0
 10
87.4636
 20
87.0883
  0
VERTEX
  8
0
 10
87.4181
 20
87.1255
  0
VERTEX
  8
0
 10
87.3748
 20
87.152
  0
VERTEX
  8
0
 10
87.3337
 20
87.168
  0
VERTEX
  8
0
 10
87.2948
 20
87.1733
  0
VERTEX
  8
0
 10
87.2361
 20
87.1617
  0
VERTEX
  8
0
 10
87.1896
 20
87.1271
  0
VERTEX
  8
0
 10
87.1605
 20
87.0779
  0
VERTEX
  8
0
 10
87.1504
 20
87.018
  0
VERTEX
  8
0
 10
87.1613
 20
86.9507
  0
VERTEX
  8
0
 10
87.1954
 20
86.8998
  0
VERTEX
  8
0
 10
87.2488
 20
86.8676
  0
VERTEX
  8
0
 10
87.3178
 20
86.8565
  0
VERTEX
  8
0
 10
87.307
 20
86.7525
  0
VERTEX
  8
0
 10
87.252
 20
86.7613
  0
VERTEX
  8
0
 10
87.2039
 20
86.7776
  0
VERTEX
  8
0
 10
87.1626
 20
86.8015
  0
VERTEX
  8
0
 10
87.1283
 20
86.8329
  0
VERTEX
  8
0
 10
87.0939
 20
86.885
  0
VERTEX
  8
0
 10
87.0733
 20
86.9474
  0
VERTEX
  8
0
 10
87.0664
 20
87.0202
  0
VERTEX
  8
0
 10
87.073
 20
87.0888
  0
VERTEX
  8
0
 10
87.093
 20
87.149
  0
VERTEX
  8
0
 10
87.1262
 20
87.2008
  0
VERTEX
  8
0
 10
87.1609
 20
87.2342
  0
VERTEX
  8
0
 10
87.2011
 20
87.2581
  0
VERTEX
  8
0
 10
87.2469
 20
87.2725
  0
VERTEX
  8
0
 10
87.2983
 20
87.2773
  0
VERTEX
  8
0
 10
87.3482
 20
87.2718
  0
VERTEX
  8
0
 10
87.3982
 20
87.2553
  0
VERTEX
  8
0
 10
87.4484
 20
87.2279
  0
VERTEX
  8
0
 10
87.4988
 20
87.1896
  0
VERTEX
  8
0
 10
87.5396
 20
87.1508
  0
VERTEX
  8
0
 10
87.5886
 20
87.0989
  0
VERTEX
  8
0
 10
87.6458
 20
87.034
  0
VERTEX
  8
0
 10
87.6816
 20
86.9919
  0
VERTEX
  8
0
 10
87.7065
 20
86.9633
  0
VERTEX
  8
0
 10
87.7204
 20
86.948
  0
VERTEX
  8
0
 10
87.7641
 20
86.906
  0
VERTEX
  8
0
 10
87.8064
 20
86.8743
  0
VERTEX
  8
0
 10
87.8064
 20
87.2773
  0
SEQEND
  0
LINE
  8
0
 10
87.5
 20
87.4743
 11
87.5
 21
88
  0
LINE
  8
0
 10
87.6789
 20
87.6422
 11
87.5
 21
88
  0
LINE
  8
0
 10
87.3211
 20
87.6422
 11
87.5
 21
88
  0
LINE
  8
0
 10
87.7
 20
88
 11
86.5
 21
88
  0
LINE
  8
0
 10
87.5
 20
86.5257
 11
87.5
 21
86
  0
LINE
  8
0
 10
87.3211
 20
86.3578
 11
87.5
 21
86
  0
LINE
  8
0
 10
87.6789
 20
86.3578
 11
87.5
 21
86
  0
LINE
  8
0
 10
87.7
 20
86
 11
86.5
 21
86
  0
POLYLINE
  8
0
 66
     1
 10
0
 20
0
  0
VERTEX
  8
0
 10
89.9024
 20
94.7573
  0
VERTEX
  8
0
 10
89.9024
 20
94.6573
  0
VERTEX
  8
0
 10
89.2513
 20
94.6573
  0
VERTEX
  8
0
 10
89.32
 20
94.566
  0
VERTEX
  8
0
 10
89.3737
 20
94.4533
  0
VERTEX
  8
0
 10
89.275
 20
94.4533
  0
VERTEX
  8
0
 10
89.2461
 20
94.509
  0
VERTEX
  8
0
 10
89.2148
 20
94.5583
  0
VERTEX
  8
0
 10
89.1812
 20
94.6013
  0
VERTEX
  8
0
 10
89.1453
 20
94.6379
  0
VERTEX
  8
0
 10
89.107
 20
94.6681
  0
VERTEX
  8
0
 10
89.0664
 20
94.692
  0
VERTEX
  8
0
 10
89.0664
 20
94.7573
  0
VERTEX
  8
0
 10
89.9024
 20
94.7573
  0
SEQEND
  0
POLYLINE
  8
0
 66
     1
 10
0
 20
0
  0
VERTEX
  8
0
 10
89.4499
 20
95.1667
  0
VERTEX
  8
0
 10
89.4353
 20
95.1334
  0
VERTEX
  8
0
 10
89.4176
 20
95.1053
  0
VERTEX
  8
0
 10
89.3966
 20
95.0822
  0
VERTEX
  8
0
 10
89.3724
 20
95.0643
  0
VERTEX
  8
0
 10
89.345
 20
95.0515
  0
VERTEX
  8
0
 10
89.3143
 20
95.0438
  0
VERTEX
  8
0
 10
89.2805
 20
95.0413
  0
VERTEX
  8
0
 10
89.2337
 20
95.0457
  0
VERTEX
  8
0
 10
89.1917
 20
95.0591
  0
VERTEX
  8
0
 10
89.1546
 20
95.0814
  0
VERTEX
  8
0
 10
89.1224
 20
95.1126
  0
VERTEX
  8
0
 10
89.0915
 20
95.1607
  0
VERTEX
  8
0
 10
89.0729
 20
95.2164
  0
VERTEX
  8
0
 10
89.0664
 20
95.2798
  0
VERTEX
  8
0
 10
89.0727
 20
95.3434
  0
VERTEX
  8
0
 10
89.0918
 20
95.3997
  0
VERTEX
  8
0
 10
89.1236
 20
95.4487
  0
VERTEX
  8
0
 10
89.1565
 20
95.4804
  0
VERTEX
  8
0
 10
89.1941
 20
95.5031
  0
VERTEX
  8
0
 10
89.2364
 20
95.5167
  0
VERTEX
  8
0
 10
89.2833
 20
95.5213
  0
VERTEX
  8
0
 10
89.316
 20
95.5188
  0
VERTEX
  8
0
 10
89.3457
 20
95.5112
  0
VERTEX
  8
0
 10
89.3725
 20
95.4987
  0
VERTEX
  8
0
 10
89.3963
 20
95.4812
  0
VERTEX
  8
0
 10
89.4171
 20
95.4587
  0
VERTEX
  8
0
 10
89.435
 20
95.4311
  0
VERTEX
  8
0
 10
89.4499
 20
95.3986
  0
VERTEX
  8
0
 10
89.4625
 20
95.4309
  0
VERTEX
  8
0
 10
89.4778
 20
95.4595
  0
VERTEX
  8
0
 10
89.496
 20
95.4843
  0
VERTEX
  8
0
 10
89.5169
 20
95.5052
  0
VERTEX
  8
0
 10
89.5405
 20
95.5224
  0
VERTEX
  8
0
 10
89.567
 20
95.5358
  0
VERTEX
  8
0
 10
89.5962
 20
95.5454
  0
VERTEX
  8
0
 10
89.6281
 20
95.5512
  0
VERTEX
  8
0
 10
89.6629
 20
95.5533
  0
VERTEX
  8
0
 10
89.7171
 20
95.5484
  0
VERTEX
  8
0
 10
89.7658
 20
95.5334
  0
VERTEX
  8
0
 10
89.8091
 20
95.5082
  0
VERTEX
  8
0
 10
89.8469
 20
95.4728
  0
VERTEX
  8
0
 10
89.8844
 20
95.4174
  0
VERTEX
  8
0
 10
89.9069
 20
95.3536
  0
VERTEX
  8
0
 10
89.9144
 20
95.2813
  0
VERTEX
  8
0
 10
89.9068
 20
95.2078
  0
VERTEX
  8
0
 10
89.8842
 20
95.1436
  0
VERTEX
  8
0
 10
89.8464
 20
95.0886
  0
VERTEX
  8
0
 10
89.8082
 20
95.0541
  0
VERTEX
  8
0
 10
89.7644
 20
95.0294
  0
VERTEX
  8
0
 10
89.715
 20
95.0144
  0
VERTEX
  8
0
 10
89.6601
 20
95.0093
  0
VERTEX
  8
0
 10
89.6278
 20
95.0107
  0
VERTEX
  8
0
 10
89.598
 20
95.0154
  0
VERTEX
  8
0
 10
89.5707
 20
95.0232
  0
VERTEX
  8
0
 10
89.5459
 20
95.0342
  0
VERTEX
  8
0
 10
89.5237
 20
95.0483
  0
VERTEX
  8
0
 10
89.5039
 20
95.0657
  0
VERTEX
  8
0
 10
89.4866
 20
95.0862
  0
VERTEX
  8
0
 10
89.4719
 20
95.1098
  0
VERTEX
  8
0
 10
89.4596
 20
95.1367
  0
VERTEX
  8
0
 10
89.4499
 20
95.1667
  0
VERTEX
  8
0
 10
89.4499
 20
95.1667
  0
SEQEND
  0
POLYLINE
  8
0
 66
     1
 10
0
 20
0
  0
VERTEX
  8
0
 10
89.277
 20
95.1453
  0
VERTEX
  8
0
 10
89.3297
 20
95.1544
  0
VERTEX
  8
0
 10
89.3725
 20
95.1828
  0
VERTEX
  8
0
 10
89.4009
 20
95.2268
  0
VERTEX
  8
0
 10
89.4104
 20
95.2824
  0
VERTEX
  8
0
 10
89.4015
 20
95.3351
  0
VERTEX
  8
0
 10
89.3748
 20
95.3783
  0
VERTEX
  8
0
 10
89.334
 20
95.4072
  0
VERTEX
  8
0
 10
89.2826
 20
95.4173
  0
VERTEX
  8
0
 10
89.2319
 20
95.4079
  0
VERTEX
  8
0
 10
89.1894
 20
95.3786
  0
VERTEX
  8
0
 10
89.1604
 20
95.3346
  0
VERTEX
  8
0
 10
89.1504
 20
95.2813
  0
VERTEX
  8
0
 10
89.16
 20
95.2271
  0
VERTEX
  8
0
 10
89.1899
 20
95.1817
  0
VERTEX
  8
0
 10
89.2298
 20
95.1547
  0
VERTEX
  8
0
 10
89.277
 20
95.1453
  0
VERTEX
  8
0
 10
89.277
 20
95.1453
  0
SEQEND
  0
POLYLINE
  8
0
 66
     1
 10
0
 20
0
  0
VERTEX
  8
0
 10
89.6607
 20
95.1133
  0
VERTEX
  8
0
 10
89.6994
 20
95.1163
  0
VERTEX
  8
0
 10
89.7335
 20
95.1261
  0
VERTEX
  8
0
 10
89.763
 20
95.1424
  0
VERTEX
  8
0
 10
89.7879
 20
95.1653
  0
VERTEX
  8
0
 10
89.8083
 20
95.1949
  0
VERTEX
  8
0
 10
89.8249
 20
95.2367
  0
VERTEX
  8
0
 10
89.8304
 20
95.2821
  0
VERTEX
  8
0
 10
89.8187
 20
95.3484
  0
VERTEX
  8
0
 10
89.7837
 20
95.402
  0
VERTEX
  8
0
 10
89.7305
 20
95.4374
  0
VERTEX
  8
0
 10
89.6641
 20
95.4493
  0
VERTEX
  8
0
 10
89.597
 20
95.4372
  0
VERTEX
  8
0
 10
89.5428
 20
95.4009
  0
VERTEX
  8
0
 10
89.5068
 20
95.3461
  0
VERTEX
  8
0
 10
89.4944
 20
95.2787
  0
VERTEX
  8
0
 10
89.5058
 20
95.2131
  0
VERTEX
  8
0
 10
89.541
 20
95.1603
  0
VERTEX
  8
0
 10
89.5946
 20
95.1253
  0
VERTEX
  8
0
 10
89.6607
 20
95.1133
  0
VERTEX
  8
0
 10
89.6607
 20
95.1133
  0
SEQEND
  0
LINE
  8
0
 10
89.5
 20
95.7508
 11
89.5
 21
104
  0
LINE
  8
0
 10
89.6789
 20
103.6422
 11
89.5
 21
104
  0
LINE
  8
0
 10
89.3211
 20
103.6422
 11
89.5
 21
104
  0
LINE
  8
0
 10
89.7
 20
104
 11
86.2
 21
104
  0
LINE
  8
0
 10
89.5
 20
94.2492
 11
89.5
 21
86
  0
LINE
  8
0
 10
89.3211
 20
86.3578
 11
89.5
 21
86
  0
LINE
  8
0
 10
89.6789
 20
86.3578
 11
89.5
 21
86
  0
LINE
  8
0
 10
89.7
 20
86
 11
86.2
 21
86
  0
POLYLINE
  8
0
 66
     1
 10
0
 20
0
  0
VERTEX
  8
0
 10
73.9504
 20
78.1973
  0
VERTEX
  8
0
 10
73.9504
 20
78.1013
  0
VERTEX
  8
0
 10
73.4064
 20
78.1013
  0
VERTEX
  8
0
 10
73.4104
 20
78.1452
  0
VERTEX
  8
0
 10
73.4248
 20
78.1902
  0
VERTEX
  8
0
 10
73.4495
 20
78.2362
  0
VERTEX
  8
0
 10
73.4846
 20
78.2831
  0
VERTEX
  8
0
 10
73.5411
 20
78.3425
  0
VERTEX
  8
0
 10
73.6174
 20
78.4093
  0
VERTEX
  8
0
 10
73.6781
 20
78.4607
  0
VERTEX
  8
0
 10
73.7262
 20
78.5043
  0
VERTEX
  8
0
 10
73.7614
 20
78.5401
  0
VERTEX
  8
0
 10
73.7986
 20
78.5856
  0
VERTEX
  8
0
 10
73.8251
 20
78.6289
  0
VERTEX
  8
0
 10
73.8411
 20
78.67
  0
VERTEX
  8
0
 10
73.8464
 20
78.7089
  0
VERTEX
  8
0
 10
73.8348
 20
78.7676
  0
VERTEX
  8
0
 10
73.8003
 20
78.814
  0
VERTEX
  8
0
 10
73.751
 20
78.8432
  0
VERTEX
  8
0
 10
73.6911
 20
78.8533
  0
VERTEX
  8
0
 10
73.6239
 20
78.8423
  0
VERTEX
  8
0
 10
73.5729
 20
78.8083
  0
VERTEX
  8
0
 10
73.5407
 20
78.7549
  0
VERTEX
  8
0
 10
73.5296
 20
78.6858
  0
VERTEX
  8
0
 10
73.4256
 20
78.6966
  0
VERTEX
  8
0
 10
73.4344
 20
78.7516
  0
VERTEX
  8
0
 10
73.4507
 20
78.7998
  0
VERTEX
  8
0
 10
73.4746
 20
78.841
  0
VERTEX
  8
0
 10
73.506
 20
78.8754
  0
VERTEX
  8
0
 10
73.5581
 20
78.9098
  0
VERTEX
  8
0
 10
73.6205
 20
78.9304
  0
VERTEX
  8
0
 10
73.6933
 20
78.9373
  0
VERTEX
  8
0
 10
73.7619
 20
78.9306
  0
VERTEX
  8
0
 10
73.8221
 20
78.9107
  0
VERTEX
  8
0
 10
73.8739
 20
78.8775
  0
VERTEX
  8
0
 10
73.9073
 20
78.8428
  0
VERTEX
  8
0
 10
73.9313
 20
78.8025
  0
VERTEX
  8
0
 10
73.9456
 20
78.7567
  0
VERTEX
  8
0
 10
73.9504
 20
78.7054
  0
VERTEX
  8
0
 10
73.9449
 20
78.6555
  0
VERTEX
  8
0
 10
73.9285
 20
78.6054
  0
VERTEX
  8
0
 10
73.9011
 20
78.5552
  0
VERTEX
  8
0
 10
73.8627
 20
78.5049
  0
VERTEX
  8
0
 10
73.8239
 20
78.464
  0
VERTEX
  8
0
 10
73.7721
 20
78.415
  0
VERTEX
  8
0
 10
73.7071
 20
78.3579
  0
VERTEX
  8
0
 10
73.665
 20
78.322
  0
VERTEX
  8
0
 10
73.6364
 20
78.2971
  0
VERTEX
  8
0
 10
73.6211
 20
78.2833
  0
VERTEX
  8
0
 10
73.5791
 20
78.2395
  0
VERTEX
  8
0
 10
73.5474
 20
78.1973
  0
VERTEX
  8
0
 10
73.9504
 20
78.1973
  0
SEQEND
  0
POLYLINE
  8
0
 66
     1
 10
0
 20
0
  0
VERTEX
  8
0
 10
74.3864
 20
78.1013
  0
VERTEX
  8
0
 10
74.3864
 20
78.3053
  0
VERTEX
  8
0
 10
74.0264
 20
78.3053
  0
VERTEX
  8
0
 10
74.0264
 20
78.3973
  0
VERTEX
  8
0
 10
74.4038
 20
78.9333
  0
VERTEX
  8
0
 10
74.4864
 20
78.9333
  0
VERTEX
  8
0
 10
74.4864
 20
78.3973
  0
VERTEX
  8
0
 10
74.5984
 20
78.3973
  0
VERTEX
  8
0
 10
74.5984
 20
78.3053
  0
VERTEX
  8
0
 10
74.4864
 20
78.3053
  0
VERTEX
  8
0
 10
74.4864
 20
78.1013
  0
VERTEX
  8
0
 10
74.3864
 20
78.1013
  0
SEQEND
  0
POLYLINE
  8
0
 66
     1
 10
0
 20
0
  0
VERTEX
  8
0
 10
74.3864
 20
78.3973
  0
VERTEX
  8
0
 10
74.3864
 20
78.7766
  0
VERTEX
  8
0
 10
74.1236
 20
78.3964
  0
VERTEX
  8
0
 10
74.3864
 20
78.3973
  0
SEQEND
  0
LINE
  8
0
 10
74.799
 20
78.5
 11
86
 21
78.5
  0
LINE
  8
0
 10
85.6422
 20
78.3211
 11
86
 21
78.5
  0
LINE
  8
0
 10
85.6422
 20
78.6789
 11
86
 21
78.5
  0
LINE
  8
0
 10
86
 20
78.3
 11
86
 21
85.8
  0
LINE
  8
0
 10
73.201
 20
78.5
 11
62
 21
78.5
  0
LINE
  8
0
 10
62.3578
 20
78.6789
 11
62
 21
78.5
  0
LINE
  8
0
 10
62.3578
 20
78.3211
 11
62
 21
78.5
  0
LINE
  8
0
 10
62
 20
78.3
 11
62
 21
85.8
  0
POLYLINE
  8
0
 66
     1
 10
0
 20
0
  0
VERTEX
  8
0
 10
62.3024
 20
76.7733
  0
VERTEX
  8
0
 10
62.2024
 20
76.7733
  0
VERTEX
  8
0
 10
62.2024
 20
77.4244
  0
VERTEX
  8
0
 10
62.1112
 20
77.3557
  0
VERTEX
  8
0
 10
61.9984
 20
77.302
  0
VERTEX
  8
0
 10
61.9984
 20
77.4006
  0
VERTEX
  8
0
 10
62.0541
 20
77.4296
  0
VERTEX
  8
0
 10
62.1035
 20
77.4608
  0
VERTEX
  8
0
 10
62.1464
 20
77.4945
  0
VERTEX
  8
0
 10
62.183
 20
77.5304
  0
VERTEX
  8
0
 10
62.2132
 20
77.5687
  0
VERTEX
  8
0
 10
62.2371
 20
77.6093
  0
VERTEX
  8
0
 10
62.3024
 20
77.6093
  0
VERTEX
  8
0
 10
62.3024
 20
76.7733
  0
SEQEND
  0
POLYLINE
  8
0
 66
     1
 10
0
 20
0
  0
VERTEX
  8
0
 10
62.6144
 20
76.7733
  0
VERTEX
  8
0
 10
62.6144
 20
76.8933
  0
VERTEX
  8
0
 10
62.7304
 20
76.8933
  0
VERTEX
  8
0
 10
62.7304
 20
76.7733
  0
VERTEX
  8
0
 10
62.6144
 20
76.7733
  0
SEQEND
  0
POLYLINE
  8
0
 66
     1
 10
0
 20
0
  0
VERTEX
  8
0
 10
62.8784
 20
76.9938
  0
VERTEX
  8
0
 10
62.9849
 20
77.003
  0
VERTEX
  8
0
 10
62.9915
 20
76.9699
  0
VERTEX
  8
0
 10
63.0009
 20
76.9407
  0
VERTEX
  8
0
 10
63.013
 20
76.9153
  0
VERTEX
  8
0
 10
63.0279
 20
76.8939
  0
VERTEX
  8
0
 10
63.0456
 20
76.8764
  0
VERTEX
  8
0
 10
63.066
 20
76.8628
  0
VERTEX
  8
0
 10
63.0892
 20
76.8531
  0
VERTEX
  8
0
 10
63.1151
 20
76.8472
  0
VERTEX
  8
0
 10
63.1438
 20
76.8453
  0
VERTEX
  8
0
 10
63.1942
 20
76.8522
  0
VERTEX
  8
0
 10
63.2374
 20
76.873
  0
VERTEX
  8
0
 10
63.2733
 20
76.9078
  0
VERTEX
  8
0
 10
63.3071
 20
76.9714
  0
VERTEX
  8
0
 10
63.3184
 20
77.0486
  0
VERTEX
  8
0
 10
63.3067
 20
77.1247
  0
VERTEX
  8
0
 10
63.2716
 20
77.1847
  0
VERTEX
  8
0
 10
63.2365
 20
77.2137
  0
VERTEX
  8
0
 10
63.1933
 20
77.2312
  0
VERTEX
  8
0
 10
63.1421
 20
77.2373
  0
VERTEX
  8
0
 10
63.0963
 20
77.2324
  0
VERTEX
  8
0
 10
63.056
 20
77.2172
  0
VERTEX
  8
0
 10
63.0211
 20
77.1917
  0
VERTEX
  8
0
 10
62.9916
 20
77.1558
  0
VERTEX
  8
0
 10
62.8964
 20
77.1683
  0
VERTEX
  8
0
 10
62.9766
 20
77.5933
  0
VERTEX
  8
0
 10
63.3879
 20
77.5933
  0
VERTEX
  8
0
 10
63.3879
 20
77.4973
  0
VERTEX
  8
0
 10
63.0603
 20
77.4973
  0
VERTEX
  8
0
 10
63.014
 20
77.2736
  0
VERTEX
  8
0
 10
63.0901
 20
77.3121
  0
VERTEX
  8
0
 10
63.1698
 20
77.3253
  0
VERTEX
  8
0
 10
63.2236
 20
77.3206
  0
VERTEX
  8
0
 10
63.2725
 20
77.306
  0
VERTEX
  8
0
 10
63.3165
 20
77.2816
  0
VERTEX
  8
0
 10
63.3555
 20
77.2472
  0
VERTEX
  8
0
 10
63.3865
 20
77.2066
  0
VERTEX
  8
0
 10
63.4087
 20
77.1614
  0
VERTEX
  8
0
 10
63.4219
 20
77.1113
  0
VERTEX
  8
0
 10
63.4264
 20
77.0566
  0
VERTEX
  8
0
 10
63.4191
 20
76.9852
  0
VERTEX
  8
0
 10
63.3973
 20
76.9203
  0
VERTEX
  8
0
 10
63.361
 20
76.862
  0
VERTEX
  8
0
 10
63.3269
 20
76.8259
  0
VERTEX
  8
0
 10
63.2881
 20
76.7978
  0
VERTEX
  8
0
 10
63.2447
 20
76.7776
  0
VERTEX
  8
0
 10
63.1966
 20
76.7655
  0
VERTEX
  8
0
 10
63.1439
 20
76.7613
  0
VERTEX
  8
0
 10
63.0749
 20
76.768
  0
VERTEX
  8
0
 10
63.0144
 20
76.7883
  0
VERTEX
  8
0
 10
62.9624
 20
76.8221
  0
VERTEX
  8
0
 10
62.9205
 20
76.869
  0
VERTEX
  8
0
 10
62.8925
 20
76.9262
  0
VERTEX
  8
0
 10
62.8784
 20
76.9938
  0
VERTEX
  8
0
 10
62.8784
 20
76.9938
  0
SEQEND
  0
POLYLINE
  8
0
 66
     1
 10
0
 20
0
  0
VERTEX
  8
0
 10
63.5587
 20
77.3133
  0
VERTEX
  8
0
 10
63.5304
 20
77.4703
  0
VERTEX
  8
0
 10
63.5304
 20
77.6053
  0
VERTEX
  8
0
 10
63.6464
 20
77.6053
  0
VERTEX
  8
0
 10
63.6464
 20
77.4703
  0
VERTEX
  8
0
 10
63.6209
 20
77.3133
  0
VERTEX
  8
0
 10
63.5587
 20
77.3133
  0
SEQEND
  0
POLYLINE
  8
0
 66
     1
 10
0
 20
0
  0
VERTEX
  8
0
 10
63.7461
 20
77.3133
  0
VERTEX
  8
0
 10
63.7184
 20
77.4703
  0
VERTEX
  8
0
 10
63.7184
 20
77.6053
  0
VERTEX
  8
0
 10
63.8344
 20
77.6053
  0
VERTEX
  8
0
 10
63.8344
 20
77.4703
  0
VERTEX
  8
0
 10
63.8072
 20
77.3133
  0
VERTEX
  8
0
 10
63.7461
 20
77.3133
  0
SEQEND
  0
POLYLINE
  8
0
 66
     1
 10
0
 20
0
  0
VERTEX
  8
0
 10
64.5104
 20
76.7733
  0
VERTEX
  8
0
 10
64.5104
 20
77.6053
  0
VERTEX
  8
0
 10
64.8764
 20
77.6053
  0
VERTEX
  8
0
 10
64.9602
 20
77.6014
  0
VERTEX
  8
0
 10
65.0223
 20
77.59
  0
VERTEX
  8
0
 10
65.0884
 20
77.557
  0
VERTEX
  8
0
 10
65.136
 20
77.5037
  0
VERTEX
  8
0
 10
65.1615
 20
77.4442
  0
VERTEX
  8
0
 10
65.1704
 20
77.3783
  0
VERTEX
  8
0
 10
65.1694
 20
77.3515
  0
VERTEX
  8
0
 10
65.1659
 20
77.3264
  0
VERTEX
  8
0
 10
65.1601
 20
77.3029
  0
VERTEX
  8
0
 10
65.1519
 20
77.281
  0
VERTEX
  8
0
 10
65.1414
 20
77.2608
  0
VERTEX
  8
0
 10
65.1284
 20
77.2421
  0
VERTEX
  8
0
 10
65.113
 20
77.2252
  0
VERTEX
  8
0
 10
65.0953
 20
77.2098
  0
VERTEX
  8
0
 10
65.0752
 20
77.1961
  0
VERTEX
  8
0
 10
65.0526
 20
77.184
  0
VERTEX
  8
0
 10
65.0277
 20
77.1735
  0
VERTEX
  8
0
 10
65.0004
 20
77.1646
  0
VERTEX
  8
0
 10
64.9707
 20
77.1574
  0
VERTEX
  8
0
 10
64.9386
 20
77.1518
  0
VERTEX
  8
0
 10
64.9771
 20
77.131
  0
VERTEX
  8
0
 10
65.0046
 20
77.1104
  0
VERTEX
  8
0
 10
65.0525
 20
77.0592
  0
VERTEX
  8
0
 10
65.0955
 20
76.9997
  0
VERTEX
  8
0
 10
65.2394
 20
76.7733
  0
VERTEX
  8
0
 10
65.1024
 20
76.7733
  0
VERTEX
  8
0
 10
64.9919
 20
76.9491
  0
VERTEX
  8
0
 10
64.9577
 20
77.0017
  0
VERTEX
  8
0
 10
64.9308
 20
77.0404
  0
VERTEX
  8
0
 10
64.8908
 20
77.0893
  0
VERTEX
  8
0
 10
64.8567
 20
77.1192
  0
VERTEX
  8
0
 10
64.8318
 20
77.133
  0
VERTEX
  8
0
 10
64.8069
 20
77.1413
  0
VERTEX
  8
0
 10
64.7828
 20
77.1443
  0
VERTEX
  8
0
 10
64.7458
 20
77.1453
  0
VERTEX
  8
0
 10
64.6184
 20
77.1453
  0
VERTEX
  8
0
 10
64.6184
 20
76.7733
  0
VERTEX
  8
0
 10
64.5104
 20
76.7733
  0
SEQEND
  0
POLYLINE
  8
0
 66
     1
 10
0
 20
0
  0
VERTEX
  8
0
 10
64.6184
 20
77.2413
  0
VERTEX
  8
0
 10
64.8542
 20
77.2413
  0
VERTEX
  8
0
 10
64.9064
 20
77.2438
  0
VERTEX
  8
0
 10
64.9507
 20
77.2516
  0
VERTEX
  8
0
 10
64.9871
 20
77.2645
  0
VERTEX
  8
0
 10
65.0156
 20
77.2825
  0
VERTEX
  8
0
 10
65.0363
 20
77.3058
  0
VERTEX
  8
0
 10
65.0529
 20
77.3414
  0
VERTEX
  8
0
 10
65.0584
 20
77.3798
  0
VERTEX
  8
0
 10
65.0522
 20
77.4228
  0
VERTEX
  8
0
 10
65.0335
 20
77.4578
  0
VERTEX
  8
0
 10
65.0024
 20
77.4846
  0
VERTEX
  8
0
 10
64.9491
 20
77.5061
  0
VERTEX
  8
0
 10
64.8808
 20
77.5133
  0
VERTEX
  8
0
 10
64.6184
 20
77.5133
  0
VERTEX
  8
0
 10
64.6184
 20
77.2413
  0
SEQEND
  0
POLYLINE
  8
0
 66
     1
 10
0
 20
0
  0
VERTEX
  8
0
 10
65.7198
 20
76.8512
  0
VERTEX
  8
0
 10
65.6677
 20
76.8138
  0
VERTEX
  8
0
 10
65.6136
 20
76.787
  0
VERTEX
  8
0
 10
65.5574
 20
76.7708
  0
VERTEX
  8
0
 10
65.4992
 20
76.7653
  0
VERTEX
  8
0
 10
65.4194
 20
76.7751
  0
VERTEX
  8
0
 10
65.3559
 20
76.8057
  0
VERTEX
  8
0
 10
65.322
 20
76.8404
  0
VERTEX
  8
0
 10
65.3015
 20
76.8839
  0
VERTEX
  8
0
 10
65.2944
 20
76.9361
  0
VERTEX
  8
0
 10
65.2987
 20
76.9776
  0
VERTEX
  8
0
 10
65.3121
 20
77.0145
  0
VERTEX
  8
0
 10
65.3346
 20
77.0467
  0
VERTEX
  8
0
 10
65.3663
 20
77.0743
  0
VERTEX
  8
0
 10
65.4001
 20
77.0935
  0
VERTEX
  8
0
 10
65.4394
 20
77.1075
  0
VERTEX
  8
0
 10
65.4762
 20
77.1152
  0
VERTEX
  8
0
 10
65.5294
 20
77.1226
  0
VERTEX
  8
0
 10
65.6054
 20
77.1333
  0
VERTEX
  8
0
 10
65.6655
 20
77.1449
  0
VERTEX
  8
0
 10
65.7098
 20
77.1575
  0
VERTEX
  8
0
 10
65.71
 20
77.175
  0
VERTEX
  8
0
 10
65.7104
 20
77.1839
  0
VERTEX
  8
0
 10
65.7032
 20
77.2366
  0
VERTEX
  8
0
 10
65.6817
 20
77.271
  0
VERTEX
  8
0
 10
65.6338
 20
77.2964
  0
VERTEX
  8
0
 10
65.5665
 20
77.3053
  0
VERTEX
  8
0
 10
65.5065
 20
77.2997
  0
VERTEX
  8
0
 10
65.4636
 20
77.2817
  0
VERTEX
  8
0
 10
65.4325
 20
77.2466
  0
VERTEX
  8
0
 10
65.4108
 20
77.192
  0
VERTEX
  8
0
 10
65.3119
 20
77.2055
  0
VERTEX
  8
0
 10
65.3258
 20
77.2513
  0
VERTEX
  8
0
 10
65.3461
 20
77.2905
  0
VERTEX
  8
0
 10
65.373
 20
77.323
  0
VERTEX
  8
0
 10
65.4064
 20
77.3488
  0
VERTEX
  8
0
 10
65.4463
 20
77.3679
  0
VERTEX
  8
0
 10
65.5088
 20
77.3836
  0
VERTEX
  8
0
 10
65.5823
 20
77.3893
  0
VERTEX
  8
0
 10
65.6355
 20
77.3869
  0
VERTEX
  8
0
 10
65.6816
 20
77.3793
  0
VERTEX
  8
0
 10
65.7207
 20
77.3664
  0
VERTEX
  8
0
 10
65.7527
 20
77.3484
  0
VERTEX
  8
0
 10
65.7777
 20
77.3251
  0
VERTEX
  8
0
 10
65.7966
 20
77.2945
  0
VERTEX
  8
0
 10
65.8093
 20
77.256
  0
VERTEX
  8
0
 10
65.8131
 20
77.2211
  0
VERTEX
  8
0
 10
65.8144
 20
77.1618
  0
VERTEX
  8
0
 10
65.8144
 20
77.0257
  0
VERTEX
  8
0
 10
65.8144
 20
76.9813
  0
VERTEX
  8
0
 10
65.8145
 20
76.9462
  0
VERTEX
  8
0
 10
65.8146
 20
76.9203
  0
VERTEX
  8
0
 10
65.8147
 20
76.9037
  0
VERTEX
  8
0
 10
65.8149
 20
76.8963
  0
VERTEX
  8
0
 10
65.825
 20
76.8281
  0
VERTEX
  8
0
 10
65.8462
 20
76.7733
  0
VERTEX
  8
0
 10
65.7401
 20
76.7733
  0
VERTEX
  8
0
 10
65.7274
 20
76.8094
  0
VERTEX
  8
0
 10
65.7198
 20
76.8512
  0
VERTEX
  8
0
 10
65.7198
 20
76.8512
  0
SEQEND
  0
POLYLINE
  8
0
 66
     1
 10
0
 20
0
  0
VERTEX
  8
0
 10
65.7104
 20
77.078
  0
VERTEX
  8
0
 10
65.6414
 20
77.0576
  0
VERTEX
  8
0
 10
65.5448
 20
77.04
  0
VERTEX
  8
0
 10
65.5015
 20
77.033
  0
VERTEX
  8
0
 10
65.4739
 20
77.0265
  0
VERTEX
  8
0
 10
65.4396
 20
77.0102
  0
VERTEX
  8
0
 10
65.4164
 20
76.9868
  0
VERTEX
  8
0
 10
65.4062
 20
76.9646
  0
VERTEX
  8
0
 10
65.4024
 20
76.9393
  0
VERTEX
  8
0
 10
65.4115
 20
76.8973
  0
VERTEX
  8
0
 10
65.4401
 20
76.8665
  0
VERTEX
  8
0
 10
65.4771
 20
76.8506
  0
VERTEX
  8
0
 10
65.5229
 20
76.8453
  0
VERTEX
  8
0
 10
65.5625
 20
76.8479
  0
VERTEX
  8
0
 10
65.5977
 20
76.8558
  0
VERTEX
  8
0
 10
65.6285
 20
76.869
  0
VERTEX
  8
0
 10
65.6548
 20
76.8875
  0
VERTEX
  8
0
 10
65.6766
 20
76.9113
  0
VERTEX
  8
0
 10
65.6941
 20
76.9404
  0
VERTEX
  8
0
 10
65.7063
 20
76.9826
  0
VERTEX
  8
0
 10
65.7104
 20
77.0411
  0
VERTEX
  8
0
 10
65.7104
 20
77.078
  0
SEQEND
  0
POLYLINE
  8
0
 66
     1
 10
0
 20
0
  0
VERTEX
  8
0
 10
66.3624
 20
76.7733
  0
VERTEX
  8
0
 10
66.3624
 20
76.8529
  0
VERTEX
  8
0
 10
66.3377
 20
76.8215
  0
VERTEX
  8
0
 10
66.3087
 20
76.7971
  0
VERTEX
  8
0
 10
66.2753
 20
76.7796
  0
VERTEX
  8
0
 10
66.2375
 20
76.7689
  0
VERTEX
  8
0
 10
66.1954
 20
76.7653
  0
VERTEX
  8
0
 10
66.1251
 20
76.7752
  0
VERTEX
  8
0
 10
66.0615
 20
76.8063
  0
VERTEX
  8
0
 10
66.0093
 20
76.8534
  0
VERTEX
  8
0
 10
65.9707
 20
76.9148
  0
VERTEX
  8
0
 10
65.9467
 20
76.9896
  0
VERTEX
  8
0
 10
65.9384
 20
77.0767
  0
VERTEX
  8
0
 10
65.94
 20
77.1235
  0
VERTEX
  8
0
 10
65.9455
 20
77.1667
  0
VERTEX
  8
0
 10
65.9547
 20
77.2064
  0
VERTEX
  8
0
 10
65.9678
 20
77.2424
  0
VERTEX
  8
0
 10
65.9847
 20
77.2748
  0
VERTEX
  8
0
 10
66.0055
 20
77.3036
  0
VERTEX
  8
0
 10
66.03
 20
77.3288
  0
VERTEX
  8
0
 10
66.0584
 20
77.3505
  0
VERTEX
  8
0
 10
66.1216
 20
77.3796
  0
VERTEX
  8
0
 10
66.1925
 20
77.3893
  0
VERTEX
  8
0
 10
66.2426
 20
77.3842
  0
VERTEX
  8
0
 10
66.2869
 20
77.3689
  0
VERTEX
  8
0
 10
66.3255
 20
77.3434
  0
VERTEX
  8
0
 10
66.3584
 20
77.3076
  0
VERTEX
  8
0
 10
66.3584
 20
77.6053
  0
VERTEX
  8
0
 10
66.4584
 20
77.6053
  0
VERTEX
  8
0
 10
66.4584
 20
76.7733
  0
VERTEX
  8
0
 10
66.3624
 20
76.7733
  0
SEQEND
  0
POLYLINE
  8
0
 66
     1
 10
0
 20
0
  0
VERTEX
  8
0
 10
66.0424
 20
77.077
  0
VERTEX
  8
0
 10
66.0513
 20
76.9939
  0
VERTEX
  8
0
 10
66.0779
 20
76.925
  0
VERTEX
  8
0
 10
66.1022
 20
76.8921
  0
VERTEX
  8
0
 10
66.1316
 20
76.8685
  0
VERTEX
  8
0
 10
66.1661
 20
76.8542
  0
VERTEX
  8
0
 10
66.2056
 20
76.8493
  0
VERTEX
  8
0
 10
66.2446
 20
76.8535
  0
VERTEX
  8
0
 10
66.2785
 20
76.8669
  0
VERTEX
  8
0
 10
66.3073
 20
76.8894
  0
VERTEX
  8
0
 10
66.3311
 20
76.9211
  0
VERTEX
  8
0
 10
66.3569
 20
76.9877
  0
VERTEX
  8
0
 10
66.3655
 20
77.0686
  0
VERTEX
  8
0
 10
66.3572
 20
77.1559
  0
VERTEX
  8
0
 10
66.3322
 20
77.2262
  0
VERTEX
  8
0
 10
66.3079
 20
77.2608
  0
VERTEX
  8
0
 10
66.278
 20
77.2855
  0
VERTEX
  8
0
 10
66.2424
 20
77.3003
  0
VERTEX
  8
0
 10
66.2011
 20
77.3053
  0
VERTEX
  8
0
 10
66.161
 20
77.3005
  0
VERTEX
  8
0
 10
66.1266
 20
77.2863
  0
VERTEX
  8
0
 10
66.0977
 20
77.2627
  0
VERTEX
  8
0
 10
66.0746
 20
77.2295
  0
VERTEX
  8
0
 10
66.0504
 20
77.1617
  0
VERTEX
  8
0
 10
66.0424
 20
77.077
  0
VERTEX
  8
0
 10
66.0424
 20
77.077
  0
SEQEND
  0
POLYLINE
  8
0
 66
     1
 10
0
 20
0
  0
VERTEX
  8
0
 10
66.6104
 20
77.4893
  0
VERTEX
  8
0
 10
66.6104
 20
77.6053
  0
VERTEX
  8
0
 10
66.7104
 20
77.6053
  0
VERTEX
  8
0
 10
66.7104
 20
77.4893
  0
VERTEX
  8
0
 10
66.6104
 20
77.4893
  0
SEQEND
  0
POLYLINE
  8
0
 66
     1
 10
0
 20
0
  0
VERTEX
  8
0
 10
66.6104
 20
76.7733
  0
VERTEX
  8
0
 10
66.6104
 20
77.3765
  0
VERTEX
  8
0
 10
66.7104
 20
77.3765
  0
VERTEX
  8
0
 10
66.7104
 20
76.7733
  0
VERTEX
  8
0
 10
66.6104
 20
76.7733
  0
SEQEND
  0
POLYLINE
  8
0
 66
     1
 10
0
 20
0
  0
VERTEX
  8
0
 10
67.2584
 20
76.7733
  0
VERTEX
  8
0
 10
67.2584
 20
76.8653
  0
VERTEX
  8
0
 10
67.2288
 20
76.8293
  0
VERTEX
  8
0
 10
67.1951
 20
76.8013
  0
VERTEX
  8
0
 10
67.1574
 20
76.7813
  0
VERTEX
  8
0
 10
67.1155
 20
76.7693
  0
VERTEX
  8
0
 10
67.0696
 20
76.7653
  0
VERTEX
  8
0
 10
67.0233
 20
76.7696
  0
VERTEX
  8
0
 10
66.9784
 20
76.7828
  0
VERTEX
  8
0
 10
66.9347
 20
76.8057
  0
VERTEX
  8
0
 10
66.9033
 20
76.8363
  0
VERTEX
  8
0
 10
66.885
 20
76.8698
  0
VERTEX
  8
0
 10
66.8726
 20
76.9118
  0
VERTEX
  8
0
 10
66.8679
 20
76.9507
  0
VERTEX
  8
0
 10
66.8664
 20
77.0065
  0
VERTEX
  8
0
 10
66.8664
 20
77.3773
  0
VERTEX
  8
0
 10
66.9664
 20
77.3773
  0
VERTEX
  8
0
 10
66.9664
 20
77.0458
  0
VERTEX
  8
0
 10
66.9679
 20
76.9785
  0
VERTEX
  8
0
 10
66.9726
 20
76.9388
  0
VERTEX
  8
0
 10
66.9839
 20
76.9084
  0
VERTEX
  8
0
 10
67.0013
 20
76.8846
  0
VERTEX
  8
0
 10
67.0248
 20
76.8675
  0
VERTEX
  8
0
 10
67.0546
 20
76.857
  0
VERTEX
  8
0
 10
67.0905
 20
76.8533
  0
VERTEX
  8
0
 10
67.1349
 20
76.8587
  0
VERTEX
  8
0
 10
67.1764
 20
76.876
  0
VERTEX
  8
0
 10
67.2106
 20
76.9037
  0
VERTEX
  8
0
 10
67.2334
 20
76.9399
  0
VERTEX
  8
0
 10
67.2461
 20
76.9895
  0
VERTEX
  8
0
 10
67.2504
 20
77.057
  0
VERTEX
  8
0
 10
67.2504
 20
77.3773
  0
VERTEX
  8
0
 10
67.3504
 20
77.3773
  0
VERTEX
  8
0
 10
67.3504
 20
76.7733
  0
VERTEX
  8
0
 10
67.2584
 20
76.7733
  0
SEQEND
  0
POLYLINE
  8
0
 66
     1
 10
0
 20
0
  0
VERTEX
  8
0
 10
67.4704
 20
76.9562
  0
VERTEX
  8
0
 10
67.5705
 20
76.9719
  0
VERTEX
  8
0
 10
67.5767
 20
76.9431
  0
VERTEX
  8
0
 10
67.5867
 20
76.9182
  0
VERTEX
  8
0
 10
67.6004
 20
76.8972
  0
VERTEX
  8
0
 10
67.6179
 20
76.8799
  0
VERTEX
  8
0
 10
67.6391
 20
76.8665
  0
VERTEX
  8
0
 10
67.664
 20
76.8569
  0
VERTEX
  8
0
 10
67.6927
 20
76.8512
  0
VERTEX
  8
0
 10
67.7251
 20
76.8493
  0
VERTEX
  8
0
 10
67.7749
 20
76.8543
  0
VERTEX
  8
0
 10
67.8163
 20
76.8695
  0
VERTEX
  8
0
 10
67.8508
 20
76.9005
  0
VERTEX
  8
0
 10
67.8624
 20
76.9441
  0
VERTEX
  8
0
 10
67.8549
 20
76.9747
  0
VERTEX
  8
0
 10
67.8325
 20
76.998
  0
VERTEX
  8
0
 10
67.8119
 20
77.0078
  0
VERTEX
  8
0
 10
67.7774
 20
77.0192
  0
VERTEX
  8
0
 10
67.7288
 20
77.0323
  0
VERTEX
  8
0
 10
67.673
 20
77.0465
  0
VERTEX
  8
0
 10
67.6326
 20
77.0577
  0
VERTEX
  8
0
 10
67.6076
 20
77.066
  0
VERTEX
  8
0
 10
67.547
 20
77.0972
  0
VERTEX
  8
0
 10
67.5084
 20
77.1372
  0
VERTEX
  8
0
 10
67.4919
 20
77.175
  0
VERTEX
  8
0
 10
67.4864
 20
77.2175
  0
VERTEX
  8
0
 10
67.494
 20
77.2679
  0
VERTEX
  8
0
 10
67.5168
 20
77.3113
  0
VERTEX
  8
0
 10
67.5548
 20
77.3477
  0
VERTEX
  8
0
 10
67.6212
 20
77.3786
  0
VERTEX
  8
0
 10
67.7074
 20
77.3893
  0
VERTEX
  8
0
 10
67.7729
 20
77.3845
  0
VERTEX
  8
0
 10
67.8313
 20
77.369
  0
VERTEX
  8
0
 10
67.8777
 20
77.3449
  0
VERTEX
  8
0
 10
67.9109
 20
77.3128
  0
VERTEX
  8
0
 10
67.9317
 20
77.2738
  0
VERTEX
  8
0
 10
67.9454
 20
77.2218
  0
VERTEX
  8
0
 10
67.8453
 20
77.2083
  0
VERTEX
  8
0
 10
67.839
 20
77.2339
  0
VERTEX
  8
0
 10
67.8285
 20
77.2556
  0
VERTEX
  8
0
 10
67.8138
 20
77.2733
  0
VERTEX
  8
0
 10
67.7949
 20
77.2872
  0
VERTEX
  8
0
 10
67.7719
 20
77.2971
  0
VERTEX
  8
0
 10
67.7447
 20
77.3031
  0
VERTEX
  8
0
 10
67.7133
 20
77.3053
  0
VERTEX
  8
0
 10
67.6788
 20
77.3038
  0
VERTEX
  8
0
 10
67.6496
 20
77.2992
  0
VERTEX
  8
0
 10
67.6257
 20
77.2914
  0
VERTEX
  8
0
 10
67.607
 20
77.2804
  0
VERTEX
  8
0
 10
67.5935
 20
77.2663
  0
VERTEX
  8
0
 10
67.5853
 20
77.2489
  0
VERTEX
  8
0
 10
67.5824
 20
77.2284
  0
VERTEX
  8
0
 10
67.5852
 20
77.2102
  0
VERTEX
  8
0
 10
67.5948
 20
77.1927
  0
VERTEX
  8
0
 10
67.6111
 20
77.1775
  0
VERTEX
  8
0
 10
67.6339
 20
77.1661
  0
VERTEX
  8
0
 10
67.6495
 20
77.161
  0
VERTEX
  8
0
 10
67.6795
 20
77.1524
  0
VERTEX
  8
0
 10
67.7239
 20
77.1403
  0
VERTEX
  8
0
 10
67.7893
 20
77.1218
  0
VERTEX
  8
0
 10
67.8395
 20
77.106
  0
VERTEX
  8
0
 10
67.8746
 20
77.0931
  0
VERTEX
  8
0
 10
67.9075
 20
77.0753
  0
VERTEX
  8
0
 10
67.9331
 20
77.0525
  0
VERTEX
  8
0
 10
67.9514
 20
77.0246
  0
VERTEX
  8
0
 10
67.9625
 20
76.9918
  0
VERTEX
  8
0
 10
67.9664
 20
76.9539
  0
VERTEX
  8
0
 10
67.9592
 20
76.905
  0
VERTEX
  8
0
 10
67.9366
 20
76.8585
  0
VERTEX
  8
0
 10
67.9137
 20
76.8301
  0
VERTEX
  8
0
 10
67.8859
 20
76.8069
  0
VERTEX
  8
0
 10
67.8532
 20
76.7888
  0
VERTEX
  8
0
 10
67.8156
 20
76.7759
  0
VERTEX
  8
0
 10
67.7731
 20
76.768
  0
VERTEX
  8
0
 10
67.7257
 20
76.7653
  0
VERTEX
  8
0
 10
67.6928
 20
76.7662
  0
VERTEX
  8
0
 10
67.6621
 20
76.7695
  0
VERTEX
  8
0
 10
67.6336
 20
76.775
  0
VERTEX
  8
0
 10
67.6074
 20
76.7829
  0
VERTEX
  8
0
 10
67.5833
 20
76.793
  0
VERTEX
  8
0
 10
67.5615
 20
76.8054
  0
VERTEX
  8
0
 10
67.5418
 20
76.8201
  0
VERTEX
  8
0
 10
67.5244
 20
76.837
  0
VERTEX
  8
0
 10
67.5092
 20
76.8563
  0
VERTEX
  8
0
 10
67.4962
 20
76.8778
  0
VERTEX
  8
0
 10
67.4854
 20
76.9017
  0
VERTEX
  8
0
 10
67.4768
 20
76.9278
  0
VERTEX
  8
0
 10
67.4704
 20
76.9562
  0
VERTEX
  8
0
 10
67.4704
 20
76.9562
  0
SEQEND
  0
POLYLINE
  8
0
 66
     1
 10
0
 20
0
  0
VERTEX
  8
0
 10
68.1184
 20
76.7733
  0
VERTEX
  8
0
 10
68.1184
 20
76.8933
  0
VERTEX
  8
0
 10
68.2344
 20
76.8933
  0
VERTEX
  8
0
 10
68.2344
 20
76.7773
  0
VERTEX
  8
0
 10
68.2317
 20
76.7388
  0
VERTEX
  8
0
 10
68.2238
 20
76.7048
  0
VERTEX
  8
0
 10
68.2105
 20
76.6752
  0
VERTEX
  8
0
 10
68.192
 20
76.6501
  0
VERTEX
  8
0
 10
68.1681
 20
76.6295
  0
VERTEX
  8
0
 10
68.1389
 20
76.6133
  0
VERTEX
  8
0
 10
68.1104
 20
76.6558
  0
VERTEX
  8
0
 10
68.1375
 20
76.6726
  0
VERTEX
  8
0
 10
68.1572
 20
76.6978
  0
VERTEX
  8
0
 10
68.1696
 20
76.7314
  0
VERTEX
  8
0
 10
68.1747
 20
76.7733
  0
VERTEX
  8
0
 10
68.1184
 20
76.7733
  0
SEQEND
  0
POLYLINE
  8
0
 66
     1
 10
0
 20
0
  0
VERTEX
  8
0
 10
68.9184
 20
77.185
  0
VERTEX
  8
0
 10
68.9196
 20
77.2386
  0
VERTEX
  8
0
 10
68.9232
 20
77.2886
  0
VERTEX
  8
0
 10
68.9292
 20
77.3351
  0
VERTEX
  8
0
 10
68.9375
 20
77.378
  0
VERTEX
  8
0
 10
68.9483
 20
77.4174
  0
VERTEX
  8
0
 10
68.9615
 20
77.4532
  0
VERTEX
  8
0
 10
68.9771
 20
77.4854
  0
VERTEX
  8
0
 10
68.995
 20
77.514
  0
VERTEX
  8
0
 10
69.0154
 20
77.5391
  0
VERTEX
  8
0
 10
69.0381
 20
77.5606
  0
VERTEX
  8
0
 10
69.1051
 20
77.5968
  0
VERTEX
  8
0
 10
69.1884
 20
77.6093
  0
VERTEX
  8
0
 10
69.2501
 20
77.6027
  0
VERTEX
  8
0
 10
69.3053
 20
77.5821
  0
VERTEX
  8
0
 10
69.3411
 20
77.5579
  0
VERTEX
  8
0
 10
69.3724
 20
77.5257
  0
VERTEX
  8
0
 10
69.3993
 20
77.4855
  0
VERTEX
  8
0
 10
69.4217
 20
77.4372
  0
VERTEX
  8
0
 10
69.4398
 20
77.381
  0
VERTEX
  8
0
 10
69.4537
 20
77.2963
  0
VERTEX
  8
0
 10
69.4584
 20
77.185
  0
VERTEX
  8
0
 10
69.4572
 20
77.1314
  0
VERTEX
  8
0
 10
69.4536
 20
77.0815
  0
VERTEX
  8
0
 10
69.4476
 20
77.0351
  0
VERTEX
  8
0
 10
69.4392
 20
76.9923
  0
VERTEX
  8
0
 10
69.4284
 20
76.953
  0
VERTEX
  8
0
 10
69.4153
 20
76.9173
  0
VERTEX
  8
0
 10
69.3997
 20
76.8851
  0
VERTEX
  8
0
 10
69.3817
 20
76.8565
  0
VERTEX
  8
0
 10
69.3614
 20
76.8314
  0
VERTEX
  8
0
 10
69.3386
 20
76.81
  0
VERTEX
  8
0
 10
69.2717
 20
76.7737
  0
VERTEX
  8
0
 10
69.1884
 20
76.7613
  0
VERTEX
  8
0
 10
69.1673
 20
76.7619
  0
VERTEX
  8
0
 10
69.147
 20
76.7638
  0
VERTEX
  8
0
 10
69.1276
 20
76.7671
  0
VERTEX
  8
0
 10
69.109
 20
76.7718
  0
VERTEX
  8
0
 10
69.0914
 20
76.7779
  0
VERTEX
  8
0
 10
69.0745
 20
76.7853
  0
VERTEX
  8
0
 10
69.0586
 20
76.794
  0
VERTEX
  8
0
 10
69.0435
 20
76.8042
  0
VERTEX
  8
0
 10
69.0292
 20
76.8157
  0
VERTEX
  8
0
 10
69.0158
 20
76.8285
  0
VERTEX
  8
0
 10
69.0033
 20
76.8427
  0
VERTEX
  8
0
 10
68.9917
 20
76.8583
  0
VERTEX
  8
0
 10
68.9809
 20
76.8753
  0
VERTEX
  8
0
 10
68.9709
 20
76.8936
  0
VERTEX
  8
0
 10
68.9618
 20
76.9133
  0
VERTEX
  8
0
 10
68.9536
 20
76.9343
  0
VERTEX
  8
0
 10
68.9463
 20
76.9567
  0
VERTEX
  8
0
 10
68.9398
 20
76.9805
  0
VERTEX
  8
0
 10
68.9341
 20
77.0056
  0
VERTEX
  8
0
 10
68.9294
 20
77.0321
  0
VERTEX
  8
0
 10
68.9254
 20
77.0599
  0
VERTEX
  8
0
 10
68.9224
 20
77.0891
  0
VERTEX
  8
0
 10
68.9202
 20
77.1197
  0
VERTEX
  8
0
 10
68.9189
 20
77.1516
  0
VERTEX
  8
0
 10
68.9184
 20
77.185
  0
VERTEX
  8
0
 10
68.9184
 20
77.185
  0
SEQEND
  0
POLYLINE
  8
0
 66
     1
 10
0
 20
0
  0
VERTEX
  8
0
 10
69.0224
 20
77.1853
  0
VERTEX
  8
0
 10
69.0248
 20
77.1
  0
VERTEX
  8
0
 10
69.0322
 20
77.0294
  0
VERTEX
  8
0
 10
69.0445
 20
76.9733
  0
VERTEX
  8
0
 10
69.0567
 20
76.9395
  0
VERTEX
  8
0
 10
69.0717
 20
76.9108
  0
VERTEX
  8
0
 10
69.0895
 20
76.8874
  0
VERTEX
  8
0
 10
69.1101
 20
76.8691
  0
VERTEX
  8
0
 10
69.1334
 20
76.8559
  0
VERTEX
  8
0
 10
69.1595
 20
76.848
  0
VERTEX
  8
0
 10
69.1884
 20
76.8453
  0
VERTEX
  8
0
 10
69.2054
 20
76.8461
  0
VERTEX
  8
0
 10
69.2215
 20
76.8488
  0
VERTEX
  8
0
 10
69.2367
 20
76.8534
  0
VERTEX
  8
0
 10
69.2509
 20
76.86
  0
VERTEX
  8
0
 10
69.2643
 20
76.8684
  0
VERTEX
  8
0
 10
69.2767
 20
76.8787
  0
VERTEX
  8
0
 10
69.2882
 20
76.8909
  0
VERTEX
  8
0
 10
69.2987
 20
76.905
  0
VERTEX
  8
0
 10
69.3084
 20
76.921
  0
VERTEX
  8
0
 10
69.3171
 20
76.9389
  0
VERTEX
  8
0
 10
69.3249
 20
76.9587
  0
VERTEX
  8
0
 10
69.3318
 20
76.9804
  0
VERTEX
  8
0
 10
69.3378
 20
77.0039
  0
VERTEX
  8
0
 10
69.3429
 20
77.0294
  0
VERTEX
  8
0
 10
69.347
 20
77.0568
  0
VERTEX
  8
0
 10
69.3502
 20
77.0861
  0
VERTEX
  8
0
 10
69.3525
 20
77.1172
  0
VERTEX
  8
0
 10
69.3539
 20
77.1503
  0
VERTEX
  8
0
 10
69.3544
 20
77.1853
  0
VERTEX
  8
0
 10
69.3519
 20
77.2705
  0
VERTEX
  8
0
 10
69.3445
 20
77.3412
  0
VERTEX
  8
0
 10
69.3323
 20
77.3972
  0
VERTEX
  8
0
 10
69.3199
 20
77.431
  0
VERTEX
  8
0
 10
69.3047
 20
77.4597
  0
VERTEX
  8
0
 10
69.2868
 20
77.4832
  0
VERTEX
  8
0
 10
69.2661
 20
77.5015
  0
VERTEX
  8
0
 10
69.2426
 20
77.5146
  0
VERTEX
  8
0
 10
69.2163
 20
77.5225
  0
VERTEX
  8
0
 10
69.1873
 20
77.5253
  0
VERTEX
  8
0
 10
69.1436
 20
77.5189
  0
VERTEX
  8
0
 10
69.1062
 20
77.4991
  0
VERTEX
  8
0
 10
69.0751
 20
77.4658
  0
VERTEX
  8
0
 10
69.0611
 20
77.4417
  0
VERTEX
  8
0
 10
69.0493
 20
77.4123
  0
VERTEX
  8
0
 10
69.0396
 20
77.3776
  0
VERTEX
  8
0
 10
69.0321
 20
77.3375
  0
VERTEX
  8
0
 10
69.0267
 20
77.2921
  0
VERTEX
  8
0
 10
69.0235
 20
77.2414
  0
VERTEX
  8
0
 10
69.0224
 20
77.1853
  0
VERTEX
  8
0
 10
69.0224
 20
77.1853
  0
SEQEND
  0
POLYLINE
  8
0
 66
     1
 10
0
 20
0
  0
VERTEX
  8
0
 10
69.6144
 20
76.7733
  0
VERTEX
  8
0
 10
69.6144
 20
76.8933
  0
VERTEX
  8
0
 10
69.7304
 20
76.8933
  0
VERTEX
  8
0
 10
69.7304
 20
76.7733
  0
VERTEX
  8
0
 10
69.6144
 20
76.7733
  0
SEQEND
  0
POLYLINE
  8
0
 66
     1
 10
0
 20
0
  0
VERTEX
  8
0
 10
69.8784
 20
76.9938
  0
VERTEX
  8
0
 10
69.9849
 20
77.003
  0
VERTEX
  8
0
 10
69.9915
 20
76.9699
  0
VERTEX
  8
0
 10
70.0009
 20
76.9407
  0
VERTEX
  8
0
 10
70.013
 20
76.9153
  0
VERTEX
  8
0
 10
70.0279
 20
76.8939
  0
VERTEX
  8
0
 10
70.0456
 20
76.8764
  0
VERTEX
  8
0
 10
70.066
 20
76.8628
  0
VERTEX
  8
0
 10
70.0892
 20
76.8531
  0
VERTEX
  8
0
 10
70.1151
 20
76.8472
  0
VERTEX
  8
0
 10
70.1438
 20
76.8453
  0
VERTEX
  8
0
 10
70.1942
 20
76.8522
  0
VERTEX
  8
0
 10
70.2374
 20
76.873
  0
VERTEX
  8
0
 10
70.2733
 20
76.9078
  0
VERTEX
  8
0
 10
70.3071
 20
76.9714
  0
VERTEX
  8
0
 10
70.3184
 20
77.0486
  0
VERTEX
  8
0
 10
70.3067
 20
77.1247
  0
VERTEX
  8
0
 10
70.2716
 20
77.1847
  0
VERTEX
  8
0
 10
70.2365
 20
77.2137
  0
VERTEX
  8
0
 10
70.1933
 20
77.2312
  0
VERTEX
  8
0
 10
70.1421
 20
77.2373
  0
VERTEX
  8
0
 10
70.0963
 20
77.2324
  0
VERTEX
  8
0
 10
70.056
 20
77.2172
  0
VERTEX
  8
0
 10
70.0211
 20
77.1917
  0
VERTEX
  8
0
 10
69.9916
 20
77.1558
  0
VERTEX
  8
0
 10
69.8964
 20
77.1683
  0
VERTEX
  8
0
 10
69.9766
 20
77.5933
  0
VERTEX
  8
0
 10
70.3879
 20
77.5933
  0
VERTEX
  8
0
 10
70.3879
 20
77.4973
  0
VERTEX
  8
0
 10
70.0603
 20
77.4973
  0
VERTEX
  8
0
 10
70.014
 20
77.2736
  0
VERTEX
  8
0
 10
70.0901
 20
77.3121
  0
VERTEX
  8
0
 10
70.1698
 20
77.3253
  0
VERTEX
  8
0
 10
70.2236
 20
77.3206
  0
VERTEX
  8
0
 10
70.2725
 20
77.306
  0
VERTEX
  8
0
 10
70.3165
 20
77.2816
  0
VERTEX
  8
0
 10
70.3555
 20
77.2472
  0
VERTEX
  8
0
 10
70.3865
 20
77.2066
  0
VERTEX
  8
0
 10
70.4087
 20
77.1614
  0
VERTEX
  8
0
 10
70.4219
 20
77.1113
  0
VERTEX
  8
0
 10
70.4264
 20
77.0566
  0
VERTEX
  8
0
 10
70.4191
 20
76.9852
  0
VERTEX
  8
0
 10
70.3973
 20
76.9203
  0
VERTEX
  8
0
 10
70.361
 20
76.862
  0
VERTEX
  8
0
 10
70.3269
 20
76.8259
  0
VERTEX
  8
0
 10
70.2881
 20
76.7978
  0
VERTEX
  8
0
 10
70.2447
 20
76.7776
  0
VERTEX
  8
0
 10
70.1966
 20
76.7655
  0
VERTEX
  8
0
 10
70.1439
 20
76.7613
  0
VERTEX
  8
0
 10
70.0749
 20
76.768
  0
VERTEX
  8
0
 10
70.0144
 20
76.7883
  0
VERTEX
  8
0
 10
69.9624
 20
76.8221
  0
VERTEX
  8
0
 10
69.9205
 20
76.869
  0
VERTEX
  8
0
 10
69.8925
 20
76.9262
  0
VERTEX
  8
0
 10
69.8784
 20
76.9938
  0
VERTEX
  8
0
 10
69.8784
 20
76.9938
  0
SEQEND
  0
POLYLINE
  8
0
 66
     1
 10
0
 20
0
  0
VERTEX
  8
0
 10
70.5547
 20
77.3133
  0
VERTEX
  8
0
 10
70.5264
 20
77.4703
  0
VERTEX
  8
0
 10
70.5264
 20
77.6053
  0
VERTEX
  8
0
 10
70.6424
 20
77.6053
  0
VERTEX
  8
0
 10
70.6424
 20
77.4703
  0
VERTEX
  8
0
 10
70.6169
 20
77.3133
  0
VERTEX
  8
0
 10
70.5547
 20
77.3133
  0
SEQEND
  0
POLYLINE
  8
0
 66
     1
 10
0
 20
0
  0
VERTEX
  8
0
 10
70.7421
 20
77.3133
  0
VERTEX
  8
0
 10
70.7144
 20
77.4703
  0
VERTEX
  8
0
 10
70.7144
 20
77.6053
  0
VERTEX
  8
0
 10
70.8304
 20
77.6053
  0
VERTEX
  8
0
 10
70.8304
 20
77.4703
  0
VERTEX
  8
0
 10
70.8032
 20
77.3133
  0
VERTEX
  8
0
 10
70.7421
 20
77.3133
  0
SEQEND
  0
POLYLINE
  8
0
 66
     1
 10
0
 20
0
  0
VERTEX
  8
0
 10
71.5024
 20
76.7733
  0
VERTEX
  8
0
 10
71.5024
 20
77.6053
  0
VERTEX
  8
0
 10
71.8124
 20
77.6053
  0
VERTEX
  8
0
 10
71.8968
 20
77.5989
  0
VERTEX
  8
0
 10
71.9641
 20
77.5797
  0
VERTEX
  8
0
 10
72.0135
 20
77.5489
  0
VERTEX
  8
0
 10
72.0523
 20
77.5042
  0
VERTEX
  8
0
 10
72.0776
 20
77.4505
  0
VERTEX
  8
0
 10
72.0864
 20
77.3925
  0
VERTEX
  8
0
 10
72.0835
 20
77.3551
  0
VERTEX
  8
0
 10
72.0741
 20
77.3209
  0
VERTEX
  8
0
 10
72.0582
 20
77.2899
  0
VERTEX
  8
0
 10
72.0357
 20
77.262
  0
VERTEX
  8
0
 10
72.0068
 20
77.2374
  0
VERTEX
  8
0
 10
71.9713
 20
77.216
  0
VERTEX
  8
0
 10
72.0358
 20
77.1869
  0
VERTEX
  8
0
 10
72.0843
 20
77.1427
  0
VERTEX
  8
0
 10
72.1158
 20
77.084
  0
VERTEX
  8
0
 10
72.1264
 20
77.0145
  0
VERTEX
  8
0
 10
72.1209
 20
76.9621
  0
VERTEX
  8
0
 10
72.1044
 20
76.9118
  0
VERTEX
  8
0
 10
72.077
 20
76.8645
  0
VERTEX
  8
0
 10
72.0413
 20
76.8283
  0
VERTEX
  8
0
 10
72.0002
 20
76.8042
  0
VERTEX
  8
0
 10
71.9493
 20
76.787
  0
VERTEX
  8
0
 10
71.8883
 20
76.7767
  0
VERTEX
  8
0
 10
71.8175
 20
76.7733
  0
VERTEX
  8
0
 10
71.5024
 20
76.7733
  0
SEQEND
  0
POLYLINE
  8
0
 66
     1
 10
0
 20
0
  0
VERTEX
  8
0
 10
71.6104
 20
77.2573
  0
VERTEX
  8
0
 10
71.7896
 20
77.2573
  0
VERTEX
  8
0
 10
71.8519
 20
77.2597
  0
VERTEX
  8
0
 10
71.8941
 20
77.267
  0
VERTEX
  8
0
 10
71.9241
 20
77.2795
  0
VERTEX
  8
0
 10
71.9475
 20
77.2972
  0
VERTEX
  8
0
 10
71.9644
 20
77.3201
  0
VERTEX
  8
0
 10
71.9746
 20
77.3481
  0
VERTEX
  8
0
 10
71.9784
 20
77.3813
  0
VERTEX
  8
0
 10
71.9757
 20
77.415
  0
VERTEX
  8
0
 10
71.9667
 20
77.4435
  0
VERTEX
  8
0
 10
71.9514
 20
77.4667
  0
VERTEX
  8
0
 10
71.9299
 20
77.4847
  0
VERTEX
  8
0
 10
71.9021
 20
77.4973
  0
VERTEX
  8
0
 10
71.8522
 20
77.5063
  0
VERTEX
  8
0
 10
71.776
 20
77.5093
  0
VERTEX
  8
0
 10
71.6104
 20
77.5093
  0
VERTEX
  8
0
 10
71.6104
 20
77.2573
  0
SEQEND
  0
POLYLINE
  8
0
 66
     1
 10
0
 20
0
  0
VERTEX
  8
0
 10
71.6104
 20
76.8693
  0
VERTEX
  8
0
 10
71.8175
 20
76.8693
  0
VERTEX
  8
0
 10
71.8629
 20
76.8703
  0
VERTEX
  8
0
 10
71.8924
 20
76.8733
  0
VERTEX
  8
0
 10
71.9379
 20
76.8876
  0
VERTEX
  8
0
 10
71.9731
 20
76.9109
  0
VERTEX
  8
0
 10
71.9979
 20
76.9435
  0
VERTEX
  8
0
 10
72.01
 20
76.9765
  0
VERTEX
  8
0
 10
72.0144
 20
77.0153
  0
VERTEX
  8
0
 10
72.0111
 20
77.0526
  0
VERTEX
  8
0
 10
72.0005
 20
77.0844
  0
VERTEX
  8
0
 10
71.9824
 20
77.1107
  0
VERTEX
  8
0
 10
71.957
 20
77.1315
  0
VERTEX
  8
0
 10
71.9241
 20
77.1468
  0
VERTEX
  8
0
 10
71.8725
 20
77.1576
  0
VERTEX
  8
0
 10
71.8028
 20
77.1613
  0
VERTEX
  8
0
 10
71.6104
 20
77.1613
  0
VERTEX
  8
0
 10
71.6104
 20
76.8693
  0
SEQEND
  0
POLYLINE
  8
0
 66
     1
 10
0
 20
0
  0
VERTEX
  8
0
 10
72.2264
 20
77.0773
  0
VERTEX
  8
0
 10
72.2289
 20
77.1301
  0
VERTEX
  8
0
 10
72.2366
 20
77.1783
  0
VERTEX
  8
0
 10
72.2495
 20
77.2216
  0
VERTEX
  8
0
 10
72.2674
 20
77.2602
  0
VERTEX
  8
0
 10
72.2905
 20
77.2939
  0
VERTEX
  8
0
 10
72.3187
 20
77.323
  0
VERTEX
  8
0
 10
72.3736
 20
77.3598
  0
VERTEX
  8
0
 10
72.4363
 20
77.3819
  0
VERTEX
  8
0
 10
72.5067
 20
77.3893
  0
VERTEX
  8
0
 10
72.5571
 20
77.3858
  0
VERTEX
  8
0
 10
72.6031
 20
77.3753
  0
VERTEX
  8
0
 10
72.6446
 20
77.3579
  0
VERTEX
  8
0
 10
72.6817
 20
77.3335
  0
VERTEX
  8
0
 10
72.7143
 20
77.3021
  0
VERTEX
  8
0
 10
72.7458
 20
77.2574
  0
VERTEX
  8
0
 10
72.7684
 20
77.2064
  0
VERTEX
  8
0
 10
72.7819
 20
77.1492
  0
VERTEX
  8
0
 10
72.7864
 20
77.0857
  0
VERTEX
  8
0
 10
72.7847
 20
77.0409
  0
VERTEX
  8
0
 10
72.7797
 20
76.9994
  0
VERTEX
  8
0
 10
72.7713
 20
76.9612
  0
VERTEX
  8
0
 10
72.7596
 20
76.9264
  0
VERTEX
  8
0
 10
72.7445
 20
76.8948
  0
VERTEX
  8
0
 10
72.7261
 20
76.8666
  0
VERTEX
  8
0
 10
72.7043
 20
76.8417
  0
VERTEX
  8
0
 10
72.6792
 20
76.8201
  0
VERTEX
  8
0
 10
72.6508
 20
76.8018
  0
VERTEX
  8
0
 10
72.5818
 20
76.7747
  0
VERTEX
  8
0
 10
72.5067
 20
76.7653
  0
VERTEX
  8
0
 10
72.4545
 20
76.7687
  0
VERTEX
  8
0
 10
72.4073
 20
76.7793
  0
VERTEX
  8
0
 10
72.365
 20
76.7972
  0
VERTEX
  8
0
 10
72.3278
 20
76.8223
  0
VERTEX
  8
0
 10
72.2956
 20
76.8546
  0
VERTEX
  8
0
 10
72.2653
 20
76.8997
  0
VERTEX
  8
0
 10
72.2437
 20
76.9519
  0
VERTEX
  8
0
 10
72.2307
 20
77.0111
  0
VERTEX
  8
0
 10
72.2264
 20
77.0773
  0
VERTEX
  8
0
 10
72.2264
 20
77.0773
  0
SEQEND
  0
POLYLINE
  8
0
 66
     1
 10
0
 20
0
  0
VERTEX
  8
0
 10
72.3304
 20
77.0775
  0
VERTEX
  8
0
 10
72.3401
 20
76.9902
  0
VERTEX
  8
0
 10
72.3693
 20
76.9211
  0
VERTEX
  8
0
 10
72.3952
 20
76.8899
  0
VERTEX
  8
0
 10
72.4267
 20
76.8675
  0
VERTEX
  8
0
 10
72.4639
 20
76.854
  0
VERTEX
  8
0
 10
72.5067
 20
76.8493
  0
VERTEX
  8
0
 10
72.5495
 20
76.8536
  0
VERTEX
  8
0
 10
72.5866
 20
76.8674
  0
VERTEX
  8
0
 10
72.6182
 20
76.8904
  0
VERTEX
  8
0
 10
72.6441
 20
76.9228
  0
VERTEX
  8
0
 10
72.6728
 20
76.9931
  0
VERTEX
  8
0
 10
72.6824
 20
77.0809
  0
VERTEX
  8
0
 10
72.6724
 20
77.1659
  0
VERTEX
  8
0
 10
72.6424
 20
77.2346
  0
VERTEX
  8
0
 10
72.6162
 20
77.2655
  0
VERTEX
  8
0
 10
72.5848
 20
77.2876
  0
VERTEX
  8
0
 10
72.5483
 20
77.3008
  0
VERTEX
  8
0
 10
72.5067
 20
77.3053
  0
VERTEX
  8
0
 10
72.4639
 20
77.3008
  0
VERTEX
  8
0
 10
72.4267
 20
77.2873
  0
VERTEX
  8
0
 10
72.3952
 20
77.2649
  0
VERTEX
  8
0
 10
72.3693
 20
77.2335
  0
VERTEX
  8
0
 10
72.3401
 20
77.1642
  0
VERTEX
  8
0
 10
72.3304
 20
77.0775
  0
VERTEX
  8
0
 10
72.3304
 20
77.0775
  0
SEQEND
  0
POLYLINE
  8
0
 66
     1
 10
0
 20
0
  0
VERTEX
  8
0
 10
72.9064
 20
76.7733
  0
VERTEX
  8
0
 10
72.9064
 20
77.3765
  0
VERTEX
  8
0
 10
72.9984
 20
77.3765
  0
VERTEX
  8
0
 10
72.9984
 20
77.2856
  0
VERTEX
  8
0
 10
73.0248
 20
77.3285
  0
VERTEX
  8
0
 10
73.049
 20
77.3573
  0
VERTEX
  8
0
 10
73.0853
 20
77.3813
  0
VERTEX
  8
0
 10
73.1278
 20
77.3893
  0
VERTEX
  8
0
 10
73.1791
 20
77.3811
  0
VERTEX
  8
0
 10
73.2319
 20
77.3568
  0
VERTEX
  8
0
 10
73.1967
 20
77.2631
  0
VERTEX
  8
0
 10
73.1592
 20
77.2797
  0
VERTEX
  8
0
 10
73.1217
 20
77.2853
  0
VERTEX
  8
0
 10
73.0888
 20
77.2794
  0
VERTEX
  8
0
 10
73.0581
 20
77.262
  0
VERTEX
  8
0
 10
73.0375
 20
77.239
  0
VERTEX
  8
0
 10
73.0234
 20
77.209
  0
VERTEX
  8
0
 10
73.0106
 20
77.1524
  0
VERTEX
  8
0
 10
73.0064
 20
77.0896
  0
VERTEX
  8
0
 10
73.0064
 20
76.7733
  0
VERTEX
  8
0
 10
72.9064
 20
76.7733
  0
SEQEND
  0
POLYLINE
  8
0
 66
     1
 10
0
 20
0
  0
VERTEX
  8
0
 10
73.6824
 20
76.7733
  0
VERTEX
  8
0
 10
73.6824
 20
76.8529
  0
VERTEX
  8
0
 10
73.6577
 20
76.8215
  0
VERTEX
  8
0
 10
73.6287
 20
76.7971
  0
VERTEX
  8
0
 10
73.5953
 20
76.7796
  0
VERTEX
  8
0
 10
73.5575
 20
76.7689
  0
VERTEX
  8
0
 10
73.5154
 20
76.7653
  0
VERTEX
  8
0
 10
73.4451
 20
76.7752
  0
VERTEX
  8
0
 10
73.3815
 20
76.8063
  0
VERTEX
  8
0
 10
73.3293
 20
76.8534
  0
VERTEX
  8
0
 10
73.2907
 20
76.9148
  0
VERTEX
  8
0
 10
73.2667
 20
76.9896
  0
VERTEX
  8
0
 10
73.2584
 20
77.0767
  0
VERTEX
  8
0
 10
73.26
 20
77.1235
  0
VERTEX
  8
0
 10
73.2655
 20
77.1667
  0
VERTEX
  8
0
 10
73.2747
 20
77.2064
  0
VERTEX
  8
0
 10
73.2878
 20
77.2424
  0
VERTEX
  8
0
 10
73.3047
 20
77.2748
  0
VERTEX
  8
0
 10
73.3255
 20
77.3036
  0
VERTEX
  8
0
 10
73.35
 20
77.3288
  0
VERTEX
  8
0
 10
73.3784
 20
77.3505
  0
VERTEX
  8
0
 10
73.4416
 20
77.3796
  0
VERTEX
  8
0
 10
73.5125
 20
77.3893
  0
VERTEX
  8
0
 10
73.5626
 20
77.3842
  0
VERTEX
  8
0
 10
73.6069
 20
77.3689
  0
VERTEX
  8
0
 10
73.6455
 20
77.3434
  0
VERTEX
  8
0
 10
73.6784
 20
77.3076
  0
VERTEX
  8
0
 10
73.6784
 20
77.6053
  0
VERTEX
  8
0
 10
73.7784
 20
77.6053
  0
VERTEX
  8
0
 10
73.7784
 20
76.7733
  0
VERTEX
  8
0
 10
73.6824
 20
76.7733
  0
SEQEND
  0
POLYLINE
  8
0
 66
     1
 10
0
 20
0
  0
VERTEX
  8
0
 10
73.3624
 20
77.077
  0
VERTEX
  8
0
 10
73.3713
 20
76.9939
  0
VERTEX
  8
0
 10
73.3979
 20
76.925
  0
VERTEX
  8
0
 10
73.4222
 20
76.8921
  0
VERTEX
  8
0
 10
73.4516
 20
76.8685
  0
VERTEX
  8
0
 10
73.4861
 20
76.8542
  0
VERTEX
  8
0
 10
73.5256
 20
76.8493
  0
VERTEX
  8
0
 10
73.5646
 20
76.8535
  0
VERTEX
  8
0
 10
73.5985
 20
76.8669
  0
VERTEX
  8
0
 10
73.6273
 20
76.8894
  0
VERTEX
  8
0
 10
73.6511
 20
76.9211
  0
VERTEX
  8
0
 10
73.6769
 20
76.9877
  0
VERTEX
  8
0
 10
73.6855
 20
77.0686
  0
VERTEX
  8
0
 10
73.6772
 20
77.1559
  0
VERTEX
  8
0
 10
73.6522
 20
77.2262
  0
VERTEX
  8
0
 10
73.6279
 20
77.2608
  0
VERTEX
  8
0
 10
73.598
 20
77.2855
  0
VERTEX
  8
0
 10
73.5624
 20
77.3003
  0
VERTEX
  8
0
 10
73.5211
 20
77.3053
  0
VERTEX
  8
0
 10
73.481
 20
77.3005
  0
VERTEX
  8
0
 10
73.4466
 20
77.2863
  0
VERTEX
  8
0
 10
73.4177
 20
77.2627
  0
VERTEX
  8
0
 10
73.3946
 20
77.2295
  0
VERTEX
  8
0
 10
73.3704
 20
77.1617
  0
VERTEX
  8
0
 10
73.3624
 20
77.077
  0
VERTEX
  8
0
 10
73.3624
 20
77.077
  0
SEQEND
  0
POLYLINE
  8
0
 66
     1
 10
0
 20
0
  0
VERTEX
  8
0
 10
74.3422
 20
76.9702
  0
VERTEX
  8
0
 10
74.4474
 20
76.9573
  0
VERTEX
  8
0
 10
74.4376
 20
76.9266
  0
VERTEX
  8
0
 10
74.4256
 20
76.8986
  0
VERTEX
  8
0
 10
74.4114
 20
76.8733
  0
VERTEX
  8
0
 10
74.395
 20
76.8506
  0
VERTEX
  8
0
 10
74.3764
 20
76.8306
  0
VERTEX
  8
0
 10
74.3555
 20
76.8133
  0
VERTEX
  8
0
 10
74.3325
 20
76.7986
  0
VERTEX
  8
0
 10
74.3072
 20
76.7866
  0
VERTEX
  8
0
 10
74.2797
 20
76.7773
  0
VERTEX
  8
0
 10
74.25
 20
76.7706
  0
VERTEX
  8
0
 10
74.218
 20
76.7666
  0
VERTEX
  8
0
 10
74.1839
 20
76.7653
  0
VERTEX
  8
0
 10
74.1213
 20
76.7703
  0
VERTEX
  8
0
 10
74.0657
 20
76.7854
  0
VERTEX
  8
0
 10
74.017
 20
76.8105
  0
VERTEX
  8
0
 10
73.9751
 20
76.8456
  0
VERTEX
  8
0
 10
73.9475
 20
76.8804
  0
VERTEX
  8
0
 10
73.926
 20
76.9205
  0
VERTEX
  8
0
 10
73.9107
 20
76.9658
  0
VERTEX
  8
0
 10
73.9014
 20
77.0164
  0
VERTEX
  8
0
 10
73.8984
 20
77.0722
  0
VERTEX
  8
0
 10
73.9027
 20
77.1383
  0
VERTEX
  8
0
 10
73.9156
 20
77.1977
  0
VERTEX
  8
0
 10
73.9371
 20
77.2505
  0
VERTEX
  8
0
 10
73.9672
 20
77.2965
  0
VERTEX
  8
0
 10
73.9998
 20
77.3299
  0
VERTEX
  8
0
 10
74.0373
 20
77.3559
  0
VERTEX
  8
0
 10
74.0795
 20
77.3744
  0
VERTEX
  8
0
 10
74.1265
 20
77.3856
  0
VERTEX
  8
0
 10
74.1783
 20
77.3893
  0
VERTEX
  8
0
 10
74.2287
 20
77.3856
  0
VERTEX
  8
0
 10
74.2745
 20
77.3745
  0
VERTEX
  8
0
 10
74.3155
 20
77.3561
  0
VERTEX
  8
0
 10
74.3519
 20
77.3303
  0
VERTEX
  8
0
 10
74.3836
 20
77.2971
  0
VERTEX
  8
0
 10
74.413
 20
77.2515
  0
VERTEX
  8
0
 10
74.434
 20
77.1995
  0
VERTEX
  8
0
 10
74.4466
 20
77.1411
  0
VERTEX
  8
0
 10
74.4508
 20
77.0764
  0
VERTEX
  8
0
 10
74.4506
 20
77.0623
  0
VERTEX
  8
0
 10
74.4502
 20
77.0493
  0
VERTEX
  8
0
 10
74.0024
 20
77.0493
  0
VERTEX
  8
0
 10
74.0166
 20
76.9714
  0
VERTEX
  8
0
 10
74.0504
 20
76.9096
  0
VERTEX
  8
0
 10
74.0871
 20
76.8761
  0
VERTEX
  8
0
 10
74.1316
 20
76.856
  0
VERTEX
  8
0
 10
74.1839
 20
76.8493
  0
VERTEX
  8
0
 10
74.2199
 20
76.8526
  0
VERTEX
  8
0
 10
74.252
 20
76.8627
  0
VERTEX
  8
0
 10
74.2803
 20
76.8795
  0
VERTEX
  8
0
 10
74.3048
 20
76.903
  0
VERTEX
  8
0
 10
74.3254
 20
76.9332
  0
VERTEX
  8
0
 10
74.3422
 20
76.9702
  0
VERTEX
  8
0
 10
74.3422
 20
76.9702
  0
SEQEND
  0
POLYLINE
  8
0
 66
     1
 10
0
 20
0
  0
VERTEX
  8
0
 10
74.0089
 20
77.1333
  0
VERTEX
  8
0
 10
74.3436
 20
77.1333
  0
VERTEX
  8
0
 10
74.3306
 20
77.1994
  0
VERTEX
  8
0
 10
74.3052
 20
77.2466
  0
VERTEX
  8
0
 10
74.2697
 20
77.279
  0
VERTEX
  8
0
 10
74.2277
 20
77.2985
  0
VERTEX
  8
0
 10
74.1794
 20
77.3053
  0
VERTEX
  8
0
 10
74.1122
 20
77.2931
  0
VERTEX
  8
0
 10
74.0586
 20
77.2556
  0
VERTEX
  8
0
 10
74.0239
 20
77.2014
  0
VERTEX
  8
0
 10
74.0089
 20
77.1333
  0
VERTEX
  8
0
 10
74.0089
 20
77.1333
  0
SEQEND
  0
POLYLINE
  8
0
 66
     1
 10
0
 20
0
  0
VERTEX
  8
0
 10
74.5744
 20
76.7733
  0
VERTEX
  8
0
 10
74.5744
 20
77.3765
  0
VERTEX
  8
0
 10
74.6664
 20
77.3765
  0
VERTEX
  8
0
 10
74.6664
 20
77.2856
  0
VERTEX
  8
0
 10
74.6928
 20
77.3285
  0
VERTEX
  8
0
 10
74.717
 20
77.3573
  0
VERTEX
  8
0
 10
74.7533
 20
77.3813
  0
VERTEX
  8
0
 10
74.7958
 20
77.3893
  0
VERTEX
  8
0
 10
74.8471
 20
77.3811
  0
VERTEX
  8
0
 10
74.8999
 20
77.3568
  0
VERTEX
  8
0
 10
74.8647
 20
77.2631
  0
VERTEX
  8
0
 10
74.8272
 20
77.2797
  0
VERTEX
  8
0
 10
74.7897
 20
77.2853
  0
VERTEX
  8
0
 10
74.7568
 20
77.2794
  0
VERTEX
  8
0
 10
74.7261
 20
77.262
  0
VERTEX
  8
0
 10
74.7055
 20
77.239
  0
VERTEX
  8
0
 10
74.6914
 20
77.209
  0
VERTEX
  8
0
 10
74.6786
 20
77.1524
  0
VERTEX
  8
0
 10
74.6744
 20
77.0896
  0
VERTEX
  8
0
 10
74.6744
 20
76.7733
  0
VERTEX
  8
0
 10
74.5744
 20
76.7733
  0
SEQEND
  0
POLYLINE
  8
0
 66
     1
 10
0
 20
0
  0
VERTEX
  8
0
 10
74.9904
 20
76.7733
  0
VERTEX
  8
0
 10
74.9904
 20
76.8933
  0
VERTEX
  8
0
 10
75.1064
 20
76.8933
  0
VERTEX
  8
0
 10
75.1064
 20
76.7773
  0
VERTEX
  8
0
 10
75.1037
 20
76.7388
  0
VERTEX
  8
0
 10
75.0958
 20
76.7048
  0
VERTEX
  8
0
 10
75.0825
 20
76.6752
  0
VERTEX
  8
0
 10
75.064
 20
76.6501
  0
VERTEX
  8
0
 10
75.0401
 20
76.6295
  0
VERTEX
  8
0
 10
75.0109
 20
76.6133
  0
VERTEX
  8
0
 10
74.9824
 20
76.6558
  0
VERTEX
  8
0
 10
75.0095
 20
76.6726
  0
VERTEX
  8
0
 10
75.0292
 20
76.6978
  0
VERTEX
  8
0
 10
75.0416
 20
76.7314
  0
VERTEX
  8
0
 10
75.0467
 20
76.7733
  0
VERTEX
  8
0
 10
74.9904
 20
76.7733
  0
SEQEND
  0
POLYLINE
  8
0
 66
     1
 10
0
 20
0
  0
VERTEX
  8
0
 10
75.9753
 20
76.7733
  0
VERTEX
  8
0
 10
75.7544
 20
77.6053
  0
VERTEX
  8
0
 10
75.8666
 20
77.6053
  0
VERTEX
  8
0
 10
75.9925
 20
77.0624
  0
VERTEX
  8
0
 10
76.0114
 20
76.9766
  0
VERTEX
  8
0
 10
76.0274
 20
76.893
  0
VERTEX
  8
0
 10
76.0389
 20
76.9409
  0
VERTEX
  8
0
 10
76.0483
 20
76.9802
  0
VERTEX
  8
0
 10
76.0558
 20
77.0108
  0
VERTEX
  8
0
 10
76.0612
 20
77.0327
  0
VERTEX
  8
0
 10
76.0647
 20
77.0458
  0
VERTEX
  8
0
 10
76.2221
 20
77.6053
  0
VERTEX
  8
0
 10
76.3541
 20
77.6053
  0
VERTEX
  8
0
 10
76.4726
 20
77.1858
  0
VERTEX
  8
0
 10
76.5104
 20
77.035
  0
VERTEX
  8
0
 10
76.5365
 20
76.893
  0
VERTEX
  8
0
 10
76.5461
 20
76.9383
  0
VERTEX
  8
0
 10
76.5597
 20
76.9983
  0
VERTEX
  8
0
 10
76.5774
 20
77.0731
  0
VERTEX
  8
0
 10
76.7059
 20
77.6053
  0
VERTEX
  8
0
 10
76.8179
 20
77.6053
  0
VERTEX
  8
0
 10
76.5911
 20
76.7733
  0
VERTEX
  8
0
 10
76.4853
 20
76.7733
  0
VERTEX
  8
0
 10
76.3103
 20
77.4073
  0
VERTEX
  8
0
 10
76.297
 20
77.4529
  0
VERTEX
  8
0
 10
76.2879
 20
77.4852
  0
VERTEX
  8
0
 10
76.283
 20
77.5039
  0
VERTEX
  8
0
 10
76.2728
 20
77.4545
  0
VERTEX
  8
0
 10
76.2619
 20
77.4073
  0
VERTEX
  8
0
 10
76.0877
 20
76.7733
  0
VERTEX
  8
0
 10
75.9753
 20
76.7733
  0
SEQEND
  0
POLYLINE
  8
0
 66
     1
 10
0
 20
0
  0
VERTEX
  8
0
 10
76.9064
 20
76.7733
  0
VERTEX
  8
0
 10
76.9064
 20
77.6053
  0
VERTEX
  8
0
 10
77.0064
 20
77.6053
  0
VERTEX
  8
0
 10
77.0064
 20
77.3076
  0
VERTEX
  8
0
 10
77.0444
 20
77.3431
  0
VERTEX
  8
0
 10
77.0871
 20
77.3686
  0
VERTEX
  8
0
 10
77.1345
 20
77.384
  0
VERTEX
  8
0
 10
77.1865
 20
77.3893
  0
VERTEX
  8
0
 10
77.2481
 20
77.3829
  0
VERTEX
  8
0
 10
77.3026
 20
77.3626
  0
VERTEX
  8
0
 10
77.3495
 20
77.3257
  0
VERTEX
  8
0
 10
77.3791
 20
77.2741
  0
VERTEX
  8
0
 10
77.3906
 20
77.2228
  0
VERTEX
  8
0
 10
77.3944
 20
77.155
  0
VERTEX
  8
0
 10
77.3944
 20
76.7733
  0
VERTEX
  8
0
 10
77.2944
 20
76.7733
  0
VERTEX
  8
0
 10
77.2944
 20
77.155
  0
VERTEX
  8
0
 10
77.2928
 20
77.1854
  0
VERTEX
  8
0
 10
77.2881
 20
77.2124
  0
VERTEX
  8
0
 10
77.2802
 20
77.2357
  0
VERTEX
  8
0
 10
77.2691
 20
77.2556
  0
VERTEX
  8
0
 10
77.255
 20
77.2718
  0
VERTEX
  8
0
 10
77.2376
 20
77.2845
  0
VERTEX
  8
0
 10
77.2171
 20
77.2936
  0
VERTEX
  8
0
 10
77.1934
 20
77.2992
  0
VERTEX
  8
0
 10
77.1666
 20
77.3013
  0
VERTEX
  8
0
 10
77.1224
 20
77.2958
  0
VERTEX
  8
0
 10
77.0811
 20
77.278
  0
VERTEX
  8
0
 10
77.0468
 20
77.2502
  0
VERTEX
  8
0
 10
77.0238
 20
77.2142
  0
VERTEX
  8
0
 10
77.0107
 20
77.1663
  0
VERTEX
  8
0
 10
77.0064
 20
77.1028
  0
VERTEX
  8
0
 10
77.0064
 20
76.7733
  0
VERTEX
  8
0
 10
76.9064
 20
76.7733
  0
SEQEND
  0
POLYLINE
  8
0
 66
     1
 10
0
 20
0
  0
VERTEX
  8
0
 10
77.5464
 20
77.4893
  0
VERTEX
  8
0
 10
77.5464
 20
77.6053
  0
VERTEX
  8
0
 10
77.6464
 20
77.6053
  0
VERTEX
  8
0
 10
77.6464
 20
77.4893
  0
VERTEX
  8
0
 10
77.5464
 20
77.4893
  0
SEQEND
  0
POLYLINE
  8
0
 66
     1
 10
0
 20
0
  0
VERTEX
  8
0
 10
77.5464
 20
76.7733
  0
VERTEX
  8
0
 10
77.5464
 20
77.3765
  0
VERTEX
  8
0
 10
77.6464
 20
77.3765
  0
VERTEX
  8
0
 10
77.6464
 20
76.7733
  0
VERTEX
  8
0
 10
77.5464
 20
76.7733
  0
SEQEND
  0
POLYLINE
  8
0
 66
     1
 10
0
 20
0
  0
VERTEX
  8
0
 10
78.028
 20
76.8681
  0
VERTEX
  8
0
 10
78.0426
 20
76.7783
  0
VERTEX
  8
0
 10
78.002
 20
76.7718
  0
VERTEX
  8
0
 10
77.9664
 20
76.7693
  0
VERTEX
  8
0
 10
77.9206
 20
76.7728
  0
VERTEX
  8
0
 10
77.8841
 20
76.7845
  0
VERTEX
  8
0
 10
77.8568
 20
76.8044
  0
VERTEX
  8
0
 10
77.8387
 20
76.8325
  0
VERTEX
  8
0
 10
77.8319
 20
76.8588
  0
VERTEX
  8
0
 10
77.8277
 20
76.8989
  0
VERTEX
  8
0
 10
77.8264
 20
76.9526
  0
VERTEX
  8
0
 10
77.8264
 20
77.2973
  0
VERTEX
  8
0
 10
77.7504
 20
77.2973
  0
VERTEX
  8
0
 10
77.7504
 20
77.3773
  0
VERTEX
  8
0
 10
77.8264
 20
77.3773
  0
VERTEX
  8
0
 10
77.8264
 20
77.5247
  0
VERTEX
  8
0
 10
77.9264
 20
77.5853
  0
VERTEX
  8
0
 10
77.9264
 20
77.3773
  0
VERTEX
  8
0
 10
78.0264
 20
77.3773
  0
VERTEX
  8
0
 10
78.0264
 20
77.2973
  0
VERTEX
  8
0
 10
77.9264
 20
77.2973
  0
VERTEX
  8
0
 10
77.9264
 20
76.948
  0
VERTEX
  8
0
 10
77.9268
 20
76.921
  0
VERTEX
  8
0
 10
77.9281
 20
76.9063
  0
VERTEX
  8
0
 10
77.9352
 20
76.8864
  0
VERTEX
  8
0
 10
77.9488
 20
76.8726
  0
VERTEX
  8
0
 10
77.9632
 20
76.8674
  0
VERTEX
  8
0
 10
77.9837
 20
76.8653
  0
VERTEX
  8
0
 10
78.0029
 20
76.8657
  0
VERTEX
  8
0
 10
78.028
 20
76.8681
  0
VERTEX
  8
0
 10
78.028
 20
76.8681
  0
SEQEND
  0
POLYLINE
  8
0
 66
     1
 10
0
 20
0
  0
VERTEX
  8
0
 10
78.5342
 20
76.9702
  0
VERTEX
  8
0
 10
78.6394
 20
76.9573
  0
VERTEX
  8
0
 10
78.6296
 20
76.9266
  0
VERTEX
  8
0
 10
78.6176
 20
76.8986
  0
VERTEX
  8
0
 10
78.6034
 20
76.8733
  0
VERTEX
  8
0
 10
78.587
 20
76.8506
  0
VERTEX
  8
0
 10
78.5684
 20
76.8306
  0
VERTEX
  8
0
 10
78.5475
 20
76.8133
  0
VERTEX
  8
0
 10
78.5245
 20
76.7986
  0
VERTEX
  8
0
 10
78.4992
 20
76.7866
  0
VERTEX
  8
0
 10
78.4717
 20
76.7773
  0
VERTEX
  8
0
 10
78.442
 20
76.7706
  0
VERTEX
  8
0
 10
78.41
 20
76.7666
  0
VERTEX
  8
0
 10
78.3759
 20
76.7653
  0
VERTEX
  8
0
 10
78.3133
 20
76.7703
  0
VERTEX
  8
0
 10
78.2577
 20
76.7854
  0
VERTEX
  8
0
 10
78.209
 20
76.8105
  0
VERTEX
  8
0
 10
78.1671
 20
76.8456
  0
VERTEX
  8
0
 10
78.1395
 20
76.8804
  0
VERTEX
  8
0
 10
78.118
 20
76.9205
  0
VERTEX
  8
0
 10
78.1027
 20
76.9658
  0
VERTEX
  8
0
 10
78.0934
 20
77.0164
  0
VERTEX
  8
0
 10
78.0904
 20
77.0722
  0
VERTEX
  8
0
 10
78.0947
 20
77.1383
  0
VERTEX
  8
0
 10
78.1076
 20
77.1977
  0
VERTEX
  8
0
 10
78.1291
 20
77.2505
  0
VERTEX
  8
0
 10
78.1592
 20
77.2965
  0
VERTEX
  8
0
 10
78.1918
 20
77.3299
  0
VERTEX
  8
0
 10
78.2293
 20
77.3559
  0
VERTEX
  8
0
 10
78.2715
 20
77.3744
  0
VERTEX
  8
0
 10
78.3185
 20
77.3856
  0
VERTEX
  8
0
 10
78.3703
 20
77.3893
  0
VERTEX
  8
0
 10
78.4207
 20
77.3856
  0
VERTEX
  8
0
 10
78.4665
 20
77.3745
  0
VERTEX
  8
0
 10
78.5075
 20
77.3561
  0
VERTEX
  8
0
 10
78.5439
 20
77.3303
  0
VERTEX
  8
0
 10
78.5756
 20
77.2971
  0
VERTEX
  8
0
 10
78.605
 20
77.2515
  0
VERTEX
  8
0
 10
78.626
 20
77.1995
  0
VERTEX
  8
0
 10
78.6386
 20
77.1411
  0
VERTEX
  8
0
 10
78.6428
 20
77.0764
  0
VERTEX
  8
0
 10
78.6426
 20
77.0623
  0
VERTEX
  8
0
 10
78.6422
 20
77.0493
  0
VERTEX
  8
0
 10
78.1944
 20
77.0493
  0
VERTEX
  8
0
 10
78.2086
 20
76.9714
  0
VERTEX
  8
0
 10
78.2424
 20
76.9096
  0
VERTEX
  8
0
 10
78.2791
 20
76.8761
  0
VERTEX
  8
0
 10
78.3236
 20
76.856
  0
VERTEX
  8
0
 10
78.3759
 20
76.8493
  0
VERTEX
  8
0
 10
78.4119
 20
76.8526
  0
VERTEX
  8
0
 10
78.444
 20
76.8627
  0
VERTEX
  8
0
 10
78.4723
 20
76.8795
  0
VERTEX
  8
0
 10
78.4968
 20
76.903
  0
VERTEX
  8
0
 10
78.5174
 20
76.9332
  0
VERTEX
  8
0
 10
78.5342
 20
76.9702
  0
VERTEX
  8
0
 10
78.5342
 20
76.9702
  0
SEQEND
  0
POLYLINE
  8
0
 66
     1
 10
0
 20
0
  0
VERTEX
  8
0
 10
78.2009
 20
77.1333
  0
VERTEX
  8
0
 10
78.5356
 20
77.1333
  0
VERTEX
  8
0
 10
78.5226
 20
77.1994
  0
VERTEX
  8
0
 10
78.4972
 20
77.2466
  0
VERTEX
  8
0
 10
78.4617
 20
77.279
  0
VERTEX
  8
0
 10
78.4197
 20
77.2985
  0
VERTEX
  8
0
 10
78.3714
 20
77.3053
  0
VERTEX
  8
0
 10
78.3042
 20
77.2931
  0
VERTEX
  8
0
 10
78.2506
 20
77.2556
  0
VERTEX
  8
0
 10
78.2159
 20
77.2014
  0
VERTEX
  8
0
 10
78.2009
 20
77.1333
  0
VERTEX
  8
0
 10
78.2009
 20
77.1333
  0
SEQEND
  0
POLYLINE
  8
0
 66
     1
 10
0
 20
0
  0
VERTEX
  8
0
 10
79.2664
 20
77.0773
  0
VERTEX
  8
0
 10
79.2689
 20
77.1301
  0
VERTEX
  8
0
 10
79.2766
 20
77.1783
  0
VERTEX
  8
0
 10
79.2895
 20
77.2216
  0
VERTEX
  8
0
 10
79.3074
 20
77.2602
  0
VERTEX
  8
0
 10
79.3305
 20
77.2939
  0
VERTEX
  8
0
 10
79.3587
 20
77.323
  0
VERTEX
  8
0
 10
79.4136
 20
77.3598
  0
VERTEX
  8
0
 10
79.4763
 20
77.3819
  0
VERTEX
  8
0
 10
79.5467
 20
77.3893
  0
VERTEX
  8
0
 10
79.5971
 20
77.3858
  0
VERTEX
  8
0
 10
79.6431
 20
77.3753
  0
VERTEX
  8
0
 10
79.6846
 20
77.3579
  0
VERTEX
  8
0
 10
79.7217
 20
77.3335
  0
VERTEX
  8
0
 10
79.7543
 20
77.3021
  0
VERTEX
  8
0
 10
79.7858
 20
77.2574
  0
VERTEX
  8
0
 10
79.8084
 20
77.2064
  0
VERTEX
  8
0
 10
79.8219
 20
77.1492
  0
VERTEX
  8
0
 10
79.8264
 20
77.0857
  0
VERTEX
  8
0
 10
79.8247
 20
77.0409
  0
VERTEX
  8
0
 10
79.8197
 20
76.9994
  0
VERTEX
  8
0
 10
79.8113
 20
76.9612
  0
VERTEX
  8
0
 10
79.7996
 20
76.9264
  0
VERTEX
  8
0
 10
79.7845
 20
76.8948
  0
VERTEX
  8
0
 10
79.7661
 20
76.8666
  0
VERTEX
  8
0
 10
79.7443
 20
76.8417
  0
VERTEX
  8
0
 10
79.7192
 20
76.8201
  0
VERTEX
  8
0
 10
79.6908
 20
76.8018
  0
VERTEX
  8
0
 10
79.6218
 20
76.7747
  0
VERTEX
  8
0
 10
79.5467
 20
76.7653
  0
VERTEX
  8
0
 10
79.4945
 20
76.7687
  0
VERTEX
  8
0
 10
79.4473
 20
76.7793
  0
VERTEX
  8
0
 10
79.405
 20
76.7972
  0
VERTEX
  8
0
 10
79.3678
 20
76.8223
  0
VERTEX
  8
0
 10
79.3356
 20
76.8546
  0
VERTEX
  8
0
 10
79.3053
 20
76.8997
  0
VERTEX
  8
0
 10
79.2837
 20
76.9519
  0
VERTEX
  8
0
 10
79.2707
 20
77.0111
  0
VERTEX
  8
0
 10
79.2664
 20
77.0773
  0
VERTEX
  8
0
 10
79.2664
 20
77.0773
  0
SEQEND
  0
POLYLINE
  8
0
 66
     1
 10
0
 20
0
  0
VERTEX
  8
0
 10
79.3704
 20
77.0775
  0
VERTEX
  8
0
 10
79.3801
 20
76.9902
  0
VERTEX
  8
0
 10
79.4093
 20
76.9211
  0
VERTEX
  8
0
 10
79.4352
 20
76.8899
  0
VERTEX
  8
0
 10
79.4667
 20
76.8675
  0
VERTEX
  8
0
 10
79.5039
 20
76.854
  0
VERTEX
  8
0
 10
79.5467
 20
76.8493
  0
VERTEX
  8
0
 10
79.5895
 20
76.8536
  0
VERTEX
  8
0
 10
79.6266
 20
76.8674
  0
VERTEX
  8
0
 10
79.6582
 20
76.8904
  0
VERTEX
  8
0
 10
79.6841
 20
76.9228
  0
VERTEX
  8
0
 10
79.7128
 20
76.9931
  0
VERTEX
  8
0
 10
79.7224
 20
77.0809
  0
VERTEX
  8
0
 10
79.7124
 20
77.1659
  0
VERTEX
  8
0
 10
79.6824
 20
77.2346
  0
VERTEX
  8
0
 10
79.6562
 20
77.2655
  0
VERTEX
  8
0
 10
79.6248
 20
77.2876
  0
VERTEX
  8
0
 10
79.5883
 20
77.3008
  0
VERTEX
  8
0
 10
79.5467
 20
77.3053
  0
VERTEX
  8
0
 10
79.5039
 20
77.3008
  0
VERTEX
  8
0
 10
79.4667
 20
77.2873
  0
VERTEX
  8
0
 10
79.4352
 20
77.2649
  0
VERTEX
  8
0
 10
79.4093
 20
77.2335
  0
VERTEX
  8
0
 10
79.3801
 20
77.1642
  0
VERTEX
  8
0
 10
79.3704
 20
77.0775
  0
VERTEX
  8
0
 10
79.3704
 20
77.0775
  0
SEQEND
  0
POLYLINE
  8
0
 66
     1
 10
0
 20
0
  0
VERTEX
  8
0
 10
79.9424
 20
76.7733
  0
VERTEX
  8
0
 10
79.9424
 20
77.3765
  0
VERTEX
  8
0
 10
80.0344
 20
77.3765
  0
VERTEX
  8
0
 10
80.0344
 20
77.2913
  0
VERTEX
  8
0
 10
80.0632
 20
77.3264
  0
VERTEX
  8
0
 10
80.0967
 20
77.3537
  0
VERTEX
  8
0
 10
80.1349
 20
77.3733
  0
VERTEX
  8
0
 10
80.1777
 20
77.3852
  0
VERTEX
  8
0
 10
80.2253
 20
77.3893
  0
VERTEX
  8
0
 10
80.2765
 20
77.3843
  0
VERTEX
  8
0
 10
80.3248
 20
77.3694
  0
VERTEX
  8
0
 10
80.3613
 20
77.3485
  0
VERTEX
  8
0
 10
80.3901
 20
77.3205
  0
VERTEX
  8
0
 10
80.4113
 20
77.2853
  0
VERTEX
  8
0
 10
80.4248
 20
77.243
  0
VERTEX
  8
0
 10
80.429
 20
77.2048
  0
VERTEX
  8
0
 10
80.4304
 20
77.1436
  0
VERTEX
  8
0
 10
80.4304
 20
76.7733
  0
VERTEX
  8
0
 10
80.3304
 20
76.7733
  0
VERTEX
  8
0
 10
80.3304
 20
77.14
  0
VERTEX
  8
0
 10
80.3284
 20
77.1867
  0
VERTEX
  8
0
 10
80.3224
 20
77.2201
  0
VERTEX
  8
0
 10
80.3049
 20
77.2561
  0
VERTEX
  8
0
 10
80.2754
 20
77.2825
  0
VERTEX
  8
0
 10
80.2423
 20
77.2966
  0
VERTEX
  8
0
 10
80.2038
 20
77.3013
  0
VERTEX
  8
0
 10
80.178
 20
77.2999
  0
VERTEX
  8
0
 10
80.1545
 20
77.2957
  0
VERTEX
  8
0
 10
80.1332
 20
77.2888
  0
VERTEX
  8
0
 10
80.1141
 20
77.2792
  0
VERTEX
  8
0
 10
80.0973
 20
77.2668
  0
VERTEX
  8
0
 10
80.0827
 20
77.2516
  0
VERTEX
  8
0
 10
80.0704
 20
77.2337
  0
VERTEX
  8
0
 10
80.0603
 20
77.213
  0
VERTEX
  8
0
 10
80.0525
 20
77.1895
  0
VERTEX
  8
0
 10
80.0469
 20
77.1633
  0
VERTEX
  8
0
 10
80.0435
 20
77.1343
  0
VERTEX
  8
0
 10
80.0424
 20
77.1026
  0
VERTEX
  8
0
 10
80.0424
 20
76.7733
  0
VERTEX
  8
0
 10
79.9424
 20
76.7733
  0
SEQEND
  0
POLYLINE
  8
0
 66
     1
 10
0
 20
0
  0
VERTEX
  8
0
 10
81.1304
 20
76.7733
  0
VERTEX
  8
0
 10
81.1304
 20
77.6053
  0
VERTEX
  8
0
 10
81.4404
 20
77.6053
  0
VERTEX
  8
0
 10
81.5248
 20
77.5989
  0
VERTEX
  8
0
 10
81.5921
 20
77.5797
  0
VERTEX
  8
0
 10
81.6415
 20
77.5489
  0
VERTEX
  8
0
 10
81.6803
 20
77.5042
  0
VERTEX
  8
0
 10
81.7056
 20
77.4505
  0
VERTEX
  8
0
 10
81.7144
 20
77.3925
  0
VERTEX
  8
0
 10
81.7115
 20
77.3551
  0
VERTEX
  8
0
 10
81.7021
 20
77.3209
  0
VERTEX
  8
0
 10
81.6862
 20
77.2899
  0
VERTEX
  8
0
 10
81.6637
 20
77.262
  0
VERTEX
  8
0
 10
81.6348
 20
77.2374
  0
VERTEX
  8
0
 10
81.5993
 20
77.216
  0
VERTEX
  8
0
 10
81.6638
 20
77.1869
  0
VERTEX
  8
0
 10
81.7123
 20
77.1427
  0
VERTEX
  8
0
 10
81.7438
 20
77.084
  0
VERTEX
  8
0
 10
81.7544
 20
77.0145
  0
VERTEX
  8
0
 10
81.7489
 20
76.9621
  0
VERTEX
  8
0
 10
81.7324
 20
76.9118
  0
VERTEX
  8
0
 10
81.705
 20
76.8645
  0
VERTEX
  8
0
 10
81.6693
 20
76.8283
  0
VERTEX
  8
0
 10
81.6282
 20
76.8042
  0
VERTEX
  8
0
 10
81.5773
 20
76.787
  0
VERTEX
  8
0
 10
81.5163
 20
76.7767
  0
VERTEX
  8
0
 10
81.4455
 20
76.7733
  0
VERTEX
  8
0
 10
81.1304
 20
76.7733
  0
SEQEND
  0
POLYLINE
  8
0
 66
     1
 10
0
 20
0
  0
VERTEX
  8
0
 10
81.2384
 20
77.2573
  0
VERTEX
  8
0
 10
81.4176
 20
77.2573
  0
VERTEX
  8
0
 10
81.4799
 20
77.2597
  0
VERTEX
  8
0
 10
81.5221
 20
77.267
  0
VERTEX
  8
0
 10
81.5521
 20
77.2795
  0
VERTEX
  8
0
 10
81.5755
 20
77.2972
  0
VERTEX
  8
0
 10
81.5924
 20
77.3201
  0
VERTEX
  8
0
 10
81.6026
 20
77.3481
  0
VERTEX
  8
0
 10
81.6064
 20
77.3813
  0
VERTEX
  8
0
 10
81.6037
 20
77.415
  0
VERTEX
  8
0
 10
81.5947
 20
77.4435
  0
VERTEX
  8
0
 10
81.5794
 20
77.4667
  0
VERTEX
  8
0
 10
81.5579
 20
77.4847
  0
VERTEX
  8
0
 10
81.5301
 20
77.4973
  0
VERTEX
  8
0
 10
81.4802
 20
77.5063
  0
VERTEX
  8
0
 10
81.404
 20
77.5093
  0
VERTEX
  8
0
 10
81.2384
 20
77.5093
  0
VERTEX
  8
0
 10
81.2384
 20
77.2573
  0
SEQEND
  0
POLYLINE
  8
0
 66
     1
 10
0
 20
0
  0
VERTEX
  8
0
 10
81.2384
 20
76.8693
  0
VERTEX
  8
0
 10
81.4455
 20
76.8693
  0
VERTEX
  8
0
 10
81.4909
 20
76.8703
  0
VERTEX
  8
0
 10
81.5204
 20
76.8733
  0
VERTEX
  8
0
 10
81.5659
 20
76.8876
  0
VERTEX
  8
0
 10
81.6011
 20
76.9109
  0
VERTEX
  8
0
 10
81.6259
 20
76.9435
  0
VERTEX
  8
0
 10
81.638
 20
76.9765
  0
VERTEX
  8
0
 10
81.6424
 20
77.0153
  0
VERTEX
  8
0
 10
81.6391
 20
77.0526
  0
VERTEX
  8
0
 10
81.6285
 20
77.0844
  0
VERTEX
  8
0
 10
81.6104
 20
77.1107
  0
VERTEX
  8
0
 10
81.585
 20
77.1315
  0
VERTEX
  8
0
 10
81.5521
 20
77.1468
  0
VERTEX
  8
0
 10
81.5005
 20
77.1576
  0
VERTEX
  8
0
 10
81.4308
 20
77.1613
  0
VERTEX
  8
0
 10
81.2384
 20
77.1613
  0
VERTEX
  8
0
 10
81.2384
 20
76.8693
  0
SEQEND
  0
POLYLINE
  8
0
 66
     1
 10
0
 20
0
  0
VERTEX
  8
0
 10
81.8904
 20
76.7733
  0
VERTEX
  8
0
 10
81.8904
 20
77.6053
  0
VERTEX
  8
0
 10
81.9904
 20
77.6053
  0
VERTEX
  8
0
 10
81.9904
 20
76.7733
  0
VERTEX
  8
0
 10
81.8904
 20
76.7733
  0
SEQEND
  0
POLYLINE
  8
0
 66
     1
 10
0
 20
0
  0
VERTEX
  8
0
 10
82.5384
 20
76.7733
  0
VERTEX
  8
0
 10
82.5384
 20
76.8653
  0
VERTEX
  8
0
 10
82.5088
 20
76.8293
  0
VERTEX
  8
0
 10
82.4751
 20
76.8013
  0
VERTEX
  8
0
 10
82.4374
 20
76.7813
  0
VERTEX
  8
0
 10
82.3955
 20
76.7693
  0
VERTEX
  8
0
 10
82.3496
 20
76.7653
  0
VERTEX
  8
0
 10
82.3033
 20
76.7696
  0
VERTEX
  8
0
 10
82.2584
 20
76.7828
  0
VERTEX
  8
0
 10
82.2147
 20
76.8057
  0
VERTEX
  8
0
 10
82.1833
 20
76.8363
  0
VERTEX
  8
0
 10
82.165
 20
76.8698
  0
VERTEX
  8
0
 10
82.1526
 20
76.9118
  0
VERTEX
  8
0
 10
82.1479
 20
76.9507
  0
VERTEX
  8
0
 10
82.1464
 20
77.0065
  0
VERTEX
  8
0
 10
82.1464
 20
77.3773
  0
VERTEX
  8
0
 10
82.2464
 20
77.3773
  0
VERTEX
  8
0
 10
82.2464
 20
77.0458
  0
VERTEX
  8
0
 10
82.2479
 20
76.9785
  0
VERTEX
  8
0
 10
82.2526
 20
76.9388
  0
VERTEX
  8
0
 10
82.2639
 20
76.9084
  0
VERTEX
  8
0
 10
82.2813
 20
76.8846
  0
VERTEX
  8
0
 10
82.3048
 20
76.8675
  0
VERTEX
  8
0
 10
82.3346
 20
76.857
  0
VERTEX
  8
0
 10
82.3705
 20
76.8533
  0
VERTEX
  8
0
 10
82.415
 20
76.8587
  0
VERTEX
  8
0
 10
82.4564
 20
76.876
  0
VERTEX
  8
0
 10
82.4906
 20
76.9037
  0
VERTEX
  8
0
 10
82.5134
 20
76.9399
  0
VERTEX
  8
0
 10
82.5261
 20
76.9895
  0
VERTEX
  8
0
 10
82.5304
 20
77.057
  0
VERTEX
  8
0
 10
82.5304
 20
77.3773
  0
VERTEX
  8
0
 10
82.6304
 20
77.3773
  0
VERTEX
  8
0
 10
82.6304
 20
76.7733
  0
VERTEX
  8
0
 10
82.5384
 20
76.7733
  0
SEQEND
  0
POLYLINE
  8
0
 66
     1
 10
0
 20
0
  0
VERTEX
  8
0
 10
83.1982
 20
76.9702
  0
VERTEX
  8
0
 10
83.3034
 20
76.9573
  0
VERTEX
  8
0
 10
83.2936
 20
76.9266
  0
VERTEX
  8
0
 10
83.2816
 20
76.8986
  0
VERTEX
  8
0
 10
83.2674
 20
76.8733
  0
VERTEX
  8
0
 10
83.251
 20
76.8506
  0
VERTEX
  8
0
 10
83.2324
 20
76.8306
  0
VERTEX
  8
0
 10
83.2115
 20
76.8133
  0
VERTEX
  8
0
 10
83.1885
 20
76.7986
  0
VERTEX
  8
0
 10
83.1632
 20
76.7866
  0
VERTEX
  8
0
 10
83.1357
 20
76.7773
  0
VERTEX
  8
0
 10
83.106
 20
76.7706
  0
VERTEX
  8
0
 10
83.074
 20
76.7666
  0
VERTEX
  8
0
 10
83.0399
 20
76.7653
  0
VERTEX
  8
0
 10
82.9773
 20
76.7703
  0
VERTEX
  8
0
 10
82.9217
 20
76.7854
  0
VERTEX
  8
0
 10
82.873
 20
76.8105
  0
VERTEX
  8
0
 10
82.8311
 20
76.8456
  0
VERTEX
  8
0
 10
82.8035
 20
76.8804
  0
VERTEX
  8
0
 10
82.782
 20
76.9205
  0
VERTEX
  8
0
 10
82.7667
 20
76.9658
  0
VERTEX
  8
0
 10
82.7574
 20
77.0164
  0
VERTEX
  8
0
 10
82.7544
 20
77.0722
  0
VERTEX
  8
0
 10
82.7587
 20
77.1383
  0
VERTEX
  8
0
 10
82.7716
 20
77.1977
  0
VERTEX
  8
0
 10
82.7931
 20
77.2505
  0
VERTEX
  8
0
 10
82.8232
 20
77.2965
  0
VERTEX
  8
0
 10
82.8558
 20
77.3299
  0
VERTEX
  8
0
 10
82.8933
 20
77.3559
  0
VERTEX
  8
0
 10
82.9355
 20
77.3744
  0
VERTEX
  8
0
 10
82.9825
 20
77.3856
  0
VERTEX
  8
0
 10
83.0343
 20
77.3893
  0
VERTEX
  8
0
 10
83.0847
 20
77.3856
  0
VERTEX
  8
0
 10
83.1305
 20
77.3745
  0
VERTEX
  8
0
 10
83.1715
 20
77.3561
  0
VERTEX
  8
0
 10
83.2079
 20
77.3303
  0
VERTEX
  8
0
 10
83.2396
 20
77.2971
  0
VERTEX
  8
0
 10
83.269
 20
77.2515
  0
VERTEX
  8
0
 10
83.29
 20
77.1995
  0
VERTEX
  8
0
 10
83.3026
 20
77.1411
  0
VERTEX
  8
0
 10
83.3068
 20
77.0764
  0
VERTEX
  8
0
 10
83.3066
 20
77.0623
  0
VERTEX
  8
0
 10
83.3062
 20
77.0493
  0
VERTEX
  8
0
 10
82.8584
 20
77.0493
  0
VERTEX
  8
0
 10
82.8726
 20
76.9714
  0
VERTEX
  8
0
 10
82.9064
 20
76.9096
  0
VERTEX
  8
0
 10
82.9431
 20
76.8761
  0
VERTEX
  8
0
 10
82.9876
 20
76.856
  0
VERTEX
  8
0
 10
83.0399
 20
76.8493
  0
VERTEX
  8
0
 10
83.0759
 20
76.8526
  0
VERTEX
  8
0
 10
83.108
 20
76.8627
  0
VERTEX
  8
0
 10
83.1363
 20
76.8795
  0
VERTEX
  8
0
 10
83.1608
 20
76.903
  0
VERTEX
  8
0
 10
83.1814
 20
76.9332
  0
VERTEX
  8
0
 10
83.1982
 20
76.9702
  0
VERTEX
  8
0
 10
83.1982
 20
76.9702
  0
SEQEND
  0
POLYLINE
  8
0
 66
     1
 10
0
 20
0
  0
VERTEX
  8
0
 10
82.8649
 20
77.1333
  0
VERTEX
  8
0
 10
83.1996
 20
77.1333
  0
VERTEX
  8
0
 10
83.1866
 20
77.1994
  0
VERTEX
  8
0
 10
83.1612
 20
77.2466
  0
VERTEX
  8
0
 10
83.1257
 20
77.279
  0
VERTEX
  8
0
 10
83.0837
 20
77.2985
  0
VERTEX
  8
0
 10
83.0354
 20
77.3053
  0
VERTEX
  8
0
 10
82.9682
 20
77.2931
  0
VERTEX
  8
0
 10
82.9146
 20
77.2556
  0
VERTEX
  8
0
 10
82.8799
 20
77.2014
  0
VERTEX
  8
0
 10
82.8649
 20
77.1333
  0
VERTEX
  8
0
 10
82.8649
 20
77.1333
  0
SEQEND
  0
POLYLINE
  8
0
 66
     1
 10
0
 20
0
  0
VERTEX
  8
0
 10
83.4624
 20
77.2613
  0
VERTEX
  8
0
 10
83.4624
 20
77.3773
  0
VERTEX
  8
0
 10
83.5784
 20
77.3773
  0
VERTEX
  8
0
 10
83.5784
 20
77.2613
  0
VERTEX
  8
0
 10
83.4624
 20
77.2613
  0
SEQEND
  0
POLYLINE
  8
0
 66
     1
 10
0
 20
0
  0
VERTEX
  8
0
 10
83.4624
 20
76.7733
  0
VERTEX
  8
0
 10
83.4624
 20
76.8893
  0
VERTEX
  8
0
 10
83.5784
 20
76.8893
  0
VERTEX
  8
0
 10
83.5784
 20
76.775
  0
VERTEX
  8
0
 10
83.5757
 20
76.737
  0
VERTEX
  8
0
 10
83.5678
 20
76.7035
  0
VERTEX
  8
0
 10
83.5545
 20
76.6743
  0
VERTEX
  8
0
 10
83.536
 20
76.6496
  0
VERTEX
  8
0
 10
83.5121
 20
76.6292
  0
VERTEX
  8
0
 10
83.4829
 20
76.6133
  0
VERTEX
  8
0
 10
83.4544
 20
76.6558
  0
VERTEX
  8
0
 10
83.4815
 20
76.6726
  0
VERTEX
  8
0
 10
83.5012
 20
76.6978
  0
VERTEX
  8
0
 10
83.5136
 20
76.7314
  0
VERTEX
  8
0
 10
83.5187
 20
76.7733
  0
VERTEX
  8
0
 10
83.4624
 20
76.7733
  0
SEQEND
  0
POLYLINE
  8
0
 66
     1
 10
0
 20
0
  0
VERTEX
  8
0
 10
62.1504
 20
75.8653
  0
VERTEX
  8
0
 10
62.1504
 20
75.7493
  0
VERTEX
  8
0
 10
62.0424
 20
75.7493
  0
VERTEX
  8
0
 10
62.0424
 20
75.8414
  0
VERTEX
  8
0
 10
62.0469
 20
75.9059
  0
VERTEX
  8
0
 10
62.0604
 20
75.9497
  0
VERTEX
  8
0
 10
62.0911
 20
75.9887
  0
VERTEX
  8
0
 10
62.1355
 20
76.0173
  0
VERTEX
  8
0
 10
62.1603
 20
75.978
  0
VERTEX
  8
0
 10
62.1349
 20
75.9621
  0
VERTEX
  8
0
 10
62.116
 20
75.938
  0
VERTEX
  8
0
 10
62.1038
 20
75.9058
  0
VERTEX
  8
0
 10
62.0983
 20
75.8653
  0
VERTEX
  8
0
 10
62.1504
 20
75.8653
  0
SEQEND
  0
POLYLINE
  8
0
 66
     1
 10
0
 20
0
  0
VERTEX
  8
0
 10
62.3264
 20
75.8653
  0
VERTEX
  8
0
 10
62.3264
 20
75.7493
  0
VERTEX
  8
0
 10
62.2184
 20
75.7493
  0
VERTEX
  8
0
 10
62.2184
 20
75.8414
  0
VERTEX
  8
0
 10
62.2228
 20
75.9059
  0
VERTEX
  8
0
 10
62.2363
 20
75.9497
  0
VERTEX
  8
0
 10
62.2666
 20
75.9887
  0
VERTEX
  8
0
 10
62.3106
 20
76.0173
  0
VERTEX
  8
0
 10
62.3352
 20
75.978
  0
VERTEX
  8
0
 10
62.3097
 20
75.9621
  0
VERTEX
  8
0
 10
62.2909
 20
75.938
  0
VERTEX
  8
0
 10
62.2787
 20
75.9058
  0
VERTEX
  8
0
 10
62.2731
 20
75.8653
  0
VERTEX
  8
0
 10
62.3264
 20
75.8653
  0
SEQEND
  0
POLYLINE
  8
0
 66
     1
 10
0
 20
0
  0
VERTEX
  8
0
 10
62.4784
 20
75.1733
  0
VERTEX
  8
0
 10
62.4784
 20
76.0053
  0
VERTEX
  8
0
 10
63.0764
 20
76.0053
  0
VERTEX
  8
0
 10
63.0764
 20
75.9093
  0
VERTEX
  8
0
 10
62.5864
 20
75.9093
  0
VERTEX
  8
0
 10
62.5864
 20
75.6533
  0
VERTEX
  8
0
 10
63.0454
 20
75.6533
  0
VERTEX
  8
0
 10
63.0454
 20
75.5573
  0
VERTEX
  8
0
 10
62.5864
 20
75.5573
  0
VERTEX
  8
0
 10
62.5864
 20
75.2693
  0
VERTEX
  8
0
 10
63.0956
 20
75.2693
  0
VERTEX
  8
0
 10
63.0956
 20
75.1733
  0
VERTEX
  8
0
 10
62.4784
 20
75.1733
  0
SEQEND
  0
POLYLINE
  8
0
 66
     1
 10
0
 20
0
  0
VERTEX
  8
0
 10
63.2384
 20
75.1733
  0
VERTEX
  8
0
 10
63.2384
 20
76.0053
  0
VERTEX
  8
0
 10
63.4017
 20
76.0053
  0
VERTEX
  8
0
 10
63.6009
 20
75.4195
  0
VERTEX
  8
0
 10
63.6213
 20
75.3535
  0
VERTEX
  8
0
 10
63.6379
 20
75.298
  0
VERTEX
  8
0
 10
63.6544
 20
75.3498
  0
VERTEX
  8
0
 10
63.6814
 20
75.4293
  0
VERTEX
  8
0
 10
63.8804
 20
76.0053
  0
VERTEX
  8
0
 10
64.0264
 20
76.0053
  0
VERTEX
  8
0
 10
64.0264
 20
75.1733
  0
VERTEX
  8
0
 10
63.9224
 20
75.1733
  0
VERTEX
  8
0
 10
63.9224
 20
75.8696
  0
VERTEX
  8
0
 10
63.6819
 20
75.1733
  0
VERTEX
  8
0
 10
63.5831
 20
75.1733
  0
VERTEX
  8
0
 10
63.3424
 20
75.8814
  0
VERTEX
  8
0
 10
63.3424
 20
75.1733
  0
VERTEX
  8
0
 10
63.2384
 20
75.1733
  0
SEQEND
  0
POLYLINE
  8
0
 66
     1
 10
0
 20
0
  0
VERTEX
  8
0
 10
64.2104
 20
75.1733
  0
VERTEX
  8
0
 10
64.2104
 20
76.0053
  0
VERTEX
  8
0
 10
64.8084
 20
76.0053
  0
VERTEX
  8
0
 10
64.8084
 20
75.9093
  0
VERTEX
  8
0
 10
64.3184
 20
75.9093
  0
VERTEX
  8
0
 10
64.3184
 20
75.6533
  0
VERTEX
  8
0
 10
64.7774
 20
75.6533
  0
VERTEX
  8
0
 10
64.7774
 20
75.5573
  0
VERTEX
  8
0
 10
64.3184
 20
75.5573
  0
VERTEX
  8
0
 10
64.3184
 20
75.2693
  0
VERTEX
  8
0
 10
64.8276
 20
75.2693
  0
VERTEX
  8
0
 10
64.8276
 20
75.1733
  0
VERTEX
  8
0
 10
64.2104
 20
75.1733
  0
SEQEND
  0
POLYLINE
  8
0
 66
     1
 10
0
 20
0
  0
VERTEX
  8
0
 10
64.9784
 20
75.1733
  0
VERTEX
  8
0
 10
64.9784
 20
76.0053
  0
VERTEX
  8
0
 10
65.3444
 20
76.0053
  0
VERTEX
  8
0
 10
65.4282
 20
76.0014
  0
VERTEX
  8
0
 10
65.4903
 20
75.99
  0
VERTEX
  8
0
 10
65.5564
 20
75.957
  0
VERTEX
  8
0
 10
65.604
 20
75.9037
  0
VERTEX
  8
0
 10
65.6295
 20
75.8442
  0
VERTEX
  8
0
 10
65.6384
 20
75.7783
  0
VERTEX
  8
0
 10
65.6374
 20
75.7515
  0
VERTEX
  8
0
 10
65.6339
 20
75.7264
  0
VERTEX
  8
0
 10
65.6281
 20
75.7029
  0
VERTEX
  8
0
 10
65.6199
 20
75.681
  0
VERTEX
  8
0
 10
65.6094
 20
75.6608
  0
VERTEX
  8
0
 10
65.5964
 20
75.6421
  0
VERTEX
  8
0
 10
65.581
 20
75.6252
  0
VERTEX
  8
0
 10
65.5633
 20
75.6098
  0
VERTEX
  8
0
 10
65.5432
 20
75.5961
  0
VERTEX
  8
0
 10
65.5206
 20
75.584
  0
VERTEX
  8
0
 10
65.4957
 20
75.5735
  0
VERTEX
  8
0
 10
65.4684
 20
75.5646
  0
VERTEX
  8
0
 10
65.4387
 20
75.5574
  0
VERTEX
  8
0
 10
65.4066
 20
75.5518
  0
VERTEX
  8
0
 10
65.4451
 20
75.531
  0
VERTEX
  8
0
 10
65.4726
 20
75.5104
  0
VERTEX
  8
0
 10
65.5205
 20
75.4592
  0
VERTEX
  8
0
 10
65.5635
 20
75.3997
  0
VERTEX
  8
0
 10
65.7074
 20
75.1733
  0
VERTEX
  8
0
 10
65.5704
 20
75.1733
  0
VERTEX
  8
0
 10
65.4599
 20
75.3491
  0
VERTEX
  8
0
 10
65.4257
 20
75.4017
  0
VERTEX
  8
0
 10
65.3988
 20
75.4404
  0
VERTEX
  8
0
 10
65.3588
 20
75.4893
  0
VERTEX
  8
0
 10
65.3247
 20
75.5192
  0
VERTEX
  8
0
 10
65.2998
 20
75.533
  0
VERTEX
  8
0
 10
65.2749
 20
75.5413
  0
VERTEX
  8
0
 10
65.2508
 20
75.5443
  0
VERTEX
  8
0
 10
65.2138
 20
75.5453
  0
VERTEX
  8
0
 10
65.0864
 20
75.5453
  0
VERTEX
  8
0
 10
65.0864
 20
75.1733
  0
VERTEX
  8
0
 10
64.9784
 20
75.1733
  0
SEQEND
  0
POLYLINE
  8
0
 66
     1
 10
0
 20
0
  0
VERTEX
  8
0
 10
65.0864
 20
75.6413
  0
VERTEX
  8
0
 10
65.3222
 20
75.6413
  0
VERTEX
  8
0
 10
65.3744
 20
75.6438
  0
VERTEX
  8
0
 10
65.4187
 20
75.6516
  0
VERTEX
  8
0
 10
65.4551
 20
75.6645
  0
VERTEX
  8
0
 10
65.4836
 20
75.6825
  0
VERTEX
  8
0
 10
65.5043
 20
75.7058
  0
VERTEX
  8
0
 10
65.5209
 20
75.7414
  0
VERTEX
  8
0
 10
65.5264
 20
75.7798
  0
VERTEX
  8
0
 10
65.5202
 20
75.8228
  0
VERTEX
  8
0
 10
65.5015
 20
75.8578
  0
VERTEX
  8
0
 10
65.4704
 20
75.8846
  0
VERTEX
  8
0
 10
65.4171
 20
75.9061
  0
VERTEX
  8
0
 10
65.3488
 20
75.9133
  0
VERTEX
  8
0
 10
65.0864
 20
75.9133
  0
VERTEX
  8
0
 10
65.0864
 20
75.6413
  0
SEQEND
  0
POLYLINE
  8
0
 66
     1
 10
0
 20
0
  0
VERTEX
  8
0
 10
66.1984
 20
75.5013
  0
VERTEX
  8
0
 10
66.1984
 20
75.5973
  0
VERTEX
  8
0
 10
66.5504
 20
75.5973
  0
VERTEX
  8
0
 10
66.5504
 20
75.2905
  0
VERTEX
  8
0
 10
66.4961
 20
75.251
  0
VERTEX
  8
0
 10
66.4408
 20
75.2187
  0
VERTEX
  8
0
 10
66.3843
 20
75.1936
  0
VERTEX
  8
0
 10
66.3268
 20
75.1756
  0
VERTEX
  8
0
 10
66.2681
 20
75.1649
  0
VERTEX
  8
0
 10
66.2084
 20
75.1613
  0
VERTEX
  8
0
 10
66.0941
 20
75.1734
  0
VERTEX
  8
0
 10
65.9926
 20
75.2098
  0
VERTEX
  8
0
 10
65.9295
 20
75.2506
  0
VERTEX
  8
0
 10
65.8777
 20
75.3022
  0
VERTEX
  8
0
 10
65.8371
 20
75.3645
  0
VERTEX
  8
0
 10
65.7991
 20
75.4686
  0
VERTEX
  8
0
 10
65.7864
 20
75.5853
  0
VERTEX
  8
0
 10
65.7981
 20
75.6995
  0
VERTEX
  8
0
 10
65.8332
 20
75.8038
  0
VERTEX
  8
0
 10
65.8728
 20
75.8711
  0
VERTEX
  8
0
 10
65.9225
 20
75.9253
  0
VERTEX
  8
0
 10
65.9821
 20
75.9665
  0
VERTEX
  8
0
 10
66.0841
 20
76.0046
  0
VERTEX
  8
0
 10
66.2005
 20
76.0173
  0
VERTEX
  8
0
 10
66.2854
 20
76.0099
  0
VERTEX
  8
0
 10
66.363
 20
75.9878
  0
VERTEX
  8
0
 10
66.429
 20
75.9522
  0
VERTEX
  8
0
 10
66.4792
 20
75.9044
  0
VERTEX
  8
0
 10
66.5131
 20
75.8471
  0
VERTEX
  8
0
 10
66.539
 20
75.773
  0
VERTEX
  8
0
 10
66.4401
 20
75.746
  0
VERTEX
  8
0
 10
66.4202
 20
75.8006
  0
VERTEX
  8
0
 10
66.3966
 20
75.841
  0
VERTEX
  8
0
 10
66.3615
 20
75.8763
  0
VERTEX
  8
0
 10
66.315
 20
75.9029
  0
VERTEX
  8
0
 10
66.2603
 20
75.9197
  0
VERTEX
  8
0
 10
66.2006
 20
75.9253
  0
VERTEX
  8
0
 10
66.1311
 20
75.9195
  0
VERTEX
  8
0
 10
66.0707
 20
75.9021
  0
VERTEX
  8
0
 10
66.025
 20
75.878
  0
VERTEX
  8
0
 10
65.9864
 20
75.8463
  0
VERTEX
  8
0
 10
65.9547
 20
75.807
  0
VERTEX
  8
0
 10
65.93
 20
75.7603
  0
VERTEX
  8
0
 10
65.9066
 20
75.6813
  0
VERTEX
  8
0
 10
65.8984
 20
75.5936
  0
VERTEX
  8
0
 10
65.8997
 20
75.5506
  0
VERTEX
  8
0
 10
65.904
 20
75.5107
  0
VERTEX
  8
0
 10
65.9113
 20
75.4736
  0
VERTEX
  8
0
 10
65.9216
 20
75.4396
  0
VERTEX
  8
0
 10
65.935
 20
75.4085
  0
VERTEX
  8
0
 10
65.9514
 20
75.3804
  0
VERTEX
  8
0
 10
65.9708
 20
75.3552
  0
VERTEX
  8
0
 10
65.9932
 20
75.333
  0
VERTEX
  8
0
 10
66.0186
 20
75.3137
  0
VERTEX
  8
0
 10
66.0471
 20
75.2975
  0
VERTEX
  8
0
 10
66.122
 20
75.2706
  0
VERTEX
  8
0
 10
66.2014
 20
75.2613
  0
VERTEX
  8
0
 10
66.2635
 20
75.2668
  0
VERTEX
  8
0
 10
66.3292
 20
75.2844
  0
VERTEX
  8
0
 10
66.3927
 20
75.3122
  0
VERTEX
  8
0
 10
66.4424
 20
75.3471
  0
VERTEX
  8
0
 10
66.4424
 20
75.5013
  0
VERTEX
  8
0
 10
66.1984
 20
75.5013
  0
SEQEND
  0
POLYLINE
  8
0
 66
     1
 10
0
 20
0
  0
VERTEX
  8
0
 10
66.7144
 20
75.1733
  0
VERTEX
  8
0
 10
66.7144
 20
76.0053
  0
VERTEX
  8
0
 10
67.3124
 20
76.0053
  0
VERTEX
  8
0
 10
67.3124
 20
75.9093
  0
VERTEX
  8
0
 10
66.8224
 20
75.9093
  0
VERTEX
  8
0
 10
66.8224
 20
75.6533
  0
VERTEX
  8
0
 10
67.2814
 20
75.6533
  0
VERTEX
  8
0
 10
67.2814
 20
75.5573
  0
VERTEX
  8
0
 10
66.8224
 20
75.5573
  0
VERTEX
  8
0
 10
66.8224
 20
75.2693
  0
VERTEX
  8
0
 10
67.3316
 20
75.2693
  0
VERTEX
  8
0
 10
67.3316
 20
75.1733
  0
VERTEX
  8
0
 10
66.7144
 20
75.1733
  0
SEQEND
  0
POLYLINE
  8
0
 66
     1
 10
0
 20
0
  0
VERTEX
  8
0
 10
67.4824
 20
75.1733
  0
VERTEX
  8
0
 10
67.4824
 20
76.0053
  0
VERTEX
  8
0
 10
67.5947
 20
76.0053
  0
VERTEX
  8
0
 10
68.0304
 20
75.355
  0
VERTEX
  8
0
 10
68.0304
 20
76.0053
  0
VERTEX
  8
0
 10
68.1344
 20
76.0053
  0
VERTEX
  8
0
 10
68.1344
 20
75.1733
  0
VERTEX
  8
0
 10
68.0269
 20
75.1733
  0
VERTEX
  8
0
 10
67.5864
 20
75.8308
  0
VERTEX
  8
0
 10
67.5864
 20
75.1733
  0
VERTEX
  8
0
 10
67.4824
 20
75.1733
  0
SEQEND
  0
POLYLINE
  8
0
 66
     1
 10
0
 20
0
  0
VERTEX
  8
0
 10
68.9079
 20
75.4673
  0
VERTEX
  8
0
 10
69.0176
 20
75.4395
  0
VERTEX
  8
0
 10
68.9978
 20
75.3773
  0
VERTEX
  8
0
 10
68.9711
 20
75.3227
  0
VERTEX
  8
0
 10
68.9377
 20
75.2754
  0
VERTEX
  8
0
 10
68.8974
 20
75.2356
  0
VERTEX
  8
0
 10
68.8501
 20
75.2031
  0
VERTEX
  8
0
 10
68.7973
 20
75.1799
  0
VERTEX
  8
0
 10
68.7389
 20
75.1659
  0
VERTEX
  8
0
 10
68.6751
 20
75.1613
  0
VERTEX
  8
0
 10
68.6369
 20
75.1625
  0
VERTEX
  8
0
 10
68.6005
 20
75.1663
  0
VERTEX
  8
0
 10
68.5662
 20
75.1726
  0
VERTEX
  8
0
 10
68.5338
 20
75.1814
  0
VERTEX
  8
0
 10
68.5033
 20
75.1927
  0
VERTEX
  8
0
 10
68.4748
 20
75.2065
  0
VERTEX
  8
0
 10
68.4482
 20
75.2228
  0
VERTEX
  8
0
 10
68.4236
 20
75.2417
  0
VERTEX
  8
0
 10
68.401
 20
75.263
  0
VERTEX
  8
0
 10
68.3802
 20
75.2869
  0
VERTEX
  8
0
 10
68.3615
 20
75.3133
  0
VERTEX
  8
0
 10
68.3447
 20
75.3422
  0
VERTEX
  8
0
 10
68.3298
 20
75.3736
  0
VERTEX
  8
0
 10
68.2972
 20
75.4799
  0
VERTEX
  8
0
 10
68.2864
 20
75.5955
  0
VERTEX
  8
0
 10
68.2877
 20
75.6389
  0
VERTEX
  8
0
 10
68.2916
 20
75.6801
  0
VERTEX
  8
0
 10
68.2982
 20
75.7191
  0
VERTEX
  8
0
 10
68.3074
 20
75.7557
  0
VERTEX
  8
0
 10
68.3193
 20
75.7901
  0
VERTEX
  8
0
 10
68.3338
 20
75.8222
  0
VERTEX
  8
0
 10
68.3509
 20
75.852
  0
VERTEX
  8
0
 10
68.3706
 20
75.8796
  0
VERTEX
  8
0
 10
68.393
 20
75.9048
  0
VERTEX
  8
0
 10
68.418
 20
75.9278
  0
VERTEX
  8
0
 10
68.4457
 20
75.9486
  0
VERTEX
  8
0
 10
68.4759
 20
75.967
  0
VERTEX
  8
0
 10
68.5719
 20
76.0047
  0
VERTEX
  8
0
 10
68.6768
 20
76.0173
  0
VERTEX
  8
0
 10
68.7546
 20
76.0104
  0
VERTEX
  8
0
 10
68.8238
 20
75.9898
  0
VERTEX
  8
0
 10
68.8844
 20
75.9555
  0
VERTEX
  8
0
 10
68.9353
 20
75.9082
  0
VERTEX
  8
0
 10
68.975
 20
75.8489
  0
VERTEX
  8
0
 10
69.0035
 20
75.7775
  0
VERTEX
  8
0
 10
68.8956
 20
75.7522
  0
VERTEX
  8
0
 10
68.8834
 20
75.785
  0
VERTEX
  8
0
 10
68.869
 20
75.8143
  0
VERTEX
  8
0
 10
68.8524
 20
75.8402
  0
VERTEX
  8
0
 10
68.8336
 20
75.8627
  0
VERTEX
  8
0
 10
68.8125
 20
75.8817
  0
VERTEX
  8
0
 10
68.7893
 20
75.8973
  0
VERTEX
  8
0
 10
68.7638
 20
75.9095
  0
VERTEX
  8
0
 10
68.7361
 20
75.9182
  0
VERTEX
  8
0
 10
68.7062
 20
75.9234
  0
VERTEX
  8
0
 10
68.6741
 20
75.9253
  0
VERTEX
  8
0
 10
68.5906
 20
75.915
  0
VERTEX
  8
0
 10
68.5199
 20
75.8833
  0
VERTEX
  8
0
 10
68.4621
 20
75.8292
  0
VERTEX
  8
0
 10
68.4244
 20
75.7556
  0
VERTEX
  8
0
 10
68.4052
 20
75.6774
  0
VERTEX
  8
0
 10
68.3984
 20
75.5961
  0
VERTEX
  8
0
 10
68.3997
 20
75.5476
  0
VERTEX
  8
0
 10
68.4042
 20
75.5028
  0
VERTEX
  8
0
 10
68.4119
 20
75.4617
  0
VERTEX
  8
0
 10
68.4228
 20
75.4243
  0
VERTEX
  8
0
 10
68.4369
 20
75.3905
  0
VERTEX
  8
0
 10
68.4541
 20
75.3605
  0
VERTEX
  8
0
 10
68.4746
 20
75.3341
  0
VERTEX
  8
0
 10
68.4982
 20
75.3114
  0
VERTEX
  8
0
 10
68.5249
 20
75.2925
  0
VERTEX
  8
0
 10
68.5923
 20
75.2631
  0
VERTEX
  8
0
 10
68.6656
 20
75.2533
  0
VERTEX
  8
0
 10
68.695
 20
75.2545
  0
VERTEX
  8
0
 10
68.7225
 20
75.2583
  0
VERTEX
  8
0
 10
68.7483
 20
75.2647
  0
VERTEX
  8
0
 10
68.7723
 20
75.2735
  0
VERTEX
  8
0
 10
68.7945
 20
75.2849
  0
VERTEX
  8
0
 10
68.8149
 20
75.2988
  0
VERTEX
  8
0
 10
68.8336
 20
75.3153
  0
VERTEX
  8
0
 10
68.8504
 20
75.3343
  0
VERTEX
  8
0
 10
68.8655
 20
75.3558
  0
VERTEX
  8
0
 10
68.8788
 20
75.3799
  0
VERTEX
  8
0
 10
68.8903
 20
75.4065
  0
VERTEX
  8
0
 10
68.9
 20
75.4356
  0
VERTEX
  8
0
 10
68.9079
 20
75.4673
  0
VERTEX
  8
0
 10
68.9079
 20
75.4673
  0
SEQEND
  0
POLYLINE
  8
0
 66
     1
 10
0
 20
0
  0
VERTEX
  8
0
 10
69.3864
 20
75.1733
  0
VERTEX
  8
0
 10
69.3864
 20
75.5257
  0
VERTEX
  8
0
 10
69.0664
 20
76.0053
  0
VERTEX
  8
0
 10
69.2013
 20
76.0053
  0
VERTEX
  8
0
 10
69.3636
 20
75.7557
  0
VERTEX
  8
0
 10
69.4046
 20
75.6896
  0
VERTEX
  8
0
 10
69.4475
 20
75.6151
  0
VERTEX
  8
0
 10
69.4917
 20
75.6893
  0
VERTEX
  8
0
 10
69.5376
 20
75.7615
  0
VERTEX
  8
0
 10
69.6974
 20
76.0053
  0
VERTEX
  8
0
 10
69.8247
 20
76.0053
  0
VERTEX
  8
0
 10
69.4944
 20
75.5257
  0
VERTEX
  8
0
 10
69.4944
 20
75.1733
  0
VERTEX
  8
0
 10
69.3864
 20
75.1733
  0
SEQEND
  0
POLYLINE
  8
0
 66
     1
 10
0
 20
0
  0
VERTEX
  8
0
 10
69.8864
 20
75.8973
  0
VERTEX
  8
0
 10
69.8864
 20
76.0133
  0
VERTEX
  8
0
 10
69.9944
 20
76.0133
  0
VERTEX
  8
0
 10
69.9944
 20
75.9198
  0
VERTEX
  8
0
 10
69.9901
 20
75.8545
  0
VERTEX
  8
0
 10
69.9772
 20
75.8104
  0
VERTEX
  8
0
 10
69.9469
 20
75.7705
  0
VERTEX
  8
0
 10
69.9028
 20
75.7413
  0
VERTEX
  8
0
 10
69.8784
 20
75.7821
  0
VERTEX
  8
0
 10
69.9043
 20
75.7982
  0
VERTEX
  8
0
 10
69.9232
 20
75.8227
  0
VERTEX
  8
0
 10
69.9353
 20
75.8558
  0
VERTEX
  8
0
 10
69.9404
 20
75.8973
  0
VERTEX
  8
0
 10
69.8864
 20
75.8973
  0
SEQEND
  0
POLYLINE
  8
0
 66
     1
 10
0
 20
0
  0
VERTEX
  8
0
 10
70.0624
 20
75.8973
  0
VERTEX
  8
0
 10
70.0624
 20
76.0133
  0
VERTEX
  8
0
 10
70.1704
 20
76.0133
  0
VERTEX
  8
0
 10
70.1704
 20
75.9198
  0
VERTEX
  8
0
 10
70.166
 20
75.8545
  0
VERTEX
  8
0
 10
70.153
 20
75.8104
  0
VERTEX
  8
0
 10
70.1225
 20
75.7705
  0
VERTEX
  8
0
 10
70.0779
 20
75.7413
  0
VERTEX
  8
0
 10
70.0533
 20
75.7821
  0
VERTEX
  8
0
 10
70.0791
 20
75.7982
  0
VERTEX
  8
0
 10
70.0981
 20
75.8227
  0
VERTEX
  8
0
 10
70.1102
 20
75.8558
  0
VERTEX
  8
0
 10
70.1153
 20
75.8973
  0
VERTEX
  8
0
 10
70.0624
 20
75.8973
  0
SEQEND
  0
POLYLINE
  8
0
 66
     1
 10
0
 20
0
  0
VERTEX
  8
0
 10
71.4359
 20
75.4673
  0
VERTEX
  8
0
 10
71.5456
 20
75.4395
  0
VERTEX
  8
0
 10
71.5258
 20
75.3773
  0
VERTEX
  8
0
 10
71.4991
 20
75.3227
  0
VERTEX
  8
0
 10
71.4657
 20
75.2754
  0
VERTEX
  8
0
 10
71.4254
 20
75.2356
  0
VERTEX
  8
0
 10
71.3781
 20
75.2031
  0
VERTEX
  8
0
 10
71.3253
 20
75.1799
  0
VERTEX
  8
0
 10
71.2669
 20
75.1659
  0
VERTEX
  8
0
 10
71.2031
 20
75.1613
  0
VERTEX
  8
0
 10
71.1649
 20
75.1625
  0
VERTEX
  8
0
 10
71.1285
 20
75.1663
  0
VERTEX
  8
0
 10
71.0942
 20
75.1726
  0
VERTEX
  8
0
 10
71.0618
 20
75.1814
  0
VERTEX
  8
0
 10
71.0313
 20
75.1927
  0
VERTEX
  8
0
 10
71.0028
 20
75.2065
  0
VERTEX
  8
0
 10
70.9762
 20
75.2228
  0
VERTEX
  8
0
 10
70.9516
 20
75.2417
  0
VERTEX
  8
0
 10
70.929
 20
75.263
  0
VERTEX
  8
0
 10
70.9082
 20
75.2869
  0
VERTEX
  8
0
 10
70.8895
 20
75.3133
  0
VERTEX
  8
0
 10
70.8727
 20
75.3422
  0
VERTEX
  8
0
 10
70.8578
 20
75.3736
  0
VERTEX
  8
0
 10
70.8252
 20
75.4799
  0
VERTEX
  8
0
 10
70.8144
 20
75.5955
  0
VERTEX
  8
0
 10
70.8157
 20
75.6389
  0
VERTEX
  8
0
 10
70.8196
 20
75.6801
  0
VERTEX
  8
0
 10
70.8262
 20
75.7191
  0
VERTEX
  8
0
 10
70.8354
 20
75.7557
  0
VERTEX
  8
0
 10
70.8473
 20
75.7901
  0
VERTEX
  8
0
 10
70.8618
 20
75.8222
  0
VERTEX
  8
0
 10
70.8789
 20
75.852
  0
VERTEX
  8
0
 10
70.8986
 20
75.8796
  0
VERTEX
  8
0
 10
70.921
 20
75.9048
  0
VERTEX
  8
0
 10
70.946
 20
75.9278
  0
VERTEX
  8
0
 10
70.9737
 20
75.9486
  0
VERTEX
  8
0
 10
71.0039
 20
75.967
  0
VERTEX
  8
0
 10
71.0999
 20
76.0047
  0
VERTEX
  8
0
 10
71.2048
 20
76.0173
  0
VERTEX
  8
0
 10
71.2826
 20
76.0104
  0
VERTEX
  8
0
 10
71.3518
 20
75.9898
  0
VERTEX
  8
0
 10
71.4124
 20
75.9555
  0
VERTEX
  8
0
 10
71.4633
 20
75.9082
  0
VERTEX
  8
0
 10
71.503
 20
75.8489
  0
VERTEX
  8
0
 10
71.5315
 20
75.7775
  0
VERTEX
  8
0
 10
71.4236
 20
75.7522
  0
VERTEX
  8
0
 10
71.4114
 20
75.785
  0
VERTEX
  8
0
 10
71.397
 20
75.8143
  0
VERTEX
  8
0
 10
71.3804
 20
75.8402
  0
VERTEX
  8
0
 10
71.3616
 20
75.8627
  0
VERTEX
  8
0
 10
71.3405
 20
75.8817
  0
VERTEX
  8
0
 10
71.3173
 20
75.8973
  0
VERTEX
  8
0
 10
71.2918
 20
75.9095
  0
VERTEX
  8
0
 10
71.2641
 20
75.9182
  0
VERTEX
  8
0
 10
71.2342
 20
75.9234
  0
VERTEX
  8
0
 10
71.2021
 20
75.9253
  0
VERTEX
  8
0
 10
71.1186
 20
75.915
  0
VERTEX
  8
0
 10
71.0479
 20
75.8833
  0
VERTEX
  8
0
 10
70.9901
 20
75.8292
  0
VERTEX
  8
0
 10
70.9524
 20
75.7556
  0
VERTEX
  8
0
 10
70.9332
 20
75.6774
  0
VERTEX
  8
0
 10
70.9264
 20
75.5961
  0
VERTEX
  8
0
 10
70.9277
 20
75.5476
  0
VERTEX
  8
0
 10
70.9322
 20
75.5028
  0
VERTEX
  8
0
 10
70.9399
 20
75.4617
  0
VERTEX
  8
0
 10
70.9508
 20
75.4243
  0
VERTEX
  8
0
 10
70.9649
 20
75.3905
  0
VERTEX
  8
0
 10
70.9821
 20
75.3605
  0
VERTEX
  8
0
 10
71.0026
 20
75.3341
  0
VERTEX
  8
0
 10
71.0262
 20
75.3114
  0
VERTEX
  8
0
 10
71.0529
 20
75.2925
  0
VERTEX
  8
0
 10
71.1203
 20
75.2631
  0
VERTEX
  8
0
 10
71.1936
 20
75.2533
  0
VERTEX
  8
0
 10
71.223
 20
75.2545
  0
VERTEX
  8
0
 10
71.2505
 20
75.2583
  0
VERTEX
  8
0
 10
71.2763
 20
75.2647
  0
VERTEX
  8
0
 10
71.3003
 20
75.2735
  0
VERTEX
  8
0
 10
71.3225
 20
75.2849
  0
VERTEX
  8
0
 10
71.3429
 20
75.2988
  0
VERTEX
  8
0
 10
71.3616
 20
75.3153
  0
VERTEX
  8
0
 10
71.3784
 20
75.3343
  0
VERTEX
  8
0
 10
71.3935
 20
75.3558
  0
VERTEX
  8
0
 10
71.4068
 20
75.3799
  0
VERTEX
  8
0
 10
71.4183
 20
75.4065
  0
VERTEX
  8
0
 10
71.428
 20
75.4356
  0
VERTEX
  8
0
 10
71.4359
 20
75.4673
  0
VERTEX
  8
0
 10
71.4359
 20
75.4673
  0
SEQEND
  0
POLYLINE
  8
0
 66
     1
 10
0
 20
0
  0
VERTEX
  8
0
 10
71.6944
 20
75.6613
  0
VERTEX
  8
0
 10
71.6944
 20
75.7773
  0
VERTEX
  8
0
 10
71.8104
 20
75.7773
  0
VERTEX
  8
0
 10
71.8104
 20
75.6613
  0
VERTEX
  8
0
 10
71.6944
 20
75.6613
  0
SEQEND
  0
POLYLINE
  8
0
 66
     1
 10
0
 20
0
  0
VERTEX
  8
0
 10
71.6944
 20
75.1733
  0
VERTEX
  8
0
 10
71.6944
 20
75.2893
  0
VERTEX
  8
0
 10
71.8104
 20
75.2893
  0
VERTEX
  8
0
 10
71.8104
 20
75.175
  0
VERTEX
  8
0
 10
71.8077
 20
75.137
  0
VERTEX
  8
0
 10
71.7998
 20
75.1035
  0
VERTEX
  8
0
 10
71.7865
 20
75.0743
  0
VERTEX
  8
0
 10
71.768
 20
75.0496
  0
VERTEX
  8
0
 10
71.7441
 20
75.0292
  0
VERTEX
  8
0
 10
71.7149
 20
75.0133
  0
VERTEX
  8
0
 10
71.6864
 20
75.0558
  0
VERTEX
  8
0
 10
71.7135
 20
75.0726
  0
VERTEX
  8
0
 10
71.7332
 20
75.0978
  0
VERTEX
  8
0
 10
71.7456
 20
75.1314
  0
VERTEX
  8
0
 10
71.7507
 20
75.1733
  0
VERTEX
  8
0
 10
71.6944
 20
75.1733
  0
SEQEND
  0
POLYLINE
  8
0
 66
     1
 10
0
 20
0
  0
VERTEX
  8
0
 10
72.5984
 20
75.8653
  0
VERTEX
  8
0
 10
72.5984
 20
75.7493
  0
VERTEX
  8
0
 10
72.4904
 20
75.7493
  0
VERTEX
  8
0
 10
72.4904
 20
75.8414
  0
VERTEX
  8
0
 10
72.4949
 20
75.9059
  0
VERTEX
  8
0
 10
72.5084
 20
75.9497
  0
VERTEX
  8
0
 10
72.5391
 20
75.9887
  0
VERTEX
  8
0
 10
72.5835
 20
76.0173
  0
VERTEX
  8
0
 10
72.6083
 20
75.978
  0
VERTEX
  8
0
 10
72.5829
 20
75.9621
  0
VERTEX
  8
0
 10
72.564
 20
75.938
  0
VERTEX
  8
0
 10
72.5518
 20
75.9058
  0
VERTEX
  8
0
 10
72.5463
 20
75.8653
  0
VERTEX
  8
0
 10
72.5984
 20
75.8653
  0
SEQEND
  0
POLYLINE
  8
0
 66
     1
 10
0
 20
0
  0
VERTEX
  8
0
 10
72.7744
 20
75.8653
  0
VERTEX
  8
0
 10
72.7744
 20
75.7493
  0
VERTEX
  8
0
 10
72.6664
 20
75.7493
  0
VERTEX
  8
0
 10
72.6664
 20
75.8414
  0
VERTEX
  8
0
 10
72.6708
 20
75.9059
  0
VERTEX
  8
0
 10
72.6843
 20
75.9497
  0
VERTEX
  8
0
 10
72.7146
 20
75.9887
  0
VERTEX
  8
0
 10
72.7586
 20
76.0173
  0
VERTEX
  8
0
 10
72.7832
 20
75.978
  0
VERTEX
  8
0
 10
72.7577
 20
75.9621
  0
VERTEX
  8
0
 10
72.7389
 20
75.938
  0
VERTEX
  8
0
 10
72.7267
 20
75.9058
  0
VERTEX
  8
0
 10
72.7211
 20
75.8653
  0
VERTEX
  8
0
 10
72.7744
 20
75.8653
  0
SEQEND
  0
POLYLINE
  8
0
 66
     1
 10
0
 20
0
  0
VERTEX
  8
0
 10
72.9344
 20
75.1733
  0
VERTEX
  8
0
 10
72.9344
 20
76.0053
  0
VERTEX
  8
0
 10
73.0424
 20
76.0053
  0
VERTEX
  8
0
 10
73.0424
 20
75.1733
  0
VERTEX
  8
0
 10
72.9344
 20
75.1733
  0
SEQEND
  0
POLYLINE
  8
0
 66
     1
 10
0
 20
0
  0
VERTEX
  8
0
 10
73.2424
 20
75.1733
  0
VERTEX
  8
0
 10
73.2424
 20
76.0053
  0
VERTEX
  8
0
 10
73.3547
 20
76.0053
  0
VERTEX
  8
0
 10
73.7904
 20
75.355
  0
VERTEX
  8
0
 10
73.7904
 20
76.0053
  0
VERTEX
  8
0
 10
73.8944
 20
76.0053
  0
VERTEX
  8
0
 10
73.8944
 20
75.1733
  0
VERTEX
  8
0
 10
73.7869
 20
75.1733
  0
VERTEX
  8
0
 10
73.3464
 20
75.8308
  0
VERTEX
  8
0
 10
73.3464
 20
75.1733
  0
VERTEX
  8
0
 10
73.2424
 20
75.1733
  0
SEQEND
  0
POLYLINE
  8
0
 66
     1
 10
0
 20
0
  0
VERTEX
  8
0
 10
74.0784
 20
75.1733
  0
VERTEX
  8
0
 10
74.0784
 20
76.0053
  0
VERTEX
  8
0
 10
74.6364
 20
76.0053
  0
VERTEX
  8
0
 10
74.6364
 20
75.9093
  0
VERTEX
  8
0
 10
74.1864
 20
75.9093
  0
VERTEX
  8
0
 10
74.1864
 20
75.6493
  0
VERTEX
  8
0
 10
74.576
 20
75.6493
  0
VERTEX
  8
0
 10
74.576
 20
75.5533
  0
VERTEX
  8
0
 10
74.1864
 20
75.5533
  0
VERTEX
  8
0
 10
74.1864
 20
75.1733
  0
VERTEX
  8
0
 10
74.0784
 20
75.1733
  0
SEQEND
  0
POLYLINE
  8
0
 66
     1
 10
0
 20
0
  0
VERTEX
  8
0
 10
74.7504
 20
75.5783
  0
VERTEX
  8
0
 10
74.7532
 20
75.6402
  0
VERTEX
  8
0
 10
74.7616
 20
75.6982
  0
VERTEX
  8
0
 10
74.7755
 20
75.7521
  0
VERTEX
  8
0
 10
74.7951
 20
75.802
  0
VERTEX
  8
0
 10
74.8202
 20
75.8479
  0
VERTEX
  8
0
 10
74.8509
 20
75.8898
  0
VERTEX
  8
0
 10
74.8833
 20
75.9236
  0
VERTEX
  8
0
 10
74.9189
 20
75.9522
  0
VERTEX
  8
0
 10
74.9579
 20
75.9756
  0
VERTEX
  8
0
 10
75.0002
 20
75.9938
  0
VERTEX
  8
0
 10
75.0458
 20
76.0069
  0
VERTEX
  8
0
 10
75.0947
 20
76.0147
  0
VERTEX
  8
0
 10
75.1469
 20
76.0173
  0
VERTEX
  8
0
 10
75.2548
 20
76.004
  0
VERTEX
  8
0
 10
75.3514
 20
75.9642
  0
VERTEX
  8
0
 10
75.4084
 20
75.9227
  0
VERTEX
  8
0
 10
75.4559
 20
75.8712
  0
VERTEX
  8
0
 10
75.4938
 20
75.8096
  0
VERTEX
  8
0
 10
75.53
 20
75.7057
  0
VERTEX
  8
0
 10
75.5424
 20
75.5878
  0
VERTEX
  8
0
 10
75.5308
 20
75.4737
  0
VERTEX
  8
0
 10
75.4961
 20
75.3718
  0
VERTEX
  8
0
 10
75.4569
 20
75.3069
  0
VERTEX
  8
0
 10
75.4074
 20
75.2536
  0
VERTEX
  8
0
 10
75.3475
 20
75.2121
  0
VERTEX
  8
0
 10
75.2509
 20
75.174
  0
VERTEX
  8
0
 10
75.1464
 20
75.1613
  0
VERTEX
  8
0
 10
75.0379
 20
75.1748
  0
VERTEX
  8
0
 10
74.9408
 20
75.2155
  0
VERTEX
  8
0
 10
74.8832
 20
75.2574
  0
VERTEX
  8
0
 10
74.8356
 20
75.3095
  0
VERTEX
  8
0
 10
74.7978
 20
75.3718
  0
VERTEX
  8
0
 10
74.7622
 20
75.4719
  0
VERTEX
  8
0
 10
74.7504
 20
75.5783
  0
VERTEX
  8
0
 10
74.7504
 20
75.5783
  0
SEQEND
  0
POLYLINE
  8
0
 66
     1
 10
0
 20
0
  0
VERTEX
  8
0
 10
74.8624
 20
75.5748
  0
VERTEX
  8
0
 10
74.8668
 20
75.5091
  0
VERTEX
  8
0
 10
74.8802
 20
75.4496
  0
VERTEX
  8
0
 10
74.9026
 20
75.3963
  0
VERTEX
  8
0
 10
74.9338
 20
75.3492
  0
VERTEX
  8
0
 10
74.9671
 20
75.3147
  0
VERTEX
  8
0
 10
75.005
 20
75.2878
  0
VERTEX
  8
0
 10
75.0474
 20
75.2686
  0
VERTEX
  8
0
 10
75.0943
 20
75.2571
  0
VERTEX
  8
0
 10
75.1458
 20
75.2533
  0
VERTEX
  8
0
 10
75.2051
 20
75.2587
  0
VERTEX
  8
0
 10
75.2589
 20
75.275
  0
VERTEX
  8
0
 10
75.3071
 20
75.3021
  0
VERTEX
  8
0
 10
75.3499
 20
75.3401
  0
VERTEX
  8
0
 10
75.3787
 20
75.3778
  0
VERTEX
  8
0
 10
75.4011
 20
75.4213
  0
VERTEX
  8
0
 10
75.4172
 20
75.4706
  0
VERTEX
  8
0
 10
75.427
 20
75.5257
  0
VERTEX
  8
0
 10
75.4304
 20
75.5867
  0
VERTEX
  8
0
 10
75.4287
 20
75.6314
  0
VERTEX
  8
0
 10
75.4237
 20
75.6731
  0
VERTEX
  8
0
 10
75.4154
 20
75.7118
  0
VERTEX
  8
0
 10
75.4037
 20
75.7473
  0
VERTEX
  8
0
 10
75.3887
 20
75.7799
  0
VERTEX
  8
0
 10
75.3704
 20
75.8094
  0
VERTEX
  8
0
 10
75.3488
 20
75.8358
  0
VERTEX
  8
0
 10
75.3238
 20
75.8592
  0
VERTEX
  8
0
 10
75.2954
 20
75.8795
  0
VERTEX
  8
0
 10
75.2256
 20
75.9105
  0
VERTEX
  8
0
 10
75.1475
 20
75.9213
  0
VERTEX
  8
0
 10
75.1008
 20
75.9185
  0
VERTEX
  8
0
 10
75.058
 20
75.91
  0
VERTEX
  8
0
 10
75.0193
 20
75.8956
  0
VERTEX
  8
0
 10
74.9845
 20
75.8754
  0
VERTEX
  8
0
 10
74.9538
 20
75.8493
  0
VERTEX
  8
0
 10
74.927
 20
75.8175
  0
VERTEX
  8
0
 10
74.8987
 20
75.7682
  0
VERTEX
  8
0
 10
74.8785
 20
75.7114
  0
VERTEX
  8
0
 10
74.8664
 20
75.6469
  0
VERTEX
  8
0
 10
74.8624
 20
75.5748
  0
VERTEX
  8
0
 10
74.8624
 20
75.5748
  0
SEQEND
  0
POLYLINE
  8
0
 66
     1
 10
0
 20
0
  0
VERTEX
  8
0
 10
75.6464
 20
75.8973
  0
VERTEX
  8
0
 10
75.6464
 20
76.0133
  0
VERTEX
  8
0
 10
75.7544
 20
76.0133
  0
VERTEX
  8
0
 10
75.7544
 20
75.9198
  0
VERTEX
  8
0
 10
75.7501
 20
75.8545
  0
VERTEX
  8
0
 10
75.7372
 20
75.8104
  0
VERTEX
  8
0
 10
75.7069
 20
75.7705
  0
VERTEX
  8
0
 10
75.6628
 20
75.7413
  0
VERTEX
  8
0
 10
75.6384
 20
75.7821
  0
VERTEX
  8
0
 10
75.6643
 20
75.7982
  0
VERTEX
  8
0
 10
75.6832
 20
75.8227
  0
VERTEX
  8
0
 10
75.6953
 20
75.8558
  0
VERTEX
  8
0
 10
75.7004
 20
75.8973
  0
VERTEX
  8
0
 10
75.6464
 20
75.8973
  0
SEQEND
  0
POLYLINE
  8
0
 66
     1
 10
0
 20
0
  0
VERTEX
  8
0
 10
75.8224
 20
75.8973
  0
VERTEX
  8
0
 10
75.8224
 20
76.0133
  0
VERTEX
  8
0
 10
75.9304
 20
76.0133
  0
VERTEX
  8
0
 10
75.9304
 20
75.9198
  0
VERTEX
  8
0
 10
75.926
 20
75.8545
  0
VERTEX
  8
0
 10
75.913
 20
75.8104
  0
VERTEX
  8
0
 10
75.8825
 20
75.7705
  0
VERTEX
  8
0
 10
75.8379
 20
75.7413
  0
VERTEX
  8
0
 10
75.8133
 20
75.7821
  0
VERTEX
  8
0
 10
75.8391
 20
75.7982
  0
VERTEX
  8
0
 10
75.8581
 20
75.8227
  0
VERTEX
  8
0
 10
75.8702
 20
75.8558
  0
VERTEX
  8
0
 10
75.8753
 20
75.8973
  0
VERTEX
  8
0
 10
75.8224
 20
75.8973
  0
SEQEND
  0
POLYLINE
  8
0
 66
     1
 10
0
 20
0
  0
VERTEX
  8
0
 10
77.1959
 20
75.4673
  0
VERTEX
  8
0
 10
77.3056
 20
75.4395
  0
VERTEX
  8
0
 10
77.2858
 20
75.3773
  0
VERTEX
  8
0
 10
77.2591
 20
75.3227
  0
VERTEX
  8
0
 10
77.2257
 20
75.2754
  0
VERTEX
  8
0
 10
77.1854
 20
75.2356
  0
VERTEX
  8
0
 10
77.1381
 20
75.2031
  0
VERTEX
  8
0
 10
77.0853
 20
75.1799
  0
VERTEX
  8
0
 10
77.0269
 20
75.1659
  0
VERTEX
  8
0
 10
76.9631
 20
75.1613
  0
VERTEX
  8
0
 10
76.9249
 20
75.1625
  0
VERTEX
  8
0
 10
76.8885
 20
75.1663
  0
VERTEX
  8
0
 10
76.8542
 20
75.1726
  0
VERTEX
  8
0
 10
76.8218
 20
75.1814
  0
VERTEX
  8
0
 10
76.7913
 20
75.1927
  0
VERTEX
  8
0
 10
76.7628
 20
75.2065
  0
VERTEX
  8
0
 10
76.7362
 20
75.2228
  0
VERTEX
  8
0
 10
76.7116
 20
75.2417
  0
VERTEX
  8
0
 10
76.689
 20
75.263
  0
VERTEX
  8
0
 10
76.6682
 20
75.2869
  0
VERTEX
  8
0
 10
76.6495
 20
75.3133
  0
VERTEX
  8
0
 10
76.6327
 20
75.3422
  0
VERTEX
  8
0
 10
76.6178
 20
75.3736
  0
VERTEX
  8
0
 10
76.5852
 20
75.4799
  0
VERTEX
  8
0
 10
76.5744
 20
75.5955
  0
VERTEX
  8
0
 10
76.5757
 20
75.6389
  0
VERTEX
  8
0
 10
76.5796
 20
75.6801
  0
VERTEX
  8
0
 10
76.5862
 20
75.7191
  0
VERTEX
  8
0
 10
76.5954
 20
75.7557
  0
VERTEX
  8
0
 10
76.6073
 20
75.7901
  0
VERTEX
  8
0
 10
76.6218
 20
75.8222
  0
VERTEX
  8
0
 10
76.6389
 20
75.852
  0
VERTEX
  8
0
 10
76.6586
 20
75.8796
  0
VERTEX
  8
0
 10
76.681
 20
75.9048
  0
VERTEX
  8
0
 10
76.706
 20
75.9278
  0
VERTEX
  8
0
 10
76.7337
 20
75.9486
  0
VERTEX
  8
0
 10
76.7639
 20
75.967
  0
VERTEX
  8
0
 10
76.8599
 20
76.0047
  0
VERTEX
  8
0
 10
76.9648
 20
76.0173
  0
VERTEX
  8
0
 10
77.0426
 20
76.0104
  0
VERTEX
  8
0
 10
77.1118
 20
75.9898
  0
VERTEX
  8
0
 10
77.1724
 20
75.9555
  0
VERTEX
  8
0
 10
77.2233
 20
75.9082
  0
VERTEX
  8
0
 10
77.263
 20
75.8489
  0
VERTEX
  8
0
 10
77.2915
 20
75.7775
  0
VERTEX
  8
0
 10
77.1836
 20
75.7522
  0
VERTEX
  8
0
 10
77.1714
 20
75.785
  0
VERTEX
  8
0
 10
77.157
 20
75.8143
  0
VERTEX
  8
0
 10
77.1404
 20
75.8402
  0
VERTEX
  8
0
 10
77.1216
 20
75.8627
  0
VERTEX
  8
0
 10
77.1005
 20
75.8817
  0
VERTEX
  8
0
 10
77.0773
 20
75.8973
  0
VERTEX
  8
0
 10
77.0518
 20
75.9095
  0
VERTEX
  8
0
 10
77.0241
 20
75.9182
  0
VERTEX
  8
0
 10
76.9942
 20
75.9234
  0
VERTEX
  8
0
 10
76.9621
 20
75.9253
  0
VERTEX
  8
0
 10
76.8786
 20
75.915
  0
VERTEX
  8
0
 10
76.8079
 20
75.8833
  0
VERTEX
  8
0
 10
76.7501
 20
75.8292
  0
VERTEX
  8
0
 10
76.7124
 20
75.7556
  0
VERTEX
  8
0
 10
76.6932
 20
75.6774
  0
VERTEX
  8
0
 10
76.6864
 20
75.5961
  0
VERTEX
  8
0
 10
76.6877
 20
75.5476
  0
VERTEX
  8
0
 10
76.6922
 20
75.5028
  0
VERTEX
  8
0
 10
76.6999
 20
75.4617
  0
VERTEX
  8
0
 10
76.7108
 20
75.4243
  0
VERTEX
  8
0
 10
76.7249
 20
75.3905
  0
VERTEX
  8
0
 10
76.7421
 20
75.3605
  0
VERTEX
  8
0
 10
76.7626
 20
75.3341
  0
VERTEX
  8
0
 10
76.7862
 20
75.3114
  0
VERTEX
  8
0
 10
76.8129
 20
75.2925
  0
VERTEX
  8
0
 10
76.8803
 20
75.2631
  0
VERTEX
  8
0
 10
76.9536
 20
75.2533
  0
VERTEX
  8
0
 10
76.983
 20
75.2545
  0
VERTEX
  8
0
 10
77.0105
 20
75.2583
  0
VERTEX
  8
0
 10
77.0363
 20
75.2647
  0
VERTEX
  8
0
 10
77.0603
 20
75.2735
  0
VERTEX
  8
0
 10
77.0825
 20
75.2849
  0
VERTEX
  8
0
 10
77.1029
 20
75.2988
  0
VERTEX
  8
0
 10
77.1216
 20
75.3153
  0
VERTEX
  8
0
 10
77.1384
 20
75.3343
  0
VERTEX
  8
0
 10
77.1535
 20
75.3558
  0
VERTEX
  8
0
 10
77.1668
 20
75.3799
  0
VERTEX
  8
0
 10
77.1783
 20
75.4065
  0
VERTEX
  8
0
 10
77.188
 20
75.4356
  0
VERTEX
  8
0
 10
77.1959
 20
75.4673
  0
VERTEX
  8
0
 10
77.1959
 20
75.4673
  0
SEQEND
  0
POLYLINE
  8
0
 66
     1
 10
0
 20
0
  0
VERTEX
  8
0
 10
77.4584
 20
75.6613
  0
VERTEX
  8
0
 10
77.4584
 20
75.7773
  0
VERTEX
  8
0
 10
77.5744
 20
75.7773
  0
VERTEX
  8
0
 10
77.5744
 20
75.6613
  0
VERTEX
  8
0
 10
77.4584
 20
75.6613
  0
SEQEND
  0
POLYLINE
  8
0
 66
     1
 10
0
 20
0
  0
VERTEX
  8
0
 10
77.4584
 20
75.1733
  0
VERTEX
  8
0
 10
77.4584
 20
75.2893
  0
VERTEX
  8
0
 10
77.5744
 20
75.2893
  0
VERTEX
  8
0
 10
77.5744
 20
75.175
  0
VERTEX
  8
0
 10
77.5717
 20
75.137
  0
VERTEX
  8
0
 10
77.5638
 20
75.1035
  0
VERTEX
  8
0
 10
77.5505
 20
75.0743
  0
VERTEX
  8
0
 10
77.532
 20
75.0496
  0
VERTEX
  8
0
 10
77.5081
 20
75.0292
  0
VERTEX
  8
0
 10
77.4789
 20
75.0133
  0
VERTEX
  8
0
 10
77.4504
 20
75.0558
  0
VERTEX
  8
0
 10
77.4775
 20
75.0726
  0
VERTEX
  8
0
 10
77.4972
 20
75.0978
  0
VERTEX
  8
0
 10
77.5096
 20
75.1314
  0
VERTEX
  8
0
 10
77.5147
 20
75.1733
  0
VERTEX
  8
0
 10
77.4584
 20
75.1733
  0
SEQEND
  0
POLYLINE
  8
0
 66
     1
 10
0
 20
0
  0
VERTEX
  8
0
 10
62.1504
 20
74.2653
  0
VERTEX
  8
0
 10
62.1504
 20
74.1493
  0
VERTEX
  8
0
 10
62.0424
 20
74.1493
  0
VERTEX
  8
0
 10
62.0424
 20
74.2414
  0
VERTEX
  8
0
 10
62.0469
 20
74.3059
  0
VERTEX
  8
0
 10
62.0604
 20
74.3497
  0
VERTEX
  8
0
 10
62.0911
 20
74.3887
  0
VERTEX
  8
0
 10
62.1355
 20
74.4173
  0
VERTEX
  8
0
 10
62.1603
 20
74.378
  0
VERTEX
  8
0
 10
62.1349
 20
74.3621
  0
VERTEX
  8
0
 10
62.116
 20
74.338
  0
VERTEX
  8
0
 10
62.1038
 20
74.3058
  0
VERTEX
  8
0
 10
62.0983
 20
74.2653
  0
VERTEX
  8
0
 10
62.1504
 20
74.2653
  0
SEQEND
  0
POLYLINE
  8
0
 66
     1
 10
0
 20
0
  0
VERTEX
  8
0
 10
62.3264
 20
74.2653
  0
VERTEX
  8
0
 10
62.3264
 20
74.1493
  0
VERTEX
  8
0
 10
62.2184
 20
74.1493
  0
VERTEX
  8
0
 10
62.2184
 20
74.2414
  0
VERTEX
  8
0
 10
62.2228
 20
74.3059
  0
VERTEX
  8
0
 10
62.2363
 20
74.3497
  0
VERTEX
  8
0
 10
62.2666
 20
74.3887
  0
VERTEX
  8
0
 10
62.3106
 20
74.4173
  0
VERTEX
  8
0
 10
62.3352
 20
74.378
  0
VERTEX
  8
0
 10
62.3097
 20
74.3621
  0
VERTEX
  8
0
 10
62.2909
 20
74.338
  0
VERTEX
  8
0
 10
62.2787
 20
74.3058
  0
VERTEX
  8
0
 10
62.2731
 20
74.2653
  0
VERTEX
  8
0
 10
62.3264
 20
74.2653
  0
SEQEND
  0
POLYLINE
  8
0
 66
     1
 10
0
 20
0
  0
VERTEX
  8
0
 10
62.3904
 20
73.5733
  0
VERTEX
  8
0
 10
62.7094
 20
74.0037
  0
VERTEX
  8
0
 10
62.4264
 20
74.4053
  0
VERTEX
  8
0
 10
62.5585
 20
74.4053
  0
VERTEX
  8
0
 10
62.7086
 20
74.1923
  0
VERTEX
  8
0
 10
62.7471
 20
74.1359
  0
VERTEX
  8
0
 10
62.7743
 20
74.0913
  0
VERTEX
  8
0
 10
62.8024
 20
74.1345
  0
VERTEX
  8
0
 10
62.8394
 20
74.1858
  0
VERTEX
  8
0
 10
63.0071
 20
74.4053
  0
VERTEX
  8
0
 10
63.1266
 20
74.4053
  0
VERTEX
  8
0
 10
62.8356
 20
74.0131
  0
VERTEX
  8
0
 10
63.1487
 20
73.5733
  0
VERTEX
  8
0
 10
63.0128
 20
73.5733
  0
VERTEX
  8
0
 10
62.803
 20
73.8708
  0
VERTEX
  8
0
 10
62.7903
 20
73.8911
  0
VERTEX
  8
0
 10
62.7685
 20
73.9276
  0
VERTEX
  8
0
 10
62.7462
 20
73.8893
  0
VERTEX
  8
0
 10
62.7308
 20
73.8646
  0
VERTEX
  8
0
 10
62.5199
 20
73.5733
  0
VERTEX
  8
0
 10
62.3904
 20
73.5733
  0
SEQEND
  0
POLYLINE
  8
0
 66
     1
 10
0
 20
0
  0
VERTEX
  8
0
 10
63.1584
 20
73.5733
  0
VERTEX
  8
0
 10
63.4774
 20
74.0037
  0
VERTEX
  8
0
 10
63.1944
 20
74.4053
  0
VERTEX
  8
0
 10
63.3265
 20
74.4053
  0
VERTEX
  8
0
 10
63.4766
 20
74.1923
  0
VERTEX
  8
0
 10
63.5151
 20
74.1359
  0
VERTEX
  8
0
 10
63.5423
 20
74.0913
  0
VERTEX
  8
0
 10
63.5704
 20
74.1345
  0
VERTEX
  8
0
 10
63.6074
 20
74.1858
  0
VERTEX
  8
0
 10
63.7751
 20
74.4053
  0
VERTEX
  8
0
 10
63.8946
 20
74.4053
  0
VERTEX
  8
0
 10
63.6036
 20
74.0131
  0
VERTEX
  8
0
 10
63.9167
 20
73.5733
  0
VERTEX
  8
0
 10
63.7808
 20
73.5733
  0
VERTEX
  8
0
 10
63.571
 20
73.8708
  0
VERTEX
  8
0
 10
63.5583
 20
73.8911
  0
VERTEX
  8
0
 10
63.5365
 20
73.9276
  0
VERTEX
  8
0
 10
63.5142
 20
73.8893
  0
VERTEX
  8
0
 10
63.4988
 20
73.8646
  0
VERTEX
  8
0
 10
63.2879
 20
73.5733
  0
VERTEX
  8
0
 10
63.1584
 20
73.5733
  0
SEQEND
  0
POLYLINE
  8
0
 66
     1
 10
0
 20
0
  0
VERTEX
  8
0
 10
64.0304
 20
73.5733
  0
VERTEX
  8
0
 10
64.0304
 20
73.6933
  0
VERTEX
  8
0
 10
64.1464
 20
73.6933
  0
VERTEX
  8
0
 10
64.1464
 20
73.5733
  0
VERTEX
  8
0
 10
64.0304
 20
73.5733
  0
SEQEND
  0
POLYLINE
  8
0
 66
     1
 10
0
 20
0
  0
VERTEX
  8
0
 10
64.2544
 20
73.5733
  0
VERTEX
  8
0
 10
64.5734
 20
74.0037
  0
VERTEX
  8
0
 10
64.2904
 20
74.4053
  0
VERTEX
  8
0
 10
64.4225
 20
74.4053
  0
VERTEX
  8
0
 10
64.5726
 20
74.1923
  0
VERTEX
  8
0
 10
64.6111
 20
74.1359
  0
VERTEX
  8
0
 10
64.6383
 20
74.0913
  0
VERTEX
  8
0
 10
64.6664
 20
74.1345
  0
VERTEX
  8
0
 10
64.7034
 20
74.1858
  0
VERTEX
  8
0
 10
64.8711
 20
74.4053
  0
VERTEX
  8
0
 10
64.9906
 20
74.4053
  0
VERTEX
  8
0
 10
64.6996
 20
74.0131
  0
VERTEX
  8
0
 10
65.0127
 20
73.5733
  0
VERTEX
  8
0
 10
64.8768
 20
73.5733
  0
VERTEX
  8
0
 10
64.667
 20
73.8708
  0
VERTEX
  8
0
 10
64.6543
 20
73.8911
  0
VERTEX
  8
0
 10
64.6325
 20
73.9276
  0
VERTEX
  8
0
 10
64.6102
 20
73.8893
  0
VERTEX
  8
0
 10
64.5948
 20
73.8646
  0
VERTEX
  8
0
 10
64.3839
 20
73.5733
  0
VERTEX
  8
0
 10
64.2544
 20
73.5733
  0
SEQEND
  0
POLYLINE
  8
0
 66
     1
 10
0
 20
0
  0
VERTEX
  8
0
 10
65.6464
 20
73.5733
  0
VERTEX
  8
0
 10
65.6464
 20
74.4053
  0
VERTEX
  8
0
 10
66.2044
 20
74.4053
  0
VERTEX
  8
0
 10
66.2044
 20
74.3093
  0
VERTEX
  8
0
 10
65.7544
 20
74.3093
  0
VERTEX
  8
0
 10
65.7544
 20
74.0493
  0
VERTEX
  8
0
 10
66.144
 20
74.0493
  0
VERTEX
  8
0
 10
66.144
 20
73.9533
  0
VERTEX
  8
0
 10
65.7544
 20
73.9533
  0
VERTEX
  8
0
 10
65.7544
 20
73.5733
  0
VERTEX
  8
0
 10
65.6464
 20
73.5733
  0
SEQEND
  0
POLYLINE
  8
0
 66
     1
 10
0
 20
0
  0
VERTEX
  8
0
 10
66.3464
 20
73.5733
  0
VERTEX
  8
0
 10
66.3464
 20
74.4053
  0
VERTEX
  8
0
 10
66.5097
 20
74.4053
  0
VERTEX
  8
0
 10
66.7089
 20
73.8195
  0
VERTEX
  8
0
 10
66.7293
 20
73.7535
  0
VERTEX
  8
0
 10
66.7459
 20
73.698
  0
VERTEX
  8
0
 10
66.7624
 20
73.7498
  0
VERTEX
  8
0
 10
66.7894
 20
73.8293
  0
VERTEX
  8
0
 10
66.9884
 20
74.4053
  0
VERTEX
  8
0
 10
67.1344
 20
74.4053
  0
VERTEX
  8
0
 10
67.1344
 20
73.5733
  0
VERTEX
  8
0
 10
67.0304
 20
73.5733
  0
VERTEX
  8
0
 10
67.0304
 20
74.2696
  0
VERTEX
  8
0
 10
66.7899
 20
73.5733
  0
VERTEX
  8
0
 10
66.6911
 20
73.5733
  0
VERTEX
  8
0
 10
66.4504
 20
74.2814
  0
VERTEX
  8
0
 10
66.4504
 20
73.5733
  0
VERTEX
  8
0
 10
66.3464
 20
73.5733
  0
SEQEND
  0
POLYLINE
  8
0
 66
     1
 10
0
 20
0
  0
VERTEX
  8
0
 10
67.2784
 20
74.2973
  0
VERTEX
  8
0
 10
67.2784
 20
74.4133
  0
VERTEX
  8
0
 10
67.3864
 20
74.4133
  0
VERTEX
  8
0
 10
67.3864
 20
74.3198
  0
VERTEX
  8
0
 10
67.3821
 20
74.2545
  0
VERTEX
  8
0
 10
67.3692
 20
74.2104
  0
VERTEX
  8
0
 10
67.3389
 20
74.1705
  0
VERTEX
  8
0
 10
67.2948
 20
74.1413
  0
VERTEX
  8
0
 10
67.2704
 20
74.1821
  0
VERTEX
  8
0
 10
67.2963
 20
74.1982
  0
VERTEX
  8
0
 10
67.3152
 20
74.2227
  0
VERTEX
  8
0
 10
67.3273
 20
74.2558
  0
VERTEX
  8
0
 10
67.3324
 20
74.2973
  0
VERTEX
  8
0
 10
67.2784
 20
74.2973
  0
SEQEND
  0
POLYLINE
  8
0
 66
     1
 10
0
 20
0
  0
VERTEX
  8
0
 10
67.4544
 20
74.2973
  0
VERTEX
  8
0
 10
67.4544
 20
74.4133
  0
VERTEX
  8
0
 10
67.5624
 20
74.4133
  0
VERTEX
  8
0
 10
67.5624
 20
74.3198
  0
VERTEX
  8
0
 10
67.558
 20
74.2545
  0
VERTEX
  8
0
 10
67.545
 20
74.2104
  0
VERTEX
  8
0
 10
67.5145
 20
74.1705
  0
VERTEX
  8
0
 10
67.4699
 20
74.1413
  0
VERTEX
  8
0
 10
67.4453
 20
74.1821
  0
VERTEX
  8
0
 10
67.4711
 20
74.1982
  0
VERTEX
  8
0
 10
67.4901
 20
74.2227
  0
VERTEX
  8
0
 10
67.5022
 20
74.2558
  0
VERTEX
  8
0
 10
67.5073
 20
74.2973
  0
VERTEX
  8
0
 10
67.4544
 20
74.2973
  0
SEQEND
  0
POLYLINE
  8
0
 66
     1
 10
0
 20
0
  0
VERTEX
  8
0
 10
68.8279
 20
73.8673
  0
VERTEX
  8
0
 10
68.9376
 20
73.8395
  0
VERTEX
  8
0
 10
68.9178
 20
73.7773
  0
VERTEX
  8
0
 10
68.8911
 20
73.7227
  0
VERTEX
  8
0
 10
68.8577
 20
73.6754
  0
VERTEX
  8
0
 10
68.8174
 20
73.6356
  0
VERTEX
  8
0
 10
68.7701
 20
73.6031
  0
VERTEX
  8
0
 10
68.7173
 20
73.5799
  0
VERTEX
  8
0
 10
68.6589
 20
73.5659
  0
VERTEX
  8
0
 10
68.5951
 20
73.5613
  0
VERTEX
  8
0
 10
68.5569
 20
73.5625
  0
VERTEX
  8
0
 10
68.5205
 20
73.5663
  0
VERTEX
  8
0
 10
68.4862
 20
73.5726
  0
VERTEX
  8
0
 10
68.4538
 20
73.5814
  0
VERTEX
  8
0
 10
68.4233
 20
73.5927
  0
VERTEX
  8
0
 10
68.3948
 20
73.6065
  0
VERTEX
  8
0
 10
68.3682
 20
73.6228
  0
VERTEX
  8
0
 10
68.3436
 20
73.6417
  0
VERTEX
  8
0
 10
68.321
 20
73.663
  0
VERTEX
  8
0
 10
68.3002
 20
73.6869
  0
VERTEX
  8
0
 10
68.2815
 20
73.7133
  0
VERTEX
  8
0
 10
68.2647
 20
73.7422
  0
VERTEX
  8
0
 10
68.2498
 20
73.7736
  0
VERTEX
  8
0
 10
68.2172
 20
73.8799
  0
VERTEX
  8
0
 10
68.2064
 20
73.9955
  0
VERTEX
  8
0
 10
68.2077
 20
74.0389
  0
VERTEX
  8
0
 10
68.2116
 20
74.0801
  0
VERTEX
  8
0
 10
68.2182
 20
74.1191
  0
VERTEX
  8
0
 10
68.2274
 20
74.1557
  0
VERTEX
  8
0
 10
68.2393
 20
74.1901
  0
VERTEX
  8
0
 10
68.2538
 20
74.2222
  0
VERTEX
  8
0
 10
68.2709
 20
74.252
  0
VERTEX
  8
0
 10
68.2906
 20
74.2796
  0
VERTEX
  8
0
 10
68.313
 20
74.3048
  0
VERTEX
  8
0
 10
68.338
 20
74.3278
  0
VERTEX
  8
0
 10
68.3657
 20
74.3486
  0
VERTEX
  8
0
 10
68.3959
 20
74.367
  0
VERTEX
  8
0
 10
68.4919
 20
74.4047
  0
VERTEX
  8
0
 10
68.5968
 20
74.4173
  0
VERTEX
  8
0
 10
68.6746
 20
74.4104
  0
VERTEX
  8
0
 10
68.7438
 20
74.3898
  0
VERTEX
  8
0
 10
68.8044
 20
74.3555
  0
VERTEX
  8
0
 10
68.8553
 20
74.3082
  0
VERTEX
  8
0
 10
68.895
 20
74.2489
  0
VERTEX
  8
0
 10
68.9235
 20
74.1775
  0
VERTEX
  8
0
 10
68.8156
 20
74.1522
  0
VERTEX
  8
0
 10
68.8034
 20
74.185
  0
VERTEX
  8
0
 10
68.789
 20
74.2143
  0
VERTEX
  8
0
 10
68.7724
 20
74.2402
  0
VERTEX
  8
0
 10
68.7536
 20
74.2627
  0
VERTEX
  8
0
 10
68.7325
 20
74.2817
  0
VERTEX
  8
0
 10
68.7093
 20
74.2973
  0
VERTEX
  8
0
 10
68.6838
 20
74.3095
  0
VERTEX
  8
0
 10
68.6561
 20
74.3182
  0
VERTEX
  8
0
 10
68.6262
 20
74.3234
  0
VERTEX
  8
0
 10
68.5941
 20
74.3253
  0
VERTEX
  8
0
 10
68.5106
 20
74.315
  0
VERTEX
  8
0
 10
68.4399
 20
74.2833
  0
VERTEX
  8
0
 10
68.3821
 20
74.2292
  0
VERTEX
  8
0
 10
68.3444
 20
74.1556
  0
VERTEX
  8
0
 10
68.3252
 20
74.0774
  0
VERTEX
  8
0
 10
68.3184
 20
73.9961
  0
VERTEX
  8
0
 10
68.3197
 20
73.9476
  0
VERTEX
  8
0
 10
68.3242
 20
73.9028
  0
VERTEX
  8
0
 10
68.3319
 20
73.8617
  0
VERTEX
  8
0
 10
68.3428
 20
73.8243
  0
VERTEX
  8
0
 10
68.3569
 20
73.7905
  0
VERTEX
  8
0
 10
68.3741
 20
73.7605
  0
VERTEX
  8
0
 10
68.3946
 20
73.7341
  0
VERTEX
  8
0
 10
68.4182
 20
73.7114
  0
VERTEX
  8
0
 10
68.4449
 20
73.6925
  0
VERTEX
  8
0
 10
68.5123
 20
73.6631
  0
VERTEX
  8
0
 10
68.5856
 20
73.6533
  0
VERTEX
  8
0
 10
68.615
 20
73.6545
  0
VERTEX
  8
0
 10
68.6425
 20
73.6583
  0
VERTEX
  8
0
 10
68.6683
 20
73.6647
  0
VERTEX
  8
0
 10
68.6923
 20
73.6735
  0
VERTEX
  8
0
 10
68.7145
 20
73.6849
  0
VERTEX
  8
0
 10
68.7349
 20
73.6988
  0
VERTEX
  8
0
 10
68.7536
 20
73.7153
  0
VERTEX
  8
0
 10
68.7704
 20
73.7343
  0
VERTEX
  8
0
 10
68.7855
 20
73.7558
  0
VERTEX
  8
0
 10
68.7988
 20
73.7799
  0
VERTEX
  8
0
 10
68.8103
 20
73.8065
  0
VERTEX
  8
0
 10
68.82
 20
73.8356
  0
VERTEX
  8
0
 10
68.8279
 20
73.8673
  0
VERTEX
  8
0
 10
68.8279
 20
73.8673
  0
SEQEND
  0
POLYLINE
  8
0
 66
     1
 10
0
 20
0
  0
VERTEX
  8
0
 10
69.0904
 20
74.0613
  0
VERTEX
  8
0
 10
69.0904
 20
74.1773
  0
VERTEX
  8
0
 10
69.2064
 20
74.1773
  0
VERTEX
  8
0
 10
69.2064
 20
74.0613
  0
VERTEX
  8
0
 10
69.0904
 20
74.0613
  0
SEQEND
  0
POLYLINE
  8
0
 66
     1
 10
0
 20
0
  0
VERTEX
  8
0
 10
69.0904
 20
73.5733
  0
VERTEX
  8
0
 10
69.0904
 20
73.6893
  0
VERTEX
  8
0
 10
69.2064
 20
73.6893
  0
VERTEX
  8
0
 10
69.2064
 20
73.575
  0
VERTEX
  8
0
 10
69.2037
 20
73.537
  0
VERTEX
  8
0
 10
69.1958
 20
73.5035
  0
VERTEX
  8
0
 10
69.1825
 20
73.4743
  0
VERTEX
  8
0
 10
69.164
 20
73.4496
  0
VERTEX
  8
0
 10
69.1401
 20
73.4292
  0
VERTEX
  8
0
 10
69.1109
 20
73.4133
  0
VERTEX
  8
0
 10
69.0824
 20
73.4558
  0
VERTEX
  8
0
 10
69.1095
 20
73.4726
  0
VERTEX
  8
0
 10
69.1292
 20
73.4978
  0
VERTEX
  8
0
 10
69.1416
 20
73.5314
  0
VERTEX
  8
0
 10
69.1467
 20
73.5733
  0
VERTEX
  8
0
 10
69.0904
 20
73.5733
  0
SEQEND
  0
POLYLINE
  8
0
 66
     1
 10
0
 20
0
  0
VERTEX
  8
0
 10
65.9248
 20
99.0053
  0
VERTEX
  8
0
 10
64.4264
 20
99.0053
  0
VERTEX
  8
0
 10
64.4264
 20
102.0013
  0
VERTEX
  8
0
 10
65.8769
 20
102.0013
  0
VERTEX
  8
0
 10
65.8769
 20
101.5773
  0
VERTEX
  8
0
 10
64.8504
 20
101.5773
  0
VERTEX
  8
0
 10
64.8504
 20
100.8293
  0
VERTEX
  8
0
 10
65.4824
 20
100.8293
  0
VERTEX
  8
0
 10
65.4824
 20
100.4093
  0
VERTEX
  8
0
 10
64.8504
 20
100.4093
  0
VERTEX
  8
0
 10
64.8504
 20
99.4293
  0
VERTEX
  8
0
 10
65.9248
 20
99.4293
  0
VERTEX
  8
0
 10
65.9248
 20
99.0053
  0
SEQEND
  0
POLYLINE
  8
0
 66
     1
 10
0
 20
0
  0
VERTEX
  8
0
 10
68.3744
 20
99.0053
  0
VERTEX
  8
0
 10
67.9544
 20
99.0053
  0
VERTEX
  8
0
 10
67.9544
 20
100.6895
  0
VERTEX
  8
0
 10
67.4053
 20
99.0054
  0
VERTEX
  8
0
 10
66.8584
 20
100.6895
  0
VERTEX
  8
0
 10
66.8584
 20
99.0053
  0
VERTEX
  8
0
 10
66.4344
 20
99.0053
  0
VERTEX
  8
0
 10
66.4344
 20
102.0013
  0
VERTEX
  8
0
 10
66.8738
 20
102.0013
  0
VERTEX
  8
0
 10
67.4039
 20
100.3692
  0
VERTEX
  8
0
 10
67.936
 20
102.0013
  0
VERTEX
  8
0
 10
68.3744
 20
102.0013
  0
VERTEX
  8
0
 10
68.3744
 20
99.0053
  0
SEQEND
  0
POLYLINE
  8
0
 66
     1
 10
0
 20
0
  0
VERTEX
  8
0
 10
70.5088
 20
99.0053
  0
VERTEX
  8
0
 10
69.0104
 20
99.0053
  0
VERTEX
  8
0
 10
69.0104
 20
102.0013
  0
VERTEX
  8
0
 10
70.4609
 20
102.0013
  0
VERTEX
  8
0
 10
70.4609
 20
101.5773
  0
VERTEX
  8
0
 10
69.4344
 20
101.5773
  0
VERTEX
  8
0
 10
69.4344
 20
100.8293
  0
VERTEX
  8
0
 10
70.0664
 20
100.8293
  0
VERTEX
  8
0
 10
70.0664
 20
100.4093
  0
VERTEX
  8
0
 10
69.4344
 20
100.4093
  0
VERTEX
  8
0
 10
69.4344
 20
99.4293
  0
VERTEX
  8
0
 10
70.5088
 20
99.4293
  0
VERTEX
  8
0
 10
70.5088
 20
99.0053
  0
SEQEND
  0
POLYLINE
  8
0
 66
     1
 10
0
 20
0
  0
VERTEX
  8
0
 10
72.6584
 20
99.0053
  0
VERTEX
  8
0
 10
72.2213
 20
99.0053
  0
VERTEX
  8
0
 10
71.8158
 20
100.4093
  0
VERTEX
  8
0
 10
71.4424
 20
100.4093
  0
VERTEX
  8
0
 10
71.4424
 20
99.0053
  0
VERTEX
  8
0
 10
71.0184
 20
99.0053
  0
VERTEX
  8
0
 10
71.0184
 20
102.0013
  0
VERTEX
  8
0
 10
71.9448
 20
102.0013
  0
VERTEX
  8
0
 10
72.0131
 20
101.9982
  0
VERTEX
  8
0
 10
72.0792
 20
101.9892
  0
VERTEX
  8
0
 10
72.1431
 20
101.974
  0
VERTEX
  8
0
 10
72.2048
 20
101.9528
  0
VERTEX
  8
0
 10
72.2642
 20
101.9256
  0
VERTEX
  8
0
 10
72.3215
 20
101.8923
  0
VERTEX
  8
0
 10
72.3766
 20
101.853
  0
VERTEX
  8
0
 10
72.4278
 20
101.809
  0
VERTEX
  8
0
 10
72.4737
 20
101.7617
  0
VERTEX
  8
0
 10
72.5142
 20
101.7112
  0
VERTEX
  8
0
 10
72.5493
 20
101.6575
  0
VERTEX
  8
0
 10
72.5791
 20
101.6006
  0
VERTEX
  8
0
 10
72.6034
 20
101.5404
  0
VERTEX
  8
0
 10
72.6224
 20
101.477
  0
VERTEX
  8
0
 10
72.6494
 20
101.3414
  0
VERTEX
  8
0
 10
72.6584
 20
101.2043
  0
VERTEX
  8
0
 10
72.6494
 20
101.0658
  0
VERTEX
  8
0
 10
72.6223
 20
100.9317
  0
VERTEX
  8
0
 10
72.6092
 20
100.8868
  0
VERTEX
  8
0
 10
72.5938
 20
100.8438
  0
VERTEX
  8
0
 10
72.5761
 20
100.8027
  0
VERTEX
  8
0
 10
72.5563
 20
100.7634
  0
VERTEX
  8
0
 10
72.5341
 20
100.726
  0
VERTEX
  8
0
 10
72.5098
 20
100.6905
  0
VERTEX
  8
0
 10
72.4832
 20
100.6568
  0
VERTEX
  8
0
 10
72.4544
 20
100.625
  0
VERTEX
  8
0
 10
72.4233
 20
100.5951
  0
VERTEX
  8
0
 10
72.39
 20
100.567
  0
VERTEX
  8
0
 10
72.3545
 20
100.5408
  0
VERTEX
  8
0
 10
72.3167
 20
100.5164
  0
VERTEX
  8
0
 10
72.2766
 20
100.4939
  0
VERTEX
  8
0
 10
72.2344
 20
100.4733
  0
VERTEX
  8
0
 10
72.6584
 20
99.0053
  0
SEQEND
  0
POLYLINE
  8
0
 66
     1
 10
0
 20
0
  0
VERTEX
  8
0
 10
71.4424
 20
100.8293
  0
VERTEX
  8
0
 10
71.9449
 20
100.8293
  0
VERTEX
  8
0
 10
72.0064
 20
100.8359
  0
VERTEX
  8
0
 10
72.0633
 20
100.8559
  0
VERTEX
  8
0
 10
72.1155
 20
100.8891
  0
VERTEX
  8
0
 10
72.1775
 20
100.9564
  0
VERTEX
  8
0
 10
72.2142
 20
101.0387
  0
VERTEX
  8
0
 10
72.2299
 20
101.1202
  0
VERTEX
  8
0
 10
72.2351
 20
101.2033
  0
VERTEX
  8
0
 10
72.2299
 20
101.2885
  0
VERTEX
  8
0
 10
72.2142
 20
101.3708
  0
VERTEX
  8
0
 10
72.2049
 20
101.4014
  0
VERTEX
  8
0
 10
72.1938
 20
101.4295
  0
VERTEX
  8
0
 10
72.1807
 20
101.4551
  0
VERTEX
  8
0
 10
72.1657
 20
101.4783
  0
VERTEX
  8
0
 10
72.1489
 20
101.4991
  0
VERTEX
  8
0
 10
72.1301
 20
101.5174
  0
VERTEX
  8
0
 10
72.1093
 20
101.5333
  0
VERTEX
  8
0
 10
72.0867
 20
101.5467
  0
VERTEX
  8
0
 10
72.0622
 20
101.5577
  0
VERTEX
  8
0
 10
72.0357
 20
101.5663
  0
VERTEX
  8
0
 10
72.0074
 20
101.5724
  0
VERTEX
  8
0
 10
71.9771
 20
101.576
  0
VERTEX
  8
0
 10
71.9449
 20
101.5773
  0
VERTEX
  8
0
 10
71.4424
 20
101.5773
  0
VERTEX
  8
0
 10
71.4424
 20
100.8293
  0
SEQEND
  0
POLYLINE
  8
0
 66
     1
 10
0
 20
0
  0
VERTEX
  8
0
 10
74.8064
 20
100.4573
  0
VERTEX
  8
0
 10
74.8064
 20
99.7283
  0
VERTEX
  8
0
 10
74.8048
 20
99.6754
  0
VERTEX
  8
0
 10
74.8001
 20
99.6239
  0
VERTEX
  8
0
 10
74.7923
 20
99.5738
  0
VERTEX
  8
0
 10
74.7814
 20
99.5249
  0
VERTEX
  8
0
 10
74.7673
 20
99.4774
  0
VERTEX
  8
0
 10
74.7502
 20
99.4313
  0
VERTEX
  8
0
 10
74.7299
 20
99.3864
  0
VERTEX
  8
0
 10
74.7064
 20
99.3429
  0
VERTEX
  8
0
 10
74.6799
 20
99.3008
  0
VERTEX
  8
0
 10
74.6502
 20
99.2599
  0
VERTEX
  8
0
 10
74.6174
 20
99.2204
  0
VERTEX
  8
0
 10
74.5815
 20
99.1823
  0
VERTEX
  8
0
 10
74.5434
 20
99.1463
  0
VERTEX
  8
0
 10
74.5039
 20
99.1135
  0
VERTEX
  8
0
 10
74.4631
 20
99.0838
  0
VERTEX
  8
0
 10
74.4209
 20
99.0573
  0
VERTEX
  8
0
 10
74.3775
 20
99.0338
  0
VERTEX
  8
0
 10
74.3327
 20
99.0135
  0
VERTEX
  8
0
 10
74.2865
 20
98.9963
  0
VERTEX
  8
0
 10
74.2391
 20
98.9823
  0
VERTEX
  8
0
 10
74.1903
 20
98.9713
  0
VERTEX
  8
0
 10
74.1401
 20
98.9635
  0
VERTEX
  8
0
 10
74.0887
 20
98.9588
  0
VERTEX
  8
0
 10
74.0359
 20
98.9573
  0
VERTEX
  8
0
 10
73.9715
 20
98.9597
  0
VERTEX
  8
0
 10
73.9089
 20
98.9672
  0
VERTEX
  8
0
 10
73.848
 20
98.9796
  0
VERTEX
  8
0
 10
73.7889
 20
98.997
  0
VERTEX
  8
0
 10
73.7315
 20
99.0193
  0
VERTEX
  8
0
 10
73.6758
 20
99.0466
  0
VERTEX
  8
0
 10
73.6218
 20
99.0788
  0
VERTEX
  8
0
 10
73.5696
 20
99.116
  0
VERTEX
  8
0
 10
73.5204
 20
99.1571
  0
VERTEX
  8
0
 10
73.4755
 20
99.201
  0
VERTEX
  8
0
 10
73.4348
 20
99.2477
  0
VERTEX
  8
0
 10
73.3984
 20
99.2972
  0
VERTEX
  8
0
 10
73.3662
 20
99.3495
  0
VERTEX
  8
0
 10
73.3383
 20
99.4047
  0
VERTEX
  8
0
 10
73.3147
 20
99.4626
  0
VERTEX
  8
0
 10
73.2953
 20
99.5233
  0
VERTEX
  8
0
 10
73.2559
 20
99.682
  0
VERTEX
  8
0
 10
73.2237
 20
99.8425
  0
VERTEX
  8
0
 10
73.1986
 20
100.0048
  0
VERTEX
  8
0
 10
73.1807
 20
100.169
  0
VERTEX
  8
0
 10
73.17
 20
100.335
  0
VERTEX
  8
0
 10
73.1664
 20
100.5028
  0
VERTEX
  8
0
 10
73.17
 20
100.6671
  0
VERTEX
  8
0
 10
73.1807
 20
100.8306
  0
VERTEX
  8
0
 10
73.1986
 20
100.9932
  0
VERTEX
  8
0
 10
73.2237
 20
101.155
  0
VERTEX
  8
0
 10
73.2559
 20
101.316
  0
VERTEX
  8
0
 10
73.2953
 20
101.4762
  0
VERTEX
  8
0
 10
73.314
 20
101.537
  0
VERTEX
  8
0
 10
73.337
 20
101.595
  0
VERTEX
  8
0
 10
73.3644
 20
101.6502
  0
VERTEX
  8
0
 10
73.3961
 20
101.7027
  0
VERTEX
  8
0
 10
73.4322
 20
101.7524
  0
VERTEX
  8
0
 10
73.4727
 20
101.7994
  0
VERTEX
  8
0
 10
73.5175
 20
101.8436
  0
VERTEX
  8
0
 10
73.5666
 20
101.885
  0
VERTEX
  8
0
 10
73.6189
 20
101.9226
  0
VERTEX
  8
0
 10
73.673
 20
101.9551
  0
VERTEX
  8
0
 10
73.7289
 20
101.9827
  0
VERTEX
  8
0
 10
73.7866
 20
102.0052
  0
VERTEX
  8
0
 10
73.8462
 20
102.0227
  0
VERTEX
  8
0
 10
73.9076
 20
102.0352
  0
VERTEX
  8
0
 10
73.9708
 20
102.0428
  0
VERTEX
  8
0
 10
74.0359
 20
102.0453
  0
VERTEX
  8
0
 10
74.0887
 20
102.0437
  0
VERTEX
  8
0
 10
74.1401
 20
102.039
  0
VERTEX
  8
0
 10
74.1903
 20
102.0312
  0
VERTEX
  8
0
 10
74.2391
 20
102.0203
  0
VERTEX
  8
0
 10
74.2865
 20
102.0062
  0
VERTEX
  8
0
 10
74.3327
 20
101.989
  0
VERTEX
  8
0
 10
74.3775
 20
101.9687
  0
VERTEX
  8
0
 10
74.4209
 20
101.9453
  0
VERTEX
  8
0
 10
74.4631
 20
101.9187
  0
VERTEX
  8
0
 10
74.5039
 20
101.889
  0
VERTEX
  8
0
 10
74.5434
 20
101.8562
  0
VERTEX
  8
0
 10
74.5815
 20
101.8203
  0
VERTEX
  8
0
 10
74.6174
 20
101.7821
  0
VERTEX
  8
0
 10
74.6502
 20
101.7427
  0
VERTEX
  8
0
 10
74.6799
 20
101.702
  0
VERTEX
  8
0
 10
74.7064
 20
101.6599
  0
VERTEX
  8
0
 10
74.7299
 20
101.6166
  0
VERTEX
  8
0
 10
74.7502
 20
101.572
  0
VERTEX
  8
0
 10
74.7673
 20
101.5261
  0
VERTEX
  8
0
 10
74.7814
 20
101.4789
  0
VERTEX
  8
0
 10
74.7923
 20
101.4305
  0
VERTEX
  8
0
 10
74.8001
 20
101.3807
  0
VERTEX
  8
0
 10
74.8048
 20
101.3296
  0
VERTEX
  8
0
 10
74.8064
 20
101.2773
  0
VERTEX
  8
0
 10
74.3824
 20
101.2773
  0
VERTEX
  8
0
 10
74.3783
 20
101.3332
  0
VERTEX
  8
0
 10
74.3661
 20
101.3857
  0
VERTEX
  8
0
 10
74.3458
 20
101.4349
  0
VERTEX
  8
0
 10
74.3173
 20
101.4808
  0
VERTEX
  8
0
 10
74.2808
 20
101.5233
  0
VERTEX
  8
0
 10
74.2384
 20
101.56
  0
VERTEX
  8
0
 10
74.1928
 20
101.5885
  0
VERTEX
  8
0
 10
74.1438
 20
101.6089
  0
VERTEX
  8
0
 10
74.0914
 20
101.6212
  0
VERTEX
  8
0
 10
74.0357
 20
101.6253
  0
VERTEX
  8
0
 10
73.9606
 20
101.6173
  0
VERTEX
  8
0
 10
73.8909
 20
101.5933
  0
VERTEX
  8
0
 10
73.8265
 20
101.5535
  0
VERTEX
  8
0
 10
73.7717
 20
101.5009
  0
VERTEX
  8
0
 10
73.7308
 20
101.4391
  0
VERTEX
  8
0
 10
73.7039
 20
101.368
  0
VERTEX
  8
0
 10
73.6631
 20
101.1984
  0
VERTEX
  8
0
 10
73.6313
 20
101.0271
  0
VERTEX
  8
0
 10
73.6085
 20
100.8542
  0
VERTEX
  8
0
 10
73.5949
 20
100.6796
  0
VERTEX
  8
0
 10
73.5904
 20
100.5033
  0
VERTEX
  8
0
 10
73.5948
 20
100.33
  0
VERTEX
  8
0
 10
73.6081
 20
100.1572
  0
VERTEX
  8
0
 10
73.6302
 20
99.9848
  0
VERTEX
  8
0
 10
73.6612
 20
99.813
  0
VERTEX
  8
0
 10
73.7011
 20
99.6416
  0
VERTEX
  8
0
 10
73.7282
 20
99.5703
  0
VERTEX
  8
0
 10
73.7696
 20
99.5079
  0
VERTEX
  8
0
 10
73.8252
 20
99.4546
  0
VERTEX
  8
0
 10
73.8905
 20
99.4138
  0
VERTEX
  8
0
 10
73.9608
 20
99.3894
  0
VERTEX
  8
0
 10
74.0361
 20
99.3813
  0
VERTEX
  8
0
 10
74.0919
 20
99.3853
  0
VERTEX
  8
0
 10
74.1443
 20
99.3976
  0
VERTEX
  8
0
 10
74.1933
 20
99.4179
  0
VERTEX
  8
0
 10
74.239
 20
99.4464
  0
VERTEX
  8
0
 10
74.2814
 20
99.4831
  0
VERTEX
  8
0
 10
74.318
 20
99.5255
  0
VERTEX
  8
0
 10
74.3465
 20
99.5713
  0
VERTEX
  8
0
 10
74.3669
 20
99.6204
  0
VERTEX
  8
0
 10
74.3791
 20
99.6729
  0
VERTEX
  8
0
 10
74.3831
 20
99.7288
  0
VERTEX
  8
0
 10
74.3824
 20
100.0373
  0
VERTEX
  8
0
 10
74.0584
 20
100.0373
  0
VERTEX
  8
0
 10
74.0584
 20
100.4573
  0
VERTEX
  8
0
 10
74.8064
 20
100.4573
  0
SEQEND
  0
POLYLINE
  8
0
 66
     1
 10
0
 20
0
  0
VERTEX
  8
0
 10
76.9368
 20
99.0053
  0
VERTEX
  8
0
 10
75.4384
 20
99.0053
  0
VERTEX
  8
0
 10
75.4384
 20
102.0013
  0
VERTEX
  8
0
 10
76.8889
 20
102.0013
  0
VERTEX
  8
0
 10
76.8889
 20
101.5773
  0
VERTEX
  8
0
 10
75.8624
 20
101.5773
  0
VERTEX
  8
0
 10
75.8624
 20
100.8293
  0
VERTEX
  8
0
 10
76.4944
 20
100.8293
  0
VERTEX
  8
0
 10
76.4944
 20
100.4093
  0
VERTEX
  8
0
 10
75.8624
 20
100.4093
  0
VERTEX
  8
0
 10
75.8624
 20
99.4293
  0
VERTEX
  8
0
 10
76.9368
 20
99.4293
  0
VERTEX
  8
0
 10
76.9368
 20
99.0053
  0
SEQEND
  0
POLYLINE
  8
0
 66
     1
 10
0
 20
0
  0
VERTEX
  8
0
 10
79.0824
 20
99.0053
  0
VERTEX
  8
0
 10
78.7484
 20
99.0053
  0
VERTEX
  8
0
 10
77.8664
 20
100.9888
  0
VERTEX
  8
0
 10
77.8664
 20
99.0053
  0
VERTEX
  8
0
 10
77.4424
 20
99.0053
  0
VERTEX
  8
0
 10
77.4424
 20
102.0013
  0
VERTEX
  8
0
 10
77.8739
 20
102.0013
  0
VERTEX
  8
0
 10
78.6584
 20
100.246
  0
VERTEX
  8
0
 10
78.6584
 20
102.0013
  0
VERTEX
  8
0
 10
79.0824
 20
102.0013
  0
VERTEX
  8
0
 10
79.0824
 20
99.0053
  0
SEQEND
  0
POLYLINE
  8
0
 66
     1
 10
0
 20
0
  0
VERTEX
  8
0
 10
81.3584
 20
99.8013
  0
VERTEX
  8
0
 10
81.3584
 20
99.7265
  0
VERTEX
  8
0
 10
81.3568
 20
99.6742
  0
VERTEX
  8
0
 10
81.3521
 20
99.6232
  0
VERTEX
  8
0
 10
81.3443
 20
99.5735
  0
VERTEX
  8
0
 10
81.3334
 20
99.5251
  0
VERTEX
  8
0
 10
81.3193
 20
99.4779
  0
VERTEX
  8
0
 10
81.3022
 20
99.432
  0
VERTEX
  8
0
 10
81.2819
 20
99.3874
  0
VERTEX
  8
0
 10
81.2584
 20
99.344
  0
VERTEX
  8
0
 10
81.2319
 20
99.3019
  0
VERTEX
  8
0
 10
81.2022
 20
99.2611
  0
VERTEX
  8
0
 10
81.1694
 20
99.2215
  0
VERTEX
  8
0
 10
81.1335
 20
99.1832
  0
VERTEX
  8
0
 10
81.0954
 20
99.1471
  0
VERTEX
  8
0
 10
81.0559
 20
99.1142
  0
VERTEX
  8
0
 10
81.0151
 20
99.0844
  0
VERTEX
  8
0
 10
80.9729
 20
99.0577
  0
VERTEX
  8
0
 10
80.9295
 20
99.0342
  0
VERTEX
  8
0
 10
80.8847
 20
99.0138
  0
VERTEX
  8
0
 10
80.8385
 20
98.9965
  0
VERTEX
  8
0
 10
80.7911
 20
98.9824
  0
VERTEX
  8
0
 10
80.7423
 20
98.9714
  0
VERTEX
  8
0
 10
80.6921
 20
98.9635
  0
VERTEX
  8
0
 10
80.6407
 20
98.9588
  0
VERTEX
  8
0
 10
80.5879
 20
98.9573
  0
VERTEX
  8
0
 10
80.5235
 20
98.9597
  0
VERTEX
  8
0
 10
80.4609
 20
98.9672
  0
VERTEX
  8
0
 10
80.4
 20
98.9796
  0
VERTEX
  8
0
 10
80.3409
 20
98.997
  0
VERTEX
  8
0
 10
80.2835
 20
99.0193
  0
VERTEX
  8
0
 10
80.2278
 20
99.0466
  0
VERTEX
  8
0
 10
80.1738
 20
99.0788
  0
VERTEX
  8
0
 10
80.1216
 20
99.116
  0
VERTEX
  8
0
 10
80.0724
 20
99.1571
  0
VERTEX
  8
0
 10
80.0275
 20
99.201
  0
VERTEX
  8
0
 10
79.9868
 20
99.2477
  0
VERTEX
  8
0
 10
79.9504
 20
99.2972
  0
VERTEX
  8
0
 10
79.9182
 20
99.3495
  0
VERTEX
  8
0
 10
79.8903
 20
99.4047
  0
VERTEX
  8
0
 10
79.8667
 20
99.4626
  0
VERTEX
  8
0
 10
79.8473
 20
99.5233
  0
VERTEX
  8
0
 10
79.8079
 20
99.6828
  0
VERTEX
  8
0
 10
79.7757
 20
99.8438
  0
VERTEX
  8
0
 10
79.7506
 20
100.0063
  0
VERTEX
  8
0
 10
79.7327
 20
100.1703
  0
VERTEX
  8
0
 10
79.722
 20
100.3358
  0
VERTEX
  8
0
 10
79.7184
 20
100.5028
  0
VERTEX
  8
0
 10
79.7219
 20
100.6662
  0
VERTEX
  8
0
 10
79.7324
 20
100.8292
  0
VERTEX
  8
0
 10
79.7499
 20
100.9917
  0
VERTEX
  8
0
 10
79.7744
 20
101.1537
  0
VERTEX
  8
0
 10
79.8058
 20
101.3152
  0
VERTEX
  8
0
 10
79.8443
 20
101.4762
  0
VERTEX
  8
0
 10
79.8637
 20
101.537
  0
VERTEX
  8
0
 10
79.8873
 20
101.595
  0
VERTEX
  8
0
 10
79.9152
 20
101.6502
  0
VERTEX
  8
0
 10
79.9474
 20
101.7027
  0
VERTEX
  8
0
 10
79.9838
 20
101.7524
  0
VERTEX
  8
0
 10
80.0245
 20
101.7994
  0
VERTEX
  8
0
 10
80.0694
 20
101.8436
  0
VERTEX
  8
0
 10
80.1186
 20
101.885
  0
VERTEX
  8
0
 10
80.1709
 20
101.9226
  0
VERTEX
  8
0
 10
80.225
 20
101.9551
  0
VERTEX
  8
0
 10
80.2809
 20
101.9827
  0
VERTEX
  8
0
 10
80.3386
 20
102.0052
  0
VERTEX
  8
0
 10
80.3982
 20
102.0227
  0
VERTEX
  8
0
 10
80.4596
 20
102.0352
  0
VERTEX
  8
0
 10
80.5228
 20
102.0428
  0
VERTEX
  8
0
 10
80.5879
 20
102.0453
  0
VERTEX
  8
0
 10
80.6407
 20
102.0437
  0
VERTEX
  8
0
 10
80.6921
 20
102.039
  0
VERTEX
  8
0
 10
80.7423
 20
102.0312
  0
VERTEX
  8
0
 10
80.7911
 20
102.0202
  0
VERTEX
  8
0
 10
80.8385
 20
102.0062
  0
VERTEX
  8
0
 10
80.8847
 20
101.9889
  0
VERTEX
  8
0
 10
80.9295
 20
101.9686
  0
VERTEX
  8
0
 10
80.9729
 20
101.9451
  0
VERTEX
  8
0
 10
81.0151
 20
101.9185
  0
VERTEX
  8
0
 10
81.0559
 20
101.8888
  0
VERTEX
  8
0
 10
81.0954
 20
101.856
  0
VERTEX
  8
0
 10
81.1335
 20
101.82
  0
VERTEX
  8
0
 10
81.1694
 20
101.7818
  0
VERTEX
  8
0
 10
81.2022
 20
101.7423
  0
VERTEX
  8
0
 10
81.2319
 20
101.7015
  0
VERTEX
  8
0
 10
81.2584
 20
101.6595
  0
VERTEX
  8
0
 10
81.2819
 20
101.6161
  0
VERTEX
  8
0
 10
81.3022
 20
101.5714
  0
VERTEX
  8
0
 10
81.3193
 20
101.5255
  0
VERTEX
  8
0
 10
81.3334
 20
101.4782
  0
VERTEX
  8
0
 10
81.3443
 20
101.4297
  0
VERTEX
  8
0
 10
81.3521
 20
101.3799
  0
VERTEX
  8
0
 10
81.3568
 20
101.3287
  0
VERTEX
  8
0
 10
81.3584
 20
101.2763
  0
VERTEX
  8
0
 10
81.3584
 20
101.2013
  0
VERTEX
  8
0
 10
80.9344
 20
101.2013
  0
VERTEX
  8
0
 10
80.9344
 20
101.2765
  0
VERTEX
  8
0
 10
80.9303
 20
101.3325
  0
VERTEX
  8
0
 10
80.9181
 20
101.3852
  0
VERTEX
  8
0
 10
80.8978
 20
101.4345
  0
VERTEX
  8
0
 10
80.8693
 20
101.4804
  0
VERTEX
  8
0
 10
80.8328
 20
101.523
  0
VERTEX
  8
0
 10
80.7904
 20
101.5598
  0
VERTEX
  8
0
 10
80.7448
 20
101.5885
  0
VERTEX
  8
0
 10
80.6958
 20
101.6089
  0
VERTEX
  8
0
 10
80.6434
 20
101.6212
  0
VERTEX
  8
0
 10
80.5877
 20
101.6253
  0
VERTEX
  8
0
 10
80.5126
 20
101.6173
  0
VERTEX
  8
0
 10
80.4429
 20
101.5933
  0
VERTEX
  8
0
 10
80.3785
 20
101.5535
  0
VERTEX
  8
0
 10
80.3237
 20
101.5009
  0
VERTEX
  8
0
 10
80.2828
 20
101.4391
  0
VERTEX
  8
0
 10
80.2559
 20
101.368
  0
VERTEX
  8
0
 10
80.2151
 20
101.1984
  0
VERTEX
  8
0
 10
80.1833
 20
101.0271
  0
VERTEX
  8
0
 10
80.1605
 20
100.8542
  0
VERTEX
  8
0
 10
80.1469
 20
100.6796
  0
VERTEX
  8
0
 10
80.1424
 20
100.5033
  0
VERTEX
  8
0
 10
80.1469
 20
100.3259
  0
VERTEX
  8
0
 10
80.1605
 20
100.1504
  0
VERTEX
  8
0
 10
80.1833
 20
99.9769
  0
VERTEX
  8
0
 10
80.2151
 20
99.8053
  0
VERTEX
  8
0
 10
80.2559
 20
99.6356
  0
VERTEX
  8
0
 10
80.2828
 20
99.5661
  0
VERTEX
  8
0
 10
80.3237
 20
99.5053
  0
VERTEX
  8
0
 10
80.3785
 20
99.4531
  0
VERTEX
  8
0
 10
80.4429
 20
99.4132
  0
VERTEX
  8
0
 10
80.5126
 20
99.3892
  0
VERTEX
  8
0
 10
80.5877
 20
99.3813
  0
VERTEX
  8
0
 10
80.6434
 20
99.3853
  0
VERTEX
  8
0
 10
80.6958
 20
99.3975
  0
VERTEX
  8
0
 10
80.7448
 20
99.4177
  0
VERTEX
  8
0
 10
80.7904
 20
99.4461
  0
VERTEX
  8
0
 10
80.8328
 20
99.4825
  0
VERTEX
  8
0
 10
80.8693
 20
99.5247
  0
VERTEX
  8
0
 10
80.8978
 20
99.5702
  0
VERTEX
  8
0
 10
80.9181
 20
99.6191
  0
VERTEX
  8
0
 10
80.9303
 20
99.6713
  0
VERTEX
  8
0
 10
80.9344
 20
99.7268
  0
VERTEX
  8
0
 10
80.9344
 20
99.8013
  0
VERTEX
  8
0
 10
81.3584
 20
99.8013
  0
SEQEND
  0
POLYLINE
  8
0
 66
     1
 10
0
 20
0
  0
VERTEX
  8
0
 10
83.5714
 20
102.0013
  0
VERTEX
  8
0
 10
82.8464
 20
100.3628
  0
VERTEX
  8
0
 10
82.8464
 20
99.0053
  0
VERTEX
  8
0
 10
82.4224
 20
99.0053
  0
VERTEX
  8
0
 10
82.4224
 20
100.3625
  0
VERTEX
  8
0
 10
81.6984
 20
102.0013
  0
VERTEX
  8
0
 10
82.1619
 20
102.0013
  0
VERTEX
  8
0
 10
82.6345
 20
100.9318
  0
VERTEX
  8
0
 10
83.1078
 20
102.0013
  0
VERTEX
  8
0
 10
83.5714
 20
102.0013
  0
SEQEND
  0
POLYLINE
  8
0
 66
     1
 10
0
 20
0
  0
VERTEX
  8
0
 10
70.8864
 20
94.0053
  0
VERTEX
  8
0
 10
70.4664
 20
94.0053
  0
VERTEX
  8
0
 10
70.4664
 20
97.0013
  0
VERTEX
  8
0
 10
70.8864
 20
97.0013
  0
VERTEX
  8
0
 10
70.8864
 20
94.0053
  0
SEQEND
  0
POLYLINE
  8
0
 66
     1
 10
0
 20
0
  0
VERTEX
  8
0
 10
73.1584
 20
94.0053
  0
VERTEX
  8
0
 10
72.8244
 20
94.0053
  0
VERTEX
  8
0
 10
71.9424
 20
95.9888
  0
VERTEX
  8
0
 10
71.9424
 20
94.0053
  0
VERTEX
  8
0
 10
71.5184
 20
94.0053
  0
VERTEX
  8
0
 10
71.5184
 20
97.0013
  0
VERTEX
  8
0
 10
71.9499
 20
97.0013
  0
VERTEX
  8
0
 10
72.7344
 20
95.246
  0
VERTEX
  8
0
 10
72.7344
 20
97.0013
  0
VERTEX
  8
0
 10
73.1584
 20
97.0013
  0
VERTEX
  8
0
 10
73.1584
 20
94.0053
  0
SEQEND
  0
POLYLINE
  8
0
 66
     1
 10
0
 20
0
  0
VERTEX
  8
0
 10
75.2928
 20
96.5773
  0
VERTEX
  8
0
 10
74.2184
 20
96.5773
  0
VERTEX
  8
0
 10
74.2184
 20
95.8293
  0
VERTEX
  8
0
 10
74.8264
 20
95.8293
  0
VERTEX
  8
0
 10
74.8264
 20
95.4093
  0
VERTEX
  8
0
 10
74.2184
 20
95.4093
  0
VERTEX
  8
0
 10
74.2184
 20
94.0053
  0
VERTEX
  8
0
 10
73.7944
 20
94.0053
  0
VERTEX
  8
0
 10
73.7944
 20
97.0013
  0
VERTEX
  8
0
 10
75.2928
 20
97.0013
  0
VERTEX
  8
0
 10
75.2928
 20
96.5773
  0
SEQEND
  0
POLYLINE
  8
0
 66
     1
 10
0
 20
0
  0
VERTEX
  8
0
 10
77.5304
 20
95.5028
  0
VERTEX
  8
0
 10
77.5268
 20
95.3384
  0
VERTEX
  8
0
 10
77.5161
 20
95.1746
  0
VERTEX
  8
0
 10
77.4982
 20
95.0116
  0
VERTEX
  8
0
 10
77.4731
 20
94.8492
  0
VERTEX
  8
0
 10
77.4409
 20
94.6874
  0
VERTEX
  8
0
 10
77.4015
 20
94.5263
  0
VERTEX
  8
0
 10
77.3829
 20
94.4656
  0
VERTEX
  8
0
 10
77.3599
 20
94.4076
  0
VERTEX
  8
0
 10
77.3327
 20
94.3523
  0
VERTEX
  8
0
 10
77.3012
 20
94.2998
  0
VERTEX
  8
0
 10
77.2653
 20
94.2501
  0
VERTEX
  8
0
 10
77.2251
 20
94.2032
  0
VERTEX
  8
0
 10
77.1806
 20
94.159
  0
VERTEX
  8
0
 10
77.1318
 20
94.1175
  0
VERTEX
  8
0
 10
77.08
 20
94.08
  0
VERTEX
  8
0
 10
77.0262
 20
94.0474
  0
VERTEX
  8
0
 10
76.9706
 20
94.0199
  0
VERTEX
  8
0
 10
76.9131
 20
93.9973
  0
VERTEX
  8
0
 10
76.8537
 20
93.9798
  0
VERTEX
  8
0
 10
76.7925
 20
93.9673
  0
VERTEX
  8
0
 10
76.7294
 20
93.9598
  0
VERTEX
  8
0
 10
76.6644
 20
93.9573
  0
VERTEX
  8
0
 10
76.6001
 20
93.9598
  0
VERTEX
  8
0
 10
76.5375
 20
93.9673
  0
VERTEX
  8
0
 10
76.4767
 20
93.9798
  0
VERTEX
  8
0
 10
76.4175
 20
93.9973
  0
VERTEX
  8
0
 10
76.3602
 20
94.0199
  0
VERTEX
  8
0
 10
76.3045
 20
94.0474
  0
VERTEX
  8
0
 10
76.2506
 20
94.08
  0
VERTEX
  8
0
 10
76.1984
 20
94.1175
  0
VERTEX
  8
0
 10
76.1493
 20
94.1589
  0
VERTEX
  8
0
 10
76.1045
 20
94.203
  0
VERTEX
  8
0
 10
76.0641
 20
94.2497
  0
VERTEX
  8
0
 10
76.028
 20
94.2991
  0
VERTEX
  8
0
 10
75.9963
 20
94.3512
  0
VERTEX
  8
0
 10
75.9689
 20
94.4059
  0
VERTEX
  8
0
 10
75.9459
 20
94.4633
  0
VERTEX
  8
0
 10
75.9273
 20
94.5233
  0
VERTEX
  8
0
 10
75.8879
 20
94.6845
  0
VERTEX
  8
0
 10
75.8557
 20
94.8465
  0
VERTEX
  8
0
 10
75.8306
 20
95.0093
  0
VERTEX
  8
0
 10
75.8127
 20
95.173
  0
VERTEX
  8
0
 10
75.802
 20
95.3375
  0
VERTEX
  8
0
 10
75.7984
 20
95.5028
  0
VERTEX
  8
0
 10
75.802
 20
95.6698
  0
VERTEX
  8
0
 10
75.8127
 20
95.8356
  0
VERTEX
  8
0
 10
75.8306
 20
96
  0
VERTEX
  8
0
 10
75.8557
 20
96.163
  0
VERTEX
  8
0
 10
75.8879
 20
96.3248
  0
VERTEX
  8
0
 10
75.9273
 20
96.4852
  0
VERTEX
  8
0
 10
75.9466
 20
96.5452
  0
VERTEX
  8
0
 10
75.9701
 20
96.6025
  0
VERTEX
  8
0
 10
75.9979
 20
96.657
  0
VERTEX
  8
0
 10
76.0299
 20
96.7087
  0
VERTEX
  8
0
 10
76.066
 20
96.7577
  0
VERTEX
  8
0
 10
76.1065
 20
96.8039
  0
VERTEX
  8
0
 10
76.1511
 20
96.8473
  0
VERTEX
  8
0
 10
76.1999
 20
96.888
  0
VERTEX
  8
0
 10
76.2517
 20
96.9249
  0
VERTEX
  8
0
 10
76.3054
 20
96.9568
  0
VERTEX
  8
0
 10
76.3607
 20
96.9838
  0
VERTEX
  8
0
 10
76.4179
 20
97.006
  0
VERTEX
  8
0
 10
76.4769
 20
97.0232
  0
VERTEX
  8
0
 10
76.5376
 20
97.0354
  0
VERTEX
  8
0
 10
76.6001
 20
97.0428
  0
VERTEX
  8
0
 10
76.6644
 20
97.0453
  0
VERTEX
  8
0
 10
76.7287
 20
97.0428
  0
VERTEX
  8
0
 10
76.7912
 20
97.0355
  0
VERTEX
  8
0
 10
76.8519
 20
97.0234
  0
VERTEX
  8
0
 10
76.9108
 20
97.0063
  0
VERTEX
  8
0
 10
76.968
 20
96.9844
  0
VERTEX
  8
0
 10
77.0234
 20
96.9577
  0
VERTEX
  8
0
 10
77.077
 20
96.926
  0
VERTEX
  8
0
 10
77.1288
 20
96.8895
  0
VERTEX
  8
0
 10
77.1776
 20
96.8492
  0
VERTEX
  8
0
 10
77.2221
 20
96.806
  0
VERTEX
  8
0
 10
77.2623
 20
96.7601
  0
VERTEX
  8
0
 10
77.2982
 20
96.7113
  0
VERTEX
  8
0
 10
77.3297
 20
96.6597
  0
VERTEX
  8
0
 10
77.3569
 20
96.6053
  0
VERTEX
  8
0
 10
77.3799
 20
96.5481
  0
VERTEX
  8
0
 10
77.3985
 20
96.4881
  0
VERTEX
  8
0
 10
77.4388
 20
96.3285
  0
VERTEX
  8
0
 10
77.4718
 20
96.167
  0
VERTEX
  8
0
 10
77.4974
 20
96.0037
  0
VERTEX
  8
0
 10
77.5157
 20
95.8386
  0
VERTEX
  8
0
 10
77.5267
 20
95.6716
  0
VERTEX
  8
0
 10
77.5304
 20
95.5028
  0
VERTEX
  8
0
 10
77.5304
 20
95.5028
  0
SEQEND
  0
POLYLINE
  8
0
 66
     1
 10
0
 20
0
  0
VERTEX
  8
0
 10
77.1064
 20
95.5033
  0
VERTEX
  8
0
 10
77.1018
 20
95.6828
  0
VERTEX
  8
0
 10
77.0882
 20
95.8599
  0
VERTEX
  8
0
 10
77.0655
 20
96.0347
  0
VERTEX
  8
0
 10
77.0337
 20
96.207
  0
VERTEX
  8
0
 10
76.9929
 20
96.377
  0
VERTEX
  8
0
 10
76.9662
 20
96.4446
  0
VERTEX
  8
0
 10
76.9259
 20
96.5039
  0
VERTEX
  8
0
 10
76.8719
 20
96.555
  0
VERTEX
  8
0
 10
76.8084
 20
96.594
  0
VERTEX
  8
0
 10
76.7392
 20
96.6175
  0
VERTEX
  8
0
 10
76.6644
 20
96.6253
  0
VERTEX
  8
0
 10
76.5895
 20
96.6175
  0
VERTEX
  8
0
 10
76.5204
 20
96.594
  0
VERTEX
  8
0
 10
76.4568
 20
96.555
  0
VERTEX
  8
0
 10
76.4029
 20
96.5036
  0
VERTEX
  8
0
 10
76.3626
 20
96.4433
  0
VERTEX
  8
0
 10
76.3359
 20
96.374
  0
VERTEX
  8
0
 10
76.295
 20
96.2032
  0
VERTEX
  8
0
 10
76.2632
 20
96.0307
  0
VERTEX
  8
0
 10
76.2405
 20
95.8566
  0
VERTEX
  8
0
 10
76.2269
 20
95.6808
  0
VERTEX
  8
0
 10
76.2224
 20
95.5033
  0
VERTEX
  8
0
 10
76.2269
 20
95.3278
  0
VERTEX
  8
0
 10
76.2405
 20
95.1533
  0
VERTEX
  8
0
 10
76.2632
 20
94.9798
  0
VERTEX
  8
0
 10
76.295
 20
94.8072
  0
VERTEX
  8
0
 10
76.3359
 20
94.6356
  0
VERTEX
  8
0
 10
76.3626
 20
94.5661
  0
VERTEX
  8
0
 10
76.4029
 20
94.5053
  0
VERTEX
  8
0
 10
76.4568
 20
94.4531
  0
VERTEX
  8
0
 10
76.5204
 20
94.4132
  0
VERTEX
  8
0
 10
76.5895
 20
94.3892
  0
VERTEX
  8
0
 10
76.6644
 20
94.3813
  0
VERTEX
  8
0
 10
76.7392
 20
94.3891
  0
VERTEX
  8
0
 10
76.8084
 20
94.4125
  0
VERTEX
  8
0
 10
76.8719
 20
94.4516
  0
VERTEX
  8
0
 10
76.9259
 20
94.5029
  0
VERTEX
  8
0
 10
76.9662
 20
94.5633
  0
VERTEX
  8
0
 10
76.9929
 20
94.6326
  0
VERTEX
  8
0
 10
77.0337
 20
94.8043
  0
VERTEX
  8
0
 10
77.0655
 20
94.9773
  0
VERTEX
  8
0
 10
77.0882
 20
95.1514
  0
VERTEX
  8
0
 10
77.1018
 20
95.3267
  0
VERTEX
  8
0
 10
77.1064
 20
95.5033
  0
VERTEX
  8
0
 10
77.1064
 20
95.5033
  0
SEQEND
  0
POLYLINE
  8
0
 66
     1
 10
0
 20
0
  0
VERTEX
  8
0
 10
67.1526
 20
88.0053
  0
VERTEX
  8
0
 10
66.5457
 20
88.0053
  0
VERTEX
  8
0
 10
65.9815
 20
89.3546
  0
VERTEX
  8
0
 10
65.4173
 20
88.0053
  0
VERTEX
  8
0
 10
64.8104
 20
88.0053
  0
VERTEX
  8
0
 10
65.6758
 20
90.0753
  0
VERTEX
  8
0
 10
64.8749
 20
92.0013
  0
VERTEX
  8
0
 10
65.4819
 20
92.0013
  0
VERTEX
  8
0
 10
65.9815
 20
90.8063
  0
VERTEX
  8
0
 10
66.4811
 20
92.0013
  0
VERTEX
  8
0
 10
67.088
 20
92.0013
  0
VERTEX
  8
0
 10
66.2828
 20
90.0753
  0
VERTEX
  8
0
 10
67.1526
 20
88.0053
  0
SEQEND
  0
POLYLINE
  8
0
 66
     1
 10
0
 20
0
  0
VERTEX
  8
0
 10
70.1726
 20
88.0053
  0
VERTEX
  8
0
 10
69.5657
 20
88.0053
  0
VERTEX
  8
0
 10
69.0015
 20
89.3546
  0
VERTEX
  8
0
 10
68.4373
 20
88.0053
  0
VERTEX
  8
0
 10
67.8304
 20
88.0053
  0
VERTEX
  8
0
 10
68.6958
 20
90.0753
  0
VERTEX
  8
0
 10
67.8949
 20
92.0013
  0
VERTEX
  8
0
 10
68.5019
 20
92.0013
  0
VERTEX
  8
0
 10
69.0015
 20
90.8063
  0
VERTEX
  8
0
 10
69.5011
 20
92.0013
  0
VERTEX
  8
0
 10
70.108
 20
92.0013
  0
VERTEX
  8
0
 10
69.3028
 20
90.0753
  0
VERTEX
  8
0
 10
70.1726
 20
88.0053
  0
SEQEND
  0
POLYLINE
  8
0
 66
     1
 10
0
 20
0
  0
VERTEX
  8
0
 10
71.6384
 20
88.2853
  0
VERTEX
  8
0
 10
71.6344
 20
88.2308
  0
VERTEX
  8
0
 10
71.6224
 20
88.1793
  0
VERTEX
  8
0
 10
71.6024
 20
88.1309
  0
VERTEX
  8
0
 10
71.5744
 20
88.0856
  0
VERTEX
  8
0
 10
71.5384
 20
88.0433
  0
VERTEX
  8
0
 10
71.4966
 20
88.0065
  0
VERTEX
  8
0
 10
71.4513
 20
87.978
  0
VERTEX
  8
0
 10
71.4025
 20
87.9576
  0
VERTEX
  8
0
 10
71.3502
 20
87.9453
  0
VERTEX
  8
0
 10
71.2944
 20
87.9413
  0
VERTEX
  8
0
 10
71.2399
 20
87.9453
  0
VERTEX
  8
0
 10
71.1885
 20
87.9576
  0
VERTEX
  8
0
 10
71.1401
 20
87.978
  0
VERTEX
  8
0
 10
71.0947
 20
88.0065
  0
VERTEX
  8
0
 10
71.0524
 20
88.0433
  0
VERTEX
  8
0
 10
71.0157
 20
88.0856
  0
VERTEX
  8
0
 10
70.9871
 20
88.1309
  0
VERTEX
  8
0
 10
70.9667
 20
88.1793
  0
VERTEX
  8
0
 10
70.9545
 20
88.2308
  0
VERTEX
  8
0
 10
70.9504
 20
88.2853
  0
VERTEX
  8
0
 10
70.9545
 20
88.3411
  0
VERTEX
  8
0
 10
70.9667
 20
88.3934
  0
VERTEX
  8
0
 10
70.9871
 20
88.4422
  0
VERTEX
  8
0
 10
71.0157
 20
88.4875
  0
VERTEX
  8
0
 10
71.0524
 20
88.5293
  0
VERTEX
  8
0
 10
71.0947
 20
88.5653
  0
VERTEX
  8
0
 10
71.1401
 20
88.5933
  0
VERTEX
  8
0
 10
71.1885
 20
88.6133
  0
VERTEX
  8
0
 10
71.2399
 20
88.6253
  0
VERTEX
  8
0
 10
71.2944
 20
88.6293
  0
VERTEX
  8
0
 10
71.3502
 20
88.6253
  0
VERTEX
  8
0
 10
71.4025
 20
88.6133
  0
VERTEX
  8
0
 10
71.4513
 20
88.5933
  0
VERTEX
  8
0
 10
71.4966
 20
88.5653
  0
VERTEX
  8
0
 10
71.5384
 20
88.5293
  0
VERTEX
  8
0
 10
71.5744
 20
88.4875
  0
VERTEX
  8
0
 10
71.6024
 20
88.4422
  0
VERTEX
  8
0
 10
71.6224
 20
88.3934
  0
VERTEX
  8
0
 10
71.6344
 20
88.3411
  0
VERTEX
  8
0
 10
71.6384
 20
88.2853
  0
VERTEX
  8
0
 10
71.6384
 20
88.2853
  0
SEQEND
  0
POLYLINE
  8
0
 66
     1
 10
0
 20
0
  0
VERTEX
  8
0
 10
73.9166
 20
88.0053
  0
VERTEX
  8
0
 10
73.3097
 20
88.0053
  0
VERTEX
  8
0
 10
72.7455
 20
89.3546
  0
VERTEX
  8
0
 10
72.1813
 20
88.0053
  0
VERTEX
  8
0
 10
71.5744
 20
88.0053
  0
VERTEX
  8
0
 10
72.4398
 20
90.0753
  0
VERTEX
  8
0
 10
71.6389
 20
92.0013
  0
VERTEX
  8
0
 10
72.2459
 20
92.0013
  0
VERTEX
  8
0
 10
72.7455
 20
90.8063
  0
VERTEX
  8
0
 10
73.2451
 20
92.0013
  0
VERTEX
  8
0
 10
73.852
 20
92.0013
  0
VERTEX
  8
0
 10
73.0468
 20
90.0753
  0
VERTEX
  8
0
 10
73.9166
 20
88.0053
  0
SEQEND
  0
POLYLINE
  8
0
 66
     1
 10
0
 20
0
  0
VERTEX
  8
0
 10
79.9168
 20
91.4373
  0
VERTEX
  8
0
 10
78.4824
 20
91.4373
  0
VERTEX
  8
0
 10
78.4824
 20
90.4413
  0
VERTEX
  8
0
 10
79.2944
 20
90.4413
  0
VERTEX
  8
0
 10
79.2944
 20
89.8813
  0
VERTEX
  8
0
 10
78.4824
 20
89.8813
  0
VERTEX
  8
0
 10
78.4824
 20
88.0053
  0
VERTEX
  8
0
 10
77.9184
 20
88.0053
  0
VERTEX
  8
0
 10
77.9184
 20
92.0013
  0
VERTEX
  8
0
 10
79.9168
 20
92.0013
  0
VERTEX
  8
0
 10
79.9168
 20
91.4373
  0
SEQEND
  0
POLYLINE
  8
0
 66
     1
 10
0
 20
0
  0
VERTEX
  8
0
 10
83.1824
 20
88.0053
  0
VERTEX
  8
0
 10
82.6224
 20
88.0053
  0
VERTEX
  8
0
 10
82.6224
 20
90.2515
  0
VERTEX
  8
0
 10
81.8894
 20
88.0053
  0
VERTEX
  8
0
 10
81.1584
 20
90.2515
  0
VERTEX
  8
0
 10
81.1584
 20
88.0053
  0
VERTEX
  8
0
 10
80.5944
 20
88.0053
  0
VERTEX
  8
0
 10
80.5944
 20
92.0013
  0
VERTEX
  8
0
 10
81.178
 20
92.0013
  0
VERTEX
  8
0
 10
81.8881
 20
89.8192
  0
VERTEX
  8
0
 10
82.6001
 20
92.0013
  0
VERTEX
  8
0
 10
83.1824
 20
92.0013
  0
VERTEX
  8
0
 10
83.1824
 20
88.0053
  0
SEQEND
  0
ENDSEC
  0
EOF