  0
SECTION
  2
HEADER
  9
$ACADVER
  1
AC1009
  0
ENDSEC
  0
SECTION
  2
TABLES
  0
TABLE
  2
STYLE
 70
   1
  0
STYLE
  2
STANDARD
 70
    64
 40
0.0
 41
1.0
 50
0.0
 71
     0
 42
1.0
  3
txt
  4

  0
ENDTAB
  0
ENDSEC
  0
SECTION
  2
ENTITIES
  0
ARC
  8
0
 10
63.5
 20
87.5
 40
1.5
 50
180
 51
270
  0
ARC
  8
0
 10
96.5
 20
87.5
 40
1.5
 50
270
 51
360
  0
ARC
  8
0
 10
96.5
 20
108.5
 40
1.5
 50
0
 51
90
  0
ARC
  8
0
 10
63.5
 20
108.5
 40
1.5
 50
90
 51
180
  0
POLYLINE
  8
0
 66
     1
 10
0
 20
0
  0
VERTEX
  8
0
 10
63.5
 20
86
  0
VERTEX
  8
0
 10
96.5
 20
86
  0
SEQEND
  0
POLYLINE
  8
0
 66
     1
 10
0
 20
0
  0
VERTEX
  8
0
 10
98
 20
87.5
  0
VERTEX
  8
0
 10
98
 20
108.5
  0
SEQEND
  0
POLYLINE
  8
0
 66
     1
 10
0
 20
0
  0
VERTEX
  8
0
 10
96.5
 20
110
  0
VERTEX
  8
0
 10
63.5
 20
110
  0
SEQEND
  0
POLYLINE
  8
0
 66
     1
 10
0
 20
0
  0
VERTEX
  8
0
 10
62
 20
108.5
  0
VERTEX
  8
0
 10
62
 20
87.5
  0
SEQEND
  0
ARC
  8
0
 10
63.5
 20
87.5
 40
1.5
 50
180
 51
270
  0
ARC
  8
0
 10
63.5
 20
87.5
 40
0.75
 50
180
 51
270
  0
ARC
  8
0
 10
96.5
 20
87.5
 40
1.5
 50
270
 51
360
  0
ARC
  8
0
 10
96.5
 20
87.5
 40
0.75
 50
270
 51
360
  0
ARC
  8
0
 10
96.5
 20
108.5
 40
1.5
 50
0
 51
90
  0
ARC
  8
0
 10
96.5
 20
108.5
 40
0.75
 50
0
 51
90
  0
ARC
  8
0
 10
63.5
 20
108.5
 40
1.5
 50
90
 51
180
  0
ARC
  8
0
 10
63.5
 20
108.5
 40
0.75
 50
90
 51
180
  0
POLYLINE
  8
0
 66
     1
 10
0
 20
0
  0
VERTEX
  8
0
 10
63.5
 20
86.75
  0
VERTEX
  8
0
 10
96.5
 20
86.75
  0
SEQEND
  0
POLYLINE
  8
0
 66
     1
 10
0
 20
0
  0
VERTEX
  8
0
 10
96.5
 20
86
  0
VERTEX
  8
0
 10
63.5
 20
86
  0
SEQEND
  0
POLYLINE
  8
0
 66
     1
 10
0
 20
0
  0
VERTEX
  8
0
 10
97.25
 20
87.5
  0
VERTEX
  8
0
 10
97.25
 20
108.5
  0
SEQEND
  0
POLYLINE
  8
0
 66
     1
 10
0
 20
0
  0
VERTEX
  8
0
 10
98
 20
108.5
  0
VERTEX
  8
0
 10
98
 20
87.5
  0
SEQEND
  0
POLYLINE
  8
0
 66
     1
 10
0
 20
0
  0
VERTEX
  8
0
 10
96.5
 20
109.25
  0
VERTEX
  8
0
 10
63.5
 20
109.25
  0
SEQEND
  0
POLYLINE
  8
0
 66
     1
 10
0
 20
0
  0
VERTEX
  8
0
 10
63.5
 20
110
  0
VERTEX
  8
0
 10
96.5
 20
110
  0
SEQEND
  0
POLYLINE
  8
0
 66
     1
 10
0
 20
0
  0
VERTEX
  8
0
 10
62.75
 20
108.5
  0
VERTEX
  8
0
 10
62.75
 20
87.5
  0
SEQEND
  0
POLYLINE
  8
0
 66
     1
 10
0
 20
0
  0
VERTEX
  8
0
 10
62
 20
87.5
  0
VERTEX
  8
0
 10
62
 20
108.5
  0
SEQEND
  0
POLYLINE
  8
0
 66
     1
 10
0
 20
0
  0
VERTEX
  8
0
 10
99.806
 20
108.541
  0
VERTEX
  8
0
 10
99.902
 20
108.541
  0
VERTEX
  8
0
 10
99.902
 20
107.997
  0
VERTEX
  8
0
 10
99.8581
 20
108.001
  0
VERTEX
  8
0
 10
99.8131
 20
108.0154
  0
VERTEX
  8
0
 10
99.7671
 20
108.0401
  0
VERTEX
  8
0
 10
99.7202
 20
108.0752
  0
VERTEX
  8
0
 10
99.6608
 20
108.1317
  0
VERTEX
  8
0
 10
99.594
 20
108.208
  0
VERTEX
  8
0
 10
99.5425
 20
108.2687
  0
VERTEX
  8
0
 10
99.499
 20
108.3167
  0
VERTEX
  8
0
 10
99.4632
 20
108.352
  0
VERTEX
  8
0
 10
99.4177
 20
108.3892
  0
VERTEX
  8
0
 10
99.3744
 20
108.4157
  0
VERTEX
  8
0
 10
99.3333
 20
108.4317
  0
VERTEX
  8
0
 10
99.2944
 20
108.437
  0
VERTEX
  8
0
 10
99.2357
 20
108.4254
  0
VERTEX
  8
0
 10
99.1893
 20
108.3908
  0
VERTEX
  8
0
 10
99.1601
 20
108.3416
  0
VERTEX
  8
0
 10
99.15
 20
108.2817
  0
VERTEX
  8
0
 10
99.161
 20
108.2145
  0
VERTEX
  8
0
 10
99.195
 20
108.1635
  0
VERTEX
  8
0
 10
99.2484
 20
108.1313
  0
VERTEX
  8
0
 10
99.3175
 20
108.1202
  0
VERTEX
  8
0
 10
99.3067
 20
108.0162
  0
VERTEX
  8
0
 10
99.2517
 20
108.025
  0
VERTEX
  8
0
 10
99.2035
 20
108.0413
  0
VERTEX
  8
0
 10
99.1623
 20
108.0652
  0
VERTEX
  8
0
 10
99.1279
 20
108.0966
  0
VERTEX
  8
0
 10
99.0935
 20
108.1487
  0
VERTEX
  8
0
 10
99.0729
 20
108.2111
  0
VERTEX
  8
0
 10
99.066
 20
108.2839
  0
VERTEX
  8
0
 10
99.0727
 20
108.3525
  0
VERTEX
  8
0
 10
99.0926
 20
108.4127
  0
VERTEX
  8
0
 10
99.1258
 20
108.4645
  0
VERTEX
  8
0
 10
99.1605
 20
108.4979
  0
VERTEX
  8
0
 10
99.2008
 20
108.5218
  0
VERTEX
  8
0
 10
99.2466
 20
108.5362
  0
VERTEX
  8
0
 10
99.2979
 20
108.541
  0
VERTEX
  8
0
 10
99.3478
 20
108.5355
  0
VERTEX
  8
0
 10
99.3979
 20
108.519
  0
VERTEX
  8
0
 10
99.4481
 20
108.4916
  0
VERTEX
  8
0
 10
99.4984
 20
108.4533
  0
VERTEX
  8
0
 10
99.5393
 20
108.4145
  0
VERTEX
  8
0
 10
99.5883
 20
108.3626
  0
VERTEX
  8
0
 10
99.6454
 20
108.2977
  0
VERTEX
  8
0
 10
99.6813
 20
108.2556
  0
VERTEX
  8
0
 10
99.7062
 20
108.227
  0
VERTEX
  8
0
 10
99.72
 20
108.2117
  0
VERTEX
  8
0
 10
99.7637
 20
108.1697
  0
VERTEX
  8
0
 10
99.806
 20
108.138
  0
VERTEX
  8
0
 10
99.806
 20
108.541
  0
SEQEND
  0
POLYLINE
  8
0
 66
     1
 10
0
 20
0
  0
VERTEX
  8
0
 10
99.902
 20
108.705
  0
VERTEX
  8
0
 10
99.782
 20
108.705
  0
VERTEX
  8
0
 10
99.782
 20
108.821
  0
VERTEX
  8
0
 10
99.902
 20
108.821
  0
VERTEX
  8
0
 10
99.902
 20
108.705
  0
SEQEND
  0
POLYLINE
  8
0
 66
     1
 10
0
 20
0
  0
VERTEX
  8
0
 10
99.6815
 20
108.969
  0
VERTEX
  8
0
 10
99.6723
 20
109.0755
  0
VERTEX
  8
0
 10
99.7054
 20
109.0821
  0
VERTEX
  8
0
 10
99.7346
 20
109.0915
  0
VERTEX
  8
0
 10
99.7599
 20
109.1036
  0
VERTEX
  8
0
 10
99.7814
 20
109.1185
  0
VERTEX
  8
0
 10
99.7989
 20
109.1362
  0
VERTEX
  8
0
 10
99.8125
 20
109.1566
  0
VERTEX
  8
0
 10
99.8222
 20
109.1797
  0
VERTEX
  8
0
 10
99.8281
 20
109.2057
  0
VERTEX
  8
0
 10
99.83
 20
109.2343
  0
VERTEX
  8
0
 10
99.8231
 20
109.2848
  0
VERTEX
  8
0
 10
99.8023
 20
109.328
  0
VERTEX
  8
0
 10
99.7675
 20
109.3639
  0
VERTEX
  8
0
 10
99.7039
 20
109.3977
  0
VERTEX
  8
0
 10
99.6267
 20
109.409
  0
VERTEX
  8
0
 10
99.5506
 20
109.3973
  0
VERTEX
  8
0
 10
99.4906
 20
109.3622
  0
VERTEX
  8
0
 10
99.4616
 20
109.327
  0
VERTEX
  8
0
 10
99.4441
 20
109.2839
  0
VERTEX
  8
0
 10
99.438
 20
109.2327
  0
VERTEX
  8
0
 10
99.4429
 20
109.1869
  0
VERTEX
  8
0
 10
99.4581
 20
109.1466
  0
VERTEX
  8
0
 10
99.4836
 20
109.1117
  0
VERTEX
  8
0
 10
99.5195
 20
109.0822
  0
VERTEX
  8
0
 10
99.507
 20
108.987
  0
VERTEX
  8
0
 10
99.082
 20
109.0672
  0
VERTEX
  8
0
 10
99.082
 20
109.4785
  0
VERTEX
  8
0
 10
99.178
 20
109.4785
  0
VERTEX
  8
0
 10
99.178
 20
109.1508
  0
VERTEX
  8
0
 10
99.4017
 20
109.1046
  0
VERTEX
  8
0
 10
99.3632
 20
109.1807
  0
VERTEX
  8
0
 10
99.35
 20
109.2604
  0
VERTEX
  8
0
 10
99.3547
 20
109.3142
  0
VERTEX
  8
0
 10
99.3693
 20
109.3631
  0
VERTEX
  8
0
 10
99.3937
 20
109.4071
  0
VERTEX
  8
0
 10
99.4281
 20
109.4461
  0
VERTEX
  8
0
 10
99.4686
 20
109.4771
  0
VERTEX
  8
0
 10
99.5139
 20
109.4992
  0
VERTEX
  8
0
 10
99.564
 20
109.5125
  0
VERTEX
  8
0
 10
99.6187
 20
109.517
  0
VERTEX
  8
0
 10
99.6901
 20
109.5097
  0
VERTEX
  8
0
 10
99.755
 20
109.4879
  0
VERTEX
  8
0
 10
99.8133
 20
109.4516
  0
VERTEX
  8
0
 10
99.8494
 20
109.4175
  0
VERTEX
  8
0
 10
99.8775
 20
109.3787
  0
VERTEX
  8
0
 10
99.8976
 20
109.3353
  0
VERTEX
  8
0
 10
99.9098
 20
109.2872
  0
VERTEX
  8
0
 10
99.914
 20
109.2345
  0
VERTEX
  8
0
 10
99.9073
 20
109.1655
  0
VERTEX
  8
0
 10
99.887
 20
109.105
  0
VERTEX
  8
0
 10
99.8532
 20
109.053
  0
VERTEX
  8
0
 10
99.8063
 20
109.011
  0
VERTEX
  8
0
 10
99.7491
 20
108.983
  0
VERTEX
  8
0
 10
99.6815
 20
108.969
  0
VERTEX
  8
0
 10
99.6815
 20
108.969
  0
SEQEND
  0
LINE
  8
0
 10
99.7
 20
110
 11
98.5
 21
110
  0
LINE
  8
0
 10
99.7
 20
107.5
 11
98.5
 21
107.5
  0
POLYLINE
  8
0
 66
     1
 10
0
 20
0
  0
VERTEX
  8
0
 10
99.902
 20
104.845
  0
VERTEX
  8
0
 10
99.698
 20
104.845
  0
VERTEX
  8
0
 10
99.698
 20
104.485
  0
VERTEX
  8
0
 10
99.606
 20
104.485
  0
VERTEX
  8
0
 10
99.07
 20
104.8624
  0
VERTEX
  8
0
 10
99.07
 20
104.945
  0
VERTEX
  8
0
 10
99.606
 20
104.945
  0
VERTEX
  8
0
 10
99.606
 20
105.057
  0
VERTEX
  8
0
 10
99.698
 20
105.057
  0
VERTEX
  8
0
 10
99.698
 20
104.945
  0
VERTEX
  8
0
 10
99.902
 20
104.945
  0
VERTEX
  8
0
 10
99.902
 20
104.845
  0
SEQEND
  0
POLYLINE
  8
0
 66
     1
 10
0
 20
0
  0
VERTEX
  8
0
 10
99.606
 20
104.845
  0
VERTEX
  8
0
 10
99.2267
 20
104.845
  0
VERTEX
  8
0
 10
99.6069
 20
104.5822
  0
VERTEX
  8
0
 10
99.606
 20
104.845
  0
SEQEND
  0
POLYLINE
  8
0
 66
     1
 10
0
 20
0
  0
VERTEX
  8
0
 10
99.902
 20
105.213
  0
VERTEX
  8
0
 10
99.782
 20
105.213
  0
VERTEX
  8
0
 10
99.782
 20
105.329
  0
VERTEX
  8
0
 10
99.902
 20
105.329
  0
VERTEX
  8
0
 10
99.902
 20
105.213
  0
SEQEND
  0
POLYLINE
  8
0
 66
     1
 10
0
 20
0
  0
VERTEX
  8
0
 10
99.6815
 20
105.477
  0
VERTEX
  8
0
 10
99.6723
 20
105.5835
  0
VERTEX
  8
0
 10
99.7054
 20
105.5901
  0
VERTEX
  8
0
 10
99.7346
 20
105.5995
  0
VERTEX
  8
0
 10
99.7599
 20
105.6116
  0
VERTEX
  8
0
 10
99.7814
 20
105.6265
  0
VERTEX
  8
0
 10
99.7989
 20
105.6442
  0
VERTEX
  8
0
 10
99.8125
 20
105.6646
  0
VERTEX
  8
0
 10
99.8222
 20
105.6877
  0
VERTEX
  8
0
 10
99.8281
 20
105.7137
  0
VERTEX
  8
0
 10
99.83
 20
105.7423
  0
VERTEX
  8
0
 10
99.8231
 20
105.7928
  0
VERTEX
  8
0
 10
99.8023
 20
105.836
  0
VERTEX
  8
0
 10
99.7675
 20
105.8719
  0
VERTEX
  8
0
 10
99.7039
 20
105.9057
  0
VERTEX
  8
0
 10
99.6267
 20
105.917
  0
VERTEX
  8
0
 10
99.5506
 20
105.9053
  0
VERTEX
  8
0
 10
99.4906
 20
105.8702
  0
VERTEX
  8
0
 10
99.4616
 20
105.835
  0
VERTEX
  8
0
 10
99.4441
 20
105.7919
  0
VERTEX
  8
0
 10
99.438
 20
105.7407
  0
VERTEX
  8
0
 10
99.4429
 20
105.6949
  0
VERTEX
  8
0
 10
99.4581
 20
105.6546
  0
VERTEX
  8
0
 10
99.4836
 20
105.6197
  0
VERTEX
  8
0
 10
99.5195
 20
105.5902
  0
VERTEX
  8
0
 10
99.507
 20
105.495
  0
VERTEX
  8
0
 10
99.082
 20
105.5752
  0
VERTEX
  8
0
 10
99.082
 20
105.9865
  0
VERTEX
  8
0
 10
99.178
 20
105.9865
  0
VERTEX
  8
0
 10
99.178
 20
105.6588
  0
VERTEX
  8
0
 10
99.4017
 20
105.6126
  0
VERTEX
  8
0
 10
99.3632
 20
105.6887
  0
VERTEX
  8
0
 10
99.35
 20
105.7684
  0
VERTEX
  8
0
 10
99.3547
 20
105.8222
  0
VERTEX
  8
0
 10
99.3693
 20
105.8711
  0
VERTEX
  8
0
 10
99.3937
 20
105.9151
  0
VERTEX
  8
0
 10
99.4281
 20
105.9541
  0
VERTEX
  8
0
 10
99.4686
 20
105.9851
  0
VERTEX
  8
0
 10
99.5139
 20
106.0072
  0
VERTEX
  8
0
 10
99.564
 20
106.0205
  0
VERTEX
  8
0
 10
99.6187
 20
106.025
  0
VERTEX
  8
0
 10
99.6901
 20
106.0177
  0
VERTEX
  8
0
 10
99.755
 20
105.9959
  0
VERTEX
  8
0
 10
99.8133
 20
105.9596
  0
VERTEX
  8
0
 10
99.8494
 20
105.9255
  0
VERTEX
  8
0
 10
99.8775
 20
105.8867
  0
VERTEX
  8
0
 10
99.8976
 20
105.8433
  0
VERTEX
  8
0
 10
99.9098
 20
105.7952
  0
VERTEX
  8
0
 10
99.914
 20
105.7425
  0
VERTEX
  8
0
 10
99.9073
 20
105.6735
  0
VERTEX
  8
0
 10
99.887
 20
105.613
  0
VERTEX
  8
0
 10
99.8532
 20
105.561
  0
VERTEX
  8
0
 10
99.8063
 20
105.519
  0
VERTEX
  8
0
 10
99.7491
 20
105.491
  0
VERTEX
  8
0
 10
99.6815
 20
105.477
  0
VERTEX
  8
0
 10
99.6815
 20
105.477
  0
SEQEND
  0
LINE
  8
0
 10
99.5
 20
106.2207
 11
99.5
 21
107.5
  0
LINE
  8
0
 10
99.6789
 20
107.1422
 11
99.5
 21
107.5
  0
LINE
  8
0
 10
99.3211
 20
107.1422
 11
99.5
 21
107.5
  0
LINE
  8
0
 10
99.5
 20
104.2793
 11
99.5
 21
103
  0
LINE
  8
0
 10
99.3211
 20
103.3578
 11
99.5
 21
103
  0
LINE
  8
0
 10
99.6789
 20
103.3578
 11
99.5
 21
103
  0
LINE
  8
0
 10
99.7
 20
103
 11
98.5
 21
103
  0
POLYLINE
  8
0
 66
     1
 10
0
 20
0
  0
VERTEX
  8
0
 10
63.066
 20
84.3232
  0
VERTEX
  8
0
 10
63.1672
 20
84.3368
  0
VERTEX
  8
0
 10
63.1754
 20
84.3026
  0
VERTEX
  8
0
 10
63.186
 20
84.2723
  0
VERTEX
  8
0
 10
63.199
 20
84.2461
  0
VERTEX
  8
0
 10
63.2145
 20
84.2238
  0
VERTEX
  8
0
 10
63.2324
 20
84.2056
  0
VERTEX
  8
0
 10
63.2528
 20
84.1914
  0
VERTEX
  8
0
 10
63.2756
 20
84.1813
  0
VERTEX
  8
0
 10
63.3008
 20
84.1751
  0
VERTEX
  8
0
 10
63.3284
 20
84.173
  0
VERTEX
  8
0
 10
63.3948
 20
84.1852
  0
VERTEX
  8
0
 10
63.4492
 20
84.223
  0
VERTEX
  8
0
 10
63.4855
 20
84.2793
  0
VERTEX
  8
0
 10
63.498
 20
84.347
  0
VERTEX
  8
0
 10
63.487
 20
84.4112
  0
VERTEX
  8
0
 10
63.4527
 20
84.4632
  0
VERTEX
  8
0
 10
63.4009
 20
84.4975
  0
VERTEX
  8
0
 10
63.3374
 20
84.509
  0
VERTEX
  8
0
 10
63.3045
 20
84.5059
  0
VERTEX
  8
0
 10
63.2663
 20
84.4965
  0
VERTEX
  8
0
 10
63.2776
 20
84.585
  0
VERTEX
  8
0
 10
63.2845
 20
84.585
  0
VERTEX
  8
0
 10
63.2939
 20
84.585
  0
VERTEX
  8
0
 10
63.358
 20
84.5933
  0
VERTEX
  8
0
 10
63.4097
 20
84.6183
  0
VERTEX
  8
0
 10
63.4487
 20
84.6633
  0
VERTEX
  8
0
 10
63.462
 20
84.7235
  0
VERTEX
  8
0
 10
63.4528
 20
84.7756
  0
VERTEX
  8
0
 10
63.424
 20
84.8168
  0
VERTEX
  8
0
 10
63.3804
 20
84.8436
  0
VERTEX
  8
0
 10
63.3268
 20
84.853
  0
VERTEX
  8
0
 10
63.3002
 20
84.8513
  0
VERTEX
  8
0
 10
63.2761
 20
84.846
  0
VERTEX
  8
0
 10
63.2545
 20
84.8368
  0
VERTEX
  8
0
 10
63.2354
 20
84.8239
  0
VERTEX
  8
0
 10
63.2188
 20
84.8072
  0
VERTEX
  8
0
 10
63.2047
 20
84.7868
  0
VERTEX
  8
0
 10
63.1932
 20
84.7627
  0
VERTEX
  8
0
 10
63.1841
 20
84.7347
  0
VERTEX
  8
0
 10
63.1776
 20
84.703
  0
VERTEX
  8
0
 10
63.0762
 20
84.7212
  0
VERTEX
  8
0
 10
63.0934
 20
84.7834
  0
VERTEX
  8
0
 10
63.1211
 20
84.836
  0
VERTEX
  8
0
 10
63.1593
 20
84.8791
  0
VERTEX
  8
0
 10
63.2065
 20
84.911
  0
VERTEX
  8
0
 10
63.2616
 20
84.9303
  0
VERTEX
  8
0
 10
63.3245
 20
84.937
  0
VERTEX
  8
0
 10
63.3866
 20
84.9305
  0
VERTEX
  8
0
 10
63.4444
 20
84.9098
  0
VERTEX
  8
0
 10
63.4971
 20
84.875
  0
VERTEX
  8
0
 10
63.5357
 20
84.8283
  0
VERTEX
  8
0
 10
63.5584
 20
84.7763
  0
VERTEX
  8
0
 10
63.566
 20
84.7213
  0
VERTEX
  8
0
 10
63.5629
 20
84.6845
  0
VERTEX
  8
0
 10
63.5535
 20
84.6513
  0
VERTEX
  8
0
 10
63.5378
 20
84.6215
  0
VERTEX
  8
0
 10
63.5158
 20
84.5952
  0
VERTEX
  8
0
 10
63.4876
 20
84.5724
  0
VERTEX
  8
0
 10
63.4531
 20
84.5532
  0
VERTEX
  8
0
 10
63.5188
 20
84.5263
  0
VERTEX
  8
0
 10
63.5675
 20
84.4807
  0
VERTEX
  8
0
 10
63.5964
 20
84.4211
  0
VERTEX
  8
0
 10
63.606
 20
84.3488
  0
VERTEX
  8
0
 10
63.6011
 20
84.2963
  0
VERTEX
  8
0
 10
63.5864
 20
84.2481
  0
VERTEX
  8
0
 10
63.5619
 20
84.2042
  0
VERTEX
  8
0
 10
63.5276
 20
84.1645
  0
VERTEX
  8
0
 10
63.4857
 20
84.1317
  0
VERTEX
  8
0
 10
63.4385
 20
84.1081
  0
VERTEX
  8
0
 10
63.386
 20
84.0939
  0
VERTEX
  8
0
 10
63.3282
 20
84.089
  0
VERTEX
  8
0
 10
63.2605
 20
84.096
  0
VERTEX
  8
0
 10
63.2008
 20
84.1172
  0
VERTEX
  8
0
 10
63.149
 20
84.1525
  0
VERTEX
  8
0
 10
63.1079
 20
84.1997
  0
VERTEX
  8
0
 10
63.0803
 20
84.2566
  0
VERTEX
  8
0
 10
63.066
 20
84.3232
  0
VERTEX
  8
0
 10
63.066
 20
84.3232
  0
SEQEND
  0
POLYLINE
  8
0
 66
     1
 10
0
 20
0
  0
VERTEX
  8
0
 10
63.762
 20
84.101
  0
VERTEX
  8
0
 10
63.762
 20
84.221
  0
VERTEX
  8
0
 10
63.878
 20
84.221
  0
VERTEX
  8
0
 10
63.878
 20
84.101
  0
VERTEX
  8
0
 10
63.762
 20
84.101
  0
SEQEND
  0
POLYLINE
  8
0
 66
     1
 10
0
 20
0
  0
VERTEX
  8
0
 10
64.576
 20
84.7567
  0
VERTEX
  8
0
 10
64.475
 20
84.7487
  0
VERTEX
  8
0
 10
64.4607
 20
84.7873
  0
VERTEX
  8
0
 10
64.4344
 20
84.8177
  0
VERTEX
  8
0
 10
64.3858
 20
84.8439
  0
VERTEX
  8
0
 10
64.3244
 20
84.853
  0
VERTEX
  8
0
 10
64.2676
 20
84.8465
  0
VERTEX
  8
0
 10
64.2234
 20
84.8258
  0
VERTEX
  8
0
 10
64.1996
 20
84.805
  0
VERTEX
  8
0
 10
64.1788
 20
84.7796
  0
VERTEX
  8
0
 10
64.1611
 20
84.7497
  0
VERTEX
  8
0
 10
64.1465
 20
84.7152
  0
VERTEX
  8
0
 10
64.135
 20
84.6761
  0
VERTEX
  8
0
 10
64.1266
 20
84.6325
  0
VERTEX
  8
0
 10
64.1213
 20
84.5843
  0
VERTEX
  8
0
 10
64.119
 20
84.5315
  0
VERTEX
  8
0
 10
64.1446
 20
84.565
  0
VERTEX
  8
0
 10
64.1734
 20
84.5923
  0
VERTEX
  8
0
 10
64.2054
 20
84.6136
  0
VERTEX
  8
0
 10
64.2406
 20
84.6288
  0
VERTEX
  8
0
 10
64.2791
 20
84.6379
  0
VERTEX
  8
0
 10
64.3207
 20
84.641
  0
VERTEX
  8
0
 10
64.3729
 20
84.6359
  0
VERTEX
  8
0
 10
64.4201
 20
84.6207
  0
VERTEX
  8
0
 10
64.4624
 20
84.5955
  0
VERTEX
  8
0
 10
64.4997
 20
84.5601
  0
VERTEX
  8
0
 10
64.5363
 20
84.505
  0
VERTEX
  8
0
 10
64.5584
 20
84.4425
  0
VERTEX
  8
0
 10
64.566
 20
84.3723
  0
VERTEX
  8
0
 10
64.5584
 20
84.2995
  0
VERTEX
  8
0
 10
64.5343
 20
84.2315
  0
VERTEX
  8
0
 10
64.494
 20
84.17
  0
VERTEX
  8
0
 10
64.4398
 20
84.1246
  0
VERTEX
  8
0
 10
64.3772
 20
84.0979
  0
VERTEX
  8
0
 10
64.3062
 20
84.089
  0
VERTEX
  8
0
 10
64.2827
 20
84.0897
  0
VERTEX
  8
0
 10
64.2602
 20
84.0918
  0
VERTEX
  8
0
 10
64.2388
 20
84.0953
  0
VERTEX
  8
0
 10
64.2183
 20
84.1002
  0
VERTEX
  8
0
 10
64.1988
 20
84.1064
  0
VERTEX
  8
0
 10
64.1803
 20
84.1141
  0
VERTEX
  8
0
 10
64.1628
 20
84.1232
  0
VERTEX
  8
0
 10
64.1463
 20
84.1337
  0
VERTEX
  8
0
 10
64.1308
 20
84.1456
  0
VERTEX
  8
0
 10
64.1163
 20
84.1589
  0
VERTEX
  8
0
 10
64.1028
 20
84.1736
  0
VERTEX
  8
0
 10
64.0903
 20
84.1897
  0
VERTEX
  8
0
 10
64.0788
 20
84.2071
  0
VERTEX
  8
0
 10
64.0683
 20
84.226
  0
VERTEX
  8
0
 10
64.0588
 20
84.2463
  0
VERTEX
  8
0
 10
64.0503
 20
84.268
  0
VERTEX
  8
0
 10
64.0428
 20
84.291
  0
VERTEX
  8
0
 10
64.0363
 20
84.3155
  0
VERTEX
  8
0
 10
64.0307
 20
84.3414
  0
VERTEX
  8
0
 10
64.0262
 20
84.3687
  0
VERTEX
  8
0
 10
64.0227
 20
84.3973
  0
VERTEX
  8
0
 10
64.0201
 20
84.4274
  0
VERTEX
  8
0
 10
64.0186
 20
84.4589
  0
VERTEX
  8
0
 10
64.018
 20
84.4917
  0
VERTEX
  8
0
 10
64.0198
 20
84.5578
  0
VERTEX
  8
0
 10
64.0253
 20
84.6186
  0
VERTEX
  8
0
 10
64.0343
 20
84.6739
  0
VERTEX
  8
0
 10
64.047
 20
84.7239
  0
VERTEX
  8
0
 10
64.0632
 20
84.7686
  0
VERTEX
  8
0
 10
64.0831
 20
84.8079
  0
VERTEX
  8
0
 10
64.1066
 20
84.8418
  0
VERTEX
  8
0
 10
64.1403
 20
84.876
  0
VERTEX
  8
0
 10
64.1795
 20
84.9027
  0
VERTEX
  8
0
 10
64.2243
 20
84.9217
  0
VERTEX
  8
0
 10
64.2747
 20
84.9332
  0
VERTEX
  8
0
 10
64.3306
 20
84.937
  0
VERTEX
  8
0
 10
64.4181
 20
84.9253
  0
VERTEX
  8
0
 10
64.492
 20
84.8903
  0
VERTEX
  8
0
 10
64.5342
 20
84.8525
  0
VERTEX
  8
0
 10
64.5622
 20
84.8079
  0
VERTEX
  8
0
 10
64.576
 20
84.7567
  0
VERTEX
  8
0
 10
64.576
 20
84.7567
  0
SEQEND
  0
POLYLINE
  8
0
 66
     1
 10
0
 20
0
  0
VERTEX
  8
0
 10
64.134
 20
84.3729
  0
VERTEX
  8
0
 10
64.139
 20
84.3221
  0
VERTEX
  8
0
 10
64.1551
 20
84.2741
  0
VERTEX
  8
0
 10
64.1825
 20
84.2301
  0
VERTEX
  8
0
 10
64.2193
 20
84.198
  0
VERTEX
  8
0
 10
64.2601
 20
84.1795
  0
VERTEX
  8
0
 10
64.304
 20
84.173
  0
VERTEX
  8
0
 10
64.3506
 20
84.1795
  0
VERTEX
  8
0
 10
64.3901
 20
84.2
  0
VERTEX
  8
0
 10
64.4228
 20
84.2343
  0
VERTEX
  8
0
 10
64.4519
 20
84.2951
  0
VERTEX
  8
0
 10
64.462
 20
84.3672
  0
VERTEX
  8
0
 10
64.4521
 20
84.4389
  0
VERTEX
  8
0
 10
64.4211
 20
84.4973
  0
VERTEX
  8
0
 10
64.3879
 20
84.528
  0
VERTEX
  8
0
 10
64.3476
 20
84.5465
  0
VERTEX
  8
0
 10
64.3
 20
84.553
  0
VERTEX
  8
0
 10
64.2535
 20
84.5473
  0
VERTEX
  8
0
 10
64.2131
 20
84.5295
  0
VERTEX
  8
0
 10
64.179
 20
84.4996
  0
VERTEX
  8
0
 10
64.1455
 20
84.4424
  0
VERTEX
  8
0
 10
64.134
 20
84.3729
  0
VERTEX
  8
0
 10
64.134
 20
84.3729
  0
SEQEND
  0
LINE
  8
0
 10
64.7768
 20
84.5
 11
65.6416
 21
84.5
  0
LINE
  8
0
 10
65.2839
 20
84.3211
 11
65.6416
 21
84.5
  0
LINE
  8
0
 10
65.2839
 20
84.6789
 11
65.6416
 21
84.5
  0
LINE
  8
0
 10
65.6416
 20
84.3
 11
65.6416
 21
85.5
  0
LINE
  8
0
 10
62.8648
 20
84.5
 11
62
 21
84.5
  0
LINE
  8
0
 10
62.3578
 20
84.6789
 11
62
 21
84.5
  0
LINE
  8
0
 10
62.3578
 20
84.3211
 11
62
 21
84.5
  0
LINE
  8
0
 10
62
 20
84.3
 11
62
 21
85.5
  0
POLYLINE
  8
0
 66
     1
 10
0
 20
0
  0
VERTEX
  8
0
 10
79.466
 20
84.197
  0
VERTEX
  8
0
 10
79.466
 20
84.101
  0
VERTEX
  8
0
 10
78.922
 20
84.101
  0
VERTEX
  8
0
 10
78.9261
 20
84.1449
  0
VERTEX
  8
0
 10
78.9405
 20
84.1899
  0
VERTEX
  8
0
 10
78.9652
 20
84.2359
  0
VERTEX
  8
0
 10
79.0002
 20
84.2828
  0
VERTEX
  8
0
 10
79.0568
 20
84.3422
  0
VERTEX
  8
0
 10
79.133
 20
84.409
  0
VERTEX
  8
0
 10
79.1938
 20
84.4604
  0
VERTEX
  8
0
 10
79.2418
 20
84.504
  0
VERTEX
  8
0
 10
79.2771
 20
84.5398
  0
VERTEX
  8
0
 10
79.3143
 20
84.5853
  0
VERTEX
  8
0
 10
79.3408
 20
84.6286
  0
VERTEX
  8
0
 10
79.3567
 20
84.6697
  0
VERTEX
  8
0
 10
79.362
 20
84.7086
  0
VERTEX
  8
0
 10
79.3505
 20
84.7673
  0
VERTEX
  8
0
 10
79.3159
 20
84.8137
  0
VERTEX
  8
0
 10
79.2667
 20
84.8429
  0
VERTEX
  8
0
 10
79.2068
 20
84.853
  0
VERTEX
  8
0
 10
79.1395
 20
84.842
  0
VERTEX
  8
0
 10
79.0886
 20
84.808
  0
VERTEX
  8
0
 10
79.0564
 20
84.7546
  0
VERTEX
  8
0
 10
79.0453
 20
84.6855
  0
VERTEX
  8
0
 10
78.9412
 20
84.6963
  0
VERTEX
  8
0
 10
78.95
 20
84.7513
  0
VERTEX
  8
0
 10
78.9664
 20
84.7995
  0
VERTEX
  8
0
 10
78.9903
 20
84.8407
  0
VERTEX
  8
0
 10
79.0217
 20
84.8751
  0
VERTEX
  8
0
 10
79.0737
 20
84.9095
  0
VERTEX
  8
0
 10
79.1362
 20
84.9301
  0
VERTEX
  8
0
 10
79.209
 20
84.937
  0
VERTEX
  8
0
 10
79.2775
 20
84.9303
  0
VERTEX
  8
0
 10
79.3377
 20
84.9104
  0
VERTEX
  8
0
 10
79.3895
 20
84.8772
  0
VERTEX
  8
0
 10
79.423
 20
84.8425
  0
VERTEX
  8
0
 10
79.4469
 20
84.8022
  0
VERTEX
  8
0
 10
79.4612
 20
84.7564
  0
VERTEX
  8
0
 10
79.466
 20
84.7051
  0
VERTEX
  8
0
 10
79.4606
 20
84.6552
  0
VERTEX
  8
0
 10
79.4441
 20
84.6051
  0
VERTEX
  8
0
 10
79.4167
 20
84.5549
  0
VERTEX
  8
0
 10
79.3783
 20
84.5046
  0
VERTEX
  8
0
 10
79.3396
 20
84.4637
  0
VERTEX
  8
0
 10
79.2877
 20
84.4147
  0
VERTEX
  8
0
 10
79.2227
 20
84.3576
  0
VERTEX
  8
0
 10
79.1807
 20
84.3217
  0
VERTEX
  8
0
 10
79.152
 20
84.2968
  0
VERTEX
  8
0
 10
79.1367
 20
84.283
  0
VERTEX
  8
0
 10
79.0947
 20
84.2392
  0
VERTEX
  8
0
 10
79.0631
 20
84.197
  0
VERTEX
  8
0
 10
79.466
 20
84.197
  0
SEQEND
  0
POLYLINE
  8
0
 66
     1
 10
0
 20
0
  0
VERTEX
  8
0
 10
79.7315
 20
84.5535
  0
VERTEX
  8
0
 10
79.6982
 20
84.568
  0
VERTEX
  8
0
 10
79.67
 20
84.5858
  0
VERTEX
  8
0
 10
79.647
 20
84.6068
  0
VERTEX
  8
0
 10
79.6291
 20
84.631
  0
VERTEX
  8
0
 10
79.6163
 20
84.6584
  0
VERTEX
  8
0
 10
79.6086
 20
84.689
  0
VERTEX
  8
0
 10
79.606
 20
84.7228
  0
VERTEX
  8
0
 10
79.6105
 20
84.7697
  0
VERTEX
  8
0
 10
79.6239
 20
84.8116
  0
VERTEX
  8
0
 10
79.6462
 20
84.8487
  0
VERTEX
  8
0
 10
79.6774
 20
84.8809
  0
VERTEX
  8
0
 10
79.7255
 20
84.9118
  0
VERTEX
  8
0
 10
79.7812
 20
84.9305
  0
VERTEX
  8
0
 10
79.8446
 20
84.937
  0
VERTEX
  8
0
 10
79.9082
 20
84.9306
  0
VERTEX
  8
0
 10
79.9645
 20
84.9116
  0
VERTEX
  8
0
 10
80.0135
 20
84.8798
  0
VERTEX
  8
0
 10
80.0452
 20
84.8469
  0
VERTEX
  8
0
 10
80.0679
 20
84.8092
  0
VERTEX
  8
0
 10
80.0815
 20
84.767
  0
VERTEX
  8
0
 10
80.086
 20
84.72
  0
VERTEX
  8
0
 10
80.0835
 20
84.6874
  0
VERTEX
  8
0
 10
80.076
 20
84.6576
  0
VERTEX
  8
0
 10
80.0635
 20
84.6309
  0
VERTEX
  8
0
 10
80.046
 20
84.6071
  0
VERTEX
  8
0
 10
80.0234
 20
84.5862
  0
VERTEX
  8
0
 10
79.9959
 20
84.5684
  0
VERTEX
  8
0
 10
79.9633
 20
84.5535
  0
VERTEX
  8
0
 10
79.9957
 20
84.5409
  0
VERTEX
  8
0
 10
80.0243
 20
84.5255
  0
VERTEX
  8
0
 10
80.049
 20
84.5074
  0
VERTEX
  8
0
 10
80.07
 20
84.4865
  0
VERTEX
  8
0
 10
80.0872
 20
84.4628
  0
VERTEX
  8
0
 10
80.1006
 20
84.4364
  0
VERTEX
  8
0
 10
80.1102
 20
84.4072
  0
VERTEX
  8
0
 10
80.116
 20
84.3752
  0
VERTEX
  8
0
 10
80.118
 20
84.3405
  0
VERTEX
  8
0
 10
80.1132
 20
84.2863
  0
VERTEX
  8
0
 10
80.0982
 20
84.2375
  0
VERTEX
  8
0
 10
80.073
 20
84.1942
  0
VERTEX
  8
0
 10
80.0375
 20
84.1564
  0
VERTEX
  8
0
 10
79.9822
 20
84.1189
  0
VERTEX
  8
0
 10
79.9184
 20
84.0965
  0
VERTEX
  8
0
 10
79.846
 20
84.089
  0
VERTEX
  8
0
 10
79.7726
 20
84.0965
  0
VERTEX
  8
0
 10
79.7084
 20
84.1192
  0
VERTEX
  8
0
 10
79.6534
 20
84.157
  0
VERTEX
  8
0
 10
79.6189
 20
84.1952
  0
VERTEX
  8
0
 10
79.5942
 20
84.239
  0
VERTEX
  8
0
 10
79.5792
 20
84.2883
  0
VERTEX
  8
0
 10
79.574
 20
84.3433
  0
VERTEX
  8
0
 10
79.5755
 20
84.3756
  0
VERTEX
  8
0
 10
79.5801
 20
84.4053
  0
VERTEX
  8
0
 10
79.588
 20
84.4326
  0
VERTEX
  8
0
 10
79.599
 20
84.4574
  0
VERTEX
  8
0
 10
79.6131
 20
84.4797
  0
VERTEX
  8
0
 10
79.6304
 20
84.4994
  0
VERTEX
  8
0
 10
79.6509
 20
84.5167
  0
VERTEX
  8
0
 10
79.6746
 20
84.5315
  0
VERTEX
  8
0
 10
79.7015
 20
84.5437
  0
VERTEX
  8
0
 10
79.7315
 20
84.5535
  0
VERTEX
  8
0
 10
79.7315
 20
84.5535
  0
SEQEND
  0
POLYLINE
  8
0
 66
     1
 10
0
 20
0
  0
VERTEX
  8
0
 10
79.71
 20
84.7263
  0
VERTEX
  8
0
 10
79.7191
 20
84.6737
  0
VERTEX
  8
0
 10
79.7476
 20
84.6308
  0
VERTEX
  8
0
 10
79.7915
 20
84.6024
  0
VERTEX
  8
0
 10
79.8472
 20
84.593
  0
VERTEX
  8
0
 10
79.8999
 20
84.6019
  0
VERTEX
  8
0
 10
79.9431
 20
84.6286
  0
VERTEX
  8
0
 10
79.972
 20
84.6694
  0
VERTEX
  8
0
 10
79.982
 20
84.7207
  0
VERTEX
  8
0
 10
79.9726
 20
84.7714
  0
VERTEX
  8
0
 10
79.9433
 20
84.814
  0
VERTEX
  8
0
 10
79.8994
 20
84.8429
  0
VERTEX
  8
0
 10
79.846
 20
84.853
  0
VERTEX
  8
0
 10
79.7918
 20
84.8434
  0
VERTEX
  8
0
 10
79.7465
 20
84.8134
  0
VERTEX
  8
0
 10
79.7194
 20
84.7735
  0
VERTEX
  8
0
 10
79.71
 20
84.7263
  0
VERTEX
  8
0
 10
79.71
 20
84.7263
  0
SEQEND
  0
POLYLINE
  8
0
 66
     1
 10
0
 20
0
  0
VERTEX
  8
0
 10
79.678
 20
84.3427
  0
VERTEX
  8
0
 10
79.6811
 20
84.304
  0
VERTEX
  8
0
 10
79.6908
 20
84.2699
  0
VERTEX
  8
0
 10
79.7071
 20
84.2404
  0
VERTEX
  8
0
 10
79.7301
 20
84.2154
  0
VERTEX
  8
0
 10
79.7597
 20
84.195
  0
VERTEX
  8
0
 10
79.8014
 20
84.1785
  0
VERTEX
  8
0
 10
79.8469
 20
84.173
  0
VERTEX
  8
0
 10
79.9131
 20
84.1846
  0
VERTEX
  8
0
 10
79.9667
 20
84.2196
  0
VERTEX
  8
0
 10
80.0022
 20
84.2729
  0
VERTEX
  8
0
 10
80.014
 20
84.3393
  0
VERTEX
  8
0
 10
80.0019
 20
84.4064
  0
VERTEX
  8
0
 10
79.9656
 20
84.4606
  0
VERTEX
  8
0
 10
79.9109
 20
84.4966
  0
VERTEX
  8
0
 10
79.8435
 20
84.509
  0
VERTEX
  8
0
 10
79.7779
 20
84.4976
  0
VERTEX
  8
0
 10
79.725
 20
84.4623
  0
VERTEX
  8
0
 10
79.6901
 20
84.4088
  0
VERTEX
  8
0
 10
79.678
 20
84.3427
  0
VERTEX
  8
0
 10
79.678
 20
84.3427
  0
SEQEND
  0
POLYLINE
  8
0
 66
     1
 10
0
 20
0
  0
VERTEX
  8
0
 10
80.274
 20
84.101
  0
VERTEX
  8
0
 10
80.274
 20
84.221
  0
VERTEX
  8
0
 10
80.39
 20
84.221
  0
VERTEX
  8
0
 10
80.39
 20
84.101
  0
VERTEX
  8
0
 10
80.274
 20
84.101
  0
SEQEND
  0
POLYLINE
  8
0
 66
     1
 10
0
 20
0
  0
VERTEX
  8
0
 10
80.6955
 20
84.5535
  0
VERTEX
  8
0
 10
80.6622
 20
84.568
  0
VERTEX
  8
0
 10
80.634
 20
84.5858
  0
VERTEX
  8
0
 10
80.611
 20
84.6068
  0
VERTEX
  8
0
 10
80.5931
 20
84.631
  0
VERTEX
  8
0
 10
80.5803
 20
84.6584
  0
VERTEX
  8
0
 10
80.5726
 20
84.689
  0
VERTEX
  8
0
 10
80.57
 20
84.7228
  0
VERTEX
  8
0
 10
80.5745
 20
84.7697
  0
VERTEX
  8
0
 10
80.5879
 20
84.8116
  0
VERTEX
  8
0
 10
80.6102
 20
84.8487
  0
VERTEX
  8
0
 10
80.6414
 20
84.8809
  0
VERTEX
  8
0
 10
80.6895
 20
84.9118
  0
VERTEX
  8
0
 10
80.7452
 20
84.9305
  0
VERTEX
  8
0
 10
80.8086
 20
84.937
  0
VERTEX
  8
0
 10
80.8722
 20
84.9306
  0
VERTEX
  8
0
 10
80.9285
 20
84.9116
  0
VERTEX
  8
0
 10
80.9775
 20
84.8798
  0
VERTEX
  8
0
 10
81.0092
 20
84.8469
  0
VERTEX
  8
0
 10
81.0319
 20
84.8092
  0
VERTEX
  8
0
 10
81.0455
 20
84.767
  0
VERTEX
  8
0
 10
81.05
 20
84.72
  0
VERTEX
  8
0
 10
81.0475
 20
84.6874
  0
VERTEX
  8
0
 10
81.04
 20
84.6576
  0
VERTEX
  8
0
 10
81.0275
 20
84.6309
  0
VERTEX
  8
0
 10
81.01
 20
84.6071
  0
VERTEX
  8
0
 10
80.9874
 20
84.5862
  0
VERTEX
  8
0
 10
80.9599
 20
84.5684
  0
VERTEX
  8
0
 10
80.9273
 20
84.5535
  0
VERTEX
  8
0
 10
80.9597
 20
84.5409
  0
VERTEX
  8
0
 10
80.9883
 20
84.5255
  0
VERTEX
  8
0
 10
81.013
 20
84.5074
  0
VERTEX
  8
0
 10
81.034
 20
84.4865
  0
VERTEX
  8
0
 10
81.0512
 20
84.4628
  0
VERTEX
  8
0
 10
81.0646
 20
84.4364
  0
VERTEX
  8
0
 10
81.0742
 20
84.4072
  0
VERTEX
  8
0
 10
81.08
 20
84.3752
  0
VERTEX
  8
0
 10
81.082
 20
84.3405
  0
VERTEX
  8
0
 10
81.0772
 20
84.2863
  0
VERTEX
  8
0
 10
81.0622
 20
84.2375
  0
VERTEX
  8
0
 10
81.037
 20
84.1942
  0
VERTEX
  8
0
 10
81.0015
 20
84.1564
  0
VERTEX
  8
0
 10
80.9462
 20
84.1189
  0
VERTEX
  8
0
 10
80.8824
 20
84.0965
  0
VERTEX
  8
0
 10
80.81
 20
84.089
  0
VERTEX
  8
0
 10
80.7366
 20
84.0965
  0
VERTEX
  8
0
 10
80.6724
 20
84.1192
  0
VERTEX
  8
0
 10
80.6174
 20
84.157
  0
VERTEX
  8
0
 10
80.5829
 20
84.1952
  0
VERTEX
  8
0
 10
80.5582
 20
84.239
  0
VERTEX
  8
0
 10
80.5432
 20
84.2883
  0
VERTEX
  8
0
 10
80.538
 20
84.3433
  0
VERTEX
  8
0
 10
80.5395
 20
84.3756
  0
VERTEX
  8
0
 10
80.5441
 20
84.4053
  0
VERTEX
  8
0
 10
80.552
 20
84.4326
  0
VERTEX
  8
0
 10
80.563
 20
84.4574
  0
VERTEX
  8
0
 10
80.5771
 20
84.4797
  0
VERTEX
  8
0
 10
80.5944
 20
84.4994
  0
VERTEX
  8
0
 10
80.6149
 20
84.5167
  0
VERTEX
  8
0
 10
80.6386
 20
84.5315
  0
VERTEX
  8
0
 10
80.6655
 20
84.5437
  0
VERTEX
  8
0
 10
80.6955
 20
84.5535
  0
VERTEX
  8
0
 10
80.6955
 20
84.5535
  0
SEQEND
  0
POLYLINE
  8
0
 66
     1
 10
0
 20
0
  0
VERTEX
  8
0
 10
80.674
 20
84.7263
  0
VERTEX
  8
0
 10
80.6831
 20
84.6737
  0
VERTEX
  8
0
 10
80.7116
 20
84.6308
  0
VERTEX
  8
0
 10
80.7555
 20
84.6024
  0
VERTEX
  8
0
 10
80.8112
 20
84.593
  0
VERTEX
  8
0
 10
80.8639
 20
84.6019
  0
VERTEX
  8
0
 10
80.9071
 20
84.6286
  0
VERTEX
  8
0
 10
80.936
 20
84.6694
  0
VERTEX
  8
0
 10
80.946
 20
84.7207
  0
VERTEX
  8
0
 10
80.9366
 20
84.7714
  0
VERTEX
  8
0
 10
80.9073
 20
84.814
  0
VERTEX
  8
0
 10
80.8634
 20
84.8429
  0
VERTEX
  8
0
 10
80.81
 20
84.853
  0
VERTEX
  8
0
 10
80.7558
 20
84.8434
  0
VERTEX
  8
0
 10
80.7105
 20
84.8134
  0
VERTEX
  8
0
 10
80.6834
 20
84.7735
  0
VERTEX
  8
0
 10
80.674
 20
84.7263
  0
VERTEX
  8
0
 10
80.674
 20
84.7263
  0
SEQEND
  0
POLYLINE
  8
0
 66
     1
 10
0
 20
0
  0
VERTEX
  8
0
 10
80.642
 20
84.3427
  0
VERTEX
  8
0
 10
80.6451
 20
84.304
  0
VERTEX
  8
0
 10
80.6548
 20
84.2699
  0
VERTEX
  8
0
 10
80.6711
 20
84.2404
  0
VERTEX
  8
0
 10
80.6941
 20
84.2154
  0
VERTEX
  8
0
 10
80.7237
 20
84.195
  0
VERTEX
  8
0
 10
80.7654
 20
84.1785
  0
VERTEX
  8
0
 10
80.8109
 20
84.173
  0
VERTEX
  8
0
 10
80.8771
 20
84.1846
  0
VERTEX
  8
0
 10
80.9307
 20
84.2196
  0
VERTEX
  8
0
 10
80.9662
 20
84.2729
  0
VERTEX
  8
0
 10
80.978
 20
84.3393
  0
VERTEX
  8
0
 10
80.9659
 20
84.4064
  0
VERTEX
  8
0
 10
80.9296
 20
84.4606
  0
VERTEX
  8
0
 10
80.8749
 20
84.4966
  0
VERTEX
  8
0
 10
80.8075
 20
84.509
  0
VERTEX
  8
0
 10
80.7419
 20
84.4976
  0
VERTEX
  8
0
 10
80.689
 20
84.4623
  0
VERTEX
  8
0
 10
80.6541
 20
84.4088
  0
VERTEX
  8
0
 10
80.642
 20
84.3427
  0
VERTEX
  8
0
 10
80.642
 20
84.3427
  0
SEQEND
  0
LINE
  8
0
 10
81.2806
 20
84.5
 11
94.3584
 21
84.5
  0
LINE
  8
0
 10
94.0006
 20
84.3211
 11
94.3584
 21
84.5
  0
LINE
  8
0
 10
94.0006
 20
84.6789
 11
94.3584
 21
84.5
  0
LINE
  8
0
 10
94.3584
 20
84.3
 11
94.3584
 21
85.5
  0
LINE
  8
0
 10
78.7194
 20
84.5
 11
65.6416
 21
84.5
  0
LINE
  8
0
 10
65.9994
 20
84.6789
 11
65.6416
 21
84.5
  0
LINE
  8
0
 10
65.9994
 20
84.3211
 11
65.6416
 21
84.5
  0
POLYLINE
  8
0
 66
     1
 10
0
 20
0
  0
VERTEX
  8
0
 10
99.806
 20
102.277
  0
VERTEX
  8
0
 10
99.902
 20
102.277
  0
VERTEX
  8
0
 10
99.902
 20
101.733
  0
VERTEX
  8
0
 10
99.8581
 20
101.737
  0
VERTEX
  8
0
 10
99.8131
 20
101.7514
  0
VERTEX
  8
0
 10
99.7671
 20
101.7761
  0
VERTEX
  8
0
 10
99.7202
 20
101.8112
  0
VERTEX
  8
0
 10
99.6608
 20
101.8677
  0
VERTEX
  8
0
 10
99.594
 20
101.944
  0
VERTEX
  8
0
 10
99.5425
 20
102.0047
  0
VERTEX
  8
0
 10
99.499
 20
102.0527
  0
VERTEX
  8
0
 10
99.4632
 20
102.088
  0
VERTEX
  8
0
 10
99.4177
 20
102.1252
  0
VERTEX
  8
0
 10
99.3744
 20
102.1517
  0
VERTEX
  8
0
 10
99.3333
 20
102.1677
  0
VERTEX
  8
0
 10
99.2944
 20
102.173
  0
VERTEX
  8
0
 10
99.2357
 20
102.1614
  0
VERTEX
  8
0
 10
99.1893
 20
102.1268
  0
VERTEX
  8
0
 10
99.1601
 20
102.0776
  0
VERTEX
  8
0
 10
99.15
 20
102.0177
  0
VERTEX
  8
0
 10
99.161
 20
101.9505
  0
VERTEX
  8
0
 10
99.195
 20
101.8995
  0
VERTEX
  8
0
 10
99.2484
 20
101.8673
  0
VERTEX
  8
0
 10
99.3175
 20
101.8562
  0
VERTEX
  8
0
 10
99.3067
 20
101.7522
  0
VERTEX
  8
0
 10
99.2517
 20
101.761
  0
VERTEX
  8
0
 10
99.2035
 20
101.7773
  0
VERTEX
  8
0
 10
99.1623
 20
101.8012
  0
VERTEX
  8
0
 10
99.1279
 20
101.8326
  0
VERTEX
  8
0
 10
99.0935
 20
101.8847
  0
VERTEX
  8
0
 10
99.0729
 20
101.9471
  0
VERTEX
  8
0
 10
99.066
 20
102.0199
  0
VERTEX
  8
0
 10
99.0727
 20
102.0885
  0
VERTEX
  8
0
 10
99.0926
 20
102.1487
  0
VERTEX
  8
0
 10
99.1258
 20
102.2005
  0
VERTEX
  8
0
 10
99.1605
 20
102.2339
  0
VERTEX
  8
0
 10
99.2008
 20
102.2578
  0
VERTEX
  8
0
 10
99.2466
 20
102.2722
  0
VERTEX
  8
0
 10
99.2979
 20
102.277
  0
VERTEX
  8
0
 10
99.3478
 20
102.2715
  0
VERTEX
  8
0
 10
99.3979
 20
102.255
  0
VERTEX
  8
0
 10
99.4481
 20
102.2276
  0
VERTEX
  8
0
 10
99.4984
 20
102.1893
  0
VERTEX
  8
0
 10
99.5393
 20
102.1505
  0
VERTEX
  8
0
 10
99.5883
 20
102.0986
  0
VERTEX
  8
0
 10
99.6454
 20
102.0337
  0
VERTEX
  8
0
 10
99.6813
 20
101.9916
  0
VERTEX
  8
0
 10
99.7062
 20
101.963
  0
VERTEX
  8
0
 10
99.72
 20
101.9477
  0
VERTEX
  8
0
 10
99.7637
 20
101.9057
  0
VERTEX
  8
0
 10
99.806
 20
101.874
  0
VERTEX
  8
0
 10
99.806
 20
102.277
  0
SEQEND
  0
LINE
  8
0
 10
99.5
 20
102.4743
 11
99.5
 21
103
  0
LINE
  8
0
 10
99.6789
 20
102.6422
 11
99.5
 21
103
  0
LINE
  8
0
 10
99.3211
 20
102.6422
 11
99.5
 21
103
  0
LINE
  8
0
 10
99.5
 20
101.5257
 11
99.5
 21
101
  0
LINE
  8
0
 10
99.3211
 20
101.3578
 11
99.5
 21
101
  0
LINE
  8
0
 10
99.6789
 20
101.3578
 11
99.5
 21
101
  0
LINE
  8
0
 10
99.7
 20
101
 11
98.5
 21
101
  0
POLYLINE
  8
0
 66
     1
 10
0
 20
0
  0
VERTEX
  8
0
 10
99.902
 20
98.345
  0
VERTEX
  8
0
 10
99.698
 20
98.345
  0
VERTEX
  8
0
 10
99.698
 20
97.985
  0
VERTEX
  8
0
 10
99.606
 20
97.985
  0
VERTEX
  8
0
 10
99.07
 20
98.3624
  0
VERTEX
  8
0
 10
99.07
 20
98.445
  0
VERTEX
  8
0
 10
99.606
 20
98.445
  0
VERTEX
  8
0
 10
99.606
 20
98.557
  0
VERTEX
  8
0
 10
99.698
 20
98.557
  0
VERTEX
  8
0
 10
99.698
 20
98.445
  0
VERTEX
  8
0
 10
99.902
 20
98.445
  0
VERTEX
  8
0
 10
99.902
 20
98.345
  0
SEQEND
  0
POLYLINE
  8
0
 66
     1
 10
0
 20
0
  0
VERTEX
  8
0
 10
99.606
 20
98.345
  0
VERTEX
  8
0
 10
99.2267
 20
98.345
  0
VERTEX
  8
0
 10
99.6069
 20
98.0822
  0
VERTEX
  8
0
 10
99.606
 20
98.345
  0
SEQEND
  0
POLYLINE
  8
0
 66
     1
 10
0
 20
0
  0
VERTEX
  8
0
 10
99.902
 20
98.713
  0
VERTEX
  8
0
 10
99.782
 20
98.713
  0
VERTEX
  8
0
 10
99.782
 20
98.829
  0
VERTEX
  8
0
 10
99.902
 20
98.829
  0
VERTEX
  8
0
 10
99.902
 20
98.713
  0
SEQEND
  0
POLYLINE
  8
0
 66
     1
 10
0
 20
0
  0
VERTEX
  8
0
 10
99.6815
 20
98.977
  0
VERTEX
  8
0
 10
99.6723
 20
99.0835
  0
VERTEX
  8
0
 10
99.7054
 20
99.0901
  0
VERTEX
  8
0
 10
99.7346
 20
99.0995
  0
VERTEX
  8
0
 10
99.7599
 20
99.1116
  0
VERTEX
  8
0
 10
99.7814
 20
99.1265
  0
VERTEX
  8
0
 10
99.7989
 20
99.1442
  0
VERTEX
  8
0
 10
99.8125
 20
99.1646
  0
VERTEX
  8
0
 10
99.8222
 20
99.1877
  0
VERTEX
  8
0
 10
99.8281
 20
99.2137
  0
VERTEX
  8
0
 10
99.83
 20
99.2423
  0
VERTEX
  8
0
 10
99.8231
 20
99.2928
  0
VERTEX
  8
0
 10
99.8023
 20
99.336
  0
VERTEX
  8
0
 10
99.7675
 20
99.3719
  0
VERTEX
  8
0
 10
99.7039
 20
99.4057
  0
VERTEX
  8
0
 10
99.6267
 20
99.417
  0
VERTEX
  8
0
 10
99.5506
 20
99.4053
  0
VERTEX
  8
0
 10
99.4906
 20
99.3702
  0
VERTEX
  8
0
 10
99.4616
 20
99.335
  0
VERTEX
  8
0
 10
99.4441
 20
99.2919
  0
VERTEX
  8
0
 10
99.438
 20
99.2407
  0
VERTEX
  8
0
 10
99.4429
 20
99.1949
  0
VERTEX
  8
0
 10
99.4581
 20
99.1546
  0
VERTEX
  8
0
 10
99.4836
 20
99.1197
  0
VERTEX
  8
0
 10
99.5195
 20
99.0902
  0
VERTEX
  8
0
 10
99.507
 20
98.995
  0
VERTEX
  8
0
 10
99.082
 20
99.0752
  0
VERTEX
  8
0
 10
99.082
 20
99.4865
  0
VERTEX
  8
0
 10
99.178
 20
99.4865
  0
VERTEX
  8
0
 10
99.178
 20
99.1588
  0
VERTEX
  8
0
 10
99.4017
 20
99.1126
  0
VERTEX
  8
0
 10
99.3632
 20
99.1887
  0
VERTEX
  8
0
 10
99.35
 20
99.2684
  0
VERTEX
  8
0
 10
99.3547
 20
99.3222
  0
VERTEX
  8
0
 10
99.3693
 20
99.3711
  0
VERTEX
  8
0
 10
99.3937
 20
99.4151
  0
VERTEX
  8
0
 10
99.4281
 20
99.4541
  0
VERTEX
  8
0
 10
99.4686
 20
99.4851
  0
VERTEX
  8
0
 10
99.5139
 20
99.5072
  0
VERTEX
  8
0
 10
99.564
 20
99.5205
  0
VERTEX
  8
0
 10
99.6187
 20
99.525
  0
VERTEX
  8
0
 10
99.6901
 20
99.5177
  0
VERTEX
  8
0
 10
99.755
 20
99.4959
  0
VERTEX
  8
0
 10
99.8133
 20
99.4596
  0
VERTEX
  8
0
 10
99.8494
 20
99.4255
  0
VERTEX
  8
0
 10
99.8775
 20
99.3867
  0
VERTEX
  8
0
 10
99.8976
 20
99.3433
  0
VERTEX
  8
0
 10
99.9098
 20
99.2952
  0
VERTEX
  8
0
 10
99.914
 20
99.2425
  0
VERTEX
  8
0
 10
99.9073
 20
99.1735
  0
VERTEX
  8
0
 10
99.887
 20
99.113
  0
VERTEX
  8
0
 10
99.8532
 20
99.061
  0
VERTEX
  8
0
 10
99.8063
 20
99.0191
  0
VERTEX
  8
0
 10
99.7491
 20
98.9911
  0
VERTEX
  8
0
 10
99.6815
 20
98.977
  0
VERTEX
  8
0
 10
99.6815
 20
98.977
  0
SEQEND
  0
LINE
  8
0
 10
99.5
 20
99.7207
 11
99.5
 21
101
  0
LINE
  8
0
 10
99.6789
 20
100.6422
 11
99.5
 21
101
  0
LINE
  8
0
 10
99.3211
 20
100.6422
 11
99.5
 21
101
  0
LINE
  8
0
 10
99.5
 20
97.7793
 11
99.5
 21
96.5
  0
LINE
  8
0
 10
99.3211
 20
96.8578
 11
99.5
 21
96.5
  0
LINE
  8
0
 10
99.6789
 20
96.8578
 11
99.5
 21
96.5
  0
LINE
  8
0
 10
99.7
 20
96.5
 11
98.5
 21
96.5
  0
POLYLINE
  8
0
 66
     1
 10
0
 20
0
  0
VERTEX
  8
0
 10
67.622
 20
82.101
  0
VERTEX
  8
0
 10
67.522
 20
82.101
  0
VERTEX
  8
0
 10
67.522
 20
82.7521
  0
VERTEX
  8
0
 10
67.4308
 20
82.6834
  0
VERTEX
  8
0
 10
67.318
 20
82.6297
  0
VERTEX
  8
0
 10
67.318
 20
82.7283
  0
VERTEX
  8
0
 10
67.3738
 20
82.7573
  0
VERTEX
  8
0
 10
67.4231
 20
82.7886
  0
VERTEX
  8
0
 10
67.4661
 20
82.8222
  0
VERTEX
  8
0
 10
67.5027
 20
82.8581
  0
VERTEX
  8
0
 10
67.5329
 20
82.8964
  0
VERTEX
  8
0
 10
67.5567
 20
82.937
  0
VERTEX
  8
0
 10
67.622
 20
82.937
  0
VERTEX
  8
0
 10
67.622
 20
82.101
  0
SEQEND
  0
POLYLINE
  8
0
 66
     1
 10
0
 20
0
  0
VERTEX
  8
0
 10
68.41
 20
82.197
  0
VERTEX
  8
0
 10
68.41
 20
82.101
  0
VERTEX
  8
0
 10
67.866
 20
82.101
  0
VERTEX
  8
0
 10
67.8701
 20
82.1449
  0
VERTEX
  8
0
 10
67.8845
 20
82.1899
  0
VERTEX
  8
0
 10
67.9092
 20
82.2359
  0
VERTEX
  8
0
 10
67.9442
 20
82.2828
  0
VERTEX
  8
0
 10
68.0008
 20
82.3422
  0
VERTEX
  8
0
 10
68.077
 20
82.409
  0
VERTEX
  8
0
 10
68.1378
 20
82.4604
  0
VERTEX
  8
0
 10
68.1858
 20
82.504
  0
VERTEX
  8
0
 10
68.2211
 20
82.5398
  0
VERTEX
  8
0
 10
68.2583
 20
82.5853
  0
VERTEX
  8
0
 10
68.2848
 20
82.6286
  0
VERTEX
  8
0
 10
68.3007
 20
82.6697
  0
VERTEX
  8
0
 10
68.306
 20
82.7086
  0
VERTEX
  8
0
 10
68.2945
 20
82.7673
  0
VERTEX
  8
0
 10
68.2599
 20
82.8137
  0
VERTEX
  8
0
 10
68.2107
 20
82.8429
  0
VERTEX
  8
0
 10
68.1508
 20
82.853
  0
VERTEX
  8
0
 10
68.0835
 20
82.842
  0
VERTEX
  8
0
 10
68.0326
 20
82.808
  0
VERTEX
  8
0
 10
68.0004
 20
82.7546
  0
VERTEX
  8
0
 10
67.9893
 20
82.6855
  0
VERTEX
  8
0
 10
67.8852
 20
82.6963
  0
VERTEX
  8
0
 10
67.894
 20
82.7513
  0
VERTEX
  8
0
 10
67.9104
 20
82.7995
  0
VERTEX
  8
0
 10
67.9343
 20
82.8407
  0
VERTEX
  8
0
 10
67.9657
 20
82.8751
  0
VERTEX
  8
0
 10
68.0177
 20
82.9095
  0
VERTEX
  8
0
 10
68.0802
 20
82.9301
  0
VERTEX
  8
0
 10
68.153
 20
82.937
  0
VERTEX
  8
0
 10
68.2215
 20
82.9303
  0
VERTEX
  8
0
 10
68.2817
 20
82.9104
  0
VERTEX
  8
0
 10
68.3335
 20
82.8772
  0
VERTEX
  8
0
 10
68.367
 20
82.8425
  0
VERTEX
  8
0
 10
68.3909
 20
82.8022
  0
VERTEX
  8
0
 10
68.4053
 20
82.7564
  0
VERTEX
  8
0
 10
68.41
 20
82.7051
  0
VERTEX
  8
0
 10
68.4046
 20
82.6552
  0
VERTEX
  8
0
 10
68.3881
 20
82.6051
  0
VERTEX
  8
0
 10
68.3607
 20
82.5549
  0
VERTEX
  8
0
 10
68.3223
 20
82.5046
  0
VERTEX
  8
0
 10
68.2836
 20
82.4637
  0
VERTEX
  8
0
 10
68.2317
 20
82.4147
  0
VERTEX
  8
0
 10
68.1667
 20
82.3576
  0
VERTEX
  8
0
 10
68.1247
 20
82.3217
  0
VERTEX
  8
0
 10
68.096
 20
82.2968
  0
VERTEX
  8
0
 10
68.0807
 20
82.283
  0
VERTEX
  8
0
 10
68.0387
 20
82.2392
  0
VERTEX
  8
0
 10
68.0071
 20
82.197
  0
VERTEX
  8
0
 10
68.41
 20
82.197
  0
SEQEND
  0
POLYLINE
  8
0
 66
     1
 10
0
 20
0
  0
VERTEX
  8
0
 10
68.574
 20
82.101
  0
VERTEX
  8
0
 10
68.574
 20
82.221
  0
VERTEX
  8
0
 10
68.69
 20
82.221
  0
VERTEX
  8
0
 10
68.69
 20
82.101
  0
VERTEX
  8
0
 10
68.574
 20
82.101
  0
SEQEND
  0
POLYLINE
  8
0
 66
     1
 10
0
 20
0
  0
VERTEX
  8
0
 10
68.846
 20
82.825
  0
VERTEX
  8
0
 10
68.846
 20
82.921
  0
VERTEX
  8
0
 10
69.3815
 20
82.921
  0
VERTEX
  8
0
 10
69.3815
 20
82.8417
  0
VERTEX
  8
0
 10
69.3028
 20
82.7433
  0
VERTEX
  8
0
 10
69.2246
 20
82.6172
  0
VERTEX
  8
0
 10
69.1572
 20
82.4781
  0
VERTEX
  8
0
 10
69.105
 20
82.3293
  0
VERTEX
  8
0
 10
69.08
 20
82.2198
  0
VERTEX
  8
0
 10
69.066
 20
82.101
  0
VERTEX
  8
0
 10
68.9617
 20
82.101
  0
VERTEX
  8
0
 10
68.9739
 20
82.2246
  0
VERTEX
  8
0
 10
69.0062
 20
82.3612
  0
VERTEX
  8
0
 10
69.0501
 20
82.4885
  0
VERTEX
  8
0
 10
69.105
 20
82.6067
  0
VERTEX
  8
0
 10
69.1759
 20
82.7264
  0
VERTEX
  8
0
 10
69.2511
 20
82.825
  0
VERTEX
  8
0
 10
68.846
 20
82.825
  0
SEQEND
  0
LINE
  8
0
 10
69.5824
 20
82.5
 11
74.6998
 21
82.5
  0
LINE
  8
0
 10
74.3421
 20
82.3211
 11
74.6998
 21
82.5
  0
LINE
  8
0
 10
74.3421
 20
82.6789
 11
74.6998
 21
82.5
  0
LINE
  8
0
 10
74.6998
 20
82.3
 11
74.6998
 21
83.5
  0
LINE
  8
0
 10
67.1175
 20
82.5
 11
62
 21
82.5
  0
LINE
  8
0
 10
62.3578
 20
82.6789
 11
62
 21
82.5
  0
LINE
  8
0
 10
62.3578
 20
82.3211
 11
62
 21
82.5
  0
LINE
  8
0
 10
62
 20
82.3
 11
62
 21
83.5
  0
POLYLINE
  8
0
 66
     1
 10
0
 20
0
  0
VERTEX
  8
0
 10
79.266
 20
82.101
  0
VERTEX
  8
0
 10
79.166
 20
82.101
  0
VERTEX
  8
0
 10
79.166
 20
82.7521
  0
VERTEX
  8
0
 10
79.0748
 20
82.6834
  0
VERTEX
  8
0
 10
78.962
 20
82.6297
  0
VERTEX
  8
0
 10
78.962
 20
82.7283
  0
VERTEX
  8
0
 10
79.0178
 20
82.7573
  0
VERTEX
  8
0
 10
79.0671
 20
82.7886
  0
VERTEX
  8
0
 10
79.1101
 20
82.8222
  0
VERTEX
  8
0
 10
79.1467
 20
82.8581
  0
VERTEX
  8
0
 10
79.1769
 20
82.8964
  0
VERTEX
  8
0
 10
79.2007
 20
82.937
  0
VERTEX
  8
0
 10
79.266
 20
82.937
  0
VERTEX
  8
0
 10
79.266
 20
82.101
  0
SEQEND
  0
POLYLINE
  8
0
 66
     1
 10
0
 20
0
  0
VERTEX
  8
0
 10
79.526
 20
82.5127
  0
VERTEX
  8
0
 10
79.5272
 20
82.5663
  0
VERTEX
  8
0
 10
79.5308
 20
82.6163
  0
VERTEX
  8
0
 10
79.5368
 20
82.6628
  0
VERTEX
  8
0
 10
79.5452
 20
82.7057
  0
VERTEX
  8
0
 10
79.556
 20
82.7451
  0
VERTEX
  8
0
 10
79.5691
 20
82.7809
  0
VERTEX
  8
0
 10
79.5847
 20
82.8131
  0
VERTEX
  8
0
 10
79.6027
 20
82.8417
  0
VERTEX
  8
0
 10
79.623
 20
82.8668
  0
VERTEX
  8
0
 10
79.6458
 20
82.8883
  0
VERTEX
  8
0
 10
79.7127
 20
82.9245
  0
VERTEX
  8
0
 10
79.796
 20
82.937
  0
VERTEX
  8
0
 10
79.8577
 20
82.9305
  0
VERTEX
  8
0
 10
79.913
 20
82.9098
  0
VERTEX
  8
0
 10
79.9487
 20
82.8856
  0
VERTEX
  8
0
 10
79.98
 20
82.8534
  0
VERTEX
  8
0
 10
80.0069
 20
82.8132
  0
VERTEX
  8
0
 10
80.0294
 20
82.7649
  0
VERTEX
  8
0
 10
80.0474
 20
82.7087
  0
VERTEX
  8
0
 10
80.0614
 20
82.624
  0
VERTEX
  8
0
 10
80.066
 20
82.5127
  0
VERTEX
  8
0
 10
80.0648
 20
82.4591
  0
VERTEX
  8
0
 10
80.0612
 20
82.4092
  0
VERTEX
  8
0
 10
80.0553
 20
82.3628
  0
VERTEX
  8
0
 10
80.0469
 20
82.32
  0
VERTEX
  8
0
 10
80.0361
 20
82.2807
  0
VERTEX
  8
0
 10
80.0229
 20
82.245
  0
VERTEX
  8
0
 10
80.0074
 20
82.2128
  0
VERTEX
  8
0
 10
79.9894
 20
82.1842
  0
VERTEX
  8
0
 10
79.969
 20
82.1591
  0
VERTEX
  8
0
 10
79.9463
 20
82.1377
  0
VERTEX
  8
0
 10
79.8793
 20
82.1014
  0
VERTEX
  8
0
 10
79.796
 20
82.089
  0
VERTEX
  8
0
 10
79.7749
 20
82.0896
  0
VERTEX
  8
0
 10
79.7546
 20
82.0915
  0
VERTEX
  8
0
 10
79.7352
 20
82.0948
  0
VERTEX
  8
0
 10
79.7167
 20
82.0995
  0
VERTEX
  8
0
 10
79.699
 20
82.1056
  0
VERTEX
  8
0
 10
79.6822
 20
82.113
  0
VERTEX
  8
0
 10
79.6662
 20
82.1217
  0
VERTEX
  8
0
 10
79.6511
 20
82.1319
  0
VERTEX
  8
0
 10
79.6369
 20
82.1434
  0
VERTEX
  8
0
 10
79.6235
 20
82.1562
  0
VERTEX
  8
0
 10
79.611
 20
82.1704
  0
VERTEX
  8
0
 10
79.5993
 20
82.186
  0
VERTEX
  8
0
 10
79.5885
 20
82.203
  0
VERTEX
  8
0
 10
79.5786
 20
82.2213
  0
VERTEX
  8
0
 10
79.5695
 20
82.241
  0
VERTEX
  8
0
 10
79.5613
 20
82.262
  0
VERTEX
  8
0
 10
79.5539
 20
82.2844
  0
VERTEX
  8
0
 10
79.5474
 20
82.3082
  0
VERTEX
  8
0
 10
79.5418
 20
82.3333
  0
VERTEX
  8
0
 10
79.537
 20
82.3598
  0
VERTEX
  8
0
 10
79.5331
 20
82.3876
  0
VERTEX
  8
0
 10
79.53
 20
82.4168
  0
VERTEX
  8
0
 10
79.5278
 20
82.4474
  0
VERTEX
  8
0
 10
79.5265
 20
82.4794
  0
VERTEX
  8
0
 10
79.526
 20
82.5127
  0
VERTEX
  8
0
 10
79.526
 20
82.5127
  0
SEQEND
  0
POLYLINE
  8
0
 66
     1
 10
0
 20
0
  0
VERTEX
  8
0
 10
79.63
 20
82.513
  0
VERTEX
  8
0
 10
79.6325
 20
82.4277
  0
VERTEX
  8
0
 10
79.6399
 20
82.3571
  0
VERTEX
  8
0
 10
79.6522
 20
82.301
  0
VERTEX
  8
0
 10
79.6644
 20
82.2672
  0
VERTEX
  8
0
 10
79.6794
 20
82.2385
  0
VERTEX
  8
0
 10
79.6972
 20
82.2151
  0
VERTEX
  8
0
 10
79.7177
 20
82.1968
  0
VERTEX
  8
0
 10
79.741
 20
82.1837
  0
VERTEX
  8
0
 10
79.7672
 20
82.1757
  0
VERTEX
  8
0
 10
79.796
 20
82.173
  0
VERTEX
  8
0
 10
79.813
 20
82.1738
  0
VERTEX
  8
0
 10
79.8291
 20
82.1765
  0
VERTEX
  8
0
 10
79.8443
 20
82.1811
  0
VERTEX
  8
0
 10
79.8586
 20
82.1877
  0
VERTEX
  8
0
 10
79.8719
 20
82.1961
  0
VERTEX
  8
0
 10
79.8843
 20
82.2064
  0
VERTEX
  8
0
 10
79.8958
 20
82.2186
  0
VERTEX
  8
0
 10
79.9064
 20
82.2327
  0
VERTEX
  8
0
 10
79.916
 20
82.2487
  0
VERTEX
  8
0
 10
79.9248
 20
82.2666
  0
VERTEX
  8
0
 10
79.9326
 20
82.2864
  0
VERTEX
  8
0
 10
79.9395
 20
82.3081
  0
VERTEX
  8
0
 10
79.9455
 20
82.3317
  0
VERTEX
  8
0
 10
79.9505
 20
82.3571
  0
VERTEX
  8
0
 10
79.9547
 20
82.3845
  0
VERTEX
  8
0
 10
79.9579
 20
82.4138
  0
VERTEX
  8
0
 10
79.9602
 20
82.4449
  0
VERTEX
  8
0
 10
79.9616
 20
82.478
  0
VERTEX
  8
0
 10
79.962
 20
82.513
  0
VERTEX
  8
0
 10
79.9596
 20
82.5982
  0
VERTEX
  8
0
 10
79.9522
 20
82.6689
  0
VERTEX
  8
0
 10
79.9399
 20
82.7249
  0
VERTEX
  8
0
 10
79.9275
 20
82.7587
  0
VERTEX
  8
0
 10
79.9124
 20
82.7874
  0
VERTEX
  8
0
 10
79.8944
 20
82.8109
  0
VERTEX
  8
0
 10
79.8737
 20
82.8292
  0
VERTEX
  8
0
 10
79.8502
 20
82.8423
  0
VERTEX
  8
0
 10
79.8239
 20
82.8502
  0
VERTEX
  8
0
 10
79.7949
 20
82.853
  0
VERTEX
  8
0
 10
79.7512
 20
82.8466
  0
VERTEX
  8
0
 10
79.7138
 20
82.8268
  0
VERTEX
  8
0
 10
79.6827
 20
82.7935
  0
VERTEX
  8
0
 10
79.6687
 20
82.7694
  0
VERTEX
  8
0
 10
79.6569
 20
82.74
  0
VERTEX
  8
0
 10
79.6472
 20
82.7053
  0
VERTEX
  8
0
 10
79.6397
 20
82.6652
  0
VERTEX
  8
0
 10
79.6343
 20
82.6198
  0
VERTEX
  8
0
 10
79.6311
 20
82.5691
  0
VERTEX
  8
0
 10
79.63
 20
82.513
  0
VERTEX
  8
0
 10
79.63
 20
82.513
  0
SEQEND
  0
POLYLINE
  8
0
 66
     1
 10
0
 20
0
  0
VERTEX
  8
0
 10
80.218
 20
82.101
  0
VERTEX
  8
0
 10
80.218
 20
82.221
  0
VERTEX
  8
0
 10
80.334
 20
82.221
  0
VERTEX
  8
0
 10
80.334
 20
82.101
  0
VERTEX
  8
0
 10
80.218
 20
82.101
  0
SEQEND
  0
POLYLINE
  8
0
 66
     1
 10
0
 20
0
  0
VERTEX
  8
0
 10
81.036
 20
82.7567
  0
VERTEX
  8
0
 10
80.935
 20
82.7487
  0
VERTEX
  8
0
 10
80.9207
 20
82.7873
  0
VERTEX
  8
0
 10
80.8944
 20
82.8177
  0
VERTEX
  8
0
 10
80.8457
 20
82.8439
  0
VERTEX
  8
0
 10
80.7844
 20
82.853
  0
VERTEX
  8
0
 10
80.7276
 20
82.8465
  0
VERTEX
  8
0
 10
80.6834
 20
82.8258
  0
VERTEX
  8
0
 10
80.6596
 20
82.805
  0
VERTEX
  8
0
 10
80.6388
 20
82.7796
  0
VERTEX
  8
0
 10
80.6211
 20
82.7497
  0
VERTEX
  8
0
 10
80.6065
 20
82.7152
  0
VERTEX
  8
0
 10
80.595
 20
82.6761
  0
VERTEX
  8
0
 10
80.5866
 20
82.6325
  0
VERTEX
  8
0
 10
80.5813
 20
82.5843
  0
VERTEX
  8
0
 10
80.579
 20
82.5315
  0
VERTEX
  8
0
 10
80.6046
 20
82.565
  0
VERTEX
  8
0
 10
80.6334
 20
82.5923
  0
VERTEX
  8
0
 10
80.6654
 20
82.6136
  0
VERTEX
  8
0
 10
80.7006
 20
82.6288
  0
VERTEX
  8
0
 10
80.7391
 20
82.6379
  0
VERTEX
  8
0
 10
80.7807
 20
82.641
  0
VERTEX
  8
0
 10
80.8329
 20
82.6359
  0
VERTEX
  8
0
 10
80.8801
 20
82.6207
  0
VERTEX
  8
0
 10
80.9224
 20
82.5955
  0
VERTEX
  8
0
 10
80.9597
 20
82.5601
  0
VERTEX
  8
0
 10
80.9963
 20
82.505
  0
VERTEX
  8
0
 10
81.0184
 20
82.4425
  0
VERTEX
  8
0
 10
81.026
 20
82.3723
  0
VERTEX
  8
0
 10
81.0184
 20
82.2995
  0
VERTEX
  8
0
 10
80.9943
 20
82.2315
  0
VERTEX
  8
0
 10
80.954
 20
82.17
  0
VERTEX
  8
0
 10
80.8998
 20
82.1246
  0
VERTEX
  8
0
 10
80.8372
 20
82.0979
  0
VERTEX
  8
0
 10
80.7662
 20
82.089
  0
VERTEX
  8
0
 10
80.7427
 20
82.0897
  0
VERTEX
  8
0
 10
80.7202
 20
82.0918
  0
VERTEX
  8
0
 10
80.6987
 20
82.0953
  0
VERTEX
  8
0
 10
80.6783
 20
82.1002
  0
VERTEX
  8
0
 10
80.6588
 20
82.1064
  0
VERTEX
  8
0
 10
80.6403
 20
82.1141
  0
VERTEX
  8
0
 10
80.6228
 20
82.1232
  0
VERTEX
  8
0
 10
80.6063
 20
82.1337
  0
VERTEX
  8
0
 10
80.5908
 20
82.1456
  0
VERTEX
  8
0
 10
80.5763
 20
82.1589
  0
VERTEX
  8
0
 10
80.5628
 20
82.1736
  0
VERTEX
  8
0
 10
80.5503
 20
82.1897
  0
VERTEX
  8
0
 10
80.5388
 20
82.2071
  0
VERTEX
  8
0
 10
80.5283
 20
82.226
  0
VERTEX
  8
0
 10
80.5188
 20
82.2463
  0
VERTEX
  8
0
 10
80.5103
 20
82.268
  0
VERTEX
  8
0
 10
80.5028
 20
82.291
  0
VERTEX
  8
0
 10
80.4962
 20
82.3155
  0
VERTEX
  8
0
 10
80.4907
 20
82.3414
  0
VERTEX
  8
0
 10
80.4862
 20
82.3687
  0
VERTEX
  8
0
 10
80.4827
 20
82.3973
  0
VERTEX
  8
0
 10
80.4801
 20
82.4274
  0
VERTEX
  8
0
 10
80.4786
 20
82.4589
  0
VERTEX
  8
0
 10
80.478
 20
82.4917
  0
VERTEX
  8
0
 10
80.4798
 20
82.5578
  0
VERTEX
  8
0
 10
80.4853
 20
82.6186
  0
VERTEX
  8
0
 10
80.4943
 20
82.6739
  0
VERTEX
  8
0
 10
80.5069
 20
82.7239
  0
VERTEX
  8
0
 10
80.5232
 20
82.7686
  0
VERTEX
  8
0
 10
80.5431
 20
82.8079
  0
VERTEX
  8
0
 10
80.5666
 20
82.8418
  0
VERTEX
  8
0
 10
80.6003
 20
82.876
  0
VERTEX
  8
0
 10
80.6395
 20
82.9027
  0
VERTEX
  8
0
 10
80.6843
 20
82.9217
  0
VERTEX
  8
0
 10
80.7347
 20
82.9332
  0
VERTEX
  8
0
 10
80.7906
 20
82.937
  0
VERTEX
  8
0
 10
80.8781
 20
82.9253
  0
VERTEX
  8
0
 10
80.952
 20
82.8903
  0
VERTEX
  8
0
 10
80.9942
 20
82.8525
  0
VERTEX
  8
0
 10
81.0222
 20
82.8079
  0
VERTEX
  8
0
 10
81.036
 20
82.7567
  0
VERTEX
  8
0
 10
81.036
 20
82.7567
  0
SEQEND
  0
POLYLINE
  8
0
 66
     1
 10
0
 20
0
  0
VERTEX
  8
0
 10
80.594
 20
82.3729
  0
VERTEX
  8
0
 10
80.599
 20
82.3221
  0
VERTEX
  8
0
 10
80.6151
 20
82.2741
  0
VERTEX
  8
0
 10
80.6425
 20
82.2301
  0
VERTEX
  8
0
 10
80.6793
 20
82.198
  0
VERTEX
  8
0
 10
80.7201
 20
82.1795
  0
VERTEX
  8
0
 10
80.764
 20
82.173
  0
VERTEX
  8
0
 10
80.8106
 20
82.1795
  0
VERTEX
  8
0
 10
80.8501
 20
82.2
  0
VERTEX
  8
0
 10
80.8828
 20
82.2343
  0
VERTEX
  8
0
 10
80.9119
 20
82.2951
  0
VERTEX
  8
0
 10
80.922
 20
82.3672
  0
VERTEX
  8
0
 10
80.9121
 20
82.4389
  0
VERTEX
  8
0
 10
80.8811
 20
82.4973
  0
VERTEX
  8
0
 10
80.8479
 20
82.528
  0
VERTEX
  8
0
 10
80.8076
 20
82.5465
  0
VERTEX
  8
0
 10
80.76
 20
82.553
  0
VERTEX
  8
0
 10
80.7135
 20
82.5473
  0
VERTEX
  8
0
 10
80.6731
 20
82.5295
  0
VERTEX
  8
0
 10
80.639
 20
82.4996
  0
VERTEX
  8
0
 10
80.6055
 20
82.4424
  0
VERTEX
  8
0
 10
80.594
 20
82.3729
  0
VERTEX
  8
0
 10
80.594
 20
82.3729
  0
SEQEND
  0
LINE
  8
0
 10
81.2366
 20
82.5
 11
85.3002
 21
82.5
  0
LINE
  8
0
 10
84.9424
 20
82.3211
 11
85.3002
 21
82.5
  0
LINE
  8
0
 10
84.9424
 20
82.6789
 11
85.3002
 21
82.5
  0
LINE
  8
0
 10
85.3002
 20
82.3
 11
85.3002
 21
83.5
  0
LINE
  8
0
 10
78.7634
 20
82.5
 11
74.6998
 21
82.5
  0
LINE
  8
0
 10
75.0576
 20
82.6789
 11
74.6998
 21
82.5
  0
LINE
  8
0
 10
75.0576
 20
82.3211
 11
74.6998
 21
82.5
  0
POLYLINE
  8
0
 66
     1
 10
0
 20
0
  0
VERTEX
  8
0
 10
99.806
 20
95.777
  0
VERTEX
  8
0
 10
99.902
 20
95.777
  0
VERTEX
  8
0
 10
99.902
 20
95.233
  0
VERTEX
  8
0
 10
99.8581
 20
95.237
  0
VERTEX
  8
0
 10
99.8131
 20
95.2514
  0
VERTEX
  8
0
 10
99.7671
 20
95.2761
  0
VERTEX
  8
0
 10
99.7202
 20
95.3112
  0
VERTEX
  8
0
 10
99.6608
 20
95.3677
  0
VERTEX
  8
0
 10
99.594
 20
95.444
  0
VERTEX
  8
0
 10
99.5425
 20
95.5047
  0
VERTEX
  8
0
 10
99.499
 20
95.5527
  0
VERTEX
  8
0
 10
99.4632
 20
95.588
  0
VERTEX
  8
0
 10
99.4177
 20
95.6252
  0
VERTEX
  8
0
 10
99.3744
 20
95.6517
  0
VERTEX
  8
0
 10
99.3333
 20
95.6677
  0
VERTEX
  8
0
 10
99.2944
 20
95.673
  0
VERTEX
  8
0
 10
99.2357
 20
95.6614
  0
VERTEX
  8
0
 10
99.1893
 20
95.6268
  0
VERTEX
  8
0
 10
99.1601
 20
95.5776
  0
VERTEX
  8
0
 10
99.15
 20
95.5177
  0
VERTEX
  8
0
 10
99.161
 20
95.4505
  0
VERTEX
  8
0
 10
99.195
 20
95.3995
  0
VERTEX
  8
0
 10
99.2484
 20
95.3673
  0
VERTEX
  8
0
 10
99.3175
 20
95.3562
  0
VERTEX
  8
0
 10
99.3067
 20
95.2522
  0
VERTEX
  8
0
 10
99.2517
 20
95.261
  0
VERTEX
  8
0
 10
99.2035
 20
95.2773
  0
VERTEX
  8
0
 10
99.1623
 20
95.3012
  0
VERTEX
  8
0
 10
99.1279
 20
95.3326
  0
VERTEX
  8
0
 10
99.0935
 20
95.3847
  0
VERTEX
  8
0
 10
99.0729
 20
95.4471
  0
VERTEX
  8
0
 10
99.066
 20
95.5199
  0
VERTEX
  8
0
 10
99.0727
 20
95.5885
  0
VERTEX
  8
0
 10
99.0926
 20
95.6487
  0
VERTEX
  8
0
 10
99.1258
 20
95.7005
  0
VERTEX
  8
0
 10
99.1605
 20
95.7339
  0
VERTEX
  8
0
 10
99.2008
 20
95.7578
  0
VERTEX
  8
0
 10
99.2466
 20
95.7722
  0
VERTEX
  8
0
 10
99.2979
 20
95.777
  0
VERTEX
  8
0
 10
99.3478
 20
95.7715
  0
VERTEX
  8
0
 10
99.3979
 20
95.755
  0
VERTEX
  8
0
 10
99.4481
 20
95.7276
  0
VERTEX
  8
0
 10
99.4984
 20
95.6893
  0
VERTEX
  8
0
 10
99.5393
 20
95.6505
  0
VERTEX
  8
0
 10
99.5883
 20
95.5986
  0
VERTEX
  8
0
 10
99.6454
 20
95.5337
  0
VERTEX
  8
0
 10
99.6813
 20
95.4916
  0
VERTEX
  8
0
 10
99.7062
 20
95.463
  0
VERTEX
  8
0
 10
99.72
 20
95.4477
  0
VERTEX
  8
0
 10
99.7637
 20
95.4057
  0
VERTEX
  8
0
 10
99.806
 20
95.374
  0
VERTEX
  8
0
 10
99.806
 20
95.777
  0
SEQEND
  0
LINE
  8
0
 10
99.5
 20
95.9743
 11
99.5
 21
96.5
  0
LINE
  8
0
 10
99.6789
 20
96.1422
 11
99.5
 21
96.5
  0
LINE
  8
0
 10
99.3211
 20
96.1422
 11
99.5
 21
96.5
  0
LINE
  8
0
 10
99.5
 20
95.0257
 11
99.5
 21
94.5
  0
LINE
  8
0
 10
99.3211
 20
94.8578
 11
99.5
 21
94.5
  0
LINE
  8
0
 10
99.6789
 20
94.8578
 11
99.5
 21
94.5
  0
LINE
  8
0
 10
99.7
 20
94.5
 11
98.5
 21
94.5
  0
POLYLINE
  8
0
 66
     1
 10
0
 20
0
  0
VERTEX
  8
0
 10
99.2463
 20
91.783
  0
VERTEX
  8
0
 10
99.2543
 20
91.682
  0
VERTEX
  8
0
 10
99.2157
 20
91.6676
  0
VERTEX
  8
0
 10
99.1853
 20
91.6413
  0
VERTEX
  8
0
 10
99.1591
 20
91.5927
  0
VERTEX
  8
0
 10
99.15
 20
91.5313
  0
VERTEX
  8
0
 10
99.1565
 20
91.4745
  0
VERTEX
  8
0
 10
99.1772
 20
91.4303
  0
VERTEX
  8
0
 10
99.198
 20
91.4065
  0
VERTEX
  8
0
 10
99.2234
 20
91.3857
  0
VERTEX
  8
0
 10
99.2533
 20
91.3681
  0
VERTEX
  8
0
 10
99.2878
 20
91.3535
  0
VERTEX
  8
0
 10
99.3269
 20
91.342
  0
VERTEX
  8
0
 10
99.3705
 20
91.3335
  0
VERTEX
  8
0
 10
99.4187
 20
91.3282
  0
VERTEX
  8
0
 10
99.4715
 20
91.326
  0
VERTEX
  8
0
 10
99.438
 20
91.3516
  0
VERTEX
  8
0
 10
99.4107
 20
91.3803
  0
VERTEX
  8
0
 10
99.3894
 20
91.4124
  0
VERTEX
  8
0
 10
99.3742
 20
91.4476
  0
VERTEX
  8
0
 10
99.3651
 20
91.486
  0
VERTEX
  8
0
 10
99.362
 20
91.5277
  0
VERTEX
  8
0
 10
99.3671
 20
91.5798
  0
VERTEX
  8
0
 10
99.3822
 20
91.6271
  0
VERTEX
  8
0
 10
99.4075
 20
91.6693
  0
VERTEX
  8
0
 10
99.4429
 20
91.7067
  0
VERTEX
  8
0
 10
99.498
 20
91.7432
  0
VERTEX
  8
0
 10
99.5605
 20
91.7653
  0
VERTEX
  8
0
 10
99.6307
 20
91.773
  0
VERTEX
  8
0
 10
99.7035
 20
91.7653
  0
VERTEX
  8
0
 10
99.7715
 20
91.7413
  0
VERTEX
  8
0
 10
99.833
 20
91.7009
  0
VERTEX
  8
0
 10
99.8784
 20
91.6467
  0
VERTEX
  8
0
 10
99.9051
 20
91.5842
  0
VERTEX
  8
0
 10
99.914
 20
91.5131
  0
VERTEX
  8
0
 10
99.9133
 20
91.4896
  0
VERTEX
  8
0
 10
99.9112
 20
91.4672
  0
VERTEX
  8
0
 10
99.9077
 20
91.4457
  0
VERTEX
  8
0
 10
99.9028
 20
91.4252
  0
VERTEX
  8
0
 10
99.8965
 20
91.4057
  0
VERTEX
  8
0
 10
99.8889
 20
91.3872
  0
VERTEX
  8
0
 10
99.8798
 20
91.3698
  0
VERTEX
  8
0
 10
99.8693
 20
91.3533
  0
VERTEX
  8
0
 10
99.8574
 20
91.3378
  0
VERTEX
  8
0
 10
99.8441
 20
91.3233
  0
VERTEX
  8
0
 10
99.8294
 20
91.3098
  0
VERTEX
  8
0
 10
99.8133
 20
91.2973
  0
VERTEX
  8
0
 10
99.7959
 20
91.2858
  0
VERTEX
  8
0
 10
99.777
 20
91.2753
  0
VERTEX
  8
0
 10
99.7567
 20
91.2657
  0
VERTEX
  8
0
 10
99.735
 20
91.2572
  0
VERTEX
  8
0
 10
99.712
 20
91.2497
  0
VERTEX
  8
0
 10
99.6875
 20
91.2432
  0
VERTEX
  8
0
 10
99.6616
 20
91.2377
  0
VERTEX
  8
0
 10
99.6343
 20
91.2331
  0
VERTEX
  8
0
 10
99.6057
 20
91.2296
  0
VERTEX
  8
0
 10
99.5756
 20
91.2271
  0
VERTEX
  8
0
 10
99.5441
 20
91.2255
  0
VERTEX
  8
0
 10
99.5113
 20
91.225
  0
VERTEX
  8
0
 10
99.4452
 20
91.2268
  0
VERTEX
  8
0
 10
99.3844
 20
91.2322
  0
VERTEX
  8
0
 10
99.3291
 20
91.2412
  0
VERTEX
  8
0
 10
99.2791
 20
91.2539
  0
VERTEX
  8
0
 10
99.2344
 20
91.2702
  0
VERTEX
  8
0
 10
99.1951
 20
91.29
  0
VERTEX
  8
0
 10
99.1612
 20
91.3135
  0
VERTEX
  8
0
 10
99.1269
 20
91.3472
  0
VERTEX
  8
0
 10
99.1003
 20
91.3865
  0
VERTEX
  8
0
 10
99.0813
 20
91.4313
  0
VERTEX
  8
0
 10
99.0698
 20
91.4816
  0
VERTEX
  8
0
 10
99.066
 20
91.5375
  0
VERTEX
  8
0
 10
99.0777
 20
91.625
  0
VERTEX
  8
0
 10
99.1127
 20
91.6989
  0
VERTEX
  8
0
 10
99.1505
 20
91.7411
  0
VERTEX
  8
0
 10
99.1951
 20
91.7691
  0
VERTEX
  8
0
 10
99.2463
 20
91.783
  0
VERTEX
  8
0
 10
99.2463
 20
91.783
  0
SEQEND
  0
POLYLINE
  8
0
 66
     1
 10
0
 20
0
  0
VERTEX
  8
0
 10
99.6301
 20
91.341
  0
VERTEX
  8
0
 10
99.6809
 20
91.346
  0
VERTEX
  8
0
 10
99.7289
 20
91.362
  0
VERTEX
  8
0
 10
99.7729
 20
91.3894
  0
VERTEX
  8
0
 10
99.805
 20
91.4262
  0
VERTEX
  8
0
 10
99.8235
 20
91.467
  0
VERTEX
  8
0
 10
99.83
 20
91.511
  0
VERTEX
  8
0
 10
99.8235
 20
91.5575
  0
VERTEX
  8
0
 10
99.803
 20
91.5971
  0
VERTEX
  8
0
 10
99.7687
 20
91.6297
  0
VERTEX
  8
0
 10
99.7079
 20
91.6589
  0
VERTEX
  8
0
 10
99.6358
 20
91.669
  0
VERTEX
  8
0
 10
99.5641
 20
91.659
  0
VERTEX
  8
0
 10
99.5057
 20
91.628
  0
VERTEX
  8
0
 10
99.475
 20
91.5949
  0
VERTEX
  8
0
 10
99.4565
 20
91.5545
  0
VERTEX
  8
0
 10
99.45
 20
91.507
  0
VERTEX
  8
0
 10
99.4557
 20
91.4604
  0
VERTEX
  8
0
 10
99.4735
 20
91.4201
  0
VERTEX
  8
0
 10
99.5034
 20
91.3859
  0
VERTEX
  8
0
 10
99.5606
 20
91.3525
  0
VERTEX
  8
0
 10
99.6301
 20
91.341
  0
VERTEX
  8
0
 10
99.6301
 20
91.341
  0
SEQEND
  0
LINE
  8
0
 10
99.5
 20
91.9785
 11
99.5
 21
94.5
  0
LINE
  8
0
 10
99.6789
 20
94.1422
 11
99.5
 21
94.5
  0
LINE
  8
0
 10
99.3211
 20
94.1422
 11
99.5
 21
94.5
  0
LINE
  8
0
 10
99.5
 20
91.0215
 11
99.5
 21
88.5
  0
LINE
  8
0
 10
99.3211
 20
88.8578
 11
99.5
 21
88.5
  0
LINE
  8
0
 10
99.6789
 20
88.8578
 11
99.5
 21
88.5
  0
LINE
  8
0
 10
99.7
 20
88.5
 11
98.5
 21
88.5
  0
POLYLINE
  8
0
 66
     1
 10
0
 20
0
  0
VERTEX
  8
0
 10
63.702
 20
80.101
  0
VERTEX
  8
0
 10
63.702
 20
80.305
  0
VERTEX
  8
0
 10
63.342
 20
80.305
  0
VERTEX
  8
0
 10
63.342
 20
80.397
  0
VERTEX
  8
0
 10
63.7195
 20
80.933
  0
VERTEX
  8
0
 10
63.802
 20
80.933
  0
VERTEX
  8
0
 10
63.802
 20
80.397
  0
VERTEX
  8
0
 10
63.9141
 20
80.397
  0
VERTEX
  8
0
 10
63.9141
 20
80.305
  0
VERTEX
  8
0
 10
63.802
 20
80.305
  0
VERTEX
  8
0
 10
63.802
 20
80.101
  0
VERTEX
  8
0
 10
63.702
 20
80.101
  0
SEQEND
  0
POLYLINE
  8
0
 66
     1
 10
0
 20
0
  0
VERTEX
  8
0
 10
63.702
 20
80.397
  0
VERTEX
  8
0
 10
63.702
 20
80.7763
  0
VERTEX
  8
0
 10
63.4392
 20
80.3961
  0
VERTEX
  8
0
 10
63.702
 20
80.397
  0
SEQEND
  0
POLYLINE
  8
0
 66
     1
 10
0
 20
0
  0
VERTEX
  8
0
 10
64.074
 20
80.101
  0
VERTEX
  8
0
 10
64.074
 20
80.221
  0
VERTEX
  8
0
 10
64.19
 20
80.221
  0
VERTEX
  8
0
 10
64.19
 20
80.101
  0
VERTEX
  8
0
 10
64.074
 20
80.101
  0
SEQEND
  0
POLYLINE
  8
0
 66
     1
 10
0
 20
0
  0
VERTEX
  8
0
 10
64.87
 20
80.197
  0
VERTEX
  8
0
 10
64.87
 20
80.101
  0
VERTEX
  8
0
 10
64.326
 20
80.101
  0
VERTEX
  8
0
 10
64.3301
 20
80.1449
  0
VERTEX
  8
0
 10
64.3445
 20
80.1899
  0
VERTEX
  8
0
 10
64.3692
 20
80.2359
  0
VERTEX
  8
0
 10
64.4042
 20
80.2828
  0
VERTEX
  8
0
 10
64.4608
 20
80.3422
  0
VERTEX
  8
0
 10
64.537
 20
80.409
  0
VERTEX
  8
0
 10
64.5978
 20
80.4604
  0
VERTEX
  8
0
 10
64.6458
 20
80.504
  0
VERTEX
  8
0
 10
64.6811
 20
80.5398
  0
VERTEX
  8
0
 10
64.7183
 20
80.5853
  0
VERTEX
  8
0
 10
64.7448
 20
80.6286
  0
VERTEX
  8
0
 10
64.7607
 20
80.6697
  0
VERTEX
  8
0
 10
64.766
 20
80.7086
  0
VERTEX
  8
0
 10
64.7545
 20
80.7673
  0
VERTEX
  8
0
 10
64.7199
 20
80.8137
  0
VERTEX
  8
0
 10
64.6707
 20
80.8429
  0
VERTEX
  8
0
 10
64.6108
 20
80.853
  0
VERTEX
  8
0
 10
64.5435
 20
80.842
  0
VERTEX
  8
0
 10
64.4926
 20
80.808
  0
VERTEX
  8
0
 10
64.4604
 20
80.7546
  0
VERTEX
  8
0
 10
64.4493
 20
80.6855
  0
VERTEX
  8
0
 10
64.3452
 20
80.6963
  0
VERTEX
  8
0
 10
64.354
 20
80.7513
  0
VERTEX
  8
0
 10
64.3704
 20
80.7995
  0
VERTEX
  8
0
 10
64.3943
 20
80.8407
  0
VERTEX
  8
0
 10
64.4257
 20
80.8751
  0
VERTEX
  8
0
 10
64.4777
 20
80.9095
  0
VERTEX
  8
0
 10
64.5402
 20
80.9301
  0
VERTEX
  8
0
 10
64.613
 20
80.937
  0
VERTEX
  8
0
 10
64.6815
 20
80.9303
  0
VERTEX
  8
0
 10
64.7417
 20
80.9104
  0
VERTEX
  8
0
 10
64.7935
 20
80.8772
  0
VERTEX
  8
0
 10
64.827
 20
80.8425
  0
VERTEX
  8
0
 10
64.8509
 20
80.8022
  0
VERTEX
  8
0
 10
64.8653
 20
80.7564
  0
VERTEX
  8
0
 10
64.87
 20
80.7051
  0
VERTEX
  8
0
 10
64.8646
 20
80.6552
  0
VERTEX
  8
0
 10
64.8481
 20
80.6051
  0
VERTEX
  8
0
 10
64.8207
 20
80.5549
  0
VERTEX
  8
0
 10
64.7823
 20
80.5046
  0
VERTEX
  8
0
 10
64.7436
 20
80.4637
  0
VERTEX
  8
0
 10
64.6917
 20
80.4147
  0
VERTEX
  8
0
 10
64.6267
 20
80.3576
  0
VERTEX
  8
0
 10
64.5847
 20
80.3217
  0
VERTEX
  8
0
 10
64.556
 20
80.2968
  0
VERTEX
  8
0
 10
64.5407
 20
80.283
  0
VERTEX
  8
0
 10
64.4987
 20
80.2392
  0
VERTEX
  8
0
 10
64.4671
 20
80.197
  0
VERTEX
  8
0
 10
64.87
 20
80.197
  0
SEQEND
  0
LINE
  8
0
 10
65.0725
 20
80.5
 11
66.2162
 21
80.5
  0
LINE
  8
0
 10
65.8585
 20
80.3211
 11
66.2162
 21
80.5
  0
LINE
  8
0
 10
65.8585
 20
80.6789
 11
66.2162
 21
80.5
  0
LINE
  8
0
 10
66.2162
 20
80.3
 11
66.2162
 21
81.5
  0
LINE
  8
0
 10
63.1437
 20
80.5
 11
62
 21
80.5
  0
LINE
  8
0
 10
62.3578
 20
80.6789
 11
62
 21
80.5
  0
LINE
  8
0
 10
62.3578
 20
80.3211
 11
62
 21
80.5
  0
LINE
  8
0
 10
62
 20
80.3
 11
62
 21
81.5
  0
POLYLINE
  8
0
 66
     1
 10
0
 20
0
  0
VERTEX
  8
0
 10
72.318
 20
80.101
  0
VERTEX
  8
0
 10
72.218
 20
80.101
  0
VERTEX
  8
0
 10
72.218
 20
80.7521
  0
VERTEX
  8
0
 10
72.1268
 20
80.6834
  0
VERTEX
  8
0
 10
72.014
 20
80.6297
  0
VERTEX
  8
0
 10
72.014
 20
80.7283
  0
VERTEX
  8
0
 10
72.0698
 20
80.7573
  0
VERTEX
  8
0
 10
72.1191
 20
80.7886
  0
VERTEX
  8
0
 10
72.1621
 20
80.8222
  0
VERTEX
  8
0
 10
72.1987
 20
80.8581
  0
VERTEX
  8
0
 10
72.2289
 20
80.8964
  0
VERTEX
  8
0
 10
72.2527
 20
80.937
  0
VERTEX
  8
0
 10
72.318
 20
80.937
  0
VERTEX
  8
0
 10
72.318
 20
80.101
  0
SEQEND
  0
POLYLINE
  8
0
 66
     1
 10
0
 20
0
  0
VERTEX
  8
0
 10
72.578
 20
80.3232
  0
VERTEX
  8
0
 10
72.6792
 20
80.3368
  0
VERTEX
  8
0
 10
72.6874
 20
80.3026
  0
VERTEX
  8
0
 10
72.698
 20
80.2723
  0
VERTEX
  8
0
 10
72.711
 20
80.2461
  0
VERTEX
  8
0
 10
72.7265
 20
80.2238
  0
VERTEX
  8
0
 10
72.7444
 20
80.2056
  0
VERTEX
  8
0
 10
72.7648
 20
80.1914
  0
VERTEX
  8
0
 10
72.7876
 20
80.1813
  0
VERTEX
  8
0
 10
72.8128
 20
80.1751
  0
VERTEX
  8
0
 10
72.8404
 20
80.173
  0
VERTEX
  8
0
 10
72.9068
 20
80.1852
  0
VERTEX
  8
0
 10
72.9612
 20
80.223
  0
VERTEX
  8
0
 10
72.9975
 20
80.2793
  0
VERTEX
  8
0
 10
73.01
 20
80.347
  0
VERTEX
  8
0
 10
72.999
 20
80.4112
  0
VERTEX
  8
0
 10
72.9647
 20
80.4632
  0
VERTEX
  8
0
 10
72.9129
 20
80.4975
  0
VERTEX
  8
0
 10
72.8494
 20
80.509
  0
VERTEX
  8
0
 10
72.8165
 20
80.5059
  0
VERTEX
  8
0
 10
72.7783
 20
80.4965
  0
VERTEX
  8
0
 10
72.7896
 20
80.585
  0
VERTEX
  8
0
 10
72.7965
 20
80.585
  0
VERTEX
  8
0
 10
72.8059
 20
80.585
  0
VERTEX
  8
0
 10
72.87
 20
80.5933
  0
VERTEX
  8
0
 10
72.9217
 20
80.6183
  0
VERTEX
  8
0
 10
72.9607
 20
80.6633
  0
VERTEX
  8
0
 10
72.974
 20
80.7235
  0
VERTEX
  8
0
 10
72.9648
 20
80.7756
  0
VERTEX
  8
0
 10
72.936
 20
80.8168
  0
VERTEX
  8
0
 10
72.8924
 20
80.8436
  0
VERTEX
  8
0
 10
72.8388
 20
80.853
  0
VERTEX
  8
0
 10
72.8122
 20
80.8513
  0
VERTEX
  8
0
 10
72.7881
 20
80.846
  0
VERTEX
  8
0
 10
72.7665
 20
80.8368
  0
VERTEX
  8
0
 10
72.7474
 20
80.8239
  0
VERTEX
  8
0
 10
72.7308
 20
80.8072
  0
VERTEX
  8
0
 10
72.7167
 20
80.7868
  0
VERTEX
  8
0
 10
72.7052
 20
80.7627
  0
VERTEX
  8
0
 10
72.6961
 20
80.7347
  0
VERTEX
  8
0
 10
72.6896
 20
80.703
  0
VERTEX
  8
0
 10
72.5882
 20
80.7212
  0
VERTEX
  8
0
 10
72.6054
 20
80.7834
  0
VERTEX
  8
0
 10
72.6331
 20
80.836
  0
VERTEX
  8
0
 10
72.6712
 20
80.8791
  0
VERTEX
  8
0
 10
72.7185
 20
80.911
  0
VERTEX
  8
0
 10
72.7736
 20
80.9303
  0
VERTEX
  8
0
 10
72.8365
 20
80.937
  0
VERTEX
  8
0
 10
72.8986
 20
80.9305
  0
VERTEX
  8
0
 10
72.9564
 20
80.9098
  0
VERTEX
  8
0
 10
73.0091
 20
80.875
  0
VERTEX
  8
0
 10
73.0477
 20
80.8283
  0
VERTEX
  8
0
 10
73.0704
 20
80.7763
  0
VERTEX
  8
0
 10
73.078
 20
80.7213
  0
VERTEX
  8
0
 10
73.0749
 20
80.6845
  0
VERTEX
  8
0
 10
73.0655
 20
80.6513
  0
VERTEX
  8
0
 10
73.0498
 20
80.6215
  0
VERTEX
  8
0
 10
73.0278
 20
80.5952
  0
VERTEX
  8
0
 10
72.9996
 20
80.5724
  0
VERTEX
  8
0
 10
72.9651
 20
80.5532
  0
VERTEX
  8
0
 10
73.0308
 20
80.5263
  0
VERTEX
  8
0
 10
73.0795
 20
80.4807
  0
VERTEX
  8
0
 10
73.1084
 20
80.4211
  0
VERTEX
  8
0
 10
73.118
 20
80.3488
  0
VERTEX
  8
0
 10
73.1131
 20
80.2963
  0
VERTEX
  8
0
 10
73.0984
 20
80.2481
  0
VERTEX
  8
0
 10
73.0739
 20
80.2042
  0
VERTEX
  8
0
 10
73.0396
 20
80.1645
  0
VERTEX
  8
0
 10
72.9977
 20
80.1317
  0
VERTEX
  8
0
 10
72.9505
 20
80.1081
  0
VERTEX
  8
0
 10
72.898
 20
80.0939
  0
VERTEX
  8
0
 10
72.8402
 20
80.089
  0
VERTEX
  8
0
 10
72.7725
 20
80.096
  0
VERTEX
  8
0
 10
72.7128
 20
80.1172
  0
VERTEX
  8
0
 10
72.661
 20
80.1525
  0
VERTEX
  8
0
 10
72.6199
 20
80.1997
  0
VERTEX
  8
0
 10
72.5922
 20
80.2566
  0
VERTEX
  8
0
 10
72.578
 20
80.3232
  0
VERTEX
  8
0
 10
72.578
 20
80.3232
  0
SEQEND
  0
POLYLINE
  8
0
 66
     1
 10
0
 20
0
  0
VERTEX
  8
0
 10
73.274
 20
80.101
  0
VERTEX
  8
0
 10
73.274
 20
80.221
  0
VERTEX
  8
0
 10
73.39
 20
80.221
  0
VERTEX
  8
0
 10
73.39
 20
80.101
  0
VERTEX
  8
0
 10
73.274
 20
80.101
  0
SEQEND
  0
POLYLINE
  8
0
 66
     1
 10
0
 20
0
  0
VERTEX
  8
0
 10
73.546
 20
80.825
  0
VERTEX
  8
0
 10
73.546
 20
80.921
  0
VERTEX
  8
0
 10
74.0815
 20
80.921
  0
VERTEX
  8
0
 10
74.0815
 20
80.8417
  0
VERTEX
  8
0
 10
74.0027
 20
80.7433
  0
VERTEX
  8
0
 10
73.9246
 20
80.6172
  0
VERTEX
  8
0
 10
73.8572
 20
80.4781
  0
VERTEX
  8
0
 10
73.805
 20
80.3293
  0
VERTEX
  8
0
 10
73.78
 20
80.2198
  0
VERTEX
  8
0
 10
73.766
 20
80.101
  0
VERTEX
  8
0
 10
73.6617
 20
80.101
  0
VERTEX
  8
0
 10
73.6739
 20
80.2246
  0
VERTEX
  8
0
 10
73.7062
 20
80.3612
  0
VERTEX
  8
0
 10
73.7501
 20
80.4885
  0
VERTEX
  8
0
 10
73.805
 20
80.6067
  0
VERTEX
  8
0
 10
73.8759
 20
80.7264
  0
VERTEX
  8
0
 10
73.9511
 20
80.825
  0
VERTEX
  8
0
 10
73.546
 20
80.825
  0
SEQEND
  0
LINE
  8
0
 10
74.2805
 20
80.5
 11
79.8798
 21
80.5
  0
LINE
  8
0
 10
79.522
 20
80.3211
 11
79.8798
 21
80.5
  0
LINE
  8
0
 10
79.522
 20
80.6789
 11
79.8798
 21
80.5
  0
LINE
  8
0
 10
79.8798
 20
80.3
 11
79.8798
 21
81.5
  0
LINE
  8
0
 10
71.8156
 20
80.5
 11
66.2162
 21
80.5
  0
LINE
  8
0
 10
66.574
 20
80.6789
 11
66.2162
 21
80.5
  0
LINE
  8
0
 10
66.574
 20
80.3211
 11
66.2162
 21
80.5
  0
POLYLINE
  8
0
 66
     1
 10
0
 20
0
  0
VERTEX
  8
0
 10
83.16
 20
80.7567
  0
VERTEX
  8
0
 10
83.059
 20
80.7487
  0
VERTEX
  8
0
 10
83.0447
 20
80.7873
  0
VERTEX
  8
0
 10
83.0184
 20
80.8177
  0
VERTEX
  8
0
 10
82.9697
 20
80.8439
  0
VERTEX
  8
0
 10
82.9084
 20
80.853
  0
VERTEX
  8
0
 10
82.8516
 20
80.8465
  0
VERTEX
  8
0
 10
82.8074
 20
80.8258
  0
VERTEX
  8
0
 10
82.7836
 20
80.805
  0
VERTEX
  8
0
 10
82.7628
 20
80.7796
  0
VERTEX
  8
0
 10
82.7451
 20
80.7497
  0
VERTEX
  8
0
 10
82.7305
 20
80.7152
  0
VERTEX
  8
0
 10
82.719
 20
80.6761
  0
VERTEX
  8
0
 10
82.7106
 20
80.6325
  0
VERTEX
  8
0
 10
82.7053
 20
80.5843
  0
VERTEX
  8
0
 10
82.703
 20
80.5315
  0
VERTEX
  8
0
 10
82.7286
 20
80.565
  0
VERTEX
  8
0
 10
82.7574
 20
80.5923
  0
VERTEX
  8
0
 10
82.7894
 20
80.6136
  0
VERTEX
  8
0
 10
82.8246
 20
80.6288
  0
VERTEX
  8
0
 10
82.8631
 20
80.6379
  0
VERTEX
  8
0
 10
82.9047
 20
80.641
  0
VERTEX
  8
0
 10
82.9569
 20
80.6359
  0
VERTEX
  8
0
 10
83.0041
 20
80.6207
  0
VERTEX
  8
0
 10
83.0464
 20
80.5955
  0
VERTEX
  8
0
 10
83.0837
 20
80.5601
  0
VERTEX
  8
0
 10
83.1203
 20
80.505
  0
VERTEX
  8
0
 10
83.1424
 20
80.4425
  0
VERTEX
  8
0
 10
83.15
 20
80.3723
  0
VERTEX
  8
0
 10
83.1424
 20
80.2995
  0
VERTEX
  8
0
 10
83.1183
 20
80.2315
  0
VERTEX
  8
0
 10
83.078
 20
80.17
  0
VERTEX
  8
0
 10
83.0238
 20
80.1246
  0
VERTEX
  8
0
 10
82.9612
 20
80.0979
  0
VERTEX
  8
0
 10
82.8902
 20
80.089
  0
VERTEX
  8
0
 10
82.8667
 20
80.0897
  0
VERTEX
  8
0
 10
82.8442
 20
80.0918
  0
VERTEX
  8
0
 10
82.8227
 20
80.0953
  0
VERTEX
  8
0
 10
82.8023
 20
80.1002
  0
VERTEX
  8
0
 10
82.7828
 20
80.1064
  0
VERTEX
  8
0
 10
82.7643
 20
80.1141
  0
VERTEX
  8
0
 10
82.7468
 20
80.1232
  0
VERTEX
  8
0
 10
82.7303
 20
80.1337
  0
VERTEX
  8
0
 10
82.7148
 20
80.1456
  0
VERTEX
  8
0
 10
82.7003
 20
80.1589
  0
VERTEX
  8
0
 10
82.6868
 20
80.1736
  0
VERTEX
  8
0
 10
82.6743
 20
80.1897
  0
VERTEX
  8
0
 10
82.6628
 20
80.2071
  0
VERTEX
  8
0
 10
82.6523
 20
80.226
  0
VERTEX
  8
0
 10
82.6428
 20
80.2463
  0
VERTEX
  8
0
 10
82.6343
 20
80.268
  0
VERTEX
  8
0
 10
82.6268
 20
80.291
  0
VERTEX
  8
0
 10
82.6202
 20
80.3155
  0
VERTEX
  8
0
 10
82.6147
 20
80.3414
  0
VERTEX
  8
0
 10
82.6102
 20
80.3687
  0
VERTEX
  8
0
 10
82.6067
 20
80.3973
  0
VERTEX
  8
0
 10
82.6041
 20
80.4274
  0
VERTEX
  8
0
 10
82.6026
 20
80.4589
  0
VERTEX
  8
0
 10
82.602
 20
80.4917
  0
VERTEX
  8
0
 10
82.6038
 20
80.5578
  0
VERTEX
  8
0
 10
82.6093
 20
80.6186
  0
VERTEX
  8
0
 10
82.6183
 20
80.6739
  0
VERTEX
  8
0
 10
82.6309
 20
80.7239
  0
VERTEX
  8
0
 10
82.6472
 20
80.7686
  0
VERTEX
  8
0
 10
82.6671
 20
80.8079
  0
VERTEX
  8
0
 10
82.6906
 20
80.8418
  0
VERTEX
  8
0
 10
82.7243
 20
80.876
  0
VERTEX
  8
0
 10
82.7635
 20
80.9027
  0
VERTEX
  8
0
 10
82.8083
 20
80.9217
  0
VERTEX
  8
0
 10
82.8587
 20
80.9332
  0
VERTEX
  8
0
 10
82.9146
 20
80.937
  0
VERTEX
  8
0
 10
83.0021
 20
80.9253
  0
VERTEX
  8
0
 10
83.076
 20
80.8903
  0
VERTEX
  8
0
 10
83.1182
 20
80.8525
  0
VERTEX
  8
0
 10
83.1462
 20
80.8079
  0
VERTEX
  8
0
 10
83.16
 20
80.7567
  0
VERTEX
  8
0
 10
83.16
 20
80.7567
  0
SEQEND
  0
POLYLINE
  8
0
 66
     1
 10
0
 20
0
  0
VERTEX
  8
0
 10
82.718
 20
80.3729
  0
VERTEX
  8
0
 10
82.723
 20
80.3221
  0
VERTEX
  8
0
 10
82.7391
 20
80.2741
  0
VERTEX
  8
0
 10
82.7665
 20
80.2301
  0
VERTEX
  8
0
 10
82.8033
 20
80.198
  0
VERTEX
  8
0
 10
82.8441
 20
80.1795
  0
VERTEX
  8
0
 10
82.888
 20
80.173
  0
VERTEX
  8
0
 10
82.9346
 20
80.1795
  0
VERTEX
  8
0
 10
82.9741
 20
80.2
  0
VERTEX
  8
0
 10
83.0068
 20
80.2343
  0
VERTEX
  8
0
 10
83.0359
 20
80.2951
  0
VERTEX
  8
0
 10
83.046
 20
80.3672
  0
VERTEX
  8
0
 10
83.0361
 20
80.4389
  0
VERTEX
  8
0
 10
83.0051
 20
80.4973
  0
VERTEX
  8
0
 10
82.9719
 20
80.528
  0
VERTEX
  8
0
 10
82.9316
 20
80.5465
  0
VERTEX
  8
0
 10
82.884
 20
80.553
  0
VERTEX
  8
0
 10
82.8375
 20
80.5473
  0
VERTEX
  8
0
 10
82.7971
 20
80.5295
  0
VERTEX
  8
0
 10
82.763
 20
80.4996
  0
VERTEX
  8
0
 10
82.7295
 20
80.4424
  0
VERTEX
  8
0
 10
82.718
 20
80.3729
  0
VERTEX
  8
0
 10
82.718
 20
80.3729
  0
SEQEND
  0
LINE
  8
0
 10
83.3583
 20
80.5
 11
85.8798
 21
80.5
  0
LINE
  8
0
 10
85.522
 20
80.3211
 11
85.8798
 21
80.5
  0
LINE
  8
0
 10
85.522
 20
80.6789
 11
85.8798
 21
80.5
  0
LINE
  8
0
 10
85.8798
 20
80.3
 11
85.8798
 21
81.5
  0
LINE
  8
0
 10
82.4013
 20
80.5
 11
79.8798
 21
80.5
  0
LINE
  8
0
 10
80.2376
 20
80.6789
 11
79.8798
 21
80.5
  0
LINE
  8
0
 10
80.2376
 20
80.3211
 11
79.8798
 21
80.5
  0
POLYLINE
  8
0
 66
     1
 10
0
 20
0
  0
VERTEX
  8
0
 10
89.082
 20
80.825
  0
VERTEX
  8
0
 10
89.082
 20
80.921
  0
VERTEX
  8
0
 10
89.6175
 20
80.921
  0
VERTEX
  8
0
 10
89.6175
 20
80.8417
  0
VERTEX
  8
0
 10
89.5387
 20
80.7433
  0
VERTEX
  8
0
 10
89.4606
 20
80.6172
  0
VERTEX
  8
0
 10
89.3932
 20
80.4781
  0
VERTEX
  8
0
 10
89.341
 20
80.3293
  0
VERTEX
  8
0
 10
89.316
 20
80.2198
  0
VERTEX
  8
0
 10
89.302
 20
80.101
  0
VERTEX
  8
0
 10
89.1977
 20
80.101
  0
VERTEX
  8
0
 10
89.2099
 20
80.2246
  0
VERTEX
  8
0
 10
89.2422
 20
80.3612
  0
VERTEX
  8
0
 10
89.2861
 20
80.4885
  0
VERTEX
  8
0
 10
89.341
 20
80.6067
  0
VERTEX
  8
0
 10
89.4119
 20
80.7264
  0
VERTEX
  8
0
 10
89.4871
 20
80.825
  0
VERTEX
  8
0
 10
89.082
 20
80.825
  0
SEQEND
  0
POLYLINE
  8
0
 66
     1
 10
0
 20
0
  0
VERTEX
  8
0
 10
89.774
 20
80.101
  0
VERTEX
  8
0
 10
89.774
 20
80.221
  0
VERTEX
  8
0
 10
89.89
 20
80.221
  0
VERTEX
  8
0
 10
89.89
 20
80.101
  0
VERTEX
  8
0
 10
89.774
 20
80.101
  0
SEQEND
  0
POLYLINE
  8
0
 66
     1
 10
0
 20
0
  0
VERTEX
  8
0
 10
90.0426
 20
80.2516
  0
VERTEX
  8
0
 10
90.1404
 20
80.2607
  0
VERTEX
  8
0
 10
90.1554
 20
80.2249
  0
VERTEX
  8
0
 10
90.188
 20
80.1942
  0
VERTEX
  8
0
 10
90.2281
 20
80.1786
  0
VERTEX
  8
0
 10
90.2886
 20
80.173
  0
VERTEX
  8
0
 10
90.332
 20
80.1781
  0
VERTEX
  8
0
 10
90.3706
 20
80.1945
  0
VERTEX
  8
0
 10
90.4018
 20
80.2195
  0
VERTEX
  8
0
 10
90.4283
 20
80.2536
  0
VERTEX
  8
0
 10
90.4499
 20
80.2968
  0
VERTEX
  8
0
 10
90.4668
 20
80.3492
  0
VERTEX
  8
0
 10
90.4782
 20
80.4104
  0
VERTEX
  8
0
 10
90.482
 20
80.4739
  0
VERTEX
  8
0
 10
90.4819
 20
80.4847
  0
VERTEX
  8
0
 10
90.4815
 20
80.4943
  0
VERTEX
  8
0
 10
90.457
 20
80.461
  0
VERTEX
  8
0
 10
90.4291
 20
80.4338
  0
VERTEX
  8
0
 10
90.3978
 20
80.4126
  0
VERTEX
  8
0
 10
90.3631
 20
80.3974
  0
VERTEX
  8
0
 10
90.325
 20
80.3882
  0
VERTEX
  8
0
 10
90.2835
 20
80.385
  0
VERTEX
  8
0
 10
90.2305
 20
80.3898
  0
VERTEX
  8
0
 10
90.1827
 20
80.4049
  0
VERTEX
  8
0
 10
90.1402
 20
80.4303
  0
VERTEX
  8
0
 10
90.1031
 20
80.4659
  0
VERTEX
  8
0
 10
90.0669
 20
80.5216
  0
VERTEX
  8
0
 10
90.0453
 20
80.5852
  0
VERTEX
  8
0
 10
90.038
 20
80.6567
  0
VERTEX
  8
0
 10
90.0427
 20
80.717
  0
VERTEX
  8
0
 10
90.0565
 20
80.7709
  0
VERTEX
  8
0
 10
90.0796
 20
80.8186
  0
VERTEX
  8
0
 10
90.112
 20
80.86
  0
VERTEX
  8
0
 10
90.1513
 20
80.8934
  0
VERTEX
  8
0
 10
90.1955
 20
80.9174
  0
VERTEX
  8
0
 10
90.2444
 20
80.9319
  0
VERTEX
  8
0
 10
90.2982
 20
80.937
  0
VERTEX
  8
0
 10
90.3773
 20
80.9261
  0
VERTEX
  8
0
 10
90.4477
 20
80.8922
  0
VERTEX
  8
0
 10
90.5055
 20
80.8387
  0
VERTEX
  8
0
 10
90.547
 20
80.7687
  0
VERTEX
  8
0
 10
90.5665
 20
80.7068
  0
VERTEX
  8
0
 10
90.5781
 20
80.629
  0
VERTEX
  8
0
 10
90.582
 20
80.5353
  0
VERTEX
  8
0
 10
90.5811
 20
80.4871
  0
VERTEX
  8
0
 10
90.5782
 20
80.4416
  0
VERTEX
  8
0
 10
90.5735
 20
80.3988
  0
VERTEX
  8
0
 10
90.5668
 20
80.3588
  0
VERTEX
  8
0
 10
90.5582
 20
80.3216
  0
VERTEX
  8
0
 10
90.5477
 20
80.2871
  0
VERTEX
  8
0
 10
90.5354
 20
80.2554
  0
VERTEX
  8
0
 10
90.5211
 20
80.2265
  0
VERTEX
  8
0
 10
90.5049
 20
80.2003
  0
VERTEX
  8
0
 10
90.4868
 20
80.1768
  0
VERTEX
  8
0
 10
90.4668
 20
80.1562
  0
VERTEX
  8
0
 10
90.4449
 20
80.1383
  0
VERTEX
  8
0
 10
90.3713
 20
80.1013
  0
VERTEX
  8
0
 10
90.2858
 20
80.089
  0
VERTEX
  8
0
 10
90.2308
 20
80.0917
  0
VERTEX
  8
0
 10
90.1842
 20
80.1
  0
VERTEX
  8
0
 10
90.1461
 20
80.1137
  0
VERTEX
  8
0
 10
90.1165
 20
80.1329
  0
VERTEX
  8
0
 10
90.0647
 20
80.1914
  0
VERTEX
  8
0
 10
90.0426
 20
80.2516
  0
VERTEX
  8
0
 10
90.0426
 20
80.2516
  0
SEQEND
  0
POLYLINE
  8
0
 66
     1
 10
0
 20
0
  0
VERTEX
  8
0
 10
90.47
 20
80.661
  0
VERTEX
  8
0
 10
90.46
 20
80.7329
  0
VERTEX
  8
0
 10
90.4298
 20
80.7926
  0
VERTEX
  8
0
 10
90.3969
 20
80.8259
  0
VERTEX
  8
0
 10
90.3573
 20
80.846
  0
VERTEX
  8
0
 10
90.3108
 20
80.853
  0
VERTEX
  8
0
 10
90.263
 20
80.8462
  0
VERTEX
  8
0
 10
90.2215
 20
80.8251
  0
VERTEX
  8
0
 10
90.1862
 20
80.7897
  0
VERTEX
  8
0
 10
90.1534
 20
80.7266
  0
VERTEX
  8
0
 10
90.142
 20
80.6524
  0
VERTEX
  8
0
 10
90.1529
 20
80.5825
  0
VERTEX
  8
0
 10
90.1868
 20
80.5254
  0
VERTEX
  8
0
 10
90.2403
 20
80.4861
  0
VERTEX
  8
0
 10
90.308
 20
80.473
  0
VERTEX
  8
0
 10
90.3563
 20
80.4792
  0
VERTEX
  8
0
 10
90.3969
 20
80.4978
  0
VERTEX
  8
0
 10
90.4298
 20
80.5288
  0
VERTEX
  8
0
 10
90.46
 20
80.5878
  0
VERTEX
  8
0
 10
90.47
 20
80.661
  0
VERTEX
  8
0
 10
90.47
 20
80.661
  0
SEQEND
  0
LINE
  8
0
 10
90.7815
 20
80.5
 11
93.7837
 21
80.5
  0
LINE
  8
0
 10
93.426
 20
80.3211
 11
93.7837
 21
80.5
  0
LINE
  8
0
 10
93.426
 20
80.6789
 11
93.7837
 21
80.5
  0
LINE
  8
0
 10
93.7837
 20
80.3
 11
93.7837
 21
81.5
  0
LINE
  8
0
 10
88.882
 20
80.5
 11
85.8798
 21
80.5
  0
LINE
  8
0
 10
86.2376
 20
80.6789
 11
85.8798
 21
80.5
  0
LINE
  8
0
 10
86.2376
 20
80.3211
 11
85.8798
 21
80.5
  0
POLYLINE
  8
0
 66
     1
 10
0
 20
0
  0
VERTEX
  8
0
 10
95.422
 20
84.3232
  0
VERTEX
  8
0
 10
95.5232
 20
84.3368
  0
VERTEX
  8
0
 10
95.5314
 20
84.3026
  0
VERTEX
  8
0
 10
95.542
 20
84.2723
  0
VERTEX
  8
0
 10
95.555
 20
84.2461
  0
VERTEX
  8
0
 10
95.5705
 20
84.2238
  0
VERTEX
  8
0
 10
95.5884
 20
84.2056
  0
VERTEX
  8
0
 10
95.6088
 20
84.1914
  0
VERTEX
  8
0
 10
95.6316
 20
84.1813
  0
VERTEX
  8
0
 10
95.6568
 20
84.1751
  0
VERTEX
  8
0
 10
95.6844
 20
84.173
  0
VERTEX
  8
0
 10
95.7508
 20
84.1852
  0
VERTEX
  8
0
 10
95.8052
 20
84.223
  0
VERTEX
  8
0
 10
95.8415
 20
84.2793
  0
VERTEX
  8
0
 10
95.854
 20
84.347
  0
VERTEX
  8
0
 10
95.843
 20
84.4112
  0
VERTEX
  8
0
 10
95.8087
 20
84.4632
  0
VERTEX
  8
0
 10
95.7569
 20
84.4975
  0
VERTEX
  8
0
 10
95.6934
 20
84.509
  0
VERTEX
  8
0
 10
95.6605
 20
84.5059
  0
VERTEX
  8
0
 10
95.6223
 20
84.4965
  0
VERTEX
  8
0
 10
95.6336
 20
84.585
  0
VERTEX
  8
0
 10
95.6405
 20
84.585
  0
VERTEX
  8
0
 10
95.6499
 20
84.585
  0
VERTEX
  8
0
 10
95.714
 20
84.5933
  0
VERTEX
  8
0
 10
95.7657
 20
84.6183
  0
VERTEX
  8
0
 10
95.8047
 20
84.6633
  0
VERTEX
  8
0
 10
95.818
 20
84.7235
  0
VERTEX
  8
0
 10
95.8088
 20
84.7756
  0
VERTEX
  8
0
 10
95.78
 20
84.8168
  0
VERTEX
  8
0
 10
95.7364
 20
84.8436
  0
VERTEX
  8
0
 10
95.6828
 20
84.853
  0
VERTEX
  8
0
 10
95.6562
 20
84.8513
  0
VERTEX
  8
0
 10
95.6321
 20
84.846
  0
VERTEX
  8
0
 10
95.6105
 20
84.8368
  0
VERTEX
  8
0
 10
95.5914
 20
84.8239
  0
VERTEX
  8
0
 10
95.5748
 20
84.8072
  0
VERTEX
  8
0
 10
95.5607
 20
84.7868
  0
VERTEX
  8
0
 10
95.5492
 20
84.7627
  0
VERTEX
  8
0
 10
95.5401
 20
84.7347
  0
VERTEX
  8
0
 10
95.5336
 20
84.703
  0
VERTEX
  8
0
 10
95.4322
 20
84.7212
  0
VERTEX
  8
0
 10
95.4494
 20
84.7834
  0
VERTEX
  8
0
 10
95.4771
 20
84.836
  0
VERTEX
  8
0
 10
95.5152
 20
84.8791
  0
VERTEX
  8
0
 10
95.5625
 20
84.911
  0
VERTEX
  8
0
 10
95.6176
 20
84.9303
  0
VERTEX
  8
0
 10
95.6805
 20
84.937
  0
VERTEX
  8
0
 10
95.7426
 20
84.9305
  0
VERTEX
  8
0
 10
95.8004
 20
84.9098
  0
VERTEX
  8
0
 10
95.8531
 20
84.875
  0
VERTEX
  8
0
 10
95.8917
 20
84.8283
  0
VERTEX
  8
0
 10
95.9144
 20
84.7763
  0
VERTEX
  8
0
 10
95.922
 20
84.7213
  0
VERTEX
  8
0
 10
95.9189
 20
84.6845
  0
VERTEX
  8
0
 10
95.9095
 20
84.6513
  0
VERTEX
  8
0
 10
95.8938
 20
84.6215
  0
VERTEX
  8
0
 10
95.8718
 20
84.5952
  0
VERTEX
  8
0
 10
95.8436
 20
84.5724
  0
VERTEX
  8
0
 10
95.8091
 20
84.5532
  0
VERTEX
  8
0
 10
95.8748
 20
84.5263
  0
VERTEX
  8
0
 10
95.9235
 20
84.4807
  0
VERTEX
  8
0
 10
95.9524
 20
84.4211
  0
VERTEX
  8
0
 10
95.962
 20
84.3488
  0
VERTEX
  8
0
 10
95.9571
 20
84.2963
  0
VERTEX
  8
0
 10
95.9424
 20
84.2481
  0
VERTEX
  8
0
 10
95.9179
 20
84.2042
  0
VERTEX
  8
0
 10
95.8836
 20
84.1645
  0
VERTEX
  8
0
 10
95.8417
 20
84.1317
  0
VERTEX
  8
0
 10
95.7945
 20
84.1081
  0
VERTEX
  8
0
 10
95.742
 20
84.0939
  0
VERTEX
  8
0
 10
95.6842
 20
84.089
  0
VERTEX
  8
0
 10
95.6165
 20
84.096
  0
VERTEX
  8
0
 10
95.5568
 20
84.1172
  0
VERTEX
  8
0
 10
95.505
 20
84.1525
  0
VERTEX
  8
0
 10
95.4639
 20
84.1997
  0
VERTEX
  8
0
 10
95.4362
 20
84.2566
  0
VERTEX
  8
0
 10
95.422
 20
84.3232
  0
VERTEX
  8
0
 10
95.422
 20
84.3232
  0
SEQEND
  0
POLYLINE
  8
0
 66
     1
 10
0
 20
0
  0
VERTEX
  8
0
 10
96.118
 20
84.101
  0
VERTEX
  8
0
 10
96.118
 20
84.221
  0
VERTEX
  8
0
 10
96.234
 20
84.221
  0
VERTEX
  8
0
 10
96.234
 20
84.101
  0
VERTEX
  8
0
 10
96.118
 20
84.101
  0
SEQEND
  0
POLYLINE
  8
0
 66
     1
 10
0
 20
0
  0
VERTEX
  8
0
 10
96.936
 20
84.7567
  0
VERTEX
  8
0
 10
96.835
 20
84.7487
  0
VERTEX
  8
0
 10
96.8207
 20
84.7873
  0
VERTEX
  8
0
 10
96.7944
 20
84.8177
  0
VERTEX
  8
0
 10
96.7457
 20
84.8439
  0
VERTEX
  8
0
 10
96.6844
 20
84.853
  0
VERTEX
  8
0
 10
96.6276
 20
84.8465
  0
VERTEX
  8
0
 10
96.5834
 20
84.8258
  0
VERTEX
  8
0
 10
96.5596
 20
84.805
  0
VERTEX
  8
0
 10
96.5388
 20
84.7796
  0
VERTEX
  8
0
 10
96.5211
 20
84.7497
  0
VERTEX
  8
0
 10
96.5065
 20
84.7152
  0
VERTEX
  8
0
 10
96.495
 20
84.6761
  0
VERTEX
  8
0
 10
96.4866
 20
84.6325
  0
VERTEX
  8
0
 10
96.4813
 20
84.5843
  0
VERTEX
  8
0
 10
96.479
 20
84.5315
  0
VERTEX
  8
0
 10
96.5046
 20
84.565
  0
VERTEX
  8
0
 10
96.5334
 20
84.5923
  0
VERTEX
  8
0
 10
96.5654
 20
84.6136
  0
VERTEX
  8
0
 10
96.6006
 20
84.6288
  0
VERTEX
  8
0
 10
96.6391
 20
84.6379
  0
VERTEX
  8
0
 10
96.6807
 20
84.641
  0
VERTEX
  8
0
 10
96.7329
 20
84.6359
  0
VERTEX
  8
0
 10
96.7801
 20
84.6207
  0
VERTEX
  8
0
 10
96.8224
 20
84.5955
  0
VERTEX
  8
0
 10
96.8597
 20
84.5601
  0
VERTEX
  8
0
 10
96.8963
 20
84.505
  0
VERTEX
  8
0
 10
96.9184
 20
84.4425
  0
VERTEX
  8
0
 10
96.926
 20
84.3723
  0
VERTEX
  8
0
 10
96.9184
 20
84.2995
  0
VERTEX
  8
0
 10
96.8943
 20
84.2315
  0
VERTEX
  8
0
 10
96.854
 20
84.17
  0
VERTEX
  8
0
 10
96.7998
 20
84.1246
  0
VERTEX
  8
0
 10
96.7372
 20
84.0979
  0
VERTEX
  8
0
 10
96.6662
 20
84.089
  0
VERTEX
  8
0
 10
96.6427
 20
84.0897
  0
VERTEX
  8
0
 10
96.6202
 20
84.0918
  0
VERTEX
  8
0
 10
96.5987
 20
84.0953
  0
VERTEX
  8
0
 10
96.5783
 20
84.1002
  0
VERTEX
  8
0
 10
96.5588
 20
84.1064
  0
VERTEX
  8
0
 10
96.5403
 20
84.1141
  0
VERTEX
  8
0
 10
96.5228
 20
84.1232
  0
VERTEX
  8
0
 10
96.5063
 20
84.1337
  0
VERTEX
  8
0
 10
96.4908
 20
84.1456
  0
VERTEX
  8
0
 10
96.4763
 20
84.1589
  0
VERTEX
  8
0
 10
96.4628
 20
84.1736
  0
VERTEX
  8
0
 10
96.4503
 20
84.1897
  0
VERTEX
  8
0
 10
96.4388
 20
84.2071
  0
VERTEX
  8
0
 10
96.4283
 20
84.226
  0
VERTEX
  8
0
 10
96.4188
 20
84.2463
  0
VERTEX
  8
0
 10
96.4103
 20
84.268
  0
VERTEX
  8
0
 10
96.4028
 20
84.291
  0
VERTEX
  8
0
 10
96.3962
 20
84.3155
  0
VERTEX
  8
0
 10
96.3907
 20
84.3414
  0
VERTEX
  8
0
 10
96.3862
 20
84.3687
  0
VERTEX
  8
0
 10
96.3827
 20
84.3973
  0
VERTEX
  8
0
 10
96.3801
 20
84.4274
  0
VERTEX
  8
0
 10
96.3786
 20
84.4589
  0
VERTEX
  8
0
 10
96.378
 20
84.4917
  0
VERTEX
  8
0
 10
96.3798
 20
84.5578
  0
VERTEX
  8
0
 10
96.3853
 20
84.6186
  0
VERTEX
  8
0
 10
96.3943
 20
84.6739
  0
VERTEX
  8
0
 10
96.4069
 20
84.7239
  0
VERTEX
  8
0
 10
96.4232
 20
84.7686
  0
VERTEX
  8
0
 10
96.4431
 20
84.8079
  0
VERTEX
  8
0
 10
96.4666
 20
84.8418
  0
VERTEX
  8
0
 10
96.5003
 20
84.876
  0
VERTEX
  8
0
 10
96.5395
 20
84.9027
  0
VERTEX
  8
0
 10
96.5843
 20
84.9217
  0
VERTEX
  8
0
 10
96.6347
 20
84.9332
  0
VERTEX
  8
0
 10
96.6906
 20
84.937
  0
VERTEX
  8
0
 10
96.7781
 20
84.9253
  0
VERTEX
  8
0
 10
96.852
 20
84.8903
  0
VERTEX
  8
0
 10
96.8942
 20
84.8525
  0
VERTEX
  8
0
 10
96.9222
 20
84.8079
  0
VERTEX
  8
0
 10
96.936
 20
84.7567
  0
VERTEX
  8
0
 10
96.936
 20
84.7567
  0
SEQEND
  0
POLYLINE
  8
0
 66
     1
 10
0
 20
0
  0
VERTEX
  8
0
 10
96.494
 20
84.3729
  0
VERTEX
  8
0
 10
96.499
 20
84.3221
  0
VERTEX
  8
0
 10
96.5151
 20
84.2741
  0
VERTEX
  8
0
 10
96.5425
 20
84.2301
  0
VERTEX
  8
0
 10
96.5793
 20
84.198
  0
VERTEX
  8
0
 10
96.6201
 20
84.1795
  0
VERTEX
  8
0
 10
96.664
 20
84.173
  0
VERTEX
  8
0
 10
96.7106
 20
84.1795
  0
VERTEX
  8
0
 10
96.7501
 20
84.2
  0
VERTEX
  8
0
 10
96.7828
 20
84.2343
  0
VERTEX
  8
0
 10
96.8119
 20
84.2951
  0
VERTEX
  8
0
 10
96.822
 20
84.3672
  0
VERTEX
  8
0
 10
96.8121
 20
84.4389
  0
VERTEX
  8
0
 10
96.7811
 20
84.4973
  0
VERTEX
  8
0
 10
96.7479
 20
84.528
  0
VERTEX
  8
0
 10
96.7076
 20
84.5465
  0
VERTEX
  8
0
 10
96.66
 20
84.553
  0
VERTEX
  8
0
 10
96.6135
 20
84.5473
  0
VERTEX
  8
0
 10
96.5731
 20
84.5295
  0
VERTEX
  8
0
 10
96.539
 20
84.4996
  0
VERTEX
  8
0
 10
96.5055
 20
84.4424
  0
VERTEX
  8
0
 10
96.494
 20
84.3729
  0
VERTEX
  8
0
 10
96.494
 20
84.3729
  0
SEQEND
  0
LINE
  8
0
 10
97.1352
 20
84.5
 11
98
 21
84.5
  0
LINE
  8
0
 10
97.6422
 20
84.3211
 11
98
 21
84.5
  0
LINE
  8
0
 10
97.6422
 20
84.6789
 11
98
 21
84.5
  0
LINE
  8
0
 10
98
 20
84.3
 11
98
 21
85.5
  0
LINE
  8
0
 10
95.2232
 20
84.5
 11
94.3584
 21
84.5
  0
LINE
  8
0
 10
94.7161
 20
84.6789
 11
94.3584
 21
84.5
  0
LINE
  8
0
 10
94.7161
 20
84.3211
 11
94.3584
 21
84.5
  0
LINE
  8
0
 10
94.3584
 20
84.3
 11
94.3584
 21
85.5
  0
POLYLINE
  8
0
 66
     1
 10
0
 20
0
  0
VERTEX
  8
0
 10
90.922
 20
82.101
  0
VERTEX
  8
0
 10
90.822
 20
82.101
  0
VERTEX
  8
0
 10
90.822
 20
82.7521
  0
VERTEX
  8
0
 10
90.7308
 20
82.6834
  0
VERTEX
  8
0
 10
90.618
 20
82.6297
  0
VERTEX
  8
0
 10
90.618
 20
82.7283
  0
VERTEX
  8
0
 10
90.6738
 20
82.7573
  0
VERTEX
  8
0
 10
90.7231
 20
82.7886
  0
VERTEX
  8
0
 10
90.7661
 20
82.8222
  0
VERTEX
  8
0
 10
90.8027
 20
82.8581
  0
VERTEX
  8
0
 10
90.8329
 20
82.8964
  0
VERTEX
  8
0
 10
90.8567
 20
82.937
  0
VERTEX
  8
0
 10
90.922
 20
82.937
  0
VERTEX
  8
0
 10
90.922
 20
82.101
  0
SEQEND
  0
POLYLINE
  8
0
 66
     1
 10
0
 20
0
  0
VERTEX
  8
0
 10
91.71
 20
82.197
  0
VERTEX
  8
0
 10
91.71
 20
82.101
  0
VERTEX
  8
0
 10
91.166
 20
82.101
  0
VERTEX
  8
0
 10
91.1701
 20
82.1449
  0
VERTEX
  8
0
 10
91.1845
 20
82.1899
  0
VERTEX
  8
0
 10
91.2092
 20
82.2359
  0
VERTEX
  8
0
 10
91.2442
 20
82.2828
  0
VERTEX
  8
0
 10
91.3008
 20
82.3422
  0
VERTEX
  8
0
 10
91.377
 20
82.409
  0
VERTEX
  8
0
 10
91.4378
 20
82.4604
  0
VERTEX
  8
0
 10
91.4858
 20
82.504
  0
VERTEX
  8
0
 10
91.5211
 20
82.5398
  0
VERTEX
  8
0
 10
91.5583
 20
82.5853
  0
VERTEX
  8
0
 10
91.5848
 20
82.6286
  0
VERTEX
  8
0
 10
91.6007
 20
82.6697
  0
VERTEX
  8
0
 10
91.606
 20
82.7086
  0
VERTEX
  8
0
 10
91.5945
 20
82.7673
  0
VERTEX
  8
0
 10
91.5599
 20
82.8137
  0
VERTEX
  8
0
 10
91.5107
 20
82.8429
  0
VERTEX
  8
0
 10
91.4508
 20
82.853
  0
VERTEX
  8
0
 10
91.3835
 20
82.842
  0
VERTEX
  8
0
 10
91.3326
 20
82.808
  0
VERTEX
  8
0
 10
91.3004
 20
82.7546
  0
VERTEX
  8
0
 10
91.2893
 20
82.6855
  0
VERTEX
  8
0
 10
91.1852
 20
82.6963
  0
VERTEX
  8
0
 10
91.194
 20
82.7513
  0
VERTEX
  8
0
 10
91.2104
 20
82.7995
  0
VERTEX
  8
0
 10
91.2343
 20
82.8407
  0
VERTEX
  8
0
 10
91.2657
 20
82.8751
  0
VERTEX
  8
0
 10
91.3177
 20
82.9095
  0
VERTEX
  8
0
 10
91.3802
 20
82.9301
  0
VERTEX
  8
0
 10
91.453
 20
82.937
  0
VERTEX
  8
0
 10
91.5215
 20
82.9303
  0
VERTEX
  8
0
 10
91.5817
 20
82.9104
  0
VERTEX
  8
0
 10
91.6335
 20
82.8772
  0
VERTEX
  8
0
 10
91.667
 20
82.8425
  0
VERTEX
  8
0
 10
91.6909
 20
82.8022
  0
VERTEX
  8
0
 10
91.7052
 20
82.7564
  0
VERTEX
  8
0
 10
91.71
 20
82.7051
  0
VERTEX
  8
0
 10
91.7045
 20
82.6552
  0
VERTEX
  8
0
 10
91.6881
 20
82.6051
  0
VERTEX
  8
0
 10
91.6607
 20
82.5549
  0
VERTEX
  8
0
 10
91.6223
 20
82.5046
  0
VERTEX
  8
0
 10
91.5836
 20
82.4637
  0
VERTEX
  8
0
 10
91.5317
 20
82.4147
  0
VERTEX
  8
0
 10
91.4667
 20
82.3576
  0
VERTEX
  8
0
 10
91.4247
 20
82.3217
  0
VERTEX
  8
0
 10
91.396
 20
82.2968
  0
VERTEX
  8
0
 10
91.3807
 20
82.283
  0
VERTEX
  8
0
 10
91.3387
 20
82.2392
  0
VERTEX
  8
0
 10
91.3071
 20
82.197
  0
VERTEX
  8
0
 10
91.71
 20
82.197
  0
SEQEND
  0
POLYLINE
  8
0
 66
     1
 10
0
 20
0
  0
VERTEX
  8
0
 10
91.874
 20
82.101
  0
VERTEX
  8
0
 10
91.874
 20
82.221
  0
VERTEX
  8
0
 10
91.99
 20
82.221
  0
VERTEX
  8
0
 10
91.99
 20
82.101
  0
VERTEX
  8
0
 10
91.874
 20
82.101
  0
SEQEND
  0
POLYLINE
  8
0
 66
     1
 10
0
 20
0
  0
VERTEX
  8
0
 10
92.146
 20
82.825
  0
VERTEX
  8
0
 10
92.146
 20
82.921
  0
VERTEX
  8
0
 10
92.6815
 20
82.921
  0
VERTEX
  8
0
 10
92.6815
 20
82.8417
  0
VERTEX
  8
0
 10
92.6027
 20
82.7433
  0
VERTEX
  8
0
 10
92.5246
 20
82.6172
  0
VERTEX
  8
0
 10
92.4572
 20
82.4781
  0
VERTEX
  8
0
 10
92.405
 20
82.3293
  0
VERTEX
  8
0
 10
92.38
 20
82.2198
  0
VERTEX
  8
0
 10
92.366
 20
82.101
  0
VERTEX
  8
0
 10
92.2617
 20
82.101
  0
VERTEX
  8
0
 10
92.2739
 20
82.2246
  0
VERTEX
  8
0
 10
92.3062
 20
82.3612
  0
VERTEX
  8
0
 10
92.3501
 20
82.4885
  0
VERTEX
  8
0
 10
92.405
 20
82.6067
  0
VERTEX
  8
0
 10
92.4759
 20
82.7264
  0
VERTEX
  8
0
 10
92.5511
 20
82.825
  0
VERTEX
  8
0
 10
92.146
 20
82.825
  0
SEQEND
  0
LINE
  8
0
 10
92.8825
 20
82.5
 11
98
 21
82.5
  0
LINE
  8
0
 10
97.6422
 20
82.3211
 11
98
 21
82.5
  0
LINE
  8
0
 10
97.6422
 20
82.6789
 11
98
 21
82.5
  0
LINE
  8
0
 10
98
 20
82.3
 11
98
 21
83.5
  0
LINE
  8
0
 10
90.4176
 20
82.5
 11
85.3002
 21
82.5
  0
LINE
  8
0
 10
85.6579
 20
82.6789
 11
85.3002
 21
82.5
  0
LINE
  8
0
 10
85.6579
 20
82.3211
 11
85.3002
 21
82.5
  0
LINE
  8
0
 10
85.3002
 20
82.3
 11
85.3002
 21
83.5
  0
POLYLINE
  8
0
 66
     1
 10
0
 20
0
  0
VERTEX
  8
0
 10
95.486
 20
80.101
  0
VERTEX
  8
0
 10
95.486
 20
80.305
  0
VERTEX
  8
0
 10
95.126
 20
80.305
  0
VERTEX
  8
0
 10
95.126
 20
80.397
  0
VERTEX
  8
0
 10
95.5035
 20
80.933
  0
VERTEX
  8
0
 10
95.586
 20
80.933
  0
VERTEX
  8
0
 10
95.586
 20
80.397
  0
VERTEX
  8
0
 10
95.6981
 20
80.397
  0
VERTEX
  8
0
 10
95.6981
 20
80.305
  0
VERTEX
  8
0
 10
95.586
 20
80.305
  0
VERTEX
  8
0
 10
95.586
 20
80.101
  0
VERTEX
  8
0
 10
95.486
 20
80.101
  0
SEQEND
  0
POLYLINE
  8
0
 66
     1
 10
0
 20
0
  0
VERTEX
  8
0
 10
95.486
 20
80.397
  0
VERTEX
  8
0
 10
95.486
 20
80.7763
  0
VERTEX
  8
0
 10
95.2232
 20
80.3961
  0
VERTEX
  8
0
 10
95.486
 20
80.397
  0
SEQEND
  0
POLYLINE
  8
0
 66
     1
 10
0
 20
0
  0
VERTEX
  8
0
 10
95.858
 20
80.101
  0
VERTEX
  8
0
 10
95.858
 20
80.221
  0
VERTEX
  8
0
 10
95.974
 20
80.221
  0
VERTEX
  8
0
 10
95.974
 20
80.101
  0
VERTEX
  8
0
 10
95.858
 20
80.101
  0
SEQEND
  0
POLYLINE
  8
0
 66
     1
 10
0
 20
0
  0
VERTEX
  8
0
 10
96.654
 20
80.197
  0
VERTEX
  8
0
 10
96.654
 20
80.101
  0
VERTEX
  8
0
 10
96.11
 20
80.101
  0
VERTEX
  8
0
 10
96.1141
 20
80.1449
  0
VERTEX
  8
0
 10
96.1285
 20
80.1899
  0
VERTEX
  8
0
 10
96.1532
 20
80.2359
  0
VERTEX
  8
0
 10
96.1882
 20
80.2828
  0
VERTEX
  8
0
 10
96.2448
 20
80.3422
  0
VERTEX
  8
0
 10
96.321
 20
80.409
  0
VERTEX
  8
0
 10
96.3818
 20
80.4604
  0
VERTEX
  8
0
 10
96.4298
 20
80.504
  0
VERTEX
  8
0
 10
96.4651
 20
80.5398
  0
VERTEX
  8
0
 10
96.5023
 20
80.5853
  0
VERTEX
  8
0
 10
96.5288
 20
80.6286
  0
VERTEX
  8
0
 10
96.5447
 20
80.6697
  0
VERTEX
  8
0
 10
96.55
 20
80.7086
  0
VERTEX
  8
0
 10
96.5385
 20
80.7673
  0
VERTEX
  8
0
 10
96.5039
 20
80.8137
  0
VERTEX
  8
0
 10
96.4547
 20
80.8429
  0
VERTEX
  8
0
 10
96.3948
 20
80.853
  0
VERTEX
  8
0
 10
96.3275
 20
80.842
  0
VERTEX
  8
0
 10
96.2766
 20
80.808
  0
VERTEX
  8
0
 10
96.2444
 20
80.7546
  0
VERTEX
  8
0
 10
96.2333
 20
80.6855
  0
VERTEX
  8
0
 10
96.1292
 20
80.6963
  0
VERTEX
  8
0
 10
96.138
 20
80.7513
  0
VERTEX
  8
0
 10
96.1544
 20
80.7995
  0
VERTEX
  8
0
 10
96.1783
 20
80.8407
  0
VERTEX
  8
0
 10
96.2097
 20
80.8751
  0
VERTEX
  8
0
 10
96.2617
 20
80.9095
  0
VERTEX
  8
0
 10
96.3242
 20
80.9301
  0
VERTEX
  8
0
 10
96.397
 20
80.937
  0
VERTEX
  8
0
 10
96.4655
 20
80.9303
  0
VERTEX
  8
0
 10
96.5257
 20
80.9104
  0
VERTEX
  8
0
 10
96.5775
 20
80.8772
  0
VERTEX
  8
0
 10
96.611
 20
80.8425
  0
VERTEX
  8
0
 10
96.6349
 20
80.8022
  0
VERTEX
  8
0
 10
96.6492
 20
80.7564
  0
VERTEX
  8
0
 10
96.654
 20
80.7051
  0
VERTEX
  8
0
 10
96.6485
 20
80.6552
  0
VERTEX
  8
0
 10
96.6321
 20
80.6051
  0
VERTEX
  8
0
 10
96.6047
 20
80.5549
  0
VERTEX
  8
0
 10
96.5663
 20
80.5046
  0
VERTEX
  8
0
 10
96.5276
 20
80.4637
  0
VERTEX
  8
0
 10
96.4757
 20
80.4147
  0
VERTEX
  8
0
 10
96.4107
 20
80.3576
  0
VERTEX
  8
0
 10
96.3687
 20
80.3217
  0
VERTEX
  8
0
 10
96.34
 20
80.2968
  0
VERTEX
  8
0
 10
96.3247
 20
80.283
  0
VERTEX
  8
0
 10
96.2827
 20
80.2392
  0
VERTEX
  8
0
 10
96.2511
 20
80.197
  0
VERTEX
  8
0
 10
96.654
 20
80.197
  0
SEQEND
  0
LINE
  8
0
 10
96.8563
 20
80.5
 11
98
 21
80.5
  0
LINE
  8
0
 10
97.6422
 20
80.3211
 11
98
 21
80.5
  0
LINE
  8
0
 10
97.6422
 20
80.6789
 11
98
 21
80.5
  0
LINE
  8
0
 10
98
 20
80.3
 11
98
 21
81.5
  0
LINE
  8
0
 10
94.9275
 20
80.5
 11
93.7837
 21
80.5
  0
LINE
  8
0
 10
94.1415
 20
80.6789
 11
93.7837
 21
80.5
  0
LINE
  8
0
 10
94.1415
 20
80.3211
 11
93.7837
 21
80.5
  0
LINE
  8
0
 10
93.7837
 20
80.3
 11
93.7837
 21
81.5
  0
POLYLINE
  8
0
 66
     1
 10
0
 20
0
  0
VERTEX
  8
0
 10
99.806
 20
87.041
  0
VERTEX
  8
0
 10
99.902
 20
87.041
  0
VERTEX
  8
0
 10
99.902
 20
86.497
  0
VERTEX
  8
0
 10
99.8581
 20
86.501
  0
VERTEX
  8
0
 10
99.8131
 20
86.5154
  0
VERTEX
  8
0
 10
99.7671
 20
86.5401
  0
VERTEX
  8
0
 10
99.7202
 20
86.5752
  0
VERTEX
  8
0
 10
99.6608
 20
86.6317
  0
VERTEX
  8
0
 10
99.594
 20
86.708
  0
VERTEX
  8
0
 10
99.5425
 20
86.7687
  0
VERTEX
  8
0
 10
99.499
 20
86.8167
  0
VERTEX
  8
0
 10
99.4632
 20
86.852
  0
VERTEX
  8
0
 10
99.4177
 20
86.8892
  0
VERTEX
  8
0
 10
99.3744
 20
86.9157
  0
VERTEX
  8
0
 10
99.3333
 20
86.9317
  0
VERTEX
  8
0
 10
99.2944
 20
86.937
  0
VERTEX
  8
0
 10
99.2357
 20
86.9254
  0
VERTEX
  8
0
 10
99.1893
 20
86.8908
  0
VERTEX
  8
0
 10
99.1601
 20
86.8416
  0
VERTEX
  8
0
 10
99.15
 20
86.7817
  0
VERTEX
  8
0
 10
99.161
 20
86.7145
  0
VERTEX
  8
0
 10
99.195
 20
86.6635
  0
VERTEX
  8
0
 10
99.2484
 20
86.6313
  0
VERTEX
  8
0
 10
99.3175
 20
86.6202
  0
VERTEX
  8
0
 10
99.3067
 20
86.5162
  0
VERTEX
  8
0
 10
99.2517
 20
86.525
  0
VERTEX
  8
0
 10
99.2035
 20
86.5413
  0
VERTEX
  8
0
 10
99.1623
 20
86.5652
  0
VERTEX
  8
0
 10
99.1279
 20
86.5966
  0
VERTEX
  8
0
 10
99.0935
 20
86.6487
  0
VERTEX
  8
0
 10
99.0729
 20
86.7111
  0
VERTEX
  8
0
 10
99.066
 20
86.7839
  0
VERTEX
  8
0
 10
99.0727
 20
86.8525
  0
VERTEX
  8
0
 10
99.0926
 20
86.9127
  0
VERTEX
  8
0
 10
99.1258
 20
86.9645
  0
VERTEX
  8
0
 10
99.1605
 20
86.9979
  0
VERTEX
  8
0
 10
99.2008
 20
87.0218
  0
VERTEX
  8
0
 10
99.2466
 20
87.0362
  0
VERTEX
  8
0
 10
99.2979
 20
87.041
  0
VERTEX
  8
0
 10
99.3478
 20
87.0355
  0
VERTEX
  8
0
 10
99.3979
 20
87.019
  0
VERTEX
  8
0
 10
99.4481
 20
86.9916
  0
VERTEX
  8
0
 10
99.4984
 20
86.9533
  0
VERTEX
  8
0
 10
99.5393
 20
86.9145
  0
VERTEX
  8
0
 10
99.5883
 20
86.8626
  0
VERTEX
  8
0
 10
99.6454
 20
86.7977
  0
VERTEX
  8
0
 10
99.6813
 20
86.7556
  0
VERTEX
  8
0
 10
99.7062
 20
86.727
  0
VERTEX
  8
0
 10
99.72
 20
86.7117
  0
VERTEX
  8
0
 10
99.7637
 20
86.6697
  0
VERTEX
  8
0
 10
99.806
 20
86.638
  0
VERTEX
  8
0
 10
99.806
 20
87.041
  0
SEQEND
  0
POLYLINE
  8
0
 66
     1
 10
0
 20
0
  0
VERTEX
  8
0
 10
99.902
 20
87.205
  0
VERTEX
  8
0
 10
99.782
 20
87.205
  0
VERTEX
  8
0
 10
99.782
 20
87.321
  0
VERTEX
  8
0
 10
99.902
 20
87.321
  0
VERTEX
  8
0
 10
99.902
 20
87.205
  0
SEQEND
  0
POLYLINE
  8
0
 66
     1
 10
0
 20
0
  0
VERTEX
  8
0
 10
99.6815
 20
87.469
  0
VERTEX
  8
0
 10
99.6723
 20
87.5755
  0
VERTEX
  8
0
 10
99.7054
 20
87.5821
  0
VERTEX
  8
0
 10
99.7346
 20
87.5915
  0
VERTEX
  8
0
 10
99.7599
 20
87.6036
  0
VERTEX
  8
0
 10
99.7814
 20
87.6185
  0
VERTEX
  8
0
 10
99.7989
 20
87.6362
  0
VERTEX
  8
0
 10
99.8125
 20
87.6566
  0
VERTEX
  8
0
 10
99.8222
 20
87.6797
  0
VERTEX
  8
0
 10
99.8281
 20
87.7057
  0
VERTEX
  8
0
 10
99.83
 20
87.7343
  0
VERTEX
  8
0
 10
99.8231
 20
87.7848
  0
VERTEX
  8
0
 10
99.8023
 20
87.828
  0
VERTEX
  8
0
 10
99.7675
 20
87.8639
  0
VERTEX
  8
0
 10
99.7039
 20
87.8977
  0
VERTEX
  8
0
 10
99.6267
 20
87.909
  0
VERTEX
  8
0
 10
99.5506
 20
87.8973
  0
VERTEX
  8
0
 10
99.4906
 20
87.8622
  0
VERTEX
  8
0
 10
99.4616
 20
87.827
  0
VERTEX
  8
0
 10
99.4441
 20
87.7839
  0
VERTEX
  8
0
 10
99.438
 20
87.7327
  0
VERTEX
  8
0
 10
99.4429
 20
87.6869
  0
VERTEX
  8
0
 10
99.4581
 20
87.6466
  0
VERTEX
  8
0
 10
99.4836
 20
87.6117
  0
VERTEX
  8
0
 10
99.5195
 20
87.5822
  0
VERTEX
  8
0
 10
99.507
 20
87.487
  0
VERTEX
  8
0
 10
99.082
 20
87.5672
  0
VERTEX
  8
0
 10
99.082
 20
87.9785
  0
VERTEX
  8
0
 10
99.178
 20
87.9785
  0
VERTEX
  8
0
 10
99.178
 20
87.6508
  0
VERTEX
  8
0
 10
99.4017
 20
87.6046
  0
VERTEX
  8
0
 10
99.3632
 20
87.6807
  0
VERTEX
  8
0
 10
99.35
 20
87.7604
  0
VERTEX
  8
0
 10
99.3547
 20
87.8142
  0
VERTEX
  8
0
 10
99.3693
 20
87.8631
  0
VERTEX
  8
0
 10
99.3937
 20
87.9071
  0
VERTEX
  8
0
 10
99.4281
 20
87.9461
  0
VERTEX
  8
0
 10
99.4686
 20
87.9771
  0
VERTEX
  8
0
 10
99.5139
 20
87.9992
  0
VERTEX
  8
0
 10
99.564
 20
88.0125
  0
VERTEX
  8
0
 10
99.6187
 20
88.017
  0
VERTEX
  8
0
 10
99.6901
 20
88.0097
  0
VERTEX
  8
0
 10
99.755
 20
87.9879
  0
VERTEX
  8
0
 10
99.8133
 20
87.9516
  0
VERTEX
  8
0
 10
99.8494
 20
87.9175
  0
VERTEX
  8
0
 10
99.8775
 20
87.8787
  0
VERTEX
  8
0
 10
99.8976
 20
87.8353
  0
VERTEX
  8
0
 10
99.9098
 20
87.7872
  0
VERTEX
  8
0
 10
99.914
 20
87.7345
  0
VERTEX
  8
0
 10
99.9073
 20
87.6655
  0
VERTEX
  8
0
 10
99.887
 20
87.605
  0
VERTEX
  8
0
 10
99.8532
 20
87.553
  0
VERTEX
  8
0
 10
99.8063
 20
87.5111
  0
VERTEX
  8
0
 10
99.7491
 20
87.4831
  0
VERTEX
  8
0
 10
99.6815
 20
87.469
  0
VERTEX
  8
0
 10
99.6815
 20
87.469
  0
SEQEND
  0
LINE
  8
0
 10
99.7
 20
88.5
 11
98.5
 21
88.5
  0
LINE
  8
0
 10
99.7
 20
86
 11
98.5
 21
86
  0
POLYLINE
  8
0
 66
     1
 10
0
 20
0
  0
VERTEX
  8
0
 10
101.806
 20
97.953
  0
VERTEX
  8
0
 10
101.902
 20
97.953
  0
VERTEX
  8
0
 10
101.902
 20
97.409
  0
VERTEX
  8
0
 10
101.8581
 20
97.413
  0
VERTEX
  8
0
 10
101.8131
 20
97.4274
  0
VERTEX
  8
0
 10
101.7671
 20
97.4521
  0
VERTEX
  8
0
 10
101.7202
 20
97.4872
  0
VERTEX
  8
0
 10
101.6608
 20
97.5437
  0
VERTEX
  8
0
 10
101.594
 20
97.62
  0
VERTEX
  8
0
 10
101.5425
 20
97.6807
  0
VERTEX
  8
0
 10
101.499
 20
97.7287
  0
VERTEX
  8
0
 10
101.4632
 20
97.764
  0
VERTEX
  8
0
 10
101.4177
 20
97.8012
  0
VERTEX
  8
0
 10
101.3744
 20
97.8277
  0
VERTEX
  8
0
 10
101.3333
 20
97.8437
  0
VERTEX
  8
0
 10
101.2944
 20
97.849
  0
VERTEX
  8
0
 10
101.2357
 20
97.8374
  0
VERTEX
  8
0
 10
101.1893
 20
97.8028
  0
VERTEX
  8
0
 10
101.1601
 20
97.7536
  0
VERTEX
  8
0
 10
101.15
 20
97.6937
  0
VERTEX
  8
0
 10
101.161
 20
97.6265
  0
VERTEX
  8
0
 10
101.195
 20
97.5755
  0
VERTEX
  8
0
 10
101.2484
 20
97.5433
  0
VERTEX
  8
0
 10
101.3175
 20
97.5322
  0
VERTEX
  8
0
 10
101.3067
 20
97.4282
  0
VERTEX
  8
0
 10
101.2517
 20
97.437
  0
VERTEX
  8
0
 10
101.2035
 20
97.4533
  0
VERTEX
  8
0
 10
101.1623
 20
97.4772
  0
VERTEX
  8
0
 10
101.1279
 20
97.5086
  0
VERTEX
  8
0
 10
101.0935
 20
97.5607
  0
VERTEX
  8
0
 10
101.0729
 20
97.6231
  0
VERTEX
  8
0
 10
101.066
 20
97.6959
  0
VERTEX
  8
0
 10
101.0727
 20
97.7645
  0
VERTEX
  8
0
 10
101.0926
 20
97.8247
  0
VERTEX
  8
0
 10
101.1258
 20
97.8765
  0
VERTEX
  8
0
 10
101.1605
 20
97.9099
  0
VERTEX
  8
0
 10
101.2008
 20
97.9338
  0
VERTEX
  8
0
 10
101.2466
 20
97.9482
  0
VERTEX
  8
0
 10
101.2979
 20
97.953
  0
VERTEX
  8
0
 10
101.3478
 20
97.9475
  0
VERTEX
  8
0
 10
101.3979
 20
97.931
  0
VERTEX
  8
0
 10
101.4481
 20
97.9036
  0
VERTEX
  8
0
 10
101.4984
 20
97.8653
  0
VERTEX
  8
0
 10
101.5393
 20
97.8265
  0
VERTEX
  8
0
 10
101.5883
 20
97.7746
  0
VERTEX
  8
0
 10
101.6454
 20
97.7097
  0
VERTEX
  8
0
 10
101.6813
 20
97.6676
  0
VERTEX
  8
0
 10
101.7062
 20
97.639
  0
VERTEX
  8
0
 10
101.72
 20
97.6237
  0
VERTEX
  8
0
 10
101.7637
 20
97.5817
  0
VERTEX
  8
0
 10
101.806
 20
97.55
  0
VERTEX
  8
0
 10
101.806
 20
97.953
  0
SEQEND
  0
POLYLINE
  8
0
 66
     1
 10
0
 20
0
  0
VERTEX
  8
0
 10
101.902
 20
98.389
  0
VERTEX
  8
0
 10
101.698
 20
98.389
  0
VERTEX
  8
0
 10
101.698
 20
98.029
  0
VERTEX
  8
0
 10
101.606
 20
98.029
  0
VERTEX
  8
0
 10
101.07
 20
98.4064
  0
VERTEX
  8
0
 10
101.07
 20
98.489
  0
VERTEX
  8
0
 10
101.606
 20
98.489
  0
VERTEX
  8
0
 10
101.606
 20
98.601
  0
VERTEX
  8
0
 10
101.698
 20
98.601
  0
VERTEX
  8
0
 10
101.698
 20
98.489
  0
VERTEX
  8
0
 10
101.902
 20
98.489
  0
VERTEX
  8
0
 10
101.902
 20
98.389
  0
SEQEND
  0
POLYLINE
  8
0
 66
     1
 10
0
 20
0
  0
VERTEX
  8
0
 10
101.606
 20
98.389
  0
VERTEX
  8
0
 10
101.2267
 20
98.389
  0
VERTEX
  8
0
 10
101.6069
 20
98.1262
  0
VERTEX
  8
0
 10
101.606
 20
98.389
  0
SEQEND
  0
LINE
  8
0
 10
101.5
 20
98.799
 11
101.5
 21
110
  0
LINE
  8
0
 10
101.6789
 20
109.6422
 11
101.5
 21
110
  0
LINE
  8
0
 10
101.3211
 20
109.6422
 11
101.5
 21
110
  0
LINE
  8
0
 10
101.7
 20
110
 11
98.2
 21
110
  0
LINE
  8
0
 10
101.5
 20
97.201
 11
101.5
 21
86
  0
LINE
  8
0
 10
101.3211
 20
86.3578
 11
101.5
 21
86
  0
LINE
  8
0
 10
101.6789
 20
86.3578
 11
101.5
 21
86
  0
LINE
  8
0
 10
101.7
 20
86
 11
98.2
 21
86
  0
POLYLINE
  8
0
 66
     1
 10
0
 20
0
  0
VERTEX
  8
0
 10
79.406
 20
78.3232
  0
VERTEX
  8
0
 10
79.5072
 20
78.3368
  0
VERTEX
  8
0
 10
79.5154
 20
78.3026
  0
VERTEX
  8
0
 10
79.526
 20
78.2723
  0
VERTEX
  8
0
 10
79.539
 20
78.2461
  0
VERTEX
  8
0
 10
79.5545
 20
78.2238
  0
VERTEX
  8
0
 10
79.5724
 20
78.2056
  0
VERTEX
  8
0
 10
79.5928
 20
78.1914
  0
VERTEX
  8
0
 10
79.6156
 20
78.1813
  0
VERTEX
  8
0
 10
79.6408
 20
78.1751
  0
VERTEX
  8
0
 10
79.6684
 20
78.173
  0
VERTEX
  8
0
 10
79.7348
 20
78.1852
  0
VERTEX
  8
0
 10
79.7892
 20
78.223
  0
VERTEX
  8
0
 10
79.8255
 20
78.2793
  0
VERTEX
  8
0
 10
79.838
 20
78.347
  0
VERTEX
  8
0
 10
79.827
 20
78.4112
  0
VERTEX
  8
0
 10
79.7927
 20
78.4632
  0
VERTEX
  8
0
 10
79.7409
 20
78.4975
  0
VERTEX
  8
0
 10
79.6774
 20
78.509
  0
VERTEX
  8
0
 10
79.6445
 20
78.5059
  0
VERTEX
  8
0
 10
79.6063
 20
78.4965
  0
VERTEX
  8
0
 10
79.6176
 20
78.585
  0
VERTEX
  8
0
 10
79.6245
 20
78.585
  0
VERTEX
  8
0
 10
79.6339
 20
78.585
  0
VERTEX
  8
0
 10
79.698
 20
78.5933
  0
VERTEX
  8
0
 10
79.7497
 20
78.6183
  0
VERTEX
  8
0
 10
79.7887
 20
78.6633
  0
VERTEX
  8
0
 10
79.802
 20
78.7235
  0
VERTEX
  8
0
 10
79.7928
 20
78.7756
  0
VERTEX
  8
0
 10
79.764
 20
78.8168
  0
VERTEX
  8
0
 10
79.7204
 20
78.8436
  0
VERTEX
  8
0
 10
79.6668
 20
78.853
  0
VERTEX
  8
0
 10
79.6402
 20
78.8513
  0
VERTEX
  8
0
 10
79.6161
 20
78.846
  0
VERTEX
  8
0
 10
79.5945
 20
78.8368
  0
VERTEX
  8
0
 10
79.5754
 20
78.8239
  0
VERTEX
  8
0
 10
79.5588
 20
78.8072
  0
VERTEX
  8
0
 10
79.5447
 20
78.7868
  0
VERTEX
  8
0
 10
79.5332
 20
78.7627
  0
VERTEX
  8
0
 10
79.5241
 20
78.7347
  0
VERTEX
  8
0
 10
79.5176
 20
78.703
  0
VERTEX
  8
0
 10
79.4162
 20
78.7212
  0
VERTEX
  8
0
 10
79.4334
 20
78.7834
  0
VERTEX
  8
0
 10
79.4611
 20
78.836
  0
VERTEX
  8
0
 10
79.4992
 20
78.8791
  0
VERTEX
  8
0
 10
79.5465
 20
78.911
  0
VERTEX
  8
0
 10
79.6016
 20
78.9303
  0
VERTEX
  8
0
 10
79.6645
 20
78.937
  0
VERTEX
  8
0
 10
79.7266
 20
78.9305
  0
VERTEX
  8
0
 10
79.7844
 20
78.9098
  0
VERTEX
  8
0
 10
79.8371
 20
78.875
  0
VERTEX
  8
0
 10
79.8757
 20
78.8283
  0
VERTEX
  8
0
 10
79.8984
 20
78.7763
  0
VERTEX
  8
0
 10
79.906
 20
78.7213
  0
VERTEX
  8
0
 10
79.9029
 20
78.6845
  0
VERTEX
  8
0
 10
79.8935
 20
78.6513
  0
VERTEX
  8
0
 10
79.8778
 20
78.6215
  0
VERTEX
  8
0
 10
79.8558
 20
78.5952
  0
VERTEX
  8
0
 10
79.8276
 20
78.5724
  0
VERTEX
  8
0
 10
79.7931
 20
78.5532
  0
VERTEX
  8
0
 10
79.8588
 20
78.5263
  0
VERTEX
  8
0
 10
79.9075
 20
78.4807
  0
VERTEX
  8
0
 10
79.9364
 20
78.4211
  0
VERTEX
  8
0
 10
79.946
 20
78.3488
  0
VERTEX
  8
0
 10
79.9411
 20
78.2963
  0
VERTEX
  8
0
 10
79.9264
 20
78.2481
  0
VERTEX
  8
0
 10
79.9019
 20
78.2042
  0
VERTEX
  8
0
 10
79.8676
 20
78.1645
  0
VERTEX
  8
0
 10
79.8257
 20
78.1317
  0
VERTEX
  8
0
 10
79.7785
 20
78.1081
  0
VERTEX
  8
0
 10
79.726
 20
78.0939
  0
VERTEX
  8
0
 10
79.6682
 20
78.089
  0
VERTEX
  8
0
 10
79.6005
 20
78.096
  0
VERTEX
  8
0
 10
79.5408
 20
78.1172
  0
VERTEX
  8
0
 10
79.489
 20
78.1525
  0
VERTEX
  8
0
 10
79.4479
 20
78.1997
  0
VERTEX
  8
0
 10
79.4202
 20
78.2566
  0
VERTEX
  8
0
 10
79.406
 20
78.3232
  0
VERTEX
  8
0
 10
79.406
 20
78.3232
  0
SEQEND
  0
POLYLINE
  8
0
 66
     1
 10
0
 20
0
  0
VERTEX
  8
0
 10
80.596
 20
78.7567
  0
VERTEX
  8
0
 10
80.495
 20
78.7487
  0
VERTEX
  8
0
 10
80.4807
 20
78.7873
  0
VERTEX
  8
0
 10
80.4544
 20
78.8177
  0
VERTEX
  8
0
 10
80.4057
 20
78.8439
  0
VERTEX
  8
0
 10
80.3444
 20
78.853
  0
VERTEX
  8
0
 10
80.2876
 20
78.8465
  0
VERTEX
  8
0
 10
80.2434
 20
78.8258
  0
VERTEX
  8
0
 10
80.2196
 20
78.805
  0
VERTEX
  8
0
 10
80.1988
 20
78.7796
  0
VERTEX
  8
0
 10
80.1811
 20
78.7497
  0
VERTEX
  8
0
 10
80.1665
 20
78.7152
  0
VERTEX
  8
0
 10
80.155
 20
78.6761
  0
VERTEX
  8
0
 10
80.1466
 20
78.6325
  0
VERTEX
  8
0
 10
80.1413
 20
78.5843
  0
VERTEX
  8
0
 10
80.139
 20
78.5315
  0
VERTEX
  8
0
 10
80.1646
 20
78.565
  0
VERTEX
  8
0
 10
80.1934
 20
78.5923
  0
VERTEX
  8
0
 10
80.2254
 20
78.6136
  0
VERTEX
  8
0
 10
80.2606
 20
78.6288
  0
VERTEX
  8
0
 10
80.2991
 20
78.6379
  0
VERTEX
  8
0
 10
80.3407
 20
78.641
  0
VERTEX
  8
0
 10
80.3929
 20
78.6359
  0
VERTEX
  8
0
 10
80.4401
 20
78.6207
  0
VERTEX
  8
0
 10
80.4824
 20
78.5955
  0
VERTEX
  8
0
 10
80.5197
 20
78.5601
  0
VERTEX
  8
0
 10
80.5563
 20
78.505
  0
VERTEX
  8
0
 10
80.5784
 20
78.4425
  0
VERTEX
  8
0
 10
80.586
 20
78.3723
  0
VERTEX
  8
0
 10
80.5784
 20
78.2995
  0
VERTEX
  8
0
 10
80.5543
 20
78.2315
  0
VERTEX
  8
0
 10
80.514
 20
78.17
  0
VERTEX
  8
0
 10
80.4598
 20
78.1246
  0
VERTEX
  8
0
 10
80.3972
 20
78.0979
  0
VERTEX
  8
0
 10
80.3262
 20
78.089
  0
VERTEX
  8
0
 10
80.3027
 20
78.0897
  0
VERTEX
  8
0
 10
80.2802
 20
78.0918
  0
VERTEX
  8
0
 10
80.2587
 20
78.0953
  0
VERTEX
  8
0
 10
80.2383
 20
78.1002
  0
VERTEX
  8
0
 10
80.2188
 20
78.1064
  0
VERTEX
  8
0
 10
80.2003
 20
78.1141
  0
VERTEX
  8
0
 10
80.1828
 20
78.1232
  0
VERTEX
  8
0
 10
80.1663
 20
78.1337
  0
VERTEX
  8
0
 10
80.1508
 20
78.1456
  0
VERTEX
  8
0
 10
80.1363
 20
78.1589
  0
VERTEX
  8
0
 10
80.1228
 20
78.1736
  0
VERTEX
  8
0
 10
80.1103
 20
78.1897
  0
VERTEX
  8
0
 10
80.0988
 20
78.2071
  0
VERTEX
  8
0
 10
80.0883
 20
78.226
  0
VERTEX
  8
0
 10
80.0788
 20
78.2463
  0
VERTEX
  8
0
 10
80.0703
 20
78.268
  0
VERTEX
  8
0
 10
80.0628
 20
78.291
  0
VERTEX
  8
0
 10
80.0562
 20
78.3155
  0
VERTEX
  8
0
 10
80.0507
 20
78.3414
  0
VERTEX
  8
0
 10
80.0462
 20
78.3687
  0
VERTEX
  8
0
 10
80.0427
 20
78.3973
  0
VERTEX
  8
0
 10
80.0401
 20
78.4274
  0
VERTEX
  8
0
 10
80.0386
 20
78.4589
  0
VERTEX
  8
0
 10
80.038
 20
78.4917
  0
VERTEX
  8
0
 10
80.0398
 20
78.5578
  0
VERTEX
  8
0
 10
80.0453
 20
78.6186
  0
VERTEX
  8
0
 10
80.0543
 20
78.6739
  0
VERTEX
  8
0
 10
80.0669
 20
78.7239
  0
VERTEX
  8
0
 10
80.0832
 20
78.7686
  0
VERTEX
  8
0
 10
80.1031
 20
78.8079
  0
VERTEX
  8
0
 10
80.1266
 20
78.8418
  0
VERTEX
  8
0
 10
80.1603
 20
78.876
  0
VERTEX
  8
0
 10
80.1995
 20
78.9027
  0
VERTEX
  8
0
 10
80.2443
 20
78.9217
  0
VERTEX
  8
0
 10
80.2947
 20
78.9332
  0
VERTEX
  8
0
 10
80.3506
 20
78.937
  0
VERTEX
  8
0
 10
80.4381
 20
78.9253
  0
VERTEX
  8
0
 10
80.512
 20
78.8903
  0
VERTEX
  8
0
 10
80.5542
 20
78.8525
  0
VERTEX
  8
0
 10
80.5822
 20
78.8079
  0
VERTEX
  8
0
 10
80.596
 20
78.7567
  0
VERTEX
  8
0
 10
80.596
 20
78.7567
  0
SEQEND
  0
POLYLINE
  8
0
 66
     1
 10
0
 20
0
  0
VERTEX
  8
0
 10
80.154
 20
78.3729
  0
VERTEX
  8
0
 10
80.159
 20
78.3221
  0
VERTEX
  8
0
 10
80.1751
 20
78.2741
  0
VERTEX
  8
0
 10
80.2025
 20
78.2301
  0
VERTEX
  8
0
 10
80.2393
 20
78.198
  0
VERTEX
  8
0
 10
80.2801
 20
78.1795
  0
VERTEX
  8
0
 10
80.324
 20
78.173
  0
VERTEX
  8
0
 10
80.3706
 20
78.1795
  0
VERTEX
  8
0
 10
80.4101
 20
78.2
  0
VERTEX
  8
0
 10
80.4428
 20
78.2343
  0
VERTEX
  8
0
 10
80.4719
 20
78.2951
  0
VERTEX
  8
0
 10
80.482
 20
78.3672
  0
VERTEX
  8
0
 10
80.4721
 20
78.4389
  0
VERTEX
  8
0
 10
80.4411
 20
78.4973
  0
VERTEX
  8
0
 10
80.4079
 20
78.528
  0
VERTEX
  8
0
 10
80.3676
 20
78.5465
  0
VERTEX
  8
0
 10
80.32
 20
78.553
  0
VERTEX
  8
0
 10
80.2735
 20
78.5473
  0
VERTEX
  8
0
 10
80.2331
 20
78.5295
  0
VERTEX
  8
0
 10
80.199
 20
78.4996
  0
VERTEX
  8
0
 10
80.1655
 20
78.4424
  0
VERTEX
  8
0
 10
80.154
 20
78.3729
  0
VERTEX
  8
0
 10
80.154
 20
78.3729
  0
SEQEND
  0
LINE
  8
0
 10
80.7948
 20
78.5
 11
98
 21
78.5
  0
LINE
  8
0
 10
97.6422
 20
78.3211
 11
98
 21
78.5
  0
LINE
  8
0
 10
97.6422
 20
78.6789
 11
98
 21
78.5
  0
LINE
  8
0
 10
98
 20
78.3
 11
98
 21
85.8
  0
LINE
  8
0
 10
79.2052
 20
78.5
 11
62
 21
78.5
  0
LINE
  8
0
 10
62.3578
 20
78.6789
 11
62
 21
78.5
  0
LINE
  8
0
 10
62.3578
 20
78.3211
 11
62
 21
78.5
  0
LINE
  8
0
 10
62
 20
78.3
 11
62
 21
85.8
  0
POLYLINE
  8
0
 66
     1
 10
0
 20
0
  0
VERTEX
  8
0
 10
62.302
 20
76.773
  0
VERTEX
  8
0
 10
62.202
 20
76.773
  0
VERTEX
  8
0
 10
62.202
 20
77.4241
  0
VERTEX
  8
0
 10
62.1108
 20
77.3554
  0
VERTEX
  8
0
 10
61.998
 20
77.3017
  0
VERTEX
  8
0
 10
61.998
 20
77.4003
  0
VERTEX
  8
0
 10
62.0538
 20
77.4293
  0
VERTEX
  8
0
 10
62.1031
 20
77.4606
  0
VERTEX
  8
0
 10
62.1461
 20
77.4942
  0
VERTEX
  8
0
 10
62.1827
 20
77.5301
  0
VERTEX
  8
0
 10
62.2129
 20
77.5684
  0
VERTEX
  8
0
 10
62.2367
 20
77.609
  0
VERTEX
  8
0
 10
62.302
 20
77.609
  0
VERTEX
  8
0
 10
62.302
 20
76.773
  0
SEQEND
  0
POLYLINE
  8
0
 66
     1
 10
0
 20
0
  0
VERTEX
  8
0
 10
62.614
 20
76.773
  0
VERTEX
  8
0
 10
62.614
 20
76.893
  0
VERTEX
  8
0
 10
62.73
 20
76.893
  0
VERTEX
  8
0
 10
62.73
 20
76.773
  0
VERTEX
  8
0
 10
62.614
 20
76.773
  0
SEQEND
  0
POLYLINE
  8
0
 66
     1
 10
0
 20
0
  0
VERTEX
  8
0
 10
62.878
 20
76.9935
  0
VERTEX
  8
0
 10
62.9845
 20
77.0027
  0
VERTEX
  8
0
 10
62.9912
 20
76.9696
  0
VERTEX
  8
0
 10
63.0005
 20
76.9404
  0
VERTEX
  8
0
 10
63.0127
 20
76.9151
  0
VERTEX
  8
0
 10
63.0276
 20
76.8936
  0
VERTEX
  8
0
 10
63.0452
 20
76.8761
  0
VERTEX
  8
0
 10
63.0656
 20
76.8625
  0
VERTEX
  8
0
 10
63.0888
 20
76.8528
  0
VERTEX
  8
0
 10
63.1147
 20
76.8469
  0
VERTEX
  8
0
 10
63.1434
 20
76.845
  0
VERTEX
  8
0
 10
63.1939
 20
76.8519
  0
VERTEX
  8
0
 10
63.237
 20
76.8727
  0
VERTEX
  8
0
 10
63.273
 20
76.9075
  0
VERTEX
  8
0
 10
63.3068
 20
76.9711
  0
VERTEX
  8
0
 10
63.318
 20
77.0483
  0
VERTEX
  8
0
 10
63.3063
 20
77.1244
  0
VERTEX
  8
0
 10
63.2713
 20
77.1844
  0
VERTEX
  8
0
 10
63.2361
 20
77.2134
  0
VERTEX
  8
0
 10
63.1929
 20
77.2309
  0
VERTEX
  8
0
 10
63.1417
 20
77.237
  0
VERTEX
  8
0
 10
63.096
 20
77.2321
  0
VERTEX
  8
0
 10
63.0557
 20
77.2169
  0
VERTEX
  8
0
 10
63.0208
 20
77.1914
  0
VERTEX
  8
0
 10
62.9913
 20
77.1555
  0
VERTEX
  8
0
 10
62.8961
 20
77.168
  0
VERTEX
  8
0
 10
62.9762
 20
77.593
  0
VERTEX
  8
0
 10
63.3875
 20
77.593
  0
VERTEX
  8
0
 10
63.3875
 20
77.497
  0
VERTEX
  8
0
 10
63.0599
 20
77.497
  0
VERTEX
  8
0
 10
63.0137
 20
77.2733
  0
VERTEX
  8
0
 10
63.0897
 20
77.3118
  0
VERTEX
  8
0
 10
63.1695
 20
77.325
  0
VERTEX
  8
0
 10
63.2233
 20
77.3203
  0
VERTEX
  8
0
 10
63.2722
 20
77.3057
  0
VERTEX
  8
0
 10
63.3161
 20
77.2813
  0
VERTEX
  8
0
 10
63.3552
 20
77.2469
  0
VERTEX
  8
0
 10
63.3862
 20
77.2064
  0
VERTEX
  8
0
 10
63.4083
 20
77.1611
  0
VERTEX
  8
0
 10
63.4216
 20
77.111
  0
VERTEX
  8
0
 10
63.426
 20
77.0563
  0
VERTEX
  8
0
 10
63.4188
 20
76.9849
  0
VERTEX
  8
0
 10
63.397
 20
76.92
  0
VERTEX
  8
0
 10
63.3607
 20
76.8617
  0
VERTEX
  8
0
 10
63.3265
 20
76.8256
  0
VERTEX
  8
0
 10
63.2878
 20
76.7975
  0
VERTEX
  8
0
 10
63.2444
 20
76.7773
  0
VERTEX
  8
0
 10
63.1963
 20
76.7652
  0
VERTEX
  8
0
 10
63.1436
 20
76.761
  0
VERTEX
  8
0
 10
63.0746
 20
76.7677
  0
VERTEX
  8
0
 10
63.014
 20
76.788
  0
VERTEX
  8
0
 10
62.962
 20
76.8218
  0
VERTEX
  8
0
 10
62.9201
 20
76.8687
  0
VERTEX
  8
0
 10
62.8921
 20
76.9259
  0
VERTEX
  8
0
 10
62.878
 20
76.9935
  0
VERTEX
  8
0
 10
62.878
 20
76.9935
  0
SEQEND
  0
POLYLINE
  8
0
 66
     1
 10
0
 20
0
  0
VERTEX
  8
0
 10
63.5583
 20
77.313
  0
VERTEX
  8
0
 10
63.53
 20
77.47
  0
VERTEX
  8
0
 10
63.53
 20
77.605
  0
VERTEX
  8
0
 10
63.646
 20
77.605
  0
VERTEX
  8
0
 10
63.646
 20
77.47
  0
VERTEX
  8
0
 10
63.6206
 20
77.313
  0
VERTEX
  8
0
 10
63.5583
 20
77.313
  0
SEQEND
  0
POLYLINE
  8
0
 66
     1
 10
0
 20
0
  0
VERTEX
  8
0
 10
63.7458
 20
77.313
  0
VERTEX
  8
0
 10
63.718
 20
77.47
  0
VERTEX
  8
0
 10
63.718
 20
77.605
  0
VERTEX
  8
0
 10
63.834
 20
77.605
  0
VERTEX
  8
0
 10
63.834
 20
77.47
  0
VERTEX
  8
0
 10
63.8068
 20
77.313
  0
VERTEX
  8
0
 10
63.7458
 20
77.313
  0
SEQEND
  0
POLYLINE
  8
0
 66
     1
 10
0
 20
0
  0
VERTEX
  8
0
 10
64.51
 20
76.773
  0
VERTEX
  8
0
 10
64.51
 20
77.605
  0
VERTEX
  8
0
 10
64.8761
 20
77.605
  0
VERTEX
  8
0
 10
64.9598
 20
77.6011
  0
VERTEX
  8
0
 10
65.0219
 20
77.5897
  0
VERTEX
  8
0
 10
65.0881
 20
77.5567
  0
VERTEX
  8
0
 10
65.1357
 20
77.5034
  0
VERTEX
  8
0
 10
65.1612
 20
77.444
  0
VERTEX
  8
0
 10
65.17
 20
77.378
  0
VERTEX
  8
0
 10
65.169
 20
77.3512
  0
VERTEX
  8
0
 10
65.1656
 20
77.3261
  0
VERTEX
  8
0
 10
65.1598
 20
77.3026
  0
VERTEX
  8
0
 10
65.1516
 20
77.2807
  0
VERTEX
  8
0
 10
65.141
 20
77.2605
  0
VERTEX
  8
0
 10
65.128
 20
77.2418
  0
VERTEX
  8
0
 10
65.1127
 20
77.2249
  0
VERTEX
  8
0
 10
65.0949
 20
77.2095
  0
VERTEX
  8
0
 10
65.0748
 20
77.1958
  0
VERTEX
  8
0
 10
65.0523
 20
77.1837
  0
VERTEX
  8
0
 10
65.0274
 20
77.1732
  0
VERTEX
  8
0
 10
65.0001
 20
77.1643
  0
VERTEX
  8
0
 10
64.9704
 20
77.1571
  0
VERTEX
  8
0
 10
64.9383
 20
77.1515
  0
VERTEX
  8
0
 10
64.9768
 20
77.1307
  0
VERTEX
  8
0
 10
65.0043
 20
77.1101
  0
VERTEX
  8
0
 10
65.0521
 20
77.0589
  0
VERTEX
  8
0
 10
65.0952
 20
76.9994
  0
VERTEX
  8
0
 10
65.2391
 20
76.773
  0
VERTEX
  8
0
 10
65.102
 20
76.773
  0
VERTEX
  8
0
 10
64.9916
 20
76.9488
  0
VERTEX
  8
0
 10
64.9573
 20
77.0014
  0
VERTEX
  8
0
 10
64.9305
 20
77.0401
  0
VERTEX
  8
0
 10
64.8904
 20
77.089
  0
VERTEX
  8
0
 10
64.8563
 20
77.1189
  0
VERTEX
  8
0
 10
64.8314
 20
77.1327
  0
VERTEX
  8
0
 10
64.8065
 20
77.141
  0
VERTEX
  8
0
 10
64.7825
 20
77.144
  0
VERTEX
  8
0
 10
64.7454
 20
77.145
  0
VERTEX
  8
0
 10
64.618
 20
77.145
  0
VERTEX
  8
0
 10
64.618
 20
76.773
  0
VERTEX
  8
0
 10
64.51
 20
76.773
  0
SEQEND
  0
POLYLINE
  8
0
 66
     1
 10
0
 20
0
  0
VERTEX
  8
0
 10
64.618
 20
77.241
  0
VERTEX
  8
0
 10
64.8538
 20
77.241
  0
VERTEX
  8
0
 10
64.906
 20
77.2435
  0
VERTEX
  8
0
 10
64.9503
 20
77.2513
  0
VERTEX
  8
0
 10
64.9867
 20
77.2642
  0
VERTEX
  8
0
 10
65.0153
 20
77.2822
  0
VERTEX
  8
0
 10
65.036
 20
77.3055
  0
VERTEX
  8
0
 10
65.0525
 20
77.3411
  0
VERTEX
  8
0
 10
65.058
 20
77.3795
  0
VERTEX
  8
0
 10
65.0518
 20
77.4225
  0
VERTEX
  8
0
 10
65.0331
 20
77.4575
  0
VERTEX
  8
0
 10
65.002
 20
77.4843
  0
VERTEX
  8
0
 10
64.9487
 20
77.5058
  0
VERTEX
  8
0
 10
64.8805
 20
77.513
  0
VERTEX
  8
0
 10
64.618
 20
77.513
  0
VERTEX
  8
0
 10
64.618
 20
77.241
  0
SEQEND
  0
POLYLINE
  8
0
 66
     1
 10
0
 20
0
  0
VERTEX
  8
0
 10
65.7235
 20
76.8509
  0
VERTEX
  8
0
 10
65.6714
 20
76.8135
  0
VERTEX
  8
0
 10
65.6173
 20
76.7867
  0
VERTEX
  8
0
 10
65.5611
 20
76.7706
  0
VERTEX
  8
0
 10
65.5028
 20
76.765
  0
VERTEX
  8
0
 10
65.423
 20
76.7748
  0
VERTEX
  8
0
 10
65.3595
 20
76.8054
  0
VERTEX
  8
0
 10
65.3256
 20
76.8401
  0
VERTEX
  8
0
 10
65.3051
 20
76.8836
  0
VERTEX
  8
0
 10
65.298
 20
76.9358
  0
VERTEX
  8
0
 10
65.3023
 20
76.9773
  0
VERTEX
  8
0
 10
65.3157
 20
77.0142
  0
VERTEX
  8
0
 10
65.3383
 20
77.0464
  0
VERTEX
  8
0
 10
65.37
 20
77.074
  0
VERTEX
  8
0
 10
65.4037
 20
77.0932
  0
VERTEX
  8
0
 10
65.4431
 20
77.1072
  0
VERTEX
  8
0
 10
65.4799
 20
77.1149
  0
VERTEX
  8
0
 10
65.533
 20
77.1223
  0
VERTEX
  8
0
 10
65.6091
 20
77.133
  0
VERTEX
  8
0
 10
65.6692
 20
77.1446
  0
VERTEX
  8
0
 10
65.7135
 20
77.1572
  0
VERTEX
  8
0
 10
65.7136
 20
77.1747
  0
VERTEX
  8
0
 10
65.714
 20
77.1836
  0
VERTEX
  8
0
 10
65.7069
 20
77.2363
  0
VERTEX
  8
0
 10
65.6853
 20
77.2707
  0
VERTEX
  8
0
 10
65.6375
 20
77.2961
  0
VERTEX
  8
0
 10
65.5702
 20
77.305
  0
VERTEX
  8
0
 10
65.5102
 20
77.2994
  0
VERTEX
  8
0
 10
65.4673
 20
77.2814
  0
VERTEX
  8
0
 10
65.4361
 20
77.2463
  0
VERTEX
  8
0
 10
65.4145
 20
77.1917
  0
VERTEX
  8
0
 10
65.3155
 20
77.2052
  0
VERTEX
  8
0
 10
65.3294
 20
77.2511
  0
VERTEX
  8
0
 10
65.3498
 20
77.2902
  0
VERTEX
  8
0
 10
65.3767
 20
77.3227
  0
VERTEX
  8
0
 10
65.41
 20
77.3485
  0
VERTEX
  8
0
 10
65.4499
 20
77.3676
  0
VERTEX
  8
0
 10
65.5124
 20
77.3833
  0
VERTEX
  8
0
 10
65.586
 20
77.389
  0
VERTEX
  8
0
 10
65.6391
 20
77.3866
  0
VERTEX
  8
0
 10
65.6853
 20
77.379
  0
VERTEX
  8
0
 10
65.7243
 20
77.3662
  0
VERTEX
  8
0
 10
65.7564
 20
77.3481
  0
VERTEX
  8
0
 10
65.7813
 20
77.3248
  0
VERTEX
  8
0
 10
65.8003
 20
77.2942
  0
VERTEX
  8
0
 10
65.813
 20
77.2557
  0
VERTEX
  8
0
 10
65.8168
 20
77.2208
  0
VERTEX
  8
0
 10
65.818
 20
77.1615
  0
VERTEX
  8
0
 10
65.818
 20
77.0254
  0
VERTEX
  8
0
 10
65.8181
 20
76.981
  0
VERTEX
  8
0
 10
65.8181
 20
76.9459
  0
VERTEX
  8
0
 10
65.8182
 20
76.92
  0
VERTEX
  8
0
 10
65.8184
 20
76.9034
  0
VERTEX
  8
0
 10
65.8186
 20
76.896
  0
VERTEX
  8
0
 10
65.8286
 20
76.8278
  0
VERTEX
  8
0
 10
65.8498
 20
76.773
  0
VERTEX
  8
0
 10
65.7438
 20
76.773
  0
VERTEX
  8
0
 10
65.7311
 20
76.8091
  0
VERTEX
  8
0
 10
65.7235
 20
76.8509
  0
VERTEX
  8
0
 10
65.7235
 20
76.8509
  0
SEQEND
  0
POLYLINE
  8
0
 66
     1
 10
0
 20
0
  0
VERTEX
  8
0
 10
65.714
 20
77.0777
  0
VERTEX
  8
0
 10
65.645
 20
77.0573
  0
VERTEX
  8
0
 10
65.5485
 20
77.0397
  0
VERTEX
  8
0
 10
65.5051
 20
77.0327
  0
VERTEX
  8
0
 10
65.4775
 20
77.0262
  0
VERTEX
  8
0
 10
65.4432
 20
77.0099
  0
VERTEX
  8
0
 10
65.4201
 20
76.9865
  0
VERTEX
  8
0
 10
65.4098
 20
76.9643
  0
VERTEX
  8
0
 10
65.406
 20
76.939
  0
VERTEX
  8
0
 10
65.4152
 20
76.897
  0
VERTEX
  8
0
 10
65.4438
 20
76.8662
  0
VERTEX
  8
0
 10
65.4808
 20
76.8503
  0
VERTEX
  8
0
 10
65.5265
 20
76.845
  0
VERTEX
  8
0
 10
65.5662
 20
76.8476
  0
VERTEX
  8
0
 10
65.6014
 20
76.8555
  0
VERTEX
  8
0
 10
65.6321
 20
76.8687
  0
VERTEX
  8
0
 10
65.6584
 20
76.8872
  0
VERTEX
  8
0
 10
65.6803
 20
76.911
  0
VERTEX
  8
0
 10
65.6977
 20
76.9401
  0
VERTEX
  8
0
 10
65.71
 20
76.9823
  0
VERTEX
  8
0
 10
65.714
 20
77.0408
  0
VERTEX
  8
0
 10
65.714
 20
77.0777
  0
SEQEND
  0
POLYLINE
  8
0
 66
     1
 10
0
 20
0
  0
VERTEX
  8
0
 10
66.362
 20
76.773
  0
VERTEX
  8
0
 10
66.362
 20
76.8526
  0
VERTEX
  8
0
 10
66.3374
 20
76.8212
  0
VERTEX
  8
0
 10
66.3083
 20
76.7968
  0
VERTEX
  8
0
 10
66.2749
 20
76.7793
  0
VERTEX
  8
0
 10
66.2372
 20
76.7687
  0
VERTEX
  8
0
 10
66.195
 20
76.765
  0
VERTEX
  8
0
 10
66.1247
 20
76.775
  0
VERTEX
  8
0
 10
66.0612
 20
76.806
  0
VERTEX
  8
0
 10
66.009
 20
76.8531
  0
VERTEX
  8
0
 10
65.9704
 20
76.9145
  0
VERTEX
  8
0
 10
65.9464
 20
76.9893
  0
VERTEX
  8
0
 10
65.938
 20
77.0764
  0
VERTEX
  8
0
 10
65.9397
 20
77.1232
  0
VERTEX
  8
0
 10
65.9451
 20
77.1665
  0
VERTEX
  8
0
 10
65.9544
 20
77.2061
  0
VERTEX
  8
0
 10
65.9675
 20
77.2421
  0
VERTEX
  8
0
 10
65.9844
 20
77.2745
  0
VERTEX
  8
0
 10
66.0051
 20
77.3033
  0
VERTEX
  8
0
 10
66.0297
 20
77.3285
  0
VERTEX
  8
0
 10
66.058
 20
77.3502
  0
VERTEX
  8
0
 10
66.1213
 20
77.3793
  0
VERTEX
  8
0
 10
66.1922
 20
77.389
  0
VERTEX
  8
0
 10
66.2422
 20
77.3839
  0
VERTEX
  8
0
 10
66.2866
 20
77.3686
  0
VERTEX
  8
0
 10
66.3252
 20
77.3431
  0
VERTEX
  8
0
 10
66.358
 20
77.3073
  0
VERTEX
  8
0
 10
66.358
 20
77.605
  0
VERTEX
  8
0
 10
66.458
 20
77.605
  0
VERTEX
  8
0
 10
66.458
 20
76.773
  0
VERTEX
  8
0
 10
66.362
 20
76.773
  0
SEQEND
  0
POLYLINE
  8
0
 66
     1
 10
0
 20
0
  0
VERTEX
  8
0
 10
66.042
 20
77.0767
  0
VERTEX
  8
0
 10
66.0509
 20
76.9936
  0
VERTEX
  8
0
 10
66.0776
 20
76.9247
  0
VERTEX
  8
0
 10
66.1019
 20
76.8918
  0
VERTEX
  8
0
 10
66.1313
 20
76.8682
  0
VERTEX
  8
0
 10
66.1657
 20
76.8539
  0
VERTEX
  8
0
 10
66.2053
 20
76.849
  0
VERTEX
  8
0
 10
66.2443
 20
76.8532
  0
VERTEX
  8
0
 10
66.2782
 20
76.8666
  0
VERTEX
  8
0
 10
66.307
 20
76.8892
  0
VERTEX
  8
0
 10
66.3307
 20
76.9208
  0
VERTEX
  8
0
 10
66.3565
 20
76.9874
  0
VERTEX
  8
0
 10
66.3652
 20
77.0683
  0
VERTEX
  8
0
 10
66.3568
 20
77.1556
  0
VERTEX
  8
0
 10
66.3318
 20
77.2259
  0
VERTEX
  8
0
 10
66.3076
 20
77.2605
  0
VERTEX
  8
0
 10
66.2776
 20
77.2852
  0
VERTEX
  8
0
 10
66.242
 20
77.3
  0
VERTEX
  8
0
 10
66.2008
 20
77.305
  0
VERTEX
  8
0
 10
66.1607
 20
77.3002
  0
VERTEX
  8
0
 10
66.1262
 20
77.286
  0
VERTEX
  8
0
 10
66.0974
 20
77.2624
  0
VERTEX
  8
0
 10
66.0742
 20
77.2292
  0
VERTEX
  8
0
 10
66.0501
 20
77.1614
  0
VERTEX
  8
0
 10
66.042
 20
77.0767
  0
VERTEX
  8
0
 10
66.042
 20
77.0767
  0
SEQEND
  0
POLYLINE
  8
0
 66
     1
 10
0
 20
0
  0
VERTEX
  8
0
 10
66.61
 20
77.489
  0
VERTEX
  8
0
 10
66.61
 20
77.605
  0
VERTEX
  8
0
 10
66.71
 20
77.605
  0
VERTEX
  8
0
 10
66.71
 20
77.489
  0
VERTEX
  8
0
 10
66.61
 20
77.489
  0
SEQEND
  0
POLYLINE
  8
0
 66
     1
 10
0
 20
0
  0
VERTEX
  8
0
 10
66.61
 20
76.773
  0
VERTEX
  8
0
 10
66.61
 20
77.3762
  0
VERTEX
  8
0
 10
66.71
 20
77.3762
  0
VERTEX
  8
0
 10
66.71
 20
76.773
  0
VERTEX
  8
0
 10
66.61
 20
76.773
  0
SEQEND
  0
POLYLINE
  8
0
 66
     1
 10
0
 20
0
  0
VERTEX
  8
0
 10
67.258
 20
76.773
  0
VERTEX
  8
0
 10
67.258
 20
76.865
  0
VERTEX
  8
0
 10
67.2284
 20
76.829
  0
VERTEX
  8
0
 10
67.1948
 20
76.801
  0
VERTEX
  8
0
 10
67.157
 20
76.781
  0
VERTEX
  8
0
 10
67.1152
 20
76.769
  0
VERTEX
  8
0
 10
67.0693
 20
76.765
  0
VERTEX
  8
0
 10
67.023
 20
76.7693
  0
VERTEX
  8
0
 10
66.978
 20
76.7825
  0
VERTEX
  8
0
 10
66.9344
 20
76.8054
  0
VERTEX
  8
0
 10
66.903
 20
76.836
  0
VERTEX
  8
0
 10
66.8847
 20
76.8695
  0
VERTEX
  8
0
 10
66.8722
 20
76.9115
  0
VERTEX
  8
0
 10
66.8676
 20
76.9504
  0
VERTEX
  8
0
 10
66.866
 20
77.0062
  0
VERTEX
  8
0
 10
66.866
 20
77.377
  0
VERTEX
  8
0
 10
66.966
 20
77.377
  0
VERTEX
  8
0
 10
66.966
 20
77.0455
  0
VERTEX
  8
0
 10
66.9676
 20
76.9782
  0
VERTEX
  8
0
 10
66.9723
 20
76.9385
  0
VERTEX
  8
0
 10
66.9835
 20
76.9081
  0
VERTEX
  8
0
 10
67.0009
 20
76.8843
  0
VERTEX
  8
0
 10
67.0245
 20
76.8672
  0
VERTEX
  8
0
 10
67.0542
 20
76.8568
  0
VERTEX
  8
0
 10
67.0902
 20
76.853
  0
VERTEX
  8
0
 10
67.1346
 20
76.8584
  0
VERTEX
  8
0
 10
67.1761
 20
76.8757
  0
VERTEX
  8
0
 10
67.2103
 20
76.9034
  0
VERTEX
  8
0
 10
67.233
 20
76.9396
  0
VERTEX
  8
0
 10
67.2458
 20
76.9892
  0
VERTEX
  8
0
 10
67.25
 20
77.0567
  0
VERTEX
  8
0
 10
67.25
 20
77.377
  0
VERTEX
  8
0
 10
67.35
 20
77.377
  0
VERTEX
  8
0
 10
67.35
 20
76.773
  0
VERTEX
  8
0
 10
67.258
 20
76.773
  0
SEQEND
  0
POLYLINE
  8
0
 66
     1
 10
0
 20
0
  0
VERTEX
  8
0
 10
67.47
 20
76.9559
  0
VERTEX
  8
0
 10
67.5702
 20
76.9716
  0
VERTEX
  8
0
 10
67.5764
 20
76.9429
  0
VERTEX
  8
0
 10
67.5864
 20
76.9179
  0
VERTEX
  8
0
 10
67.6001
 20
76.8969
  0
VERTEX
  8
0
 10
67.6175
 20
76.8796
  0
VERTEX
  8
0
 10
67.6387
 20
76.8662
  0
VERTEX
  8
0
 10
67.6637
 20
76.8566
  0
VERTEX
  8
0
 10
67.6924
 20
76.8509
  0
VERTEX
  8
0
 10
67.7248
 20
76.849
  0
VERTEX
  8
0
 10
67.7746
 20
76.854
  0
VERTEX
  8
0
 10
67.8159
 20
76.8692
  0
VERTEX
  8
0
 10
67.8505
 20
76.9002
  0
VERTEX
  8
0
 10
67.862
 20
76.9438
  0
VERTEX
  8
0
 10
67.8546
 20
76.9744
  0
VERTEX
  8
0
 10
67.8322
 20
76.9977
  0
VERTEX
  8
0
 10
67.8116
 20
77.0075
  0
VERTEX
  8
0
 10
67.777
 20
77.0189
  0
VERTEX
  8
0
 10
67.7284
 20
77.032
  0
VERTEX
  8
0
 10
67.6726
 20
77.0462
  0
VERTEX
  8
0
 10
67.6322
 20
77.0574
  0
VERTEX
  8
0
 10
67.6072
 20
77.0657
  0
VERTEX
  8
0
 10
67.5466
 20
77.0969
  0
VERTEX
  8
0
 10
67.508
 20
77.1369
  0
VERTEX
  8
0
 10
67.4915
 20
77.1747
  0
VERTEX
  8
0
 10
67.486
 20
77.2172
  0
VERTEX
  8
0
 10
67.4936
 20
77.2676
  0
VERTEX
  8
0
 10
67.5164
 20
77.311
  0
VERTEX
  8
0
 10
67.5545
 20
77.3474
  0
VERTEX
  8
0
 10
67.6209
 20
77.3783
  0
VERTEX
  8
0
 10
67.7071
 20
77.389
  0
VERTEX
  8
0
 10
67.7725
 20
77.3842
  0
VERTEX
  8
0
 10
67.8309
 20
77.3687
  0
VERTEX
  8
0
 10
67.8774
 20
77.3446
  0
VERTEX
  8
0
 10
67.9106
 20
77.3125
  0
VERTEX
  8
0
 10
67.9314
 20
77.2735
  0
VERTEX
  8
0
 10
67.9451
 20
77.2215
  0
VERTEX
  8
0
 10
67.845
 20
77.208
  0
VERTEX
  8
0
 10
67.8386
 20
77.2336
  0
VERTEX
  8
0
 10
67.8281
 20
77.2553
  0
VERTEX
  8
0
 10
67.8135
 20
77.273
  0
VERTEX
  8
0
 10
67.7946
 20
77.2869
  0
VERTEX
  8
0
 10
67.7715
 20
77.2968
  0
VERTEX
  8
0
 10
67.7443
 20
77.3029
  0
VERTEX
  8
0
 10
67.7129
 20
77.305
  0
VERTEX
  8
0
 10
67.6785
 20
77.3035
  0
VERTEX
  8
0
 10
67.6493
 20
77.2989
  0
VERTEX
  8
0
 10
67.6253
 20
77.2911
  0
VERTEX
  8
0
 10
67.6066
 20
77.2801
  0
VERTEX
  8
0
 10
67.5932
 20
77.266
  0
VERTEX
  8
0
 10
67.585
 20
77.2486
  0
VERTEX
  8
0
 10
67.582
 20
77.2281
  0
VERTEX
  8
0
 10
67.5849
 20
77.2099
  0
VERTEX
  8
0
 10
67.5945
 20
77.1924
  0
VERTEX
  8
0
 10
67.6108
 20
77.1772
  0
VERTEX
  8
0
 10
67.6336
 20
77.1658
  0
VERTEX
  8
0
 10
67.6491
 20
77.1607
  0
VERTEX
  8
0
 10
67.6791
 20
77.1521
  0
VERTEX
  8
0
 10
67.7236
 20
77.14
  0
VERTEX
  8
0
 10
67.7889
 20
77.1215
  0
VERTEX
  8
0
 10
67.8391
 20
77.1057
  0
VERTEX
  8
0
 10
67.8743
 20
77.0928
  0
VERTEX
  8
0
 10
67.9071
 20
77.075
  0
VERTEX
  8
0
 10
67.9327
 20
77.0522
  0
VERTEX
  8
0
 10
67.9511
 20
77.0243
  0
VERTEX
  8
0
 10
67.9622
 20
76.9915
  0
VERTEX
  8
0
 10
67.966
 20
76.9536
  0
VERTEX
  8
0
 10
67.9589
 20
76.9047
  0
VERTEX
  8
0
 10
67.9362
 20
76.8582
  0
VERTEX
  8
0
 10
67.9133
 20
76.8298
  0
VERTEX
  8
0
 10
67.8855
 20
76.8066
  0
VERTEX
  8
0
 10
67.8528
 20
76.7885
  0
VERTEX
  8
0
 10
67.8152
 20
76.7756
  0
VERTEX
  8
0
 10
67.7727
 20
76.7677
  0
VERTEX
  8
0
 10
67.7253
 20
76.765
  0
VERTEX
  8
0
 10
67.6924
 20
76.7659
  0
VERTEX
  8
0
 10
67.6618
 20
76.7692
  0
VERTEX
  8
0
 10
67.6333
 20
76.7747
  0
VERTEX
  8
0
 10
67.607
 20
76.7826
  0
VERTEX
  8
0
 10
67.583
 20
76.7927
  0
VERTEX
  8
0
 10
67.5611
 20
76.8051
  0
VERTEX
  8
0
 10
67.5415
 20
76.8198
  0
VERTEX
  8
0
 10
67.524
 20
76.8367
  0
VERTEX
  8
0
 10
67.5088
 20
76.856
  0
VERTEX
  8
0
 10
67.4958
 20
76.8775
  0
VERTEX
  8
0
 10
67.485
 20
76.9014
  0
VERTEX
  8
0
 10
67.4764
 20
76.9275
  0
VERTEX
  8
0
 10
67.47
 20
76.9559
  0
VERTEX
  8
0
 10
67.47
 20
76.9559
  0
SEQEND
  0
POLYLINE
  8
0
 66
     1
 10
0
 20
0
  0
VERTEX
  8
0
 10
68.118
 20
76.773
  0
VERTEX
  8
0
 10
68.118
 20
76.893
  0
VERTEX
  8
0
 10
68.234
 20
76.893
  0
VERTEX
  8
0
 10
68.234
 20
76.777
  0
VERTEX
  8
0
 10
68.2314
 20
76.7385
  0
VERTEX
  8
0
 10
68.2234
 20
76.7045
  0
VERTEX
  8
0
 10
68.2102
 20
76.6749
  0
VERTEX
  8
0
 10
68.1916
 20
76.6498
  0
VERTEX
  8
0
 10
68.1678
 20
76.6292
  0
VERTEX
  8
0
 10
68.1386
 20
76.613
  0
VERTEX
  8
0
 10
68.11
 20
76.6555
  0
VERTEX
  8
0
 10
68.1371
 20
76.6723
  0
VERTEX
  8
0
 10
68.1569
 20
76.6975
  0
VERTEX
  8
0
 10
68.1693
 20
76.7311
  0
VERTEX
  8
0
 10
68.1743
 20
76.773
  0
VERTEX
  8
0
 10
68.118
 20
76.773
  0
SEQEND
  0
POLYLINE
  8
0
 66
     1
 10
0
 20
0
  0
VERTEX
  8
0
 10
68.918
 20
77.1847
  0
VERTEX
  8
0
 10
68.9192
 20
77.2383
  0
VERTEX
  8
0
 10
68.9228
 20
77.2883
  0
VERTEX
  8
0
 10
68.9288
 20
77.3348
  0
VERTEX
  8
0
 10
68.9372
 20
77.3777
  0
VERTEX
  8
0
 10
68.948
 20
77.4171
  0
VERTEX
  8
0
 10
68.9611
 20
77.4529
  0
VERTEX
  8
0
 10
68.9767
 20
77.4851
  0
VERTEX
  8
0
 10
68.9947
 20
77.5137
  0
VERTEX
  8
0
 10
69.015
 20
77.5388
  0
VERTEX
  8
0
 10
69.0378
 20
77.5603
  0
VERTEX
  8
0
 10
69.1047
 20
77.5965
  0
VERTEX
  8
0
 10
69.188
 20
77.609
  0
VERTEX
  8
0
 10
69.2497
 20
77.6025
  0
VERTEX
  8
0
 10
69.305
 20
77.5818
  0
VERTEX
  8
0
 10
69.3407
 20
77.5576
  0
VERTEX
  8
0
 10
69.372
 20
77.5254
  0
VERTEX
  8
0
 10
69.3989
 20
77.4852
  0
VERTEX
  8
0
 10
69.4214
 20
77.4369
  0
VERTEX
  8
0
 10
69.4394
 20
77.3807
  0
VERTEX
  8
0
 10
69.4534
 20
77.296
  0
VERTEX
  8
0
 10
69.458
 20
77.1847
  0
VERTEX
  8
0
 10
69.4568
 20
77.1311
  0
VERTEX
  8
0
 10
69.4532
 20
77.0812
  0
VERTEX
  8
0
 10
69.4473
 20
77.0348
  0
VERTEX
  8
0
 10
69.4389
 20
76.992
  0
VERTEX
  8
0
 10
69.4281
 20
76.9527
  0
VERTEX
  8
0
 10
69.4149
 20
76.917
  0
VERTEX
  8
0
 10
69.3994
 20
76.8848
  0
VERTEX
  8
0
 10
69.3814
 20
76.8562
  0
VERTEX
  8
0
 10
69.361
 20
76.8311
  0
VERTEX
  8
0
 10
69.3383
 20
76.8097
  0
VERTEX
  8
0
 10
69.2713
 20
76.7734
  0
VERTEX
  8
0
 10
69.188
 20
76.761
  0
VERTEX
  8
0
 10
69.1669
 20
76.7616
  0
VERTEX
  8
0
 10
69.1466
 20
76.7635
  0
VERTEX
  8
0
 10
69.1272
 20
76.7668
  0
VERTEX
  8
0
 10
69.1087
 20
76.7715
  0
VERTEX
  8
0
 10
69.091
 20
76.7776
  0
VERTEX
  8
0
 10
69.0742
 20
76.785
  0
VERTEX
  8
0
 10
69.0582
 20
76.7937
  0
VERTEX
  8
0
 10
69.0431
 20
76.8039
  0
VERTEX
  8
0
 10
69.0289
 20
76.8154
  0
VERTEX
  8
0
 10
69.0155
 20
76.8282
  0
VERTEX
  8
0
 10
69.003
 20
76.8424
  0
VERTEX
  8
0
 10
68.9913
 20
76.858
  0
VERTEX
  8
0
 10
68.9805
 20
76.875
  0
VERTEX
  8
0
 10
68.9706
 20
76.8933
  0
VERTEX
  8
0
 10
68.9615
 20
76.913
  0
VERTEX
  8
0
 10
68.9533
 20
76.934
  0
VERTEX
  8
0
 10
68.9459
 20
76.9564
  0
VERTEX
  8
0
 10
68.9394
 20
76.9802
  0
VERTEX
  8
0
 10
68.9338
 20
77.0053
  0
VERTEX
  8
0
 10
68.929
 20
77.0318
  0
VERTEX
  8
0
 10
68.9251
 20
77.0596
  0
VERTEX
  8
0
 10
68.922
 20
77.0888
  0
VERTEX
  8
0
 10
68.9198
 20
77.1194
  0
VERTEX
  8
0
 10
68.9185
 20
77.1514
  0
VERTEX
  8
0
 10
68.918
 20
77.1847
  0
VERTEX
  8
0
 10
68.918
 20
77.1847
  0
SEQEND
  0
POLYLINE
  8
0
 66
     1
 10
0
 20
0
  0
VERTEX
  8
0
 10
69.022
 20
77.185
  0
VERTEX
  8
0
 10
69.0245
 20
77.0997
  0
VERTEX
  8
0
 10
69.0319
 20
77.0291
  0
VERTEX
  8
0
 10
69.0442
 20
76.973
  0
VERTEX
  8
0
 10
69.0564
 20
76.9392
  0
VERTEX
  8
0
 10
69.0714
 20
76.9105
  0
VERTEX
  8
0
 10
69.0892
 20
76.8871
  0
VERTEX
  8
0
 10
69.1097
 20
76.8688
  0
VERTEX
  8
0
 10
69.133
 20
76.8557
  0
VERTEX
  8
0
 10
69.1592
 20
76.8477
  0
VERTEX
  8
0
 10
69.188
 20
76.845
  0
VERTEX
  8
0
 10
69.205
 20
76.8458
  0
VERTEX
  8
0
 10
69.2211
 20
76.8485
  0
VERTEX
  8
0
 10
69.2363
 20
76.8531
  0
VERTEX
  8
0
 10
69.2506
 20
76.8597
  0
VERTEX
  8
0
 10
69.2639
 20
76.8681
  0
VERTEX
  8
0
 10
69.2763
 20
76.8784
  0
VERTEX
  8
0
 10
69.2878
 20
76.8906
  0
VERTEX
  8
0
 10
69.2984
 20
76.9047
  0
VERTEX
  8
0
 10
69.308
 20
76.9207
  0
VERTEX
  8
0
 10
69.3168
 20
76.9386
  0
VERTEX
  8
0
 10
69.3246
 20
76.9584
  0
VERTEX
  8
0
 10
69.3315
 20
76.9801
  0
VERTEX
  8
0
 10
69.3375
 20
77.0037
  0
VERTEX
  8
0
 10
69.3425
 20
77.0291
  0
VERTEX
  8
0
 10
69.3467
 20
77.0565
  0
VERTEX
  8
0
 10
69.3499
 20
77.0858
  0
VERTEX
  8
0
 10
69.3522
 20
77.1169
  0
VERTEX
  8
0
 10
69.3536
 20
77.15
  0
VERTEX
  8
0
 10
69.354
 20
77.185
  0
VERTEX
  8
0
 10
69.3516
 20
77.2702
  0
VERTEX
  8
0
 10
69.3442
 20
77.3409
  0
VERTEX
  8
0
 10
69.3319
 20
77.3969
  0
VERTEX
  8
0
 10
69.3195
 20
77.4307
  0
VERTEX
  8
0
 10
69.3044
 20
77.4594
  0
VERTEX
  8
0
 10
69.2864
 20
77.4829
  0
VERTEX
  8
0
 10
69.2657
 20
77.5012
  0
VERTEX
  8
0
 10
69.2422
 20
77.5143
  0
VERTEX
  8
0
 10
69.2159
 20
77.5222
  0
VERTEX
  8
0
 10
69.1869
 20
77.525
  0
VERTEX
  8
0
 10
69.1432
 20
77.5186
  0
VERTEX
  8
0
 10
69.1058
 20
77.4988
  0
VERTEX
  8
0
 10
69.0747
 20
77.4655
  0
VERTEX
  8
0
 10
69.0607
 20
77.4414
  0
VERTEX
  8
0
 10
69.0489
 20
77.412
  0
VERTEX
  8
0
 10
69.0392
 20
77.3773
  0
VERTEX
  8
0
 10
69.0317
 20
77.3372
  0
VERTEX
  8
0
 10
69.0263
 20
77.2918
  0
VERTEX
  8
0
 10
69.0231
 20
77.2411
  0
VERTEX
  8
0
 10
69.022
 20
77.185
  0
VERTEX
  8
0
 10
69.022
 20
77.185
  0
SEQEND
  0
POLYLINE
  8
0
 66
     1
 10
0
 20
0
  0
VERTEX
  8
0
 10
69.614
 20
76.773
  0
VERTEX
  8
0
 10
69.614
 20
76.893
  0
VERTEX
  8
0
 10
69.73
 20
76.893
  0
VERTEX
  8
0
 10
69.73
 20
76.773
  0
VERTEX
  8
0
 10
69.614
 20
76.773
  0
SEQEND
  0
POLYLINE
  8
0
 66
     1
 10
0
 20
0
  0
VERTEX
  8
0
 10
70.0355
 20
77.2255
  0
VERTEX
  8
0
 10
70.0022
 20
77.24
  0
VERTEX
  8
0
 10
69.974
 20
77.2578
  0
VERTEX
  8
0
 10
69.951
 20
77.2788
  0
VERTEX
  8
0
 10
69.9331
 20
77.303
  0
VERTEX
  8
0
 10
69.9203
 20
77.3304
  0
VERTEX
  8
0
 10
69.9126
 20
77.361
  0
VERTEX
  8
0
 10
69.91
 20
77.3948
  0
VERTEX
  8
0
 10
69.9145
 20
77.4417
  0
VERTEX
  8
0
 10
69.9279
 20
77.4836
  0
VERTEX
  8
0
 10
69.9502
 20
77.5207
  0
VERTEX
  8
0
 10
69.9814
 20
77.5529
  0
VERTEX
  8
0
 10
70.0295
 20
77.5838
  0
VERTEX
  8
0
 10
70.0852
 20
77.6025
  0
VERTEX
  8
0
 10
70.1486
 20
77.609
  0
VERTEX
  8
0
 10
70.2122
 20
77.6026
  0
VERTEX
  8
0
 10
70.2685
 20
77.5836
  0
VERTEX
  8
0
 10
70.3175
 20
77.5518
  0
VERTEX
  8
0
 10
70.3492
 20
77.5189
  0
VERTEX
  8
0
 10
70.3719
 20
77.4812
  0
VERTEX
  8
0
 10
70.3855
 20
77.439
  0
VERTEX
  8
0
 10
70.39
 20
77.392
  0
VERTEX
  8
0
 10
70.3875
 20
77.3594
  0
VERTEX
  8
0
 10
70.38
 20
77.3296
  0
VERTEX
  8
0
 10
70.3675
 20
77.3029
  0
VERTEX
  8
0
 10
70.35
 20
77.2791
  0
VERTEX
  8
0
 10
70.3274
 20
77.2582
  0
VERTEX
  8
0
 10
70.2999
 20
77.2404
  0
VERTEX
  8
0
 10
70.2673
 20
77.2255
  0
VERTEX
  8
0
 10
70.2997
 20
77.2129
  0
VERTEX
  8
0
 10
70.3283
 20
77.1975
  0
VERTEX
  8
0
 10
70.353
 20
77.1794
  0
VERTEX
  8
0
 10
70.374
 20
77.1585
  0
VERTEX
  8
0
 10
70.3912
 20
77.1348
  0
VERTEX
  8
0
 10
70.4046
 20
77.1084
  0
VERTEX
  8
0
 10
70.4142
 20
77.0792
  0
VERTEX
  8
0
 10
70.42
 20
77.0472
  0
VERTEX
  8
0
 10
70.422
 20
77.0125
  0
VERTEX
  8
0
 10
70.4172
 20
76.9583
  0
VERTEX
  8
0
 10
70.4022
 20
76.9095
  0
VERTEX
  8
0
 10
70.377
 20
76.8662
  0
VERTEX
  8
0
 10
70.3415
 20
76.8284
  0
VERTEX
  8
0
 10
70.2862
 20
76.7909
  0
VERTEX
  8
0
 10
70.2224
 20
76.7685
  0
VERTEX
  8
0
 10
70.15
 20
76.761
  0
VERTEX
  8
0
 10
70.0766
 20
76.7685
  0
VERTEX
  8
0
 10
70.0124
 20
76.7912
  0
VERTEX
  8
0
 10
69.9574
 20
76.829
  0
VERTEX
  8
0
 10
69.9229
 20
76.8672
  0
VERTEX
  8
0
 10
69.8982
 20
76.911
  0
VERTEX
  8
0
 10
69.8832
 20
76.9603
  0
VERTEX
  8
0
 10
69.878
 20
77.0153
  0
VERTEX
  8
0
 10
69.8795
 20
77.0476
  0
VERTEX
  8
0
 10
69.8841
 20
77.0773
  0
VERTEX
  8
0
 10
69.892
 20
77.1046
  0
VERTEX
  8
0
 10
69.903
 20
77.1294
  0
VERTEX
  8
0
 10
69.9171
 20
77.1517
  0
VERTEX
  8
0
 10
69.9344
 20
77.1714
  0
VERTEX
  8
0
 10
69.9549
 20
77.1887
  0
VERTEX
  8
0
 10
69.9786
 20
77.2035
  0
VERTEX
  8
0
 10
70.0055
 20
77.2157
  0
VERTEX
  8
0
 10
70.0355
 20
77.2255
  0
VERTEX
  8
0
 10
70.0355
 20
77.2255
  0
SEQEND
  0
POLYLINE
  8
0
 66
     1
 10
0
 20
0
  0
VERTEX
  8
0
 10
70.014
 20
77.3983
  0
VERTEX
  8
0
 10
70.0231
 20
77.3457
  0
VERTEX
  8
0
 10
70.0516
 20
77.3028
  0
VERTEX
  8
0
 10
70.0955
 20
77.2744
  0
VERTEX
  8
0
 10
70.1512
 20
77.265
  0
VERTEX
  8
0
 10
70.2039
 20
77.2739
  0
VERTEX
  8
0
 10
70.2471
 20
77.3006
  0
VERTEX
  8
0
 10
70.276
 20
77.3414
  0
VERTEX
  8
0
 10
70.286
 20
77.3927
  0
VERTEX
  8
0
 10
70.2766
 20
77.4434
  0
VERTEX
  8
0
 10
70.2473
 20
77.486
  0
VERTEX
  8
0
 10
70.2034
 20
77.5149
  0
VERTEX
  8
0
 10
70.15
 20
77.525
  0
VERTEX
  8
0
 10
70.0958
 20
77.5154
  0
VERTEX
  8
0
 10
70.0505
 20
77.4854
  0
VERTEX
  8
0
 10
70.0234
 20
77.4455
  0
VERTEX
  8
0
 10
70.014
 20
77.3983
  0
VERTEX
  8
0
 10
70.014
 20
77.3983
  0
SEQEND
  0
POLYLINE
  8
0
 66
     1
 10
0
 20
0
  0
VERTEX
  8
0
 10
69.982
 20
77.0147
  0
VERTEX
  8
0
 10
69.9851
 20
76.976
  0
VERTEX
  8
0
 10
69.9948
 20
76.9419
  0
VERTEX
  8
0
 10
70.0111
 20
76.9124
  0
VERTEX
  8
0
 10
70.0341
 20
76.8874
  0
VERTEX
  8
0
 10
70.0637
 20
76.867
  0
VERTEX
  8
0
 10
70.1054
 20
76.8505
  0
VERTEX
  8
0
 10
70.1509
 20
76.845
  0
VERTEX
  8
0
 10
70.2171
 20
76.8566
  0
VERTEX
  8
0
 10
70.2707
 20
76.8916
  0
VERTEX
  8
0
 10
70.3062
 20
76.9449
  0
VERTEX
  8
0
 10
70.318
 20
77.0113
  0
VERTEX
  8
0
 10
70.3059
 20
77.0784
  0
VERTEX
  8
0
 10
70.2696
 20
77.1326
  0
VERTEX
  8
0
 10
70.2149
 20
77.1686
  0
VERTEX
  8
0
 10
70.1475
 20
77.181
  0
VERTEX
  8
0
 10
70.0819
 20
77.1696
  0
VERTEX
  8
0
 10
70.029
 20
77.1343
  0
VERTEX
  8
0
 10
69.9941
 20
77.0808
  0
VERTEX
  8
0
 10
69.982
 20
77.0147
  0
VERTEX
  8
0
 10
69.982
 20
77.0147
  0
SEQEND
  0
POLYLINE
  8
0
 66
     1
 10
0
 20
0
  0
VERTEX
  8
0
 10
70.5543
 20
77.313
  0
VERTEX
  8
0
 10
70.526
 20
77.47
  0
VERTEX
  8
0
 10
70.526
 20
77.605
  0
VERTEX
  8
0
 10
70.642
 20
77.605
  0
VERTEX
  8
0
 10
70.642
 20
77.47
  0
VERTEX
  8
0
 10
70.6166
 20
77.313
  0
VERTEX
  8
0
 10
70.5543
 20
77.313
  0
SEQEND
  0
POLYLINE
  8
0
 66
     1
 10
0
 20
0
  0
VERTEX
  8
0
 10
70.7418
 20
77.313
  0
VERTEX
  8
0
 10
70.714
 20
77.47
  0
VERTEX
  8
0
 10
70.714
 20
77.605
  0
VERTEX
  8
0
 10
70.83
 20
77.605
  0
VERTEX
  8
0
 10
70.83
 20
77.47
  0
VERTEX
  8
0
 10
70.8028
 20
77.313
  0
VERTEX
  8
0
 10
70.7418
 20
77.313
  0
SEQEND
  0
POLYLINE
  8
0
 66
     1
 10
0
 20
0
  0
VERTEX
  8
0
 10
71.502
 20
76.773
  0
VERTEX
  8
0
 10
71.502
 20
77.605
  0
VERTEX
  8
0
 10
71.8121
 20
77.605
  0
VERTEX
  8
0
 10
71.8965
 20
77.5986
  0
VERTEX
  8
0
 10
71.9637
 20
77.5794
  0
VERTEX
  8
0
 10
72.0131
 20
77.5486
  0
VERTEX
  8
0
 10
72.0519
 20
77.5039
  0
VERTEX
  8
0
 10
72.0772
 20
77.4502
  0
VERTEX
  8
0
 10
72.086
 20
77.3922
  0
VERTEX
  8
0
 10
72.0832
 20
77.3548
  0
VERTEX
  8
0
 10
72.0738
 20
77.3206
  0
VERTEX
  8
0
 10
72.0578
 20
77.2896
  0
VERTEX
  8
0
 10
72.0354
 20
77.2617
  0
VERTEX
  8
0
 10
72.0064
 20
77.2371
  0
VERTEX
  8
0
 10
71.9709
 20
77.2157
  0
VERTEX
  8
0
 10
72.0354
 20
77.1866
  0
VERTEX
  8
0
 10
72.0839
 20
77.1424
  0
VERTEX
  8
0
 10
72.1155
 20
77.0837
  0
VERTEX
  8
0
 10
72.126
 20
77.0142
  0
VERTEX
  8
0
 10
72.1205
 20
76.9618
  0
VERTEX
  8
0
 10
72.104
 20
76.9115
  0
VERTEX
  8
0
 10
72.0767
 20
76.8642
  0
VERTEX
  8
0
 10
72.0409
 20
76.828
  0
VERTEX
  8
0
 10
71.9999
 20
76.8039
  0
VERTEX
  8
0
 10
71.9489
 20
76.7867
  0
VERTEX
  8
0
 10
71.888
 20
76.7764
  0
VERTEX
  8
0
 10
71.8172
 20
76.773
  0
VERTEX
  8
0
 10
71.502
 20
76.773
  0
SEQEND
  0
POLYLINE
  8
0
 66
     1
 10
0
 20
0
  0
VERTEX
  8
0
 10
71.61
 20
77.257
  0
VERTEX
  8
0
 10
71.7892
 20
77.257
  0
VERTEX
  8
0
 10
71.8515
 20
77.2594
  0
VERTEX
  8
0
 10
71.8938
 20
77.2667
  0
VERTEX
  8
0
 10
71.9238
 20
77.2792
  0
VERTEX
  8
0
 10
71.9472
 20
77.2969
  0
VERTEX
  8
0
 10
71.964
 20
77.3198
  0
VERTEX
  8
0
 10
71.9743
 20
77.3478
  0
VERTEX
  8
0
 10
71.978
 20
77.381
  0
VERTEX
  8
0
 10
71.9753
 20
77.4147
  0
VERTEX
  8
0
 10
71.9664
 20
77.4432
  0
VERTEX
  8
0
 10
71.9511
 20
77.4664
  0
VERTEX
  8
0
 10
71.9296
 20
77.4844
  0
VERTEX
  8
0
 10
71.9017
 20
77.497
  0
VERTEX
  8
0
 10
71.8518
 20
77.506
  0
VERTEX
  8
0
 10
71.7757
 20
77.509
  0
VERTEX
  8
0
 10
71.61
 20
77.509
  0
VERTEX
  8
0
 10
71.61
 20
77.257
  0
SEQEND
  0
POLYLINE
  8
0
 66
     1
 10
0
 20
0
  0
VERTEX
  8
0
 10
71.61
 20
76.869
  0
VERTEX
  8
0
 10
71.8172
 20
76.869
  0
VERTEX
  8
0
 10
71.8625
 20
76.87
  0
VERTEX
  8
0
 10
71.892
 20
76.873
  0
VERTEX
  8
0
 10
71.9376
 20
76.8873
  0
VERTEX
  8
0
 10
71.9728
 20
76.9106
  0
VERTEX
  8
0
 10
71.9976
 20
76.9432
  0
VERTEX
  8
0
 10
72.0096
 20
76.9762
  0
VERTEX
  8
0
 10
72.014
 20
77.015
  0
VERTEX
  8
0
 10
72.0108
 20
77.0523
  0
VERTEX
  8
0
 10
72.0001
 20
77.0841
  0
VERTEX
  8
0
 10
71.9821
 20
77.1104
  0
VERTEX
  8
0
 10
71.9566
 20
77.1312
  0
VERTEX
  8
0
 10
71.9238
 20
77.1465
  0
VERTEX
  8
0
 10
71.8722
 20
77.1573
  0
VERTEX
  8
0
 10
71.8024
 20
77.161
  0
VERTEX
  8
0
 10
71.61
 20
77.161
  0
VERTEX
  8
0
 10
71.61
 20
76.869
  0
SEQEND
  0
POLYLINE
  8
0
 66
     1
 10
0
 20
0
  0
VERTEX
  8
0
 10
72.23
 20
77.077
  0
VERTEX
  8
0
 10
72.2326
 20
77.1299
  0
VERTEX
  8
0
 10
72.2403
 20
77.178
  0
VERTEX
  8
0
 10
72.2531
 20
77.2213
  0
VERTEX
  8
0
 10
72.2711
 20
77.2599
  0
VERTEX
  8
0
 10
72.2941
 20
77.2936
  0
VERTEX
  8
0
 10
72.3223
 20
77.3227
  0
VERTEX
  8
0
 10
72.3773
 20
77.3595
  0
VERTEX
  8
0
 10
72.4399
 20
77.3816
  0
VERTEX
  8
0
 10
72.5103
 20
77.389
  0
VERTEX
  8
0
 10
72.5608
 20
77.3855
  0
VERTEX
  8
0
 10
72.6068
 20
77.375
  0
VERTEX
  8
0
 10
72.6483
 20
77.3576
  0
VERTEX
  8
0
 10
72.6854
 20
77.3332
  0
VERTEX
  8
0
 10
72.718
 20
77.3018
  0
VERTEX
  8
0
 10
72.7495
 20
77.2571
  0
VERTEX
  8
0
 10
72.772
 20
77.2061
  0
VERTEX
  8
0
 10
72.7855
 20
77.1489
  0
VERTEX
  8
0
 10
72.79
 20
77.0854
  0
VERTEX
  8
0
 10
72.7884
 20
77.0406
  0
VERTEX
  8
0
 10
72.7833
 20
76.9991
  0
VERTEX
  8
0
 10
72.775
 20
76.9609
  0
VERTEX
  8
0
 10
72.7632
 20
76.9261
  0
VERTEX
  8
0
 10
72.7482
 20
76.8945
  0
VERTEX
  8
0
 10
72.7298
 20
76.8663
  0
VERTEX
  8
0
 10
72.708
 20
76.8414
  0
VERTEX
  8
0
 10
72.6829
 20
76.8198
  0
VERTEX
  8
0
 10
72.6544
 20
76.8015
  0
VERTEX
  8
0
 10
72.5855
 20
76.7744
  0
VERTEX
  8
0
 10
72.5103
 20
76.765
  0
VERTEX
  8
0
 10
72.4581
 20
76.7684
  0
VERTEX
  8
0
 10
72.4109
 20
76.779
  0
VERTEX
  8
0
 10
72.3687
 20
76.7969
  0
VERTEX
  8
0
 10
72.3315
 20
76.822
  0
VERTEX
  8
0
 10
72.2993
 20
76.8543
  0
VERTEX
  8
0
 10
72.269
 20
76.8995
  0
VERTEX
  8
0
 10
72.2473
 20
76.9516
  0
VERTEX
  8
0
 10
72.2344
 20
77.0108
  0
VERTEX
  8
0
 10
72.23
 20
77.077
  0
VERTEX
  8
0
 10
72.23
 20
77.077
  0
SEQEND
  0
POLYLINE
  8
0
 66
     1
 10
0
 20
0
  0
VERTEX
  8
0
 10
72.334
 20
77.0772
  0
VERTEX
  8
0
 10
72.3437
 20
76.9899
  0
VERTEX
  8
0
 10
72.3729
 20
76.9208
  0
VERTEX
  8
0
 10
72.3988
 20
76.8896
  0
VERTEX
  8
0
 10
72.4304
 20
76.8672
  0
VERTEX
  8
0
 10
72.4675
 20
76.8537
  0
VERTEX
  8
0
 10
72.5103
 20
76.849
  0
VERTEX
  8
0
 10
72.5531
 20
76.8534
  0
VERTEX
  8
0
 10
72.5903
 20
76.8671
  0
VERTEX
  8
0
 10
72.6218
 20
76.8901
  0
VERTEX
  8
0
 10
72.6477
 20
76.9225
  0
VERTEX
  8
0
 10
72.6765
 20
76.9928
  0
VERTEX
  8
0
 10
72.686
 20
77.0806
  0
VERTEX
  8
0
 10
72.676
 20
77.1656
  0
VERTEX
  8
0
 10
72.646
 20
77.2343
  0
VERTEX
  8
0
 10
72.6198
 20
77.2652
  0
VERTEX
  8
0
 10
72.5885
 20
77.2873
  0
VERTEX
  8
0
 10
72.552
 20
77.3006
  0
VERTEX
  8
0
 10
72.5103
 20
77.305
  0
VERTEX
  8
0
 10
72.4675
 20
77.3005
  0
VERTEX
  8
0
 10
72.4304
 20
77.287
  0
VERTEX
  8
0
 10
72.3988
 20
77.2646
  0
VERTEX
  8
0
 10
72.3729
 20
77.2332
  0
VERTEX
  8
0
 10
72.3437
 20
77.1639
  0
VERTEX
  8
0
 10
72.334
 20
77.0772
  0
VERTEX
  8
0
 10
72.334
 20
77.0772
  0
SEQEND
  0
POLYLINE
  8
0
 66
     1
 10
0
 20
0
  0
VERTEX
  8
0
 10
72.906
 20
76.773
  0
VERTEX
  8
0
 10
72.906
 20
77.3762
  0
VERTEX
  8
0
 10
72.998
 20
77.3762
  0
VERTEX
  8
0
 10
72.998
 20
77.2853
  0
VERTEX
  8
0
 10
73.0245
 20
77.3282
  0
VERTEX
  8
0
 10
73.0487
 20
77.357
  0
VERTEX
  8
0
 10
73.085
 20
77.381
  0
VERTEX
  8
0
 10
73.1275
 20
77.389
  0
VERTEX
  8
0
 10
73.1788
 20
77.3808
  0
VERTEX
  8
0
 10
73.2315
 20
77.3565
  0
VERTEX
  8
0
 10
73.1963
 20
77.2628
  0
VERTEX
  8
0
 10
73.1588
 20
77.2794
  0
VERTEX
  8
0
 10
73.1213
 20
77.285
  0
VERTEX
  8
0
 10
73.0884
 20
77.2791
  0
VERTEX
  8
0
 10
73.0577
 20
77.2617
  0
VERTEX
  8
0
 10
73.0371
 20
77.2387
  0
VERTEX
  8
0
 10
73.0231
 20
77.2087
  0
VERTEX
  8
0
 10
73.0103
 20
77.1521
  0
VERTEX
  8
0
 10
73.006
 20
77.0893
  0
VERTEX
  8
0
 10
73.006
 20
76.773
  0
VERTEX
  8
0
 10
72.906
 20
76.773
  0
SEQEND
  0
POLYLINE
  8
0
 66
     1
 10
0
 20
0
  0
VERTEX
  8
0
 10
73.682
 20
76.773
  0
VERTEX
  8
0
 10
73.682
 20
76.8526
  0
VERTEX
  8
0
 10
73.6574
 20
76.8212
  0
VERTEX
  8
0
 10
73.6283
 20
76.7968
  0
VERTEX
  8
0
 10
73.5949
 20
76.7793
  0
VERTEX
  8
0
 10
73.5572
 20
76.7687
  0
VERTEX
  8
0
 10
73.515
 20
76.765
  0
VERTEX
  8
0
 10
73.4447
 20
76.775
  0
VERTEX
  8
0
 10
73.3812
 20
76.806
  0
VERTEX
  8
0
 10
73.329
 20
76.8531
  0
VERTEX
  8
0
 10
73.2904
 20
76.9145
  0
VERTEX
  8
0
 10
73.2664
 20
76.9893
  0
VERTEX
  8
0
 10
73.258
 20
77.0764
  0
VERTEX
  8
0
 10
73.2597
 20
77.1232
  0
VERTEX
  8
0
 10
73.2651
 20
77.1665
  0
VERTEX
  8
0
 10
73.2744
 20
77.2061
  0
VERTEX
  8
0
 10
73.2875
 20
77.2421
  0
VERTEX
  8
0
 10
73.3044
 20
77.2745
  0
VERTEX
  8
0
 10
73.3251
 20
77.3033
  0
VERTEX
  8
0
 10
73.3497
 20
77.3285
  0
VERTEX
  8
0
 10
73.378
 20
77.3502
  0
VERTEX
  8
0
 10
73.4413
 20
77.3793
  0
VERTEX
  8
0
 10
73.5122
 20
77.389
  0
VERTEX
  8
0
 10
73.5622
 20
77.3839
  0
VERTEX
  8
0
 10
73.6066
 20
77.3686
  0
VERTEX
  8
0
 10
73.6452
 20
77.3431
  0
VERTEX
  8
0
 10
73.678
 20
77.3073
  0
VERTEX
  8
0
 10
73.678
 20
77.605
  0
VERTEX
  8
0
 10
73.778
 20
77.605
  0
VERTEX
  8
0
 10
73.778
 20
76.773
  0
VERTEX
  8
0
 10
73.682
 20
76.773
  0
SEQEND
  0
POLYLINE
  8
0
 66
     1
 10
0
 20
0
  0
VERTEX
  8
0
 10
73.362
 20
77.0767
  0
VERTEX
  8
0
 10
73.3709
 20
76.9936
  0
VERTEX
  8
0
 10
73.3976
 20
76.9247
  0
VERTEX
  8
0
 10
73.4219
 20
76.8918
  0
VERTEX
  8
0
 10
73.4513
 20
76.8682
  0
VERTEX
  8
0
 10
73.4857
 20
76.8539
  0
VERTEX
  8
0
 10
73.5253
 20
76.849
  0
VERTEX
  8
0
 10
73.5643
 20
76.8532
  0
VERTEX
  8
0
 10
73.5982
 20
76.8666
  0
VERTEX
  8
0
 10
73.627
 20
76.8892
  0
VERTEX
  8
0
 10
73.6507
 20
76.9208
  0
VERTEX
  8
0
 10
73.6765
 20
76.9874
  0
VERTEX
  8
0
 10
73.6852
 20
77.0683
  0
VERTEX
  8
0
 10
73.6768
 20
77.1556
  0
VERTEX
  8
0
 10
73.6518
 20
77.2259
  0
VERTEX
  8
0
 10
73.6276
 20
77.2605
  0
VERTEX
  8
0
 10
73.5976
 20
77.2852
  0
VERTEX
  8
0
 10
73.562
 20
77.3
  0
VERTEX
  8
0
 10
73.5208
 20
77.305
  0
VERTEX
  8
0
 10
73.4807
 20
77.3002
  0
VERTEX
  8
0
 10
73.4462
 20
77.286
  0
VERTEX
  8
0
 10
73.4174
 20
77.2624
  0
VERTEX
  8
0
 10
73.3942
 20
77.2292
  0
VERTEX
  8
0
 10
73.3701
 20
77.1614
  0
VERTEX
  8
0
 10
73.362
 20
77.0767
  0
VERTEX
  8
0
 10
73.362
 20
77.0767
  0
SEQEND
  0
POLYLINE
  8
0
 66
     1
 10
0
 20
0
  0
VERTEX
  8
0
 10
74.3418
 20
76.9699
  0
VERTEX
  8
0
 10
74.447
 20
76.957
  0
VERTEX
  8
0
 10
74.4373
 20
76.9264
  0
VERTEX
  8
0
 10
74.4253
 20
76.8983
  0
VERTEX
  8
0
 10
74.4111
 20
76.873
  0
VERTEX
  8
0
 10
74.3947
 20
76.8503
  0
VERTEX
  8
0
 10
74.376
 20
76.8303
  0
VERTEX
  8
0
 10
74.3552
 20
76.813
  0
VERTEX
  8
0
 10
74.3321
 20
76.7983
  0
VERTEX
  8
0
 10
74.3068
 20
76.7863
  0
VERTEX
  8
0
 10
74.2793
 20
76.777
  0
VERTEX
  8
0
 10
74.2496
 20
76.7703
  0
VERTEX
  8
0
 10
74.2177
 20
76.7663
  0
VERTEX
  8
0
 10
74.1835
 20
76.765
  0
VERTEX
  8
0
 10
74.121
 20
76.77
  0
VERTEX
  8
0
 10
74.0653
 20
76.7851
  0
VERTEX
  8
0
 10
74.0166
 20
76.8102
  0
VERTEX
  8
0
 10
73.9748
 20
76.8453
  0
VERTEX
  8
0
 10
73.9472
 20
76.8801
  0
VERTEX
  8
0
 10
73.9257
 20
76.9202
  0
VERTEX
  8
0
 10
73.9103
 20
76.9655
  0
VERTEX
  8
0
 10
73.9011
 20
77.0161
  0
VERTEX
  8
0
 10
73.898
 20
77.0719
  0
VERTEX
  8
0
 10
73.9023
 20
77.138
  0
VERTEX
  8
0
 10
73.9152
 20
77.1974
  0
VERTEX
  8
0
 10
73.9367
 20
77.2502
  0
VERTEX
  8
0
 10
73.9668
 20
77.2962
  0
VERTEX
  8
0
 10
73.9995
 20
77.3296
  0
VERTEX
  8
0
 10
74.0369
 20
77.3556
  0
VERTEX
  8
0
 10
74.0791
 20
77.3741
  0
VERTEX
  8
0
 10
74.1261
 20
77.3853
  0
VERTEX
  8
0
 10
74.1779
 20
77.389
  0
VERTEX
  8
0
 10
74.2284
 20
77.3853
  0
VERTEX
  8
0
 10
74.2741
 20
77.3742
  0
VERTEX
  8
0
 10
74.3152
 20
77.3558
  0
VERTEX
  8
0
 10
74.3516
 20
77.33
  0
VERTEX
  8
0
 10
74.3833
 20
77.2968
  0
VERTEX
  8
0
 10
74.4126
 20
77.2512
  0
VERTEX
  8
0
 10
74.4336
 20
77.1992
  0
VERTEX
  8
0
 10
74.4462
 20
77.1408
  0
VERTEX
  8
0
 10
74.4504
 20
77.0761
  0
VERTEX
  8
0
 10
74.4503
 20
77.062
  0
VERTEX
  8
0
 10
74.4498
 20
77.049
  0
VERTEX
  8
0
 10
74.002
 20
77.049
  0
VERTEX
  8
0
 10
74.0163
 20
76.9711
  0
VERTEX
  8
0
 10
74.0501
 20
76.9093
  0
VERTEX
  8
0
 10
74.0868
 20
76.8758
  0
VERTEX
  8
0
 10
74.1313
 20
76.8557
  0
VERTEX
  8
0
 10
74.1835
 20
76.849
  0
VERTEX
  8
0
 10
74.2195
 20
76.8523
  0
VERTEX
  8
0
 10
74.2516
 20
76.8624
  0
VERTEX
  8
0
 10
74.28
 20
76.8792
  0
VERTEX
  8
0
 10
74.3044
 20
76.9027
  0
VERTEX
  8
0
 10
74.3251
 20
76.933
  0
VERTEX
  8
0
 10
74.3418
 20
76.9699
  0
VERTEX
  8
0
 10
74.3418
 20
76.9699
  0
SEQEND
  0
POLYLINE
  8
0
 66
     1
 10
0
 20
0
  0
VERTEX
  8
0
 10
74.0086
 20
77.133
  0
VERTEX
  8
0
 10
74.3432
 20
77.133
  0
VERTEX
  8
0
 10
74.3302
 20
77.1991
  0
VERTEX
  8
0
 10
74.3048
 20
77.2463
  0
VERTEX
  8
0
 10
74.2693
 20
77.2787
  0
VERTEX
  8
0
 10
74.2274
 20
77.2982
  0
VERTEX
  8
0
 10
74.179
 20
77.305
  0
VERTEX
  8
0
 10
74.1119
 20
77.2928
  0
VERTEX
  8
0
 10
74.0583
 20
77.2553
  0
VERTEX
  8
0
 10
74.0235
 20
77.2011
  0
VERTEX
  8
0
 10
74.0086
 20
77.133
  0
VERTEX
  8
0
 10
74.0086
 20
77.133
  0
SEQEND
  0
POLYLINE
  8
0
 66
     1
 10
0
 20
0
  0
VERTEX
  8
0
 10
74.574
 20
76.773
  0
VERTEX
  8
0
 10
74.574
 20
77.3762
  0
VERTEX
  8
0
 10
74.666
 20
77.3762
  0
VERTEX
  8
0
 10
74.666
 20
77.2853
  0
VERTEX
  8
0
 10
74.6925
 20
77.3282
  0
VERTEX
  8
0
 10
74.7167
 20
77.357
  0
VERTEX
  8
0
 10
74.753
 20
77.381
  0
VERTEX
  8
0
 10
74.7955
 20
77.389
  0
VERTEX
  8
0
 10
74.8468
 20
77.3808
  0
VERTEX
  8
0
 10
74.8995
 20
77.3565
  0
VERTEX
  8
0
 10
74.8643
 20
77.2628
  0
VERTEX
  8
0
 10
74.8268
 20
77.2794
  0
VERTEX
  8
0
 10
74.7893
 20
77.285
  0
VERTEX
  8
0
 10
74.7564
 20
77.2791
  0
VERTEX
  8
0
 10
74.7257
 20
77.2617
  0
VERTEX
  8
0
 10
74.7051
 20
77.2387
  0
VERTEX
  8
0
 10
74.6911
 20
77.2087
  0
VERTEX
  8
0
 10
74.6783
 20
77.1521
  0
VERTEX
  8
0
 10
74.674
 20
77.0893
  0
VERTEX
  8
0
 10
74.674
 20
76.773
  0
VERTEX
  8
0
 10
74.574
 20
76.773
  0
SEQEND
  0
POLYLINE
  8
0
 66
     1
 10
0
 20
0
  0
VERTEX
  8
0
 10
74.994
 20
76.773
  0
VERTEX
  8
0
 10
74.994
 20
76.893
  0
VERTEX
  8
0
 10
75.11
 20
76.893
  0
VERTEX
  8
0
 10
75.11
 20
76.777
  0
VERTEX
  8
0
 10
75.1074
 20
76.7385
  0
VERTEX
  8
0
 10
75.0994
 20
76.7045
  0
VERTEX
  8
0
 10
75.0862
 20
76.6749
  0
VERTEX
  8
0
 10
75.0676
 20
76.6498
  0
VERTEX
  8
0
 10
75.0438
 20
76.6292
  0
VERTEX
  8
0
 10
75.0146
 20
76.613
  0
VERTEX
  8
0
 10
74.986
 20
76.6555
  0
VERTEX
  8
0
 10
75.0131
 20
76.6723
  0
VERTEX
  8
0
 10
75.0329
 20
76.6975
  0
VERTEX
  8
0
 10
75.0453
 20
76.7311
  0
VERTEX
  8
0
 10
75.0503
 20
76.773
  0
VERTEX
  8
0
 10
74.994
 20
76.773
  0
SEQEND
  0
POLYLINE
  8
0
 66
     1
 10
0
 20
0
  0
VERTEX
  8
0
 10
75.9749
 20
76.773
  0
VERTEX
  8
0
 10
75.754
 20
77.605
  0
VERTEX
  8
0
 10
75.8663
 20
77.605
  0
VERTEX
  8
0
 10
75.9922
 20
77.0621
  0
VERTEX
  8
0
 10
76.011
 20
76.9763
  0
VERTEX
  8
0
 10
76.0271
 20
76.8927
  0
VERTEX
  8
0
 10
76.0385
 20
76.9407
  0
VERTEX
  8
0
 10
76.048
 20
76.9799
  0
VERTEX
  8
0
 10
76.0554
 20
77.0105
  0
VERTEX
  8
0
 10
76.0609
 20
77.0324
  0
VERTEX
  8
0
 10
76.0643
 20
77.0455
  0
VERTEX
  8
0
 10
76.2217
 20
77.605
  0
VERTEX
  8
0
 10
76.3538
 20
77.605
  0
VERTEX
  8
0
 10
76.4723
 20
77.1855
  0
VERTEX
  8
0
 10
76.5101
 20
77.0347
  0
VERTEX
  8
0
 10
76.5362
 20
76.8927
  0
VERTEX
  8
0
 10
76.5457
 20
76.938
  0
VERTEX
  8
0
 10
76.5594
 20
76.998
  0
VERTEX
  8
0
 10
76.5771
 20
77.0728
  0
VERTEX
  8
0
 10
76.7056
 20
77.605
  0
VERTEX
  8
0
 10
76.8175
 20
77.605
  0
VERTEX
  8
0
 10
76.5907
 20
76.773
  0
VERTEX
  8
0
 10
76.4849
 20
76.773
  0
VERTEX
  8
0
 10
76.31
 20
77.407
  0
VERTEX
  8
0
 10
76.2967
 20
77.4526
  0
VERTEX
  8
0
 10
76.2876
 20
77.4849
  0
VERTEX
  8
0
 10
76.2827
 20
77.5036
  0
VERTEX
  8
0
 10
76.2725
 20
77.4542
  0
VERTEX
  8
0
 10
76.2615
 20
77.407
  0
VERTEX
  8
0
 10
76.0873
 20
76.773
  0
VERTEX
  8
0
 10
75.9749
 20
76.773
  0
SEQEND
  0
POLYLINE
  8
0
 66
     1
 10
0
 20
0
  0
VERTEX
  8
0
 10
76.906
 20
76.773
  0
VERTEX
  8
0
 10
76.906
 20
77.605
  0
VERTEX
  8
0
 10
77.006
 20
77.605
  0
VERTEX
  8
0
 10
77.006
 20
77.3073
  0
VERTEX
  8
0
 10
77.0441
 20
77.3428
  0
VERTEX
  8
0
 10
77.0867
 20
77.3683
  0
VERTEX
  8
0
 10
77.1341
 20
77.3837
  0
VERTEX
  8
0
 10
77.1862
 20
77.389
  0
VERTEX
  8
0
 10
77.2477
 20
77.3826
  0
VERTEX
  8
0
 10
77.3023
 20
77.3623
  0
VERTEX
  8
0
 10
77.3491
 20
77.3255
  0
VERTEX
  8
0
 10
77.3787
 20
77.2738
  0
VERTEX
  8
0
 10
77.3902
 20
77.2225
  0
VERTEX
  8
0
 10
77.394
 20
77.1547
  0
VERTEX
  8
0
 10
77.394
 20
76.773
  0
VERTEX
  8
0
 10
77.294
 20
76.773
  0
VERTEX
  8
0
 10
77.294
 20
77.1547
  0
VERTEX
  8
0
 10
77.2925
 20
77.1851
  0
VERTEX
  8
0
 10
77.2877
 20
77.2121
  0
VERTEX
  8
0
 10
77.2798
 20
77.2354
  0
VERTEX
  8
0
 10
77.2688
 20
77.2553
  0
VERTEX
  8
0
 10
77.2546
 20
77.2715
  0
VERTEX
  8
0
 10
77.2373
 20
77.2842
  0
VERTEX
  8
0
 10
77.2167
 20
77.2934
  0
VERTEX
  8
0
 10
77.1931
 20
77.2989
  0
VERTEX
  8
0
 10
77.1663
 20
77.301
  0
VERTEX
  8
0
 10
77.1221
 20
77.2955
  0
VERTEX
  8
0
 10
77.0807
 20
77.2777
  0
VERTEX
  8
0
 10
77.0465
 20
77.2499
  0
VERTEX
  8
0
 10
77.0234
 20
77.2139
  0
VERTEX
  8
0
 10
77.0104
 20
77.166
  0
VERTEX
  8
0
 10
77.006
 20
77.1025
  0
VERTEX
  8
0
 10
77.006
 20
76.773
  0
VERTEX
  8
0
 10
76.906
 20
76.773
  0
SEQEND
  0
POLYLINE
  8
0
 66
     1
 10
0
 20
0
  0
VERTEX
  8
0
 10
77.546
 20
77.489
  0
VERTEX
  8
0
 10
77.546
 20
77.605
  0
VERTEX
  8
0
 10
77.646
 20
77.605
  0
VERTEX
  8
0
 10
77.646
 20
77.489
  0
VERTEX
  8
0
 10
77.546
 20
77.489
  0
SEQEND
  0
POLYLINE
  8
0
 66
     1
 10
0
 20
0
  0
VERTEX
  8
0
 10
77.546
 20
76.773
  0
VERTEX
  8
0
 10
77.546
 20
77.3762
  0
VERTEX
  8
0
 10
77.646
 20
77.3762
  0
VERTEX
  8
0
 10
77.646
 20
76.773
  0
VERTEX
  8
0
 10
77.546
 20
76.773
  0
SEQEND
  0
POLYLINE
  8
0
 66
     1
 10
0
 20
0
  0
VERTEX
  8
0
 10
78.0277
 20
76.8678
  0
VERTEX
  8
0
 10
78.0423
 20
76.778
  0
VERTEX
  8
0
 10
78.0017
 20
76.7715
  0
VERTEX
  8
0
 10
77.9661
 20
76.769
  0
VERTEX
  8
0
 10
77.9203
 20
76.7725
  0
VERTEX
  8
0
 10
77.8837
 20
76.7842
  0
VERTEX
  8
0
 10
77.8564
 20
76.8041
  0
VERTEX
  8
0
 10
77.8383
 20
76.8322
  0
VERTEX
  8
0
 10
77.8315
 20
76.8585
  0
VERTEX
  8
0
 10
77.8274
 20
76.8986
  0
VERTEX
  8
0
 10
77.826
 20
76.9523
  0
VERTEX
  8
0
 10
77.826
 20
77.297
  0
VERTEX
  8
0
 10
77.75
 20
77.297
  0
VERTEX
  8
0
 10
77.75
 20
77.377
  0
VERTEX
  8
0
 10
77.826
 20
77.377
  0
VERTEX
  8
0
 10
77.826
 20
77.5244
  0
VERTEX
  8
0
 10
77.926
 20
77.585
  0
VERTEX
  8
0
 10
77.926
 20
77.377
  0
VERTEX
  8
0
 10
78.026
 20
77.377
  0
VERTEX
  8
0
 10
78.026
 20
77.297
  0
VERTEX
  8
0
 10
77.926
 20
77.297
  0
VERTEX
  8
0
 10
77.926
 20
76.9477
  0
VERTEX
  8
0
 10
77.9265
 20
76.9207
  0
VERTEX
  8
0
 10
77.9277
 20
76.906
  0
VERTEX
  8
0
 10
77.9349
 20
76.8861
  0
VERTEX
  8
0
 10
77.9485
 20
76.8723
  0
VERTEX
  8
0
 10
77.9628
 20
76.8671
  0
VERTEX
  8
0
 10
77.9833
 20
76.865
  0
VERTEX
  8
0
 10
78.0025
 20
76.8654
  0
VERTEX
  8
0
 10
78.0277
 20
76.8678
  0
VERTEX
  8
0
 10
78.0277
 20
76.8678
  0
SEQEND
  0
POLYLINE
  8
0
 66
     1
 10
0
 20
0
  0
VERTEX
  8
0
 10
78.5378
 20
76.9699
  0
VERTEX
  8
0
 10
78.643
 20
76.957
  0
VERTEX
  8
0
 10
78.6333
 20
76.9264
  0
VERTEX
  8
0
 10
78.6213
 20
76.8983
  0
VERTEX
  8
0
 10
78.6071
 20
76.873
  0
VERTEX
  8
0
 10
78.5907
 20
76.8503
  0
VERTEX
  8
0
 10
78.572
 20
76.8303
  0
VERTEX
  8
0
 10
78.5512
 20
76.813
  0
VERTEX
  8
0
 10
78.5281
 20
76.7983
  0
VERTEX
  8
0
 10
78.5028
 20
76.7863
  0
VERTEX
  8
0
 10
78.4753
 20
76.777
  0
VERTEX
  8
0
 10
78.4456
 20
76.7703
  0
VERTEX
  8
0
 10
78.4137
 20
76.7663
  0
VERTEX
  8
0
 10
78.3795
 20
76.765
  0
VERTEX
  8
0
 10
78.317
 20
76.77
  0
VERTEX
  8
0
 10
78.2613
 20
76.7851
  0
VERTEX
  8
0
 10
78.2126
 20
76.8102
  0
VERTEX
  8
0
 10
78.1708
 20
76.8453
  0
VERTEX
  8
0
 10
78.1432
 20
76.8801
  0
VERTEX
  8
0
 10
78.1217
 20
76.9202
  0
VERTEX
  8
0
 10
78.1063
 20
76.9655
  0
VERTEX
  8
0
 10
78.0971
 20
77.0161
  0
VERTEX
  8
0
 10
78.094
 20
77.0719
  0
VERTEX
  8
0
 10
78.0983
 20
77.138
  0
VERTEX
  8
0
 10
78.1112
 20
77.1974
  0
VERTEX
  8
0
 10
78.1327
 20
77.2502
  0
VERTEX
  8
0
 10
78.1628
 20
77.2962
  0
VERTEX
  8
0
 10
78.1955
 20
77.3296
  0
VERTEX
  8
0
 10
78.2329
 20
77.3556
  0
VERTEX
  8
0
 10
78.2751
 20
77.3741
  0
VERTEX
  8
0
 10
78.3221
 20
77.3853
  0
VERTEX
  8
0
 10
78.3739
 20
77.389
  0
VERTEX
  8
0
 10
78.4244
 20
77.3853
  0
VERTEX
  8
0
 10
78.4701
 20
77.3742
  0
VERTEX
  8
0
 10
78.5112
 20
77.3558
  0
VERTEX
  8
0
 10
78.5476
 20
77.33
  0
VERTEX
  8
0
 10
78.5793
 20
77.2968
  0
VERTEX
  8
0
 10
78.6086
 20
77.2512
  0
VERTEX
  8
0
 10
78.6296
 20
77.1992
  0
VERTEX
  8
0
 10
78.6422
 20
77.1408
  0
VERTEX
  8
0
 10
78.6464
 20
77.0761
  0
VERTEX
  8
0
 10
78.6463
 20
77.062
  0
VERTEX
  8
0
 10
78.6458
 20
77.049
  0
VERTEX
  8
0
 10
78.198
 20
77.049
  0
VERTEX
  8
0
 10
78.2123
 20
76.9711
  0
VERTEX
  8
0
 10
78.2461
 20
76.9093
  0
VERTEX
  8
0
 10
78.2828
 20
76.8758
  0
VERTEX
  8
0
 10
78.3273
 20
76.8557
  0
VERTEX
  8
0
 10
78.3795
 20
76.849
  0
VERTEX
  8
0
 10
78.4155
 20
76.8523
  0
VERTEX
  8
0
 10
78.4476
 20
76.8624
  0
VERTEX
  8
0
 10
78.476
 20
76.8792
  0
VERTEX
  8
0
 10
78.5004
 20
76.9027
  0
VERTEX
  8
0
 10
78.521
 20
76.933
  0
VERTEX
  8
0
 10
78.5378
 20
76.9699
  0
VERTEX
  8
0
 10
78.5378
 20
76.9699
  0
SEQEND
  0
POLYLINE
  8
0
 66
     1
 10
0
 20
0
  0
VERTEX
  8
0
 10
78.2046
 20
77.133
  0
VERTEX
  8
0
 10
78.5392
 20
77.133
  0
VERTEX
  8
0
 10
78.5262
 20
77.1991
  0
VERTEX
  8
0
 10
78.5008
 20
77.2463
  0
VERTEX
  8
0
 10
78.4653
 20
77.2787
  0
VERTEX
  8
0
 10
78.4234
 20
77.2982
  0
VERTEX
  8
0
 10
78.375
 20
77.305
  0
VERTEX
  8
0
 10
78.3079
 20
77.2928
  0
VERTEX
  8
0
 10
78.2543
 20
77.2553
  0
VERTEX
  8
0
 10
78.2195
 20
77.2011
  0
VERTEX
  8
0
 10
78.2046
 20
77.133
  0
VERTEX
  8
0
 10
78.2046
 20
77.133
  0
SEQEND
  0
POLYLINE
  8
0
 66
     1
 10
0
 20
0
  0
VERTEX
  8
0
 10
79.266
 20
77.077
  0
VERTEX
  8
0
 10
79.2686
 20
77.1299
  0
VERTEX
  8
0
 10
79.2763
 20
77.178
  0
VERTEX
  8
0
 10
79.2891
 20
77.2213
  0
VERTEX
  8
0
 10
79.3071
 20
77.2599
  0
VERTEX
  8
0
 10
79.3301
 20
77.2936
  0
VERTEX
  8
0
 10
79.3583
 20
77.3227
  0
VERTEX
  8
0
 10
79.4133
 20
77.3595
  0
VERTEX
  8
0
 10
79.4759
 20
77.3816
  0
VERTEX
  8
0
 10
79.5463
 20
77.389
  0
VERTEX
  8
0
 10
79.5968
 20
77.3855
  0
VERTEX
  8
0
 10
79.6428
 20
77.375
  0
VERTEX
  8
0
 10
79.6843
 20
77.3576
  0
VERTEX
  8
0
 10
79.7214
 20
77.3332
  0
VERTEX
  8
0
 10
79.754
 20
77.3018
  0
VERTEX
  8
0
 10
79.7855
 20
77.2571
  0
VERTEX
  8
0
 10
79.808
 20
77.2061
  0
VERTEX
  8
0
 10
79.8215
 20
77.1489
  0
VERTEX
  8
0
 10
79.826
 20
77.0854
  0
VERTEX
  8
0
 10
79.8244
 20
77.0406
  0
VERTEX
  8
0
 10
79.8193
 20
76.9991
  0
VERTEX
  8
0
 10
79.811
 20
76.9609
  0
VERTEX
  8
0
 10
79.7992
 20
76.9261
  0
VERTEX
  8
0
 10
79.7842
 20
76.8945
  0
VERTEX
  8
0
 10
79.7658
 20
76.8663
  0
VERTEX
  8
0
 10
79.744
 20
76.8414
  0
VERTEX
  8
0
 10
79.7189
 20
76.8198
  0
VERTEX
  8
0
 10
79.6904
 20
76.8015
  0
VERTEX
  8
0
 10
79.6215
 20
76.7744
  0
VERTEX
  8
0
 10
79.5463
 20
76.765
  0
VERTEX
  8
0
 10
79.4941
 20
76.7684
  0
VERTEX
  8
0
 10
79.4469
 20
76.779
  0
VERTEX
  8
0
 10
79.4047
 20
76.7969
  0
VERTEX
  8
0
 10
79.3675
 20
76.822
  0
VERTEX
  8
0
 10
79.3353
 20
76.8543
  0
VERTEX
  8
0
 10
79.305
 20
76.8995
  0
VERTEX
  8
0
 10
79.2833
 20
76.9516
  0
VERTEX
  8
0
 10
79.2704
 20
77.0108
  0
VERTEX
  8
0
 10
79.266
 20
77.077
  0
VERTEX
  8
0
 10
79.266
 20
77.077
  0
SEQEND
  0
POLYLINE
  8
0
 66
     1
 10
0
 20
0
  0
VERTEX
  8
0
 10
79.37
 20
77.0772
  0
VERTEX
  8
0
 10
79.3797
 20
76.9899
  0
VERTEX
  8
0
 10
79.4089
 20
76.9208
  0
VERTEX
  8
0
 10
79.4348
 20
76.8896
  0
VERTEX
  8
0
 10
79.4664
 20
76.8672
  0
VERTEX
  8
0
 10
79.5035
 20
76.8537
  0
VERTEX
  8
0
 10
79.5463
 20
76.849
  0
VERTEX
  8
0
 10
79.5891
 20
76.8534
  0
VERTEX
  8
0
 10
79.6263
 20
76.8671
  0
VERTEX
  8
0
 10
79.6578
 20
76.8901
  0
VERTEX
  8
0
 10
79.6837
 20
76.9225
  0
VERTEX
  8
0
 10
79.7125
 20
76.9928
  0
VERTEX
  8
0
 10
79.722
 20
77.0806
  0
VERTEX
  8
0
 10
79.712
 20
77.1656
  0
VERTEX
  8
0
 10
79.682
 20
77.2343
  0
VERTEX
  8
0
 10
79.6558
 20
77.2652
  0
VERTEX
  8
0
 10
79.6245
 20
77.2873
  0
VERTEX
  8
0
 10
79.588
 20
77.3006
  0
VERTEX
  8
0
 10
79.5463
 20
77.305
  0
VERTEX
  8
0
 10
79.5035
 20
77.3005
  0
VERTEX
  8
0
 10
79.4664
 20
77.287
  0
VERTEX
  8
0
 10
79.4348
 20
77.2646
  0
VERTEX
  8
0
 10
79.4089
 20
77.2332
  0
VERTEX
  8
0
 10
79.3797
 20
77.1639
  0
VERTEX
  8
0
 10
79.37
 20
77.0772
  0
VERTEX
  8
0
 10
79.37
 20
77.0772
  0
SEQEND
  0
POLYLINE
  8
0
 66
     1
 10
0
 20
0
  0
VERTEX
  8
0
 10
79.942
 20
76.773
  0
VERTEX
  8
0
 10
79.942
 20
77.3762
  0
VERTEX
  8
0
 10
80.034
 20
77.3762
  0
VERTEX
  8
0
 10
80.034
 20
77.291
  0
VERTEX
  8
0
 10
80.0628
 20
77.3261
  0
VERTEX
  8
0
 10
80.0963
 20
77.3534
  0
VERTEX
  8
0
 10
80.1345
 20
77.373
  0
VERTEX
  8
0
 10
80.1774
 20
77.3849
  0
VERTEX
  8
0
 10
80.225
 20
77.389
  0
VERTEX
  8
0
 10
80.2761
 20
77.384
  0
VERTEX
  8
0
 10
80.3244
 20
77.3691
  0
VERTEX
  8
0
 10
80.3609
 20
77.3482
  0
VERTEX
  8
0
 10
80.3898
 20
77.3202
  0
VERTEX
  8
0
 10
80.4109
 20
77.285
  0
VERTEX
  8
0
 10
80.4244
 20
77.2427
  0
VERTEX
  8
0
 10
80.4286
 20
77.2045
  0
VERTEX
  8
0
 10
80.43
 20
77.1433
  0
VERTEX
  8
0
 10
80.43
 20
76.773
  0
VERTEX
  8
0
 10
80.33
 20
76.773
  0
VERTEX
  8
0
 10
80.33
 20
77.1397
  0
VERTEX
  8
0
 10
80.328
 20
77.1864
  0
VERTEX
  8
0
 10
80.322
 20
77.2198
  0
VERTEX
  8
0
 10
80.3046
 20
77.2558
  0
VERTEX
  8
0
 10
80.2751
 20
77.2822
  0
VERTEX
  8
0
 10
80.242
 20
77.2963
  0
VERTEX
  8
0
 10
80.2035
 20
77.301
  0
VERTEX
  8
0
 10
80.1777
 20
77.2996
  0
VERTEX
  8
0
 10
80.1541
 20
77.2954
  0
VERTEX
  8
0
 10
80.1328
 20
77.2886
  0
VERTEX
  8
0
 10
80.1138
 20
77.2789
  0
VERTEX
  8
0
 10
80.097
 20
77.2665
  0
VERTEX
  8
0
 10
80.0824
 20
77.2513
  0
VERTEX
  8
0
 10
80.0701
 20
77.2334
  0
VERTEX
  8
0
 10
80.06
 20
77.2127
  0
VERTEX
  8
0
 10
80.0521
 20
77.1892
  0
VERTEX
  8
0
 10
80.0465
 20
77.163
  0
VERTEX
  8
0
 10
80.0432
 20
77.134
  0
VERTEX
  8
0
 10
80.042
 20
77.1023
  0
VERTEX
  8
0
 10
80.042
 20
76.773
  0
VERTEX
  8
0
 10
79.942
 20
76.773
  0
SEQEND
  0
POLYLINE
  8
0
 66
     1
 10
0
 20
0
  0
VERTEX
  8
0
 10
81.13
 20
76.773
  0
VERTEX
  8
0
 10
81.13
 20
77.605
  0
VERTEX
  8
0
 10
81.4401
 20
77.605
  0
VERTEX
  8
0
 10
81.5245
 20
77.5986
  0
VERTEX
  8
0
 10
81.5917
 20
77.5794
  0
VERTEX
  8
0
 10
81.6411
 20
77.5486
  0
VERTEX
  8
0
 10
81.6799
 20
77.5039
  0
VERTEX
  8
0
 10
81.7052
 20
77.4502
  0
VERTEX
  8
0
 10
81.714
 20
77.3922
  0
VERTEX
  8
0
 10
81.7112
 20
77.3548
  0
VERTEX
  8
0
 10
81.7018
 20
77.3206
  0
VERTEX
  8
0
 10
81.6858
 20
77.2896
  0
VERTEX
  8
0
 10
81.6634
 20
77.2617
  0
VERTEX
  8
0
 10
81.6344
 20
77.2371
  0
VERTEX
  8
0
 10
81.5989
 20
77.2157
  0
VERTEX
  8
0
 10
81.6634
 20
77.1866
  0
VERTEX
  8
0
 10
81.7119
 20
77.1424
  0
VERTEX
  8
0
 10
81.7435
 20
77.0837
  0
VERTEX
  8
0
 10
81.754
 20
77.0142
  0
VERTEX
  8
0
 10
81.7485
 20
76.9618
  0
VERTEX
  8
0
 10
81.732
 20
76.9115
  0
VERTEX
  8
0
 10
81.7047
 20
76.8642
  0
VERTEX
  8
0
 10
81.6689
 20
76.828
  0
VERTEX
  8
0
 10
81.6279
 20
76.8039
  0
VERTEX
  8
0
 10
81.5769
 20
76.7867
  0
VERTEX
  8
0
 10
81.516
 20
76.7764
  0
VERTEX
  8
0
 10
81.4452
 20
76.773
  0
VERTEX
  8
0
 10
81.13
 20
76.773
  0
SEQEND
  0
POLYLINE
  8
0
 66
     1
 10
0
 20
0
  0
VERTEX
  8
0
 10
81.238
 20
77.257
  0
VERTEX
  8
0
 10
81.4172
 20
77.257
  0
VERTEX
  8
0
 10
81.4795
 20
77.2594
  0
VERTEX
  8
0
 10
81.5218
 20
77.2667
  0
VERTEX
  8
0
 10
81.5518
 20
77.2792
  0
VERTEX
  8
0
 10
81.5752
 20
77.2969
  0
VERTEX
  8
0
 10
81.592
 20
77.3198
  0
VERTEX
  8
0
 10
81.6023
 20
77.3478
  0
VERTEX
  8
0
 10
81.606
 20
77.381
  0
VERTEX
  8
0
 10
81.6033
 20
77.4147
  0
VERTEX
  8
0
 10
81.5944
 20
77.4432
  0
VERTEX
  8
0
 10
81.5791
 20
77.4664
  0
VERTEX
  8
0
 10
81.5576
 20
77.4844
  0
VERTEX
  8
0
 10
81.5297
 20
77.497
  0
VERTEX
  8
0
 10
81.4798
 20
77.506
  0
VERTEX
  8
0
 10
81.4037
 20
77.509
  0
VERTEX
  8
0
 10
81.238
 20
77.509
  0
VERTEX
  8
0
 10
81.238
 20
77.257
  0
SEQEND
  0
POLYLINE
  8
0
 66
     1
 10
0
 20
0
  0
VERTEX
  8
0
 10
81.238
 20
76.869
  0
VERTEX
  8
0
 10
81.4452
 20
76.869
  0
VERTEX
  8
0
 10
81.4905
 20
76.87
  0
VERTEX
  8
0
 10
81.52
 20
76.873
  0
VERTEX
  8
0
 10
81.5656
 20
76.8873
  0
VERTEX
  8
0
 10
81.6008
 20
76.9106
  0
VERTEX
  8
0
 10
81.6256
 20
76.9432
  0
VERTEX
  8
0
 10
81.6376
 20
76.9762
  0
VERTEX
  8
0
 10
81.642
 20
77.015
  0
VERTEX
  8
0
 10
81.6388
 20
77.0523
  0
VERTEX
  8
0
 10
81.6281
 20
77.0841
  0
VERTEX
  8
0
 10
81.6101
 20
77.1104
  0
VERTEX
  8
0
 10
81.5846
 20
77.1312
  0
VERTEX
  8
0
 10
81.5518
 20
77.1465
  0
VERTEX
  8
0
 10
81.5002
 20
77.1573
  0
VERTEX
  8
0
 10
81.4304
 20
77.161
  0
VERTEX
  8
0
 10
81.238
 20
77.161
  0
VERTEX
  8
0
 10
81.238
 20
76.869
  0
SEQEND
  0
POLYLINE
  8
0
 66
     1
 10
0
 20
0
  0
VERTEX
  8
0
 10
81.89
 20
76.773
  0
VERTEX
  8
0
 10
81.89
 20
77.605
  0
VERTEX
  8
0
 10
81.99
 20
77.605
  0
VERTEX
  8
0
 10
81.99
 20
76.773
  0
VERTEX
  8
0
 10
81.89
 20
76.773
  0
SEQEND
  0
POLYLINE
  8
0
 66
     1
 10
0
 20
0
  0
VERTEX
  8
0
 10
82.538
 20
76.773
  0
VERTEX
  8
0
 10
82.538
 20
76.865
  0
VERTEX
  8
0
 10
82.5084
 20
76.829
  0
VERTEX
  8
0
 10
82.4748
 20
76.801
  0
VERTEX
  8
0
 10
82.437
 20
76.781
  0
VERTEX
  8
0
 10
82.3952
 20
76.769
  0
VERTEX
  8
0
 10
82.3493
 20
76.765
  0
VERTEX
  8
0
 10
82.303
 20
76.7693
  0
VERTEX
  8
0
 10
82.258
 20
76.7825
  0
VERTEX
  8
0
 10
82.2144
 20
76.8054
  0
VERTEX
  8
0
 10
82.183
 20
76.836
  0
VERTEX
  8
0
 10
82.1647
 20
76.8695
  0
VERTEX
  8
0
 10
82.1522
 20
76.9115
  0
VERTEX
  8
0
 10
82.1476
 20
76.9504
  0
VERTEX
  8
0
 10
82.146
 20
77.0062
  0
VERTEX
  8
0
 10
82.146
 20
77.377
  0
VERTEX
  8
0
 10
82.246
 20
77.377
  0
VERTEX
  8
0
 10
82.246
 20
77.0455
  0
VERTEX
  8
0
 10
82.2476
 20
76.9782
  0
VERTEX
  8
0
 10
82.2523
 20
76.9385
  0
VERTEX
  8
0
 10
82.2635
 20
76.9081
  0
VERTEX
  8
0
 10
82.2809
 20
76.8843
  0
VERTEX
  8
0
 10
82.3045
 20
76.8672
  0
VERTEX
  8
0
 10
82.3342
 20
76.8568
  0
VERTEX
  8
0
 10
82.3702
 20
76.853
  0
VERTEX
  8
0
 10
82.4146
 20
76.8584
  0
VERTEX
  8
0
 10
82.4561
 20
76.8757
  0
VERTEX
  8
0
 10
82.4903
 20
76.9034
  0
VERTEX
  8
0
 10
82.513
 20
76.9396
  0
VERTEX
  8
0
 10
82.5258
 20
76.9892
  0
VERTEX
  8
0
 10
82.53
 20
77.0567
  0
VERTEX
  8
0
 10
82.53
 20
77.377
  0
VERTEX
  8
0
 10
82.63
 20
77.377
  0
VERTEX
  8
0
 10
82.63
 20
76.773
  0
VERTEX
  8
0
 10
82.538
 20
76.773
  0
SEQEND
  0
POLYLINE
  8
0
 66
     1
 10
0
 20
0
  0
VERTEX
  8
0
 10
83.1978
 20
76.9699
  0
VERTEX
  8
0
 10
83.303
 20
76.957
  0
VERTEX
  8
0
 10
83.2933
 20
76.9264
  0
VERTEX
  8
0
 10
83.2813
 20
76.8983
  0
VERTEX
  8
0
 10
83.2671
 20
76.873
  0
VERTEX
  8
0
 10
83.2507
 20
76.8503
  0
VERTEX
  8
0
 10
83.232
 20
76.8303
  0
VERTEX
  8
0
 10
83.2112
 20
76.813
  0
VERTEX
  8
0
 10
83.1881
 20
76.7983
  0
VERTEX
  8
0
 10
83.1628
 20
76.7863
  0
VERTEX
  8
0
 10
83.1353
 20
76.777
  0
VERTEX
  8
0
 10
83.1056
 20
76.7703
  0
VERTEX
  8
0
 10
83.0737
 20
76.7663
  0
VERTEX
  8
0
 10
83.0395
 20
76.765
  0
VERTEX
  8
0
 10
82.977
 20
76.77
  0
VERTEX
  8
0
 10
82.9213
 20
76.7851
  0
VERTEX
  8
0
 10
82.8726
 20
76.8102
  0
VERTEX
  8
0
 10
82.8308
 20
76.8453
  0
VERTEX
  8
0
 10
82.8032
 20
76.8801
  0
VERTEX
  8
0
 10
82.7817
 20
76.9202
  0
VERTEX
  8
0
 10
82.7663
 20
76.9655
  0
VERTEX
  8
0
 10
82.7571
 20
77.0161
  0
VERTEX
  8
0
 10
82.754
 20
77.0719
  0
VERTEX
  8
0
 10
82.7583
 20
77.138
  0
VERTEX
  8
0
 10
82.7712
 20
77.1974
  0
VERTEX
  8
0
 10
82.7927
 20
77.2502
  0
VERTEX
  8
0
 10
82.8228
 20
77.2962
  0
VERTEX
  8
0
 10
82.8555
 20
77.3296
  0
VERTEX
  8
0
 10
82.8929
 20
77.3556
  0
VERTEX
  8
0
 10
82.9351
 20
77.3741
  0
VERTEX
  8
0
 10
82.9821
 20
77.3853
  0
VERTEX
  8
0
 10
83.0339
 20
77.389
  0
VERTEX
  8
0
 10
83.0844
 20
77.3853
  0
VERTEX
  8
0
 10
83.1301
 20
77.3742
  0
VERTEX
  8
0
 10
83.1712
 20
77.3558
  0
VERTEX
  8
0
 10
83.2076
 20
77.33
  0
VERTEX
  8
0
 10
83.2393
 20
77.2968
  0
VERTEX
  8
0
 10
83.2686
 20
77.2512
  0
VERTEX
  8
0
 10
83.2896
 20
77.1992
  0
VERTEX
  8
0
 10
83.3022
 20
77.1408
  0
VERTEX
  8
0
 10
83.3064
 20
77.0761
  0
VERTEX
  8
0
 10
83.3063
 20
77.062
  0
VERTEX
  8
0
 10
83.3058
 20
77.049
  0
VERTEX
  8
0
 10
82.858
 20
77.049
  0
VERTEX
  8
0
 10
82.8723
 20
76.9711
  0
VERTEX
  8
0
 10
82.9061
 20
76.9093
  0
VERTEX
  8
0
 10
82.9428
 20
76.8758
  0
VERTEX
  8
0
 10
82.9873
 20
76.8557
  0
VERTEX
  8
0
 10
83.0395
 20
76.849
  0
VERTEX
  8
0
 10
83.0755
 20
76.8523
  0
VERTEX
  8
0
 10
83.1076
 20
76.8624
  0
VERTEX
  8
0
 10
83.136
 20
76.8792
  0
VERTEX
  8
0
 10
83.1604
 20
76.9027
  0
VERTEX
  8
0
 10
83.181
 20
76.933
  0
VERTEX
  8
0
 10
83.1978
 20
76.9699
  0
VERTEX
  8
0
 10
83.1978
 20
76.9699
  0
SEQEND
  0
POLYLINE
  8
0
 66
     1
 10
0
 20
0
  0
VERTEX
  8
0
 10
82.8646
 20
77.133
  0
VERTEX
  8
0
 10
83.1992
 20
77.133
  0
VERTEX
  8
0
 10
83.1862
 20
77.1991
  0
VERTEX
  8
0
 10
83.1608
 20
77.2463
  0
VERTEX
  8
0
 10
83.1253
 20
77.2787
  0
VERTEX
  8
0
 10
83.0834
 20
77.2982
  0
VERTEX
  8
0
 10
83.035
 20
77.305
  0
VERTEX
  8
0
 10
82.9679
 20
77.2928
  0
VERTEX
  8
0
 10
82.9143
 20
77.2553
  0
VERTEX
  8
0
 10
82.8795
 20
77.2011
  0
VERTEX
  8
0
 10
82.8646
 20
77.133
  0
VERTEX
  8
0
 10
82.8646
 20
77.133
  0
SEQEND
  0
POLYLINE
  8
0
 66
     1
 10
0
 20
0
  0
VERTEX
  8
0
 10
83.462
 20
77.261
  0
VERTEX
  8
0
 10
83.462
 20
77.377
  0
VERTEX
  8
0
 10
83.578
 20
77.377
  0
VERTEX
  8
0
 10
83.578
 20
77.261
  0
VERTEX
  8
0
 10
83.462
 20
77.261
  0
SEQEND
  0
POLYLINE
  8
0
 66
     1
 10
0
 20
0
  0
VERTEX
  8
0
 10
83.462
 20
76.773
  0
VERTEX
  8
0
 10
83.462
 20
76.889
  0
VERTEX
  8
0
 10
83.578
 20
76.889
  0
VERTEX
  8
0
 10
83.578
 20
76.7747
  0
VERTEX
  8
0
 10
83.5754
 20
76.7367
  0
VERTEX
  8
0
 10
83.5674
 20
76.7032
  0
VERTEX
  8
0
 10
83.5542
 20
76.674
  0
VERTEX
  8
0
 10
83.5356
 20
76.6493
  0
VERTEX
  8
0
 10
83.5118
 20
76.6289
  0
VERTEX
  8
0
 10
83.4826
 20
76.613
  0
VERTEX
  8
0
 10
83.454
 20
76.6555
  0
VERTEX
  8
0
 10
83.4811
 20
76.6723
  0
VERTEX
  8
0
 10
83.5009
 20
76.6975
  0
VERTEX
  8
0
 10
83.5133
 20
76.7311
  0
VERTEX
  8
0
 10
83.5183
 20
76.773
  0
VERTEX
  8
0
 10
83.462
 20
76.773
  0
SEQEND
  0
POLYLINE
  8
0
 66
     1
 10
0
 20
0
  0
VERTEX
  8
0
 10
62.15
 20
75.865
  0
VERTEX
  8
0
 10
62.15
 20
75.749
  0
VERTEX
  8
0
 10
62.042
 20
75.749
  0
VERTEX
  8
0
 10
62.042
 20
75.8411
  0
VERTEX
  8
0
 10
62.0465
 20
75.9056
  0
VERTEX
  8
0
 10
62.0601
 20
75.9494
  0
VERTEX
  8
0
 10
62.0907
 20
75.9884
  0
VERTEX
  8
0
 10
62.1352
 20
76.017
  0
VERTEX
  8
0
 10
62.16
 20
75.9777
  0
VERTEX
  8
0
 10
62.1345
 20
75.9618
  0
VERTEX
  8
0
 10
62.1157
 20
75.9377
  0
VERTEX
  8
0
 10
62.1035
 20
75.9055
  0
VERTEX
  8
0
 10
62.0979
 20
75.865
  0
VERTEX
  8
0
 10
62.15
 20
75.865
  0
SEQEND
  0
POLYLINE
  8
0
 66
     1
 10
0
 20
0
  0
VERTEX
  8
0
 10
62.326
 20
75.865
  0
VERTEX
  8
0
 10
62.326
 20
75.749
  0
VERTEX
  8
0
 10
62.218
 20
75.749
  0
VERTEX
  8
0
 10
62.218
 20
75.8411
  0
VERTEX
  8
0
 10
62.2225
 20
75.9056
  0
VERTEX
  8
0
 10
62.2359
 20
75.9494
  0
VERTEX
  8
0
 10
62.2663
 20
75.9884
  0
VERTEX
  8
0
 10
62.3103
 20
76.017
  0
VERTEX
  8
0
 10
62.3348
 20
75.9777
  0
VERTEX
  8
0
 10
62.3094
 20
75.9618
  0
VERTEX
  8
0
 10
62.2905
 20
75.9377
  0
VERTEX
  8
0
 10
62.2783
 20
75.9055
  0
VERTEX
  8
0
 10
62.2728
 20
75.865
  0
VERTEX
  8
0
 10
62.326
 20
75.865
  0
SEQEND
  0
POLYLINE
  8
0
 66
     1
 10
0
 20
0
  0
VERTEX
  8
0
 10
62.478
 20
75.173
  0
VERTEX
  8
0
 10
62.478
 20
76.005
  0
VERTEX
  8
0
 10
63.0761
 20
76.005
  0
VERTEX
  8
0
 10
63.0761
 20
75.909
  0
VERTEX
  8
0
 10
62.586
 20
75.909
  0
VERTEX
  8
0
 10
62.586
 20
75.653
  0
VERTEX
  8
0
 10
63.0451
 20
75.653
  0
VERTEX
  8
0
 10
63.0451
 20
75.557
  0
VERTEX
  8
0
 10
62.586
 20
75.557
  0
VERTEX
  8
0
 10
62.586
 20
75.269
  0
VERTEX
  8
0
 10
63.0953
 20
75.269
  0
VERTEX
  8
0
 10
63.0953
 20
75.173
  0
VERTEX
  8
0
 10
62.478
 20
75.173
  0
SEQEND
  0
POLYLINE
  8
0
 66
     1
 10
0
 20
0
  0
VERTEX
  8
0
 10
63.238
 20
75.173
  0
VERTEX
  8
0
 10
63.238
 20
76.005
  0
VERTEX
  8
0
 10
63.4013
 20
76.005
  0
VERTEX
  8
0
 10
63.6005
 20
75.4192
  0
VERTEX
  8
0
 10
63.6209
 20
75.3532
  0
VERTEX
  8
0
 10
63.6376
 20
75.2977
  0
VERTEX
  8
0
 10
63.654
 20
75.3495
  0
VERTEX
  8
0
 10
63.6811
 20
75.429
  0
VERTEX
  8
0
 10
63.88
 20
76.005
  0
VERTEX
  8
0
 10
64.026
 20
76.005
  0
VERTEX
  8
0
 10
64.026
 20
75.173
  0
VERTEX
  8
0
 10
63.922
 20
75.173
  0
VERTEX
  8
0
 10
63.922
 20
75.8693
  0
VERTEX
  8
0
 10
63.6815
 20
75.173
  0
VERTEX
  8
0
 10
63.5828
 20
75.173
  0
VERTEX
  8
0
 10
63.342
 20
75.8811
  0
VERTEX
  8
0
 10
63.342
 20
75.173
  0
VERTEX
  8
0
 10
63.238
 20
75.173
  0
SEQEND
  0
POLYLINE
  8
0
 66
     1
 10
0
 20
0
  0
VERTEX
  8
0
 10
64.21
 20
75.173
  0
VERTEX
  8
0
 10
64.21
 20
76.005
  0
VERTEX
  8
0
 10
64.8081
 20
76.005
  0
VERTEX
  8
0
 10
64.8081
 20
75.909
  0
VERTEX
  8
0
 10
64.318
 20
75.909
  0
VERTEX
  8
0
 10
64.318
 20
75.653
  0
VERTEX
  8
0
 10
64.7771
 20
75.653
  0
VERTEX
  8
0
 10
64.7771
 20
75.557
  0
VERTEX
  8
0
 10
64.318
 20
75.557
  0
VERTEX
  8
0
 10
64.318
 20
75.269
  0
VERTEX
  8
0
 10
64.8273
 20
75.269
  0
VERTEX
  8
0
 10
64.8273
 20
75.173
  0
VERTEX
  8
0
 10
64.21
 20
75.173
  0
SEQEND
  0
POLYLINE
  8
0
 66
     1
 10
0
 20
0
  0
VERTEX
  8
0
 10
64.978
 20
75.173
  0
VERTEX
  8
0
 10
64.978
 20
76.005
  0
VERTEX
  8
0
 10
65.3441
 20
76.005
  0
VERTEX
  8
0
 10
65.4278
 20
76.0011
  0
VERTEX
  8
0
 10
65.4899
 20
75.9897
  0
VERTEX
  8
0
 10
65.5561
 20
75.9567
  0
VERTEX
  8
0
 10
65.6037
 20
75.9034
  0
VERTEX
  8
0
 10
65.6292
 20
75.844
  0
VERTEX
  8
0
 10
65.638
 20
75.778
  0
VERTEX
  8
0
 10
65.637
 20
75.7512
  0
VERTEX
  8
0
 10
65.6336
 20
75.7261
  0
VERTEX
  8
0
 10
65.6278
 20
75.7026
  0
VERTEX
  8
0
 10
65.6196
 20
75.6807
  0
VERTEX
  8
0
 10
65.609
 20
75.6605
  0
VERTEX
  8
0
 10
65.596
 20
75.6418
  0
VERTEX
  8
0
 10
65.5807
 20
75.6249
  0
VERTEX
  8
0
 10
65.5629
 20
75.6095
  0
VERTEX
  8
0
 10
65.5428
 20
75.5958
  0
VERTEX
  8
0
 10
65.5203
 20
75.5837
  0
VERTEX
  8
0
 10
65.4954
 20
75.5732
  0
VERTEX
  8
0
 10
65.4681
 20
75.5643
  0
VERTEX
  8
0
 10
65.4384
 20
75.5571
  0
VERTEX
  8
0
 10
65.4063
 20
75.5515
  0
VERTEX
  8
0
 10
65.4448
 20
75.5307
  0
VERTEX
  8
0
 10
65.4723
 20
75.5101
  0
VERTEX
  8
0
 10
65.5201
 20
75.4589
  0
VERTEX
  8
0
 10
65.5632
 20
75.3994
  0
VERTEX
  8
0
 10
65.7071
 20
75.173
  0
VERTEX
  8
0
 10
65.57
 20
75.173
  0
VERTEX
  8
0
 10
65.4596
 20
75.3488
  0
VERTEX
  8
0
 10
65.4253
 20
75.4014
  0
VERTEX
  8
0
 10
65.3985
 20
75.4401
  0
VERTEX
  8
0
 10
65.3584
 20
75.489
  0
VERTEX
  8
0
 10
65.3243
 20
75.5189
  0
VERTEX
  8
0
 10
65.2994
 20
75.5327
  0
VERTEX
  8
0
 10
65.2745
 20
75.541
  0
VERTEX
  8
0
 10
65.2505
 20
75.544
  0
VERTEX
  8
0
 10
65.2134
 20
75.545
  0
VERTEX
  8
0
 10
65.086
 20
75.545
  0
VERTEX
  8
0
 10
65.086
 20
75.173
  0
VERTEX
  8
0
 10
64.978
 20
75.173
  0
SEQEND
  0
POLYLINE
  8
0
 66
     1
 10
0
 20
0
  0
VERTEX
  8
0
 10
65.086
 20
75.641
  0
VERTEX
  8
0
 10
65.3218
 20
75.641
  0
VERTEX
  8
0
 10
65.374
 20
75.6435
  0
VERTEX
  8
0
 10
65.4183
 20
75.6513
  0
VERTEX
  8
0
 10
65.4547
 20
75.6642
  0
VERTEX
  8
0
 10
65.4833
 20
75.6822
  0
VERTEX
  8
0
 10
65.504
 20
75.7055
  0
VERTEX
  8
0
 10
65.5205
 20
75.7411
  0
VERTEX
  8
0
 10
65.526
 20
75.7795
  0
VERTEX
  8
0
 10
65.5198
 20
75.8225
  0
VERTEX
  8
0
 10
65.5011
 20
75.8575
  0
VERTEX
  8
0
 10
65.47
 20
75.8843
  0
VERTEX
  8
0
 10
65.4167
 20
75.9058
  0
VERTEX
  8
0
 10
65.3485
 20
75.913
  0
VERTEX
  8
0
 10
65.086
 20
75.913
  0
VERTEX
  8
0
 10
65.086
 20
75.641
  0
SEQEND
  0
POLYLINE
  8
0
 66
     1
 10
0
 20
0
  0
VERTEX
  8
0
 10
66.198
 20
75.501
  0
VERTEX
  8
0
 10
66.198
 20
75.597
  0
VERTEX
  8
0
 10
66.55
 20
75.597
  0
VERTEX
  8
0
 10
66.55
 20
75.2902
  0
VERTEX
  8
0
 10
66.4958
 20
75.2507
  0
VERTEX
  8
0
 10
66.4404
 20
75.2184
  0
VERTEX
  8
0
 10
66.384
 20
75.1933
  0
VERTEX
  8
0
 10
66.3264
 20
75.1753
  0
VERTEX
  8
0
 10
66.2678
 20
75.1646
  0
VERTEX
  8
0
 10
66.208
 20
75.161
  0
VERTEX
  8
0
 10
66.0938
 20
75.1731
  0
VERTEX
  8
0
 10
65.9922
 20
75.2095
  0
VERTEX
  8
0
 10
65.9291
 20
75.2503
  0
VERTEX
  8
0
 10
65.8773
 20
75.3019
  0
VERTEX
  8
0
 10
65.8367
 20
75.3642
  0
VERTEX
  8
0
 10
65.7987
 20
75.4683
  0
VERTEX
  8
0
 10
65.786
 20
75.585
  0
VERTEX
  8
0
 10
65.7977
 20
75.6992
  0
VERTEX
  8
0
 10
65.8328
 20
75.8035
  0
VERTEX
  8
0
 10
65.8725
 20
75.8708
  0
VERTEX
  8
0
 10
65.9221
 20
75.925
  0
VERTEX
  8
0
 10
65.9818
 20
75.9662
  0
VERTEX
  8
0
 10
66.0838
 20
76.0043
  0
VERTEX
  8
0
 10
66.2002
 20
76.017
  0
VERTEX
  8
0
 10
66.2851
 20
76.0096
  0
VERTEX
  8
0
 10
66.3626
 20
75.9875
  0
VERTEX
  8
0
 10
66.4286
 20
75.9519
  0
VERTEX
  8
0
 10
66.4788
 20
75.9041
  0
VERTEX
  8
0
 10
66.5127
 20
75.8468
  0
VERTEX
  8
0
 10
66.5387
 20
75.7727
  0
VERTEX
  8
0
 10
66.4398
 20
75.7457
  0
VERTEX
  8
0
 10
66.4199
 20
75.8003
  0
VERTEX
  8
0
 10
66.3963
 20
75.8407
  0
VERTEX
  8
0
 10
66.3612
 20
75.876
  0
VERTEX
  8
0
 10
66.3147
 20
75.9026
  0
VERTEX
  8
0
 10
66.2599
 20
75.9194
  0
VERTEX
  8
0
 10
66.2003
 20
75.925
  0
VERTEX
  8
0
 10
66.1308
 20
75.9192
  0
VERTEX
  8
0
 10
66.0703
 20
75.9018
  0
VERTEX
  8
0
 10
66.0247
 20
75.8777
  0
VERTEX
  8
0
 10
65.986
 20
75.846
  0
VERTEX
  8
0
 10
65.9543
 20
75.8068
  0
VERTEX
  8
0
 10
65.9297
 20
75.76
  0
VERTEX
  8
0
 10
65.9062
 20
75.681
  0
VERTEX
  8
0
 10
65.898
 20
75.5933
  0
VERTEX
  8
0
 10
65.8993
 20
75.5503
  0
VERTEX
  8
0
 10
65.9036
 20
75.5104
  0
VERTEX
  8
0
 10
65.9109
 20
75.4733
  0
VERTEX
  8
0
 10
65.9213
 20
75.4393
  0
VERTEX
  8
0
 10
65.9346
 20
75.4082
  0
VERTEX
  8
0
 10
65.951
 20
75.3801
  0
VERTEX
  8
0
 10
65.9704
 20
75.3549
  0
VERTEX
  8
0
 10
65.9928
 20
75.3327
  0
VERTEX
  8
0
 10
66.0183
 20
75.3134
  0
VERTEX
  8
0
 10
66.0467
 20
75.2972
  0
VERTEX
  8
0
 10
66.1216
 20
75.2703
  0
VERTEX
  8
0
 10
66.201
 20
75.261
  0
VERTEX
  8
0
 10
66.2631
 20
75.2665
  0
VERTEX
  8
0
 10
66.3288
 20
75.2841
  0
VERTEX
  8
0
 10
66.3923
 20
75.3119
  0
VERTEX
  8
0
 10
66.442
 20
75.3468
  0
VERTEX
  8
0
 10
66.442
 20
75.501
  0
VERTEX
  8
0
 10
66.198
 20
75.501
  0
SEQEND
  0
POLYLINE
  8
0
 66
     1
 10
0
 20
0
  0
VERTEX
  8
0
 10
66.718
 20
75.173
  0
VERTEX
  8
0
 10
66.718
 20
76.005
  0
VERTEX
  8
0
 10
67.3161
 20
76.005
  0
VERTEX
  8
0
 10
67.3161
 20
75.909
  0
VERTEX
  8
0
 10
66.826
 20
75.909
  0
VERTEX
  8
0
 10
66.826
 20
75.653
  0
VERTEX
  8
0
 10
67.2851
 20
75.653
  0
VERTEX
  8
0
 10
67.2851
 20
75.557
  0
VERTEX
  8
0
 10
66.826
 20
75.557
  0
VERTEX
  8
0
 10
66.826
 20
75.269
  0
VERTEX
  8
0
 10
67.3353
 20
75.269
  0
VERTEX
  8
0
 10
67.3353
 20
75.173
  0
VERTEX
  8
0
 10
66.718
 20
75.173
  0
SEQEND
  0
POLYLINE
  8
0
 66
     1
 10
0
 20
0
  0
VERTEX
  8
0
 10
67.482
 20
75.173
  0
VERTEX
  8
0
 10
67.482
 20
76.005
  0
VERTEX
  8
0
 10
67.5943
 20
76.005
  0
VERTEX
  8
0
 10
68.03
 20
75.3547
  0
VERTEX
  8
0
 10
68.03
 20
76.005
  0
VERTEX
  8
0
 10
68.134
 20
76.005
  0
VERTEX
  8
0
 10
68.134
 20
75.173
  0
VERTEX
  8
0
 10
68.0266
 20
75.173
  0
VERTEX
  8
0
 10
67.586
 20
75.8305
  0
VERTEX
  8
0
 10
67.586
 20
75.173
  0
VERTEX
  8
0
 10
67.482
 20
75.173
  0
SEQEND
  0
POLYLINE
  8
0
 66
     1
 10
0
 20
0
  0
VERTEX
  8
0
 10
68.9076
 20
75.467
  0
VERTEX
  8
0
 10
69.0172
 20
75.4392
  0
VERTEX
  8
0
 10
68.9974
 20
75.377
  0
VERTEX
  8
0
 10
68.9708
 20
75.3224
  0
VERTEX
  8
0
 10
68.9373
 20
75.2751
  0
VERTEX
  8
0
 10
68.897
 20
75.2353
  0
VERTEX
  8
0
 10
68.8497
 20
75.2028
  0
VERTEX
  8
0
 10
68.7969
 20
75.1796
  0
VERTEX
  8
0
 10
68.7386
 20
75.1656
  0
VERTEX
  8
0
 10
68.6748
 20
75.161
  0
VERTEX
  8
0
 10
68.6365
 20
75.1622
  0
VERTEX
  8
0
 10
68.6002
 20
75.166
  0
VERTEX
  8
0
 10
68.5658
 20
75.1723
  0
VERTEX
  8
0
 10
68.5334
 20
75.1811
  0
VERTEX
  8
0
 10
68.503
 20
75.1924
  0
VERTEX
  8
0
 10
68.4744
 20
75.2062
  0
VERTEX
  8
0
 10
68.4479
 20
75.2225
  0
VERTEX
  8
0
 10
68.4233
 20
75.2414
  0
VERTEX
  8
0
 10
68.4006
 20
75.2627
  0
VERTEX
  8
0
 10
68.3799
 20
75.2866
  0
VERTEX
  8
0
 10
68.3611
 20
75.313
  0
VERTEX
  8
0
 10
68.3443
 20
75.3419
  0
VERTEX
  8
0
 10
68.3295
 20
75.3733
  0
VERTEX
  8
0
 10
68.2969
 20
75.4796
  0
VERTEX
  8
0
 10
68.286
 20
75.5952
  0
VERTEX
  8
0
 10
68.2873
 20
75.6386
  0
VERTEX
  8
0
 10
68.2913
 20
75.6798
  0
VERTEX
  8
0
 10
68.2979
 20
75.7188
  0
VERTEX
  8
0
 10
68.3071
 20
75.7554
  0
VERTEX
  8
0
 10
68.3189
 20
75.7898
  0
VERTEX
  8
0
 10
68.3334
 20
75.8219
  0
VERTEX
  8
0
 10
68.3505
 20
75.8517
  0
VERTEX
  8
0
 10
68.3703
 20
75.8793
  0
VERTEX
  8
0
 10
68.3927
 20
75.9045
  0
VERTEX
  8
0
 10
68.4177
 20
75.9275
  0
VERTEX
  8
0
 10
68.4453
 20
75.9483
  0
VERTEX
  8
0
 10
68.4756
 20
75.9667
  0
VERTEX
  8
0
 10
68.5715
 20
76.0044
  0
VERTEX
  8
0
 10
68.6765
 20
76.017
  0
VERTEX
  8
0
 10
68.7542
 20
76.0101
  0
VERTEX
  8
0
 10
68.8234
 20
75.9895
  0
VERTEX
  8
0
 10
68.8841
 20
75.9552
  0
VERTEX
  8
0
 10
68.9349
 20
75.9079
  0
VERTEX
  8
0
 10
68.9746
 20
75.8486
  0
VERTEX
  8
0
 10
69.0032
 20
75.7772
  0
VERTEX
  8
0
 10
68.8952
 20
75.7519
  0
VERTEX
  8
0
 10
68.883
 20
75.7847
  0
VERTEX
  8
0
 10
68.8686
 20
75.814
  0
VERTEX
  8
0
 10
68.852
 20
75.8399
  0
VERTEX
  8
0
 10
68.8332
 20
75.8624
  0
VERTEX
  8
0
 10
68.8122
 20
75.8814
  0
VERTEX
  8
0
 10
68.7889
 20
75.897
  0
VERTEX
  8
0
 10
68.7635
 20
75.9092
  0
VERTEX
  8
0
 10
68.7358
 20
75.9179
  0
VERTEX
  8
0
 10
68.7059
 20
75.9231
  0
VERTEX
  8
0
 10
68.6738
 20
75.925
  0
VERTEX
  8
0
 10
68.5903
 20
75.9147
  0
VERTEX
  8
0
 10
68.5195
 20
75.883
  0
VERTEX
  8
0
 10
68.4618
 20
75.8289
  0
VERTEX
  8
0
 10
68.424
 20
75.7553
  0
VERTEX
  8
0
 10
68.4048
 20
75.6771
  0
VERTEX
  8
0
 10
68.398
 20
75.5958
  0
VERTEX
  8
0
 10
68.3994
 20
75.5473
  0
VERTEX
  8
0
 10
68.4039
 20
75.5025
  0
VERTEX
  8
0
 10
68.4116
 20
75.4614
  0
VERTEX
  8
0
 10
68.4225
 20
75.424
  0
VERTEX
  8
0
 10
68.4365
 20
75.3902
  0
VERTEX
  8
0
 10
68.4538
 20
75.3602
  0
VERTEX
  8
0
 10
68.4742
 20
75.3338
  0
VERTEX
  8
0
 10
68.4978
 20
75.3112
  0
VERTEX
  8
0
 10
68.5246
 20
75.2922
  0
VERTEX
  8
0
 10
68.592
 20
75.2628
  0
VERTEX
  8
0
 10
68.6653
 20
75.253
  0
VERTEX
  8
0
 10
68.6946
 20
75.2542
  0
VERTEX
  8
0
 10
68.7222
 20
75.258
  0
VERTEX
  8
0
 10
68.748
 20
75.2644
  0
VERTEX
  8
0
 10
68.772
 20
75.2732
  0
VERTEX
  8
0
 10
68.7942
 20
75.2846
  0
VERTEX
  8
0
 10
68.8146
 20
75.2986
  0
VERTEX
  8
0
 10
68.8332
 20
75.315
  0
VERTEX
  8
0
 10
68.8501
 20
75.334
  0
VERTEX
  8
0
 10
68.8652
 20
75.3555
  0
VERTEX
  8
0
 10
68.8784
 20
75.3796
  0
VERTEX
  8
0
 10
68.8899
 20
75.4062
  0
VERTEX
  8
0
 10
68.8997
 20
75.4353
  0
VERTEX
  8
0
 10
68.9076
 20
75.467
  0
VERTEX
  8
0
 10
68.9076
 20
75.467
  0
SEQEND
  0
POLYLINE
  8
0
 66
     1
 10
0
 20
0
  0
VERTEX
  8
0
 10
69.386
 20
75.173
  0
VERTEX
  8
0
 10
69.386
 20
75.5254
  0
VERTEX
  8
0
 10
69.066
 20
76.005
  0
VERTEX
  8
0
 10
69.201
 20
76.005
  0
VERTEX
  8
0
 10
69.3633
 20
75.7554
  0
VERTEX
  8
0
 10
69.4043
 20
75.6893
  0
VERTEX
  8
0
 10
69.4472
 20
75.6148
  0
VERTEX
  8
0
 10
69.4914
 20
75.689
  0
VERTEX
  8
0
 10
69.5372
 20
75.7612
  0
VERTEX
  8
0
 10
69.6971
 20
76.005
  0
VERTEX
  8
0
 10
69.8243
 20
76.005
  0
VERTEX
  8
0
 10
69.494
 20
75.5254
  0
VERTEX
  8
0
 10
69.494
 20
75.173
  0
VERTEX
  8
0
 10
69.386
 20
75.173
  0
SEQEND
  0
POLYLINE
  8
0
 66
     1
 10
0
 20
0
  0
VERTEX
  8
0
 10
69.886
 20
75.897
  0
VERTEX
  8
0
 10
69.886
 20
76.013
  0
VERTEX
  8
0
 10
69.994
 20
76.013
  0
VERTEX
  8
0
 10
69.994
 20
75.9195
  0
VERTEX
  8
0
 10
69.9897
 20
75.8542
  0
VERTEX
  8
0
 10
69.9768
 20
75.8101
  0
VERTEX
  8
0
 10
69.9466
 20
75.7702
  0
VERTEX
  8
0
 10
69.9025
 20
75.741
  0
VERTEX
  8
0
 10
69.878
 20
75.7818
  0
VERTEX
  8
0
 10
69.9039
 20
75.7979
  0
VERTEX
  8
0
 10
69.9229
 20
75.8224
  0
VERTEX
  8
0
 10
69.9349
 20
75.8555
  0
VERTEX
  8
0
 10
69.9401
 20
75.897
  0
VERTEX
  8
0
 10
69.886
 20
75.897
  0
SEQEND
  0
POLYLINE
  8
0
 66
     1
 10
0
 20
0
  0
VERTEX
  8
0
 10
70.062
 20
75.897
  0
VERTEX
  8
0
 10
70.062
 20
76.013
  0
VERTEX
  8
0
 10
70.17
 20
76.013
  0
VERTEX
  8
0
 10
70.17
 20
75.9195
  0
VERTEX
  8
0
 10
70.1657
 20
75.8542
  0
VERTEX
  8
0
 10
70.1527
 20
75.8101
  0
VERTEX
  8
0
 10
70.1221
 20
75.7702
  0
VERTEX
  8
0
 10
70.0776
 20
75.741
  0
VERTEX
  8
0
 10
70.0529
 20
75.7818
  0
VERTEX
  8
0
 10
70.0788
 20
75.7979
  0
VERTEX
  8
0
 10
70.0978
 20
75.8224
  0
VERTEX
  8
0
 10
70.1098
 20
75.8555
  0
VERTEX
  8
0
 10
70.115
 20
75.897
  0
VERTEX
  8
0
 10
70.062
 20
75.897
  0
SEQEND
  0
POLYLINE
  8
0
 66
     1
 10
0
 20
0
  0
VERTEX
  8
0
 10
71.4356
 20
75.467
  0
VERTEX
  8
0
 10
71.5452
 20
75.4392
  0
VERTEX
  8
0
 10
71.5254
 20
75.377
  0
VERTEX
  8
0
 10
71.4988
 20
75.3224
  0
VERTEX
  8
0
 10
71.4653
 20
75.2751
  0
VERTEX
  8
0
 10
71.425
 20
75.2353
  0
VERTEX
  8
0
 10
71.3777
 20
75.2028
  0
VERTEX
  8
0
 10
71.3249
 20
75.1796
  0
VERTEX
  8
0
 10
71.2666
 20
75.1656
  0
VERTEX
  8
0
 10
71.2028
 20
75.161
  0
VERTEX
  8
0
 10
71.1645
 20
75.1622
  0
VERTEX
  8
0
 10
71.1282
 20
75.166
  0
VERTEX
  8
0
 10
71.0938
 20
75.1723
  0
VERTEX
  8
0
 10
71.0614
 20
75.1811
  0
VERTEX
  8
0
 10
71.031
 20
75.1924
  0
VERTEX
  8
0
 10
71.0024
 20
75.2062
  0
VERTEX
  8
0
 10
70.9759
 20
75.2225
  0
VERTEX
  8
0
 10
70.9513
 20
75.2414
  0
VERTEX
  8
0
 10
70.9286
 20
75.2627
  0
VERTEX
  8
0
 10
70.9079
 20
75.2866
  0
VERTEX
  8
0
 10
70.8891
 20
75.313
  0
VERTEX
  8
0
 10
70.8723
 20
75.3419
  0
VERTEX
  8
0
 10
70.8575
 20
75.3733
  0
VERTEX
  8
0
 10
70.8249
 20
75.4796
  0
VERTEX
  8
0
 10
70.814
 20
75.5952
  0
VERTEX
  8
0
 10
70.8153
 20
75.6386
  0
VERTEX
  8
0
 10
70.8193
 20
75.6798
  0
VERTEX
  8
0
 10
70.8259
 20
75.7188
  0
VERTEX
  8
0
 10
70.8351
 20
75.7554
  0
VERTEX
  8
0
 10
70.8469
 20
75.7898
  0
VERTEX
  8
0
 10
70.8614
 20
75.8219
  0
VERTEX
  8
0
 10
70.8785
 20
75.8517
  0
VERTEX
  8
0
 10
70.8983
 20
75.8793
  0
VERTEX
  8
0
 10
70.9207
 20
75.9045
  0
VERTEX
  8
0
 10
70.9457
 20
75.9275
  0
VERTEX
  8
0
 10
70.9733
 20
75.9483
  0
VERTEX
  8
0
 10
71.0036
 20
75.9667
  0
VERTEX
  8
0
 10
71.0995
 20
76.0044
  0
VERTEX
  8
0
 10
71.2045
 20
76.017
  0
VERTEX
  8
0
 10
71.2822
 20
76.0101
  0
VERTEX
  8
0
 10
71.3514
 20
75.9895
  0
VERTEX
  8
0
 10
71.4121
 20
75.9552
  0
VERTEX
  8
0
 10
71.4629
 20
75.9079
  0
VERTEX
  8
0
 10
71.5026
 20
75.8486
  0
VERTEX
  8
0
 10
71.5312
 20
75.7772
  0
VERTEX
  8
0
 10
71.4232
 20
75.7519
  0
VERTEX
  8
0
 10
71.411
 20
75.7847
  0
VERTEX
  8
0
 10
71.3966
 20
75.814
  0
VERTEX
  8
0
 10
71.38
 20
75.8399
  0
VERTEX
  8
0
 10
71.3612
 20
75.8624
  0
VERTEX
  8
0
 10
71.3402
 20
75.8814
  0
VERTEX
  8
0
 10
71.3169
 20
75.897
  0
VERTEX
  8
0
 10
71.2915
 20
75.9092
  0
VERTEX
  8
0
 10
71.2638
 20
75.9179
  0
VERTEX
  8
0
 10
71.2339
 20
75.9231
  0
VERTEX
  8
0
 10
71.2018
 20
75.925
  0
VERTEX
  8
0
 10
71.1183
 20
75.9147
  0
VERTEX
  8
0
 10
71.0475
 20
75.883
  0
VERTEX
  8
0
 10
70.9897
 20
75.8289
  0
VERTEX
  8
0
 10
70.952
 20
75.7553
  0
VERTEX
  8
0
 10
70.9328
 20
75.6771
  0
VERTEX
  8
0
 10
70.926
 20
75.5958
  0
VERTEX
  8
0
 10
70.9274
 20
75.5473
  0
VERTEX
  8
0
 10
70.9319
 20
75.5025
  0
VERTEX
  8
0
 10
70.9396
 20
75.4614
  0
VERTEX
  8
0
 10
70.9505
 20
75.424
  0
VERTEX
  8
0
 10
70.9645
 20
75.3902
  0
VERTEX
  8
0
 10
70.9818
 20
75.3602
  0
VERTEX
  8
0
 10
71.0022
 20
75.3338
  0
VERTEX
  8
0
 10
71.0258
 20
75.3112
  0
VERTEX
  8
0
 10
71.0526
 20
75.2922
  0
VERTEX
  8
0
 10
71.12
 20
75.2628
  0
VERTEX
  8
0
 10
71.1933
 20
75.253
  0
VERTEX
  8
0
 10
71.2226
 20
75.2542
  0
VERTEX
  8
0
 10
71.2502
 20
75.258
  0
VERTEX
  8
0
 10
71.276
 20
75.2644
  0
VERTEX
  8
0
 10
71.3
 20
75.2732
  0
VERTEX
  8
0
 10
71.3222
 20
75.2846
  0
VERTEX
  8
0
 10
71.3426
 20
75.2986
  0
VERTEX
  8
0
 10
71.3612
 20
75.315
  0
VERTEX
  8
0
 10
71.3781
 20
75.334
  0
VERTEX
  8
0
 10
71.3932
 20
75.3555
  0
VERTEX
  8
0
 10
71.4064
 20
75.3796
  0
VERTEX
  8
0
 10
71.4179
 20
75.4062
  0
VERTEX
  8
0
 10
71.4277
 20
75.4353
  0
VERTEX
  8
0
 10
71.4356
 20
75.467
  0
VERTEX
  8
0
 10
71.4356
 20
75.467
  0
SEQEND
  0
POLYLINE
  8
0
 66
     1
 10
0
 20
0
  0
VERTEX
  8
0
 10
71.694
 20
75.661
  0
VERTEX
  8
0
 10
71.694
 20
75.777
  0
VERTEX
  8
0
 10
71.81
 20
75.777
  0
VERTEX
  8
0
 10
71.81
 20
75.661
  0
VERTEX
  8
0
 10
71.694
 20
75.661
  0
SEQEND
  0
POLYLINE
  8
0
 66
     1
 10
0
 20
0
  0
VERTEX
  8
0
 10
71.694
 20
75.173
  0
VERTEX
  8
0
 10
71.694
 20
75.289
  0
VERTEX
  8
0
 10
71.81
 20
75.289
  0
VERTEX
  8
0
 10
71.81
 20
75.1747
  0
VERTEX
  8
0
 10
71.8074
 20
75.1367
  0
VERTEX
  8
0
 10
71.7994
 20
75.1032
  0
VERTEX
  8
0
 10
71.7862
 20
75.074
  0
VERTEX
  8
0
 10
71.7676
 20
75.0493
  0
VERTEX
  8
0
 10
71.7438
 20
75.0289
  0
VERTEX
  8
0
 10
71.7146
 20
75.013
  0
VERTEX
  8
0
 10
71.686
 20
75.0555
  0
VERTEX
  8
0
 10
71.7131
 20
75.0723
  0
VERTEX
  8
0
 10
71.7329
 20
75.0975
  0
VERTEX
  8
0
 10
71.7453
 20
75.1311
  0
VERTEX
  8
0
 10
71.7503
 20
75.173
  0
VERTEX
  8
0
 10
71.694
 20
75.173
  0
SEQEND
  0
POLYLINE
  8
0
 66
     1
 10
0
 20
0
  0
VERTEX
  8
0
 10
72.598
 20
75.865
  0
VERTEX
  8
0
 10
72.598
 20
75.749
  0
VERTEX
  8
0
 10
72.49
 20
75.749
  0
VERTEX
  8
0
 10
72.49
 20
75.8411
  0
VERTEX
  8
0
 10
72.4945
 20
75.9056
  0
VERTEX
  8
0
 10
72.5081
 20
75.9494
  0
VERTEX
  8
0
 10
72.5387
 20
75.9884
  0
VERTEX
  8
0
 10
72.5832
 20
76.017
  0
VERTEX
  8
0
 10
72.608
 20
75.9777
  0
VERTEX
  8
0
 10
72.5825
 20
75.9618
  0
VERTEX
  8
0
 10
72.5637
 20
75.9377
  0
VERTEX
  8
0
 10
72.5515
 20
75.9055
  0
VERTEX
  8
0
 10
72.5459
 20
75.865
  0
VERTEX
  8
0
 10
72.598
 20
75.865
  0
SEQEND
  0
POLYLINE
  8
0
 66
     1
 10
0
 20
0
  0
VERTEX
  8
0
 10
72.774
 20
75.865
  0
VERTEX
  8
0
 10
72.774
 20
75.749
  0
VERTEX
  8
0
 10
72.666
 20
75.749
  0
VERTEX
  8
0
 10
72.666
 20
75.8411
  0
VERTEX
  8
0
 10
72.6705
 20
75.9056
  0
VERTEX
  8
0
 10
72.6839
 20
75.9494
  0
VERTEX
  8
0
 10
72.7142
 20
75.9884
  0
VERTEX
  8
0
 10
72.7583
 20
76.017
  0
VERTEX
  8
0
 10
72.7828
 20
75.9777
  0
VERTEX
  8
0
 10
72.7574
 20
75.9618
  0
VERTEX
  8
0
 10
72.7385
 20
75.9377
  0
VERTEX
  8
0
 10
72.7263
 20
75.9055
  0
VERTEX
  8
0
 10
72.7208
 20
75.865
  0
VERTEX
  8
0
 10
72.774
 20
75.865
  0
SEQEND
  0
POLYLINE
  8
0
 66
     1
 10
0
 20
0
  0
VERTEX
  8
0
 10
72.938
 20
75.173
  0
VERTEX
  8
0
 10
72.938
 20
76.005
  0
VERTEX
  8
0
 10
73.046
 20
76.005
  0
VERTEX
  8
0
 10
73.046
 20
75.173
  0
VERTEX
  8
0
 10
72.938
 20
75.173
  0
SEQEND
  0
POLYLINE
  8
0
 66
     1
 10
0
 20
0
  0
VERTEX
  8
0
 10
73.242
 20
75.173
  0
VERTEX
  8
0
 10
73.242
 20
76.005
  0
VERTEX
  8
0
 10
73.3543
 20
76.005
  0
VERTEX
  8
0
 10
73.79
 20
75.3547
  0
VERTEX
  8
0
 10
73.79
 20
76.005
  0
VERTEX
  8
0
 10
73.894
 20
76.005
  0
VERTEX
  8
0
 10
73.894
 20
75.173
  0
VERTEX
  8
0
 10
73.7866
 20
75.173
  0
VERTEX
  8
0
 10
73.346
 20
75.8305
  0
VERTEX
  8
0
 10
73.346
 20
75.173
  0
VERTEX
  8
0
 10
73.242
 20
75.173
  0
SEQEND
  0
POLYLINE
  8
0
 66
     1
 10
0
 20
0
  0
VERTEX
  8
0
 10
74.078
 20
75.173
  0
VERTEX
  8
0
 10
74.078
 20
76.005
  0
VERTEX
  8
0
 10
74.636
 20
76.005
  0
VERTEX
  8
0
 10
74.636
 20
75.909
  0
VERTEX
  8
0
 10
74.186
 20
75.909
  0
VERTEX
  8
0
 10
74.186
 20
75.649
  0
VERTEX
  8
0
 10
74.5757
 20
75.649
  0
VERTEX
  8
0
 10
74.5757
 20
75.553
  0
VERTEX
  8
0
 10
74.186
 20
75.553
  0
VERTEX
  8
0
 10
74.186
 20
75.173
  0
VERTEX
  8
0
 10
74.078
 20
75.173
  0
SEQEND
  0
POLYLINE
  8
0
 66
     1
 10
0
 20
0
  0
VERTEX
  8
0
 10
74.75
 20
75.578
  0
VERTEX
  8
0
 10
74.7528
 20
75.6399
  0
VERTEX
  8
0
 10
74.7612
 20
75.6979
  0
VERTEX
  8
0
 10
74.7752
 20
75.7518
  0
VERTEX
  8
0
 10
74.7947
 20
75.8017
  0
VERTEX
  8
0
 10
74.8199
 20
75.8476
  0
VERTEX
  8
0
 10
74.8506
 20
75.8895
  0
VERTEX
  8
0
 10
74.8829
 20
75.9233
  0
VERTEX
  8
0
 10
74.9186
 20
75.9519
  0
VERTEX
  8
0
 10
74.9575
 20
75.9753
  0
VERTEX
  8
0
 10
74.9998
 20
75.9936
  0
VERTEX
  8
0
 10
75.0454
 20
76.0066
  0
VERTEX
  8
0
 10
75.0943
 20
76.0144
  0
VERTEX
  8
0
 10
75.1466
 20
76.017
  0
VERTEX
  8
0
 10
75.2545
 20
76.0037
  0
VERTEX
  8
0
 10
75.3511
 20
75.9639
  0
VERTEX
  8
0
 10
75.4081
 20
75.9224
  0
VERTEX
  8
0
 10
75.4555
 20
75.8709
  0
VERTEX
  8
0
 10
75.4935
 20
75.8093
  0
VERTEX
  8
0
 10
75.5296
 20
75.7054
  0
VERTEX
  8
0
 10
75.542
 20
75.5875
  0
VERTEX
  8
0
 10
75.5305
 20
75.4734
  0
VERTEX
  8
0
 10
75.4957
 20
75.3715
  0
VERTEX
  8
0
 10
75.4566
 20
75.3066
  0
VERTEX
  8
0
 10
75.4071
 20
75.2533
  0
VERTEX
  8
0
 10
75.3472
 20
75.2118
  0
VERTEX
  8
0
 10
75.2505
 20
75.1737
  0
VERTEX
  8
0
 10
75.146
 20
75.161
  0
VERTEX
  8
0
 10
75.0376
 20
75.1745
  0
VERTEX
  8
0
 10
74.9404
 20
75.2152
  0
VERTEX
  8
0
 10
74.8829
 20
75.2571
  0
VERTEX
  8
0
 10
74.8352
 20
75.3092
  0
VERTEX
  8
0
 10
74.7975
 20
75.3715
  0
VERTEX
  8
0
 10
74.7619
 20
75.4716
  0
VERTEX
  8
0
 10
74.75
 20
75.578
  0
VERTEX
  8
0
 10
74.75
 20
75.578
  0
SEQEND
  0
POLYLINE
  8
0
 66
     1
 10
0
 20
0
  0
VERTEX
  8
0
 10
74.862
 20
75.5745
  0
VERTEX
  8
0
 10
74.8665
 20
75.5088
  0
VERTEX
  8
0
 10
74.8799
 20
75.4493
  0
VERTEX
  8
0
 10
74.9022
 20
75.396
  0
VERTEX
  8
0
 10
74.9335
 20
75.3489
  0
VERTEX
  8
0
 10
74.9668
 20
75.3144
  0
VERTEX
  8
0
 10
75.0046
 20
75.2875
  0
VERTEX
  8
0
 10
75.047
 20
75.2683
  0
VERTEX
  8
0
 10
75.094
 20
75.2568
  0
VERTEX
  8
0
 10
75.1455
 20
75.253
  0
VERTEX
  8
0
 10
75.2048
 20
75.2584
  0
VERTEX
  8
0
 10
75.2585
 20
75.2747
  0
VERTEX
  8
0
 10
75.3068
 20
75.3018
  0
VERTEX
  8
0
 10
75.3495
 20
75.3398
  0
VERTEX
  8
0
 10
75.3783
 20
75.3775
  0
VERTEX
  8
0
 10
75.4008
 20
75.421
  0
VERTEX
  8
0
 10
75.4169
 20
75.4703
  0
VERTEX
  8
0
 10
75.4266
 20
75.5254
  0
VERTEX
  8
0
 10
75.43
 20
75.5864
  0
VERTEX
  8
0
 10
75.4284
 20
75.6311
  0
VERTEX
  8
0
 10
75.4234
 20
75.6728
  0
VERTEX
  8
0
 10
75.415
 20
75.7115
  0
VERTEX
  8
0
 10
75.4034
 20
75.7471
  0
VERTEX
  8
0
 10
75.3884
 20
75.7796
  0
VERTEX
  8
0
 10
75.3701
 20
75.8091
  0
VERTEX
  8
0
 10
75.3484
 20
75.8355
  0
VERTEX
  8
0
 10
75.3234
 20
75.8589
  0
VERTEX
  8
0
 10
75.2951
 20
75.8792
  0
VERTEX
  8
0
 10
75.2252
 20
75.9102
  0
VERTEX
  8
0
 10
75.1472
 20
75.921
  0
VERTEX
  8
0
 10
75.1004
 20
75.9182
  0
VERTEX
  8
0
 10
75.0577
 20
75.9097
  0
VERTEX
  8
0
 10
75.0189
 20
75.8953
  0
VERTEX
  8
0
 10
74.9842
 20
75.8751
  0
VERTEX
  8
0
 10
74.9534
 20
75.849
  0
VERTEX
  8
0
 10
74.9267
 20
75.8172
  0
VERTEX
  8
0
 10
74.8984
 20
75.7679
  0
VERTEX
  8
0
 10
74.8782
 20
75.7111
  0
VERTEX
  8
0
 10
74.8661
 20
75.6466
  0
VERTEX
  8
0
 10
74.862
 20
75.5745
  0
VERTEX
  8
0
 10
74.862
 20
75.5745
  0
SEQEND
  0
POLYLINE
  8
0
 66
     1
 10
0
 20
0
  0
VERTEX
  8
0
 10
75.646
 20
75.897
  0
VERTEX
  8
0
 10
75.646
 20
76.013
  0
VERTEX
  8
0
 10
75.754
 20
76.013
  0
VERTEX
  8
0
 10
75.754
 20
75.9195
  0
VERTEX
  8
0
 10
75.7497
 20
75.8542
  0
VERTEX
  8
0
 10
75.7368
 20
75.8101
  0
VERTEX
  8
0
 10
75.7066
 20
75.7702
  0
VERTEX
  8
0
 10
75.6625
 20
75.741
  0
VERTEX
  8
0
 10
75.638
 20
75.7818
  0
VERTEX
  8
0
 10
75.6639
 20
75.7979
  0
VERTEX
  8
0
 10
75.6829
 20
75.8224
  0
VERTEX
  8
0
 10
75.6949
 20
75.8555
  0
VERTEX
  8
0
 10
75.7001
 20
75.897
  0
VERTEX
  8
0
 10
75.646
 20
75.897
  0
SEQEND
  0
POLYLINE
  8
0
 66
     1
 10
0
 20
0
  0
VERTEX
  8
0
 10
75.822
 20
75.897
  0
VERTEX
  8
0
 10
75.822
 20
76.013
  0
VERTEX
  8
0
 10
75.93
 20
76.013
  0
VERTEX
  8
0
 10
75.93
 20
75.9195
  0
VERTEX
  8
0
 10
75.9257
 20
75.8542
  0
VERTEX
  8
0
 10
75.9127
 20
75.8101
  0
VERTEX
  8
0
 10
75.8821
 20
75.7702
  0
VERTEX
  8
0
 10
75.8376
 20
75.741
  0
VERTEX
  8
0
 10
75.8129
 20
75.7818
  0
VERTEX
  8
0
 10
75.8388
 20
75.7979
  0
VERTEX
  8
0
 10
75.8578
 20
75.8224
  0
VERTEX
  8
0
 10
75.8698
 20
75.8555
  0
VERTEX
  8
0
 10
75.875
 20
75.897
  0
VERTEX
  8
0
 10
75.822
 20
75.897
  0
SEQEND
  0
POLYLINE
  8
0
 66
     1
 10
0
 20
0
  0
VERTEX
  8
0
 10
77.1956
 20
75.467
  0
VERTEX
  8
0
 10
77.3052
 20
75.4392
  0
VERTEX
  8
0
 10
77.2854
 20
75.377
  0
VERTEX
  8
0
 10
77.2588
 20
75.3224
  0
VERTEX
  8
0
 10
77.2253
 20
75.2751
  0
VERTEX
  8
0
 10
77.185
 20
75.2353
  0
VERTEX
  8
0
 10
77.1377
 20
75.2028
  0
VERTEX
  8
0
 10
77.0849
 20
75.1796
  0
VERTEX
  8
0
 10
77.0266
 20
75.1656
  0
VERTEX
  8
0
 10
76.9628
 20
75.161
  0
VERTEX
  8
0
 10
76.9245
 20
75.1622
  0
VERTEX
  8
0
 10
76.8882
 20
75.166
  0
VERTEX
  8
0
 10
76.8538
 20
75.1723
  0
VERTEX
  8
0
 10
76.8214
 20
75.1811
  0
VERTEX
  8
0
 10
76.791
 20
75.1924
  0
VERTEX
  8
0
 10
76.7624
 20
75.2062
  0
VERTEX
  8
0
 10
76.7359
 20
75.2225
  0
VERTEX
  8
0
 10
76.7113
 20
75.2414
  0
VERTEX
  8
0
 10
76.6886
 20
75.2627
  0
VERTEX
  8
0
 10
76.6679
 20
75.2866
  0
VERTEX
  8
0
 10
76.6491
 20
75.313
  0
VERTEX
  8
0
 10
76.6323
 20
75.3419
  0
VERTEX
  8
0
 10
76.6175
 20
75.3733
  0
VERTEX
  8
0
 10
76.5849
 20
75.4796
  0
VERTEX
  8
0
 10
76.574
 20
75.5952
  0
VERTEX
  8
0
 10
76.5753
 20
75.6386
  0
VERTEX
  8
0
 10
76.5793
 20
75.6798
  0
VERTEX
  8
0
 10
76.5859
 20
75.7188
  0
VERTEX
  8
0
 10
76.5951
 20
75.7554
  0
VERTEX
  8
0
 10
76.6069
 20
75.7898
  0
VERTEX
  8
0
 10
76.6214
 20
75.8219
  0
VERTEX
  8
0
 10
76.6385
 20
75.8517
  0
VERTEX
  8
0
 10
76.6583
 20
75.8793
  0
VERTEX
  8
0
 10
76.6807
 20
75.9045
  0
VERTEX
  8
0
 10
76.7057
 20
75.9275
  0
VERTEX
  8
0
 10
76.7333
 20
75.9483
  0
VERTEX
  8
0
 10
76.7636
 20
75.9667
  0
VERTEX
  8
0
 10
76.8595
 20
76.0044
  0
VERTEX
  8
0
 10
76.9645
 20
76.017
  0
VERTEX
  8
0
 10
77.0422
 20
76.0101
  0
VERTEX
  8
0
 10
77.1114
 20
75.9895
  0
VERTEX
  8
0
 10
77.1721
 20
75.9552
  0
VERTEX
  8
0
 10
77.2229
 20
75.9079
  0
VERTEX
  8
0
 10
77.2626
 20
75.8486
  0
VERTEX
  8
0
 10
77.2912
 20
75.7772
  0
VERTEX
  8
0
 10
77.1832
 20
75.7519
  0
VERTEX
  8
0
 10
77.171
 20
75.7847
  0
VERTEX
  8
0
 10
77.1566
 20
75.814
  0
VERTEX
  8
0
 10
77.14
 20
75.8399
  0
VERTEX
  8
0
 10
77.1212
 20
75.8624
  0
VERTEX
  8
0
 10
77.1002
 20
75.8814
  0
VERTEX
  8
0
 10
77.0769
 20
75.897
  0
VERTEX
  8
0
 10
77.0515
 20
75.9092
  0
VERTEX
  8
0
 10
77.0238
 20
75.9179
  0
VERTEX
  8
0
 10
76.9939
 20
75.9231
  0
VERTEX
  8
0
 10
76.9618
 20
75.925
  0
VERTEX
  8
0
 10
76.8783
 20
75.9147
  0
VERTEX
  8
0
 10
76.8075
 20
75.883
  0
VERTEX
  8
0
 10
76.7497
 20
75.8289
  0
VERTEX
  8
0
 10
76.712
 20
75.7553
  0
VERTEX
  8
0
 10
76.6928
 20
75.6771
  0
VERTEX
  8
0
 10
76.686
 20
75.5958
  0
VERTEX
  8
0
 10
76.6874
 20
75.5473
  0
VERTEX
  8
0
 10
76.6919
 20
75.5025
  0
VERTEX
  8
0
 10
76.6996
 20
75.4614
  0
VERTEX
  8
0
 10
76.7105
 20
75.424
  0
VERTEX
  8
0
 10
76.7245
 20
75.3902
  0
VERTEX
  8
0
 10
76.7418
 20
75.3602
  0
VERTEX
  8
0
 10
76.7622
 20
75.3338
  0
VERTEX
  8
0
 10
76.7858
 20
75.3112
  0
VERTEX
  8
0
 10
76.8126
 20
75.2922
  0
VERTEX
  8
0
 10
76.88
 20
75.2628
  0
VERTEX
  8
0
 10
76.9533
 20
75.253
  0
VERTEX
  8
0
 10
76.9826
 20
75.2542
  0
VERTEX
  8
0
 10
77.0102
 20
75.258
  0
VERTEX
  8
0
 10
77.036
 20
75.2644
  0
VERTEX
  8
0
 10
77.06
 20
75.2732
  0
VERTEX
  8
0
 10
77.0822
 20
75.2846
  0
VERTEX
  8
0
 10
77.1026
 20
75.2986
  0
VERTEX
  8
0
 10
77.1212
 20
75.315
  0
VERTEX
  8
0
 10
77.1381
 20
75.334
  0
VERTEX
  8
0
 10
77.1532
 20
75.3555
  0
VERTEX
  8
0
 10
77.1664
 20
75.3796
  0
VERTEX
  8
0
 10
77.1779
 20
75.4062
  0
VERTEX
  8
0
 10
77.1877
 20
75.4353
  0
VERTEX
  8
0
 10
77.1956
 20
75.467
  0
VERTEX
  8
0
 10
77.1956
 20
75.467
  0
SEQEND
  0
POLYLINE
  8
0
 66
     1
 10
0
 20
0
  0
VERTEX
  8
0
 10
77.458
 20
75.661
  0
VERTEX
  8
0
 10
77.458
 20
75.777
  0
VERTEX
  8
0
 10
77.574
 20
75.777
  0
VERTEX
  8
0
 10
77.574
 20
75.661
  0
VERTEX
  8
0
 10
77.458
 20
75.661
  0
SEQEND
  0
POLYLINE
  8
0
 66
     1
 10
0
 20
0
  0
VERTEX
  8
0
 10
77.458
 20
75.173
  0
VERTEX
  8
0
 10
77.458
 20
75.289
  0
VERTEX
  8
0
 10
77.574
 20
75.289
  0
VERTEX
  8
0
 10
77.574
 20
75.1747
  0
VERTEX
  8
0
 10
77.5714
 20
75.1367
  0
VERTEX
  8
0
 10
77.5634
 20
75.1032
  0
VERTEX
  8
0
 10
77.5502
 20
75.074
  0
VERTEX
  8
0
 10
77.5316
 20
75.0493
  0
VERTEX
  8
0
 10
77.5078
 20
75.0289
  0
VERTEX
  8
0
 10
77.4786
 20
75.013
  0
VERTEX
  8
0
 10
77.45
 20
75.0555
  0
VERTEX
  8
0
 10
77.4771
 20
75.0723
  0
VERTEX
  8
0
 10
77.4969
 20
75.0975
  0
VERTEX
  8
0
 10
77.5093
 20
75.1311
  0
VERTEX
  8
0
 10
77.5143
 20
75.173
  0
VERTEX
  8
0
 10
77.458
 20
75.173
  0
SEQEND
  0
POLYLINE
  8
0
 66
     1
 10
0
 20
0
  0
VERTEX
  8
0
 10
78.362
 20
75.865
  0
VERTEX
  8
0
 10
78.362
 20
75.749
  0
VERTEX
  8
0
 10
78.254
 20
75.749
  0
VERTEX
  8
0
 10
78.254
 20
75.8411
  0
VERTEX
  8
0
 10
78.2585
 20
75.9056
  0
VERTEX
  8
0
 10
78.2721
 20
75.9494
  0
VERTEX
  8
0
 10
78.3027
 20
75.9884
  0
VERTEX
  8
0
 10
78.3472
 20
76.017
  0
VERTEX
  8
0
 10
78.372
 20
75.9777
  0
VERTEX
  8
0
 10
78.3465
 20
75.9618
  0
VERTEX
  8
0
 10
78.3277
 20
75.9377
  0
VERTEX
  8
0
 10
78.3155
 20
75.9055
  0
VERTEX
  8
0
 10
78.3099
 20
75.865
  0
VERTEX
  8
0
 10
78.362
 20
75.865
  0
SEQEND
  0
POLYLINE
  8
0
 66
     1
 10
0
 20
0
  0
VERTEX
  8
0
 10
78.538
 20
75.865
  0
VERTEX
  8
0
 10
78.538
 20
75.749
  0
VERTEX
  8
0
 10
78.43
 20
75.749
  0
VERTEX
  8
0
 10
78.43
 20
75.8411
  0
VERTEX
  8
0
 10
78.4345
 20
75.9056
  0
VERTEX
  8
0
 10
78.4479
 20
75.9494
  0
VERTEX
  8
0
 10
78.4782
 20
75.9884
  0
VERTEX
  8
0
 10
78.5223
 20
76.017
  0
VERTEX
  8
0
 10
78.5468
 20
75.9777
  0
VERTEX
  8
0
 10
78.5214
 20
75.9618
  0
VERTEX
  8
0
 10
78.5025
 20
75.9377
  0
VERTEX
  8
0
 10
78.4903
 20
75.9055
  0
VERTEX
  8
0
 10
78.4848
 20
75.865
  0
VERTEX
  8
0
 10
78.538
 20
75.865
  0
SEQEND
  0
POLYLINE
  8
0
 66
     1
 10
0
 20
0
  0
VERTEX
  8
0
 10
78.598
 20
75.173
  0
VERTEX
  8
0
 10
78.9171
 20
75.6034
  0
VERTEX
  8
0
 10
78.634
 20
76.005
  0
VERTEX
  8
0
 10
78.7662
 20
76.005
  0
VERTEX
  8
0
 10
78.9163
 20
75.792
  0
VERTEX
  8
0
 10
78.9547
 20
75.7356
  0
VERTEX
  8
0
 10
78.982
 20
75.691
  0
VERTEX
  8
0
 10
79.01
 20
75.7342
  0
VERTEX
  8
0
 10
79.047
 20
75.7855
  0
VERTEX
  8
0
 10
79.2147
 20
76.005
  0
VERTEX
  8
0
 10
79.3342
 20
76.005
  0
VERTEX
  8
0
 10
79.0432
 20
75.6128
  0
VERTEX
  8
0
 10
79.3563
 20
75.173
  0
VERTEX
  8
0
 10
79.2204
 20
75.173
  0
VERTEX
  8
0
 10
79.0107
 20
75.4705
  0
VERTEX
  8
0
 10
78.998
 20
75.4908
  0
VERTEX
  8
0
 10
78.9762
 20
75.5273
  0
VERTEX
  8
0
 10
78.9538
 20
75.489
  0
VERTEX
  8
0
 10
78.9385
 20
75.4643
  0
VERTEX
  8
0
 10
78.7275
 20
75.173
  0
VERTEX
  8
0
 10
78.598
 20
75.173
  0
SEQEND
  0
POLYLINE
  8
0
 66
     1
 10
0
 20
0
  0
VERTEX
  8
0
 10
79.37
 20
75.173
  0
VERTEX
  8
0
 10
79.6891
 20
75.6034
  0
VERTEX
  8
0
 10
79.406
 20
76.005
  0
VERTEX
  8
0
 10
79.5382
 20
76.005
  0
VERTEX
  8
0
 10
79.6883
 20
75.792
  0
VERTEX
  8
0
 10
79.7267
 20
75.7356
  0
VERTEX
  8
0
 10
79.754
 20
75.691
  0
VERTEX
  8
0
 10
79.782
 20
75.7342
  0
VERTEX
  8
0
 10
79.819
 20
75.7855
  0
VERTEX
  8
0
 10
79.9867
 20
76.005
  0
VERTEX
  8
0
 10
80.1062
 20
76.005
  0
VERTEX
  8
0
 10
79.8152
 20
75.6128
  0
VERTEX
  8
0
 10
80.1283
 20
75.173
  0
VERTEX
  8
0
 10
79.9924
 20
75.173
  0
VERTEX
  8
0
 10
79.7827
 20
75.4705
  0
VERTEX
  8
0
 10
79.77
 20
75.4908
  0
VERTEX
  8
0
 10
79.7482
 20
75.5273
  0
VERTEX
  8
0
 10
79.7258
 20
75.489
  0
VERTEX
  8
0
 10
79.7105
 20
75.4643
  0
VERTEX
  8
0
 10
79.4995
 20
75.173
  0
VERTEX
  8
0
 10
79.37
 20
75.173
  0
SEQEND
  0
POLYLINE
  8
0
 66
     1
 10
0
 20
0
  0
VERTEX
  8
0
 10
80.242
 20
75.173
  0
VERTEX
  8
0
 10
80.242
 20
75.293
  0
VERTEX
  8
0
 10
80.358
 20
75.293
  0
VERTEX
  8
0
 10
80.358
 20
75.173
  0
VERTEX
  8
0
 10
80.242
 20
75.173
  0
SEQEND
  0
POLYLINE
  8
0
 66
     1
 10
0
 20
0
  0
VERTEX
  8
0
 10
80.462
 20
75.173
  0
VERTEX
  8
0
 10
80.7811
 20
75.6034
  0
VERTEX
  8
0
 10
80.498
 20
76.005
  0
VERTEX
  8
0
 10
80.6302
 20
76.005
  0
VERTEX
  8
0
 10
80.7803
 20
75.792
  0
VERTEX
  8
0
 10
80.8187
 20
75.7356
  0
VERTEX
  8
0
 10
80.846
 20
75.691
  0
VERTEX
  8
0
 10
80.874
 20
75.7342
  0
VERTEX
  8
0
 10
80.911
 20
75.7855
  0
VERTEX
  8
0
 10
81.0787
 20
76.005
  0
VERTEX
  8
0
 10
81.1982
 20
76.005
  0
VERTEX
  8
0
 10
80.9072
 20
75.6128
  0
VERTEX
  8
0
 10
81.2203
 20
75.173
  0
VERTEX
  8
0
 10
81.0844
 20
75.173
  0
VERTEX
  8
0
 10
80.8747
 20
75.4705
  0
VERTEX
  8
0
 10
80.862
 20
75.4908
  0
VERTEX
  8
0
 10
80.8402
 20
75.5273
  0
VERTEX
  8
0
 10
80.8178
 20
75.489
  0
VERTEX
  8
0
 10
80.8025
 20
75.4643
  0
VERTEX
  8
0
 10
80.5915
 20
75.173
  0
VERTEX
  8
0
 10
80.462
 20
75.173
  0
SEQEND
  0
POLYLINE
  8
0
 66
     1
 10
0
 20
0
  0
VERTEX
  8
0
 10
81.858
 20
75.173
  0
VERTEX
  8
0
 10
81.858
 20
76.005
  0
VERTEX
  8
0
 10
82.416
 20
76.005
  0
VERTEX
  8
0
 10
82.416
 20
75.909
  0
VERTEX
  8
0
 10
81.966
 20
75.909
  0
VERTEX
  8
0
 10
81.966
 20
75.649
  0
VERTEX
  8
0
 10
82.3557
 20
75.649
  0
VERTEX
  8
0
 10
82.3557
 20
75.553
  0
VERTEX
  8
0
 10
81.966
 20
75.553
  0
VERTEX
  8
0
 10
81.966
 20
75.173
  0
VERTEX
  8
0
 10
81.858
 20
75.173
  0
SEQEND
  0
POLYLINE
  8
0
 66
     1
 10
0
 20
0
  0
VERTEX
  8
0
 10
82.558
 20
75.173
  0
VERTEX
  8
0
 10
82.558
 20
76.005
  0
VERTEX
  8
0
 10
82.7213
 20
76.005
  0
VERTEX
  8
0
 10
82.9205
 20
75.4192
  0
VERTEX
  8
0
 10
82.9409
 20
75.3532
  0
VERTEX
  8
0
 10
82.9576
 20
75.2977
  0
VERTEX
  8
0
 10
82.974
 20
75.3495
  0
VERTEX
  8
0
 10
83.0011
 20
75.429
  0
VERTEX
  8
0
 10
83.2
 20
76.005
  0
VERTEX
  8
0
 10
83.346
 20
76.005
  0
VERTEX
  8
0
 10
83.346
 20
75.173
  0
VERTEX
  8
0
 10
83.242
 20
75.173
  0
VERTEX
  8
0
 10
83.242
 20
75.8693
  0
VERTEX
  8
0
 10
83.0015
 20
75.173
  0
VERTEX
  8
0
 10
82.9028
 20
75.173
  0
VERTEX
  8
0
 10
82.662
 20
75.8811
  0
VERTEX
  8
0
 10
82.662
 20
75.173
  0
VERTEX
  8
0
 10
82.558
 20
75.173
  0
SEQEND
  0
POLYLINE
  8
0
 66
     1
 10
0
 20
0
  0
VERTEX
  8
0
 10
83.49
 20
75.897
  0
VERTEX
  8
0
 10
83.49
 20
76.013
  0
VERTEX
  8
0
 10
83.598
 20
76.013
  0
VERTEX
  8
0
 10
83.598
 20
75.9195
  0
VERTEX
  8
0
 10
83.5937
 20
75.8542
  0
VERTEX
  8
0
 10
83.5808
 20
75.8101
  0
VERTEX
  8
0
 10
83.5506
 20
75.7702
  0
VERTEX
  8
0
 10
83.5065
 20
75.741
  0
VERTEX
  8
0
 10
83.482
 20
75.7818
  0
VERTEX
  8
0
 10
83.5079
 20
75.7979
  0
VERTEX
  8
0
 10
83.5269
 20
75.8224
  0
VERTEX
  8
0
 10
83.5389
 20
75.8555
  0
VERTEX
  8
0
 10
83.5441
 20
75.897
  0
VERTEX
  8
0
 10
83.49
 20
75.897
  0
SEQEND
  0
POLYLINE
  8
0
 66
     1
 10
0
 20
0
  0
VERTEX
  8
0
 10
83.666
 20
75.897
  0
VERTEX
  8
0
 10
83.666
 20
76.013
  0
VERTEX
  8
0
 10
83.774
 20
76.013
  0
VERTEX
  8
0
 10
83.774
 20
75.9195
  0
VERTEX
  8
0
 10
83.7697
 20
75.8542
  0
VERTEX
  8
0
 10
83.7567
 20
75.8101
  0
VERTEX
  8
0
 10
83.7261
 20
75.7702
  0
VERTEX
  8
0
 10
83.6816
 20
75.741
  0
VERTEX
  8
0
 10
83.6569
 20
75.7818
  0
VERTEX
  8
0
 10
83.6828
 20
75.7979
  0
VERTEX
  8
0
 10
83.7018
 20
75.8224
  0
VERTEX
  8
0
 10
83.7138
 20
75.8555
  0
VERTEX
  8
0
 10
83.719
 20
75.897
  0
VERTEX
  8
0
 10
83.666
 20
75.897
  0
SEQEND
  0
POLYLINE
  8
0
 66
     1
 10
0
 20
0
  0
VERTEX
  8
0
 10
85.0396
 20
75.467
  0
VERTEX
  8
0
 10
85.1492
 20
75.4392
  0
VERTEX
  8
0
 10
85.1294
 20
75.377
  0
VERTEX
  8
0
 10
85.1028
 20
75.3224
  0
VERTEX
  8
0
 10
85.0693
 20
75.2751
  0
VERTEX
  8
0
 10
85.029
 20
75.2353
  0
VERTEX
  8
0
 10
84.9817
 20
75.2028
  0
VERTEX
  8
0
 10
84.9289
 20
75.1796
  0
VERTEX
  8
0
 10
84.8706
 20
75.1656
  0
VERTEX
  8
0
 10
84.8068
 20
75.161
  0
VERTEX
  8
0
 10
84.7685
 20
75.1622
  0
VERTEX
  8
0
 10
84.7322
 20
75.166
  0
VERTEX
  8
0
 10
84.6978
 20
75.1723
  0
VERTEX
  8
0
 10
84.6654
 20
75.1811
  0
VERTEX
  8
0
 10
84.635
 20
75.1924
  0
VERTEX
  8
0
 10
84.6064
 20
75.2062
  0
VERTEX
  8
0
 10
84.5799
 20
75.2225
  0
VERTEX
  8
0
 10
84.5553
 20
75.2414
  0
VERTEX
  8
0
 10
84.5326
 20
75.2627
  0
VERTEX
  8
0
 10
84.5119
 20
75.2866
  0
VERTEX
  8
0
 10
84.4931
 20
75.313
  0
VERTEX
  8
0
 10
84.4763
 20
75.3419
  0
VERTEX
  8
0
 10
84.4615
 20
75.3733
  0
VERTEX
  8
0
 10
84.4289
 20
75.4796
  0
VERTEX
  8
0
 10
84.418
 20
75.5952
  0
VERTEX
  8
0
 10
84.4193
 20
75.6386
  0
VERTEX
  8
0
 10
84.4233
 20
75.6798
  0
VERTEX
  8
0
 10
84.4299
 20
75.7188
  0
VERTEX
  8
0
 10
84.4391
 20
75.7554
  0
VERTEX
  8
0
 10
84.4509
 20
75.7898
  0
VERTEX
  8
0
 10
84.4654
 20
75.8219
  0
VERTEX
  8
0
 10
84.4825
 20
75.8517
  0
VERTEX
  8
0
 10
84.5023
 20
75.8793
  0
VERTEX
  8
0
 10
84.5247
 20
75.9045
  0
VERTEX
  8
0
 10
84.5497
 20
75.9275
  0
VERTEX
  8
0
 10
84.5773
 20
75.9483
  0
VERTEX
  8
0
 10
84.6076
 20
75.9667
  0
VERTEX
  8
0
 10
84.7035
 20
76.0044
  0
VERTEX
  8
0
 10
84.8085
 20
76.017
  0
VERTEX
  8
0
 10
84.8862
 20
76.0101
  0
VERTEX
  8
0
 10
84.9554
 20
75.9895
  0
VERTEX
  8
0
 10
85.0161
 20
75.9552
  0
VERTEX
  8
0
 10
85.0669
 20
75.9079
  0
VERTEX
  8
0
 10
85.1066
 20
75.8486
  0
VERTEX
  8
0
 10
85.1352
 20
75.7772
  0
VERTEX
  8
0
 10
85.0272
 20
75.7519
  0
VERTEX
  8
0
 10
85.015
 20
75.7847
  0
VERTEX
  8
0
 10
85.0006
 20
75.814
  0
VERTEX
  8
0
 10
84.984
 20
75.8399
  0
VERTEX
  8
0
 10
84.9652
 20
75.8624
  0
VERTEX
  8
0
 10
84.9442
 20
75.8814
  0
VERTEX
  8
0
 10
84.9209
 20
75.897
  0
VERTEX
  8
0
 10
84.8955
 20
75.9092
  0
VERTEX
  8
0
 10
84.8678
 20
75.9179
  0
VERTEX
  8
0
 10
84.8379
 20
75.9231
  0
VERTEX
  8
0
 10
84.8058
 20
75.925
  0
VERTEX
  8
0
 10
84.7223
 20
75.9147
  0
VERTEX
  8
0
 10
84.6515
 20
75.883
  0
VERTEX
  8
0
 10
84.5937
 20
75.8289
  0
VERTEX
  8
0
 10
84.556
 20
75.7553
  0
VERTEX
  8
0
 10
84.5368
 20
75.6771
  0
VERTEX
  8
0
 10
84.53
 20
75.5958
  0
VERTEX
  8
0
 10
84.5314
 20
75.5473
  0
VERTEX
  8
0
 10
84.5359
 20
75.5025
  0
VERTEX
  8
0
 10
84.5436
 20
75.4614
  0
VERTEX
  8
0
 10
84.5545
 20
75.424
  0
VERTEX
  8
0
 10
84.5685
 20
75.3902
  0
VERTEX
  8
0
 10
84.5858
 20
75.3602
  0
VERTEX
  8
0
 10
84.6062
 20
75.3338
  0
VERTEX
  8
0
 10
84.6298
 20
75.3112
  0
VERTEX
  8
0
 10
84.6566
 20
75.2922
  0
VERTEX
  8
0
 10
84.724
 20
75.2628
  0
VERTEX
  8
0
 10
84.7973
 20
75.253
  0
VERTEX
  8
0
 10
84.8266
 20
75.2542
  0
VERTEX
  8
0
 10
84.8542
 20
75.258
  0
VERTEX
  8
0
 10
84.88
 20
75.2644
  0
VERTEX
  8
0
 10
84.904
 20
75.2732
  0
VERTEX
  8
0
 10
84.9262
 20
75.2846
  0
VERTEX
  8
0
 10
84.9466
 20
75.2986
  0
VERTEX
  8
0
 10
84.9652
 20
75.315
  0
VERTEX
  8
0
 10
84.9821
 20
75.334
  0
VERTEX
  8
0
 10
84.9972
 20
75.3555
  0
VERTEX
  8
0
 10
85.0104
 20
75.3796
  0
VERTEX
  8
0
 10
85.0219
 20
75.4062
  0
VERTEX
  8
0
 10
85.0317
 20
75.4353
  0
VERTEX
  8
0
 10
85.0396
 20
75.467
  0
VERTEX
  8
0
 10
85.0396
 20
75.467
  0
SEQEND
  0
POLYLINE
  8
0
 66
     1
 10
0
 20
0
  0
VERTEX
  8
0
 10
85.302
 20
75.661
  0
VERTEX
  8
0
 10
85.302
 20
75.777
  0
VERTEX
  8
0
 10
85.418
 20
75.777
  0
VERTEX
  8
0
 10
85.418
 20
75.661
  0
VERTEX
  8
0
 10
85.302
 20
75.661
  0
SEQEND
  0
POLYLINE
  8
0
 66
     1
 10
0
 20
0
  0
VERTEX
  8
0
 10
85.302
 20
75.173
  0
VERTEX
  8
0
 10
85.302
 20
75.289
  0
VERTEX
  8
0
 10
85.418
 20
75.289
  0
VERTEX
  8
0
 10
85.418
 20
75.1747
  0
VERTEX
  8
0
 10
85.4154
 20
75.1367
  0
VERTEX
  8
0
 10
85.4074
 20
75.1032
  0
VERTEX
  8
0
 10
85.3942
 20
75.074
  0
VERTEX
  8
0
 10
85.3756
 20
75.0493
  0
VERTEX
  8
0
 10
85.3518
 20
75.0289
  0
VERTEX
  8
0
 10
85.3226
 20
75.013
  0
VERTEX
  8
0
 10
85.294
 20
75.0555
  0
VERTEX
  8
0
 10
85.3211
 20
75.0723
  0
VERTEX
  8
0
 10
85.3409
 20
75.0975
  0
VERTEX
  8
0
 10
85.3533
 20
75.1311
  0
VERTEX
  8
0
 10
85.3583
 20
75.173
  0
VERTEX
  8
0
 10
85.302
 20
75.173
  0
SEQEND
  0
POLYLINE
  8
0
 66
     1
 10
0
 20
0
  0
VERTEX
  8
0
 10
67.8897
 20
103.005
  0
VERTEX
  8
0
 10
65.642
 20
103.005
  0
VERTEX
  8
0
 10
65.642
 20
107.501
  0
VERTEX
  8
0
 10
67.8178
 20
107.501
  0
VERTEX
  8
0
 10
67.8178
 20
106.869
  0
VERTEX
  8
0
 10
66.274
 20
106.869
  0
VERTEX
  8
0
 10
66.274
 20
105.741
  0
VERTEX
  8
0
 10
67.226
 20
105.741
  0
VERTEX
  8
0
 10
67.226
 20
105.113
  0
VERTEX
  8
0
 10
66.274
 20
105.113
  0
VERTEX
  8
0
 10
66.274
 20
103.637
  0
VERTEX
  8
0
 10
67.8897
 20
103.637
  0
VERTEX
  8
0
 10
67.8897
 20
103.005
  0
SEQEND
  0
POLYLINE
  8
0
 66
     1
 10
0
 20
0
  0
VERTEX
  8
0
 10
71.562
 20
103.005
  0
VERTEX
  8
0
 10
70.934
 20
103.005
  0
VERTEX
  8
0
 10
70.934
 20
105.5313
  0
VERTEX
  8
0
 10
70.1065
 20
103.0051
  0
VERTEX
  8
0
 10
69.282
 20
105.5313
  0
VERTEX
  8
0
 10
69.282
 20
103.005
  0
VERTEX
  8
0
 10
68.65
 20
103.005
  0
VERTEX
  8
0
 10
68.65
 20
107.501
  0
VERTEX
  8
0
 10
69.3042
 20
107.501
  0
VERTEX
  8
0
 10
70.1055
 20
105.0452
  0
VERTEX
  8
0
 10
70.91
 20
107.501
  0
VERTEX
  8
0
 10
71.562
 20
107.501
  0
VERTEX
  8
0
 10
71.562
 20
103.005
  0
SEQEND
  0
POLYLINE
  8
0
 66
     1
 10
0
 20
0
  0
VERTEX
  8
0
 10
74.7657
 20
103.005
  0
VERTEX
  8
0
 10
72.518
 20
103.005
  0
VERTEX
  8
0
 10
72.518
 20
107.501
  0
VERTEX
  8
0
 10
74.6938
 20
107.501
  0
VERTEX
  8
0
 10
74.6938
 20
106.869
  0
VERTEX
  8
0
 10
73.15
 20
106.869
  0
VERTEX
  8
0
 10
73.15
 20
105.741
  0
VERTEX
  8
0
 10
74.102
 20
105.741
  0
VERTEX
  8
0
 10
74.102
 20
105.113
  0
VERTEX
  8
0
 10
73.15
 20
105.113
  0
VERTEX
  8
0
 10
73.15
 20
103.637
  0
VERTEX
  8
0
 10
74.7657
 20
103.637
  0
VERTEX
  8
0
 10
74.7657
 20
103.005
  0
SEQEND
  0
POLYLINE
  8
0
 66
     1
 10
0
 20
0
  0
VERTEX
  8
0
 10
77.9861
 20
103.005
  0
VERTEX
  8
0
 10
77.3286
 20
103.005
  0
VERTEX
  8
0
 10
76.7237
 20
105.113
  0
VERTEX
  8
0
 10
76.158
 20
105.113
  0
VERTEX
  8
0
 10
76.158
 20
103.005
  0
VERTEX
  8
0
 10
75.526
 20
103.005
  0
VERTEX
  8
0
 10
75.526
 20
107.501
  0
VERTEX
  8
0
 10
76.9157
 20
107.501
  0
VERTEX
  8
0
 10
76.9812
 20
107.4991
  0
VERTEX
  8
0
 10
77.0455
 20
107.4936
  0
VERTEX
  8
0
 10
77.1083
 20
107.4844
  0
VERTEX
  8
0
 10
77.1699
 20
107.4715
  0
VERTEX
  8
0
 10
77.2301
 20
107.455
  0
VERTEX
  8
0
 10
77.289
 20
107.4347
  0
VERTEX
  8
0
 10
77.3465
 20
107.4108
  0
VERTEX
  8
0
 10
77.4027
 20
107.3832
  0
VERTEX
  8
0
 10
77.4576
 20
107.352
  0
VERTEX
  8
0
 10
77.5111
 20
107.317
  0
VERTEX
  8
0
 10
77.5633
 20
107.2784
  0
VERTEX
  8
0
 10
77.6132
 20
107.237
  0
VERTEX
  8
0
 10
77.6598
 20
107.1935
  0
VERTEX
  8
0
 10
77.7031
 20
107.1481
  0
VERTEX
  8
0
 10
77.7432
 20
107.1008
  0
VERTEX
  8
0
 10
77.78
 20
107.0515
  0
VERTEX
  8
0
 10
77.8135
 20
107.0002
  0
VERTEX
  8
0
 10
77.8438
 20
106.9469
  0
VERTEX
  8
0
 10
77.8707
 20
106.8917
  0
VERTEX
  8
0
 10
77.8945
 20
106.8345
  0
VERTEX
  8
0
 10
77.9149
 20
106.7753
  0
VERTEX
  8
0
 10
77.9321
 20
106.7142
  0
VERTEX
  8
0
 10
77.9725
 20
106.5107
  0
VERTEX
  8
0
 10
77.986
 20
106.305
  0
VERTEX
  8
0
 10
77.9726
 20
106.0971
  0
VERTEX
  8
0
 10
77.9322
 20
105.8959
  0
VERTEX
  8
0
 10
77.9195
 20
105.8507
  0
VERTEX
  8
0
 10
77.9053
 20
105.8068
  0
VERTEX
  8
0
 10
77.8897
 20
105.7641
  0
VERTEX
  8
0
 10
77.8725
 20
105.7226
  0
VERTEX
  8
0
 10
77.8539
 20
105.6824
  0
VERTEX
  8
0
 10
77.8338
 20
105.6434
  0
VERTEX
  8
0
 10
77.8122
 20
105.6057
  0
VERTEX
  8
0
 10
77.7891
 20
105.5692
  0
VERTEX
  8
0
 10
77.7646
 20
105.5339
  0
VERTEX
  8
0
 10
77.7385
 20
105.4999
  0
VERTEX
  8
0
 10
77.711
 20
105.4672
  0
VERTEX
  8
0
 10
77.682
 20
105.4357
  0
VERTEX
  8
0
 10
77.6515
 20
105.4054
  0
VERTEX
  8
0
 10
77.6195
 20
105.3764
  0
VERTEX
  8
0
 10
77.586
 20
105.3486
  0
VERTEX
  8
0
 10
77.551
 20
105.3221
  0
VERTEX
  8
0
 10
77.5146
 20
105.2968
  0
VERTEX
  8
0
 10
77.4767
 20
105.2727
  0
VERTEX
  8
0
 10
77.4373
 20
105.2499
  0
VERTEX
  8
0
 10
77.3964
 20
105.2283
  0
VERTEX
  8
0
 10
77.354
 20
105.208
  0
VERTEX
  8
0
 10
77.9861
 20
103.005
  0
SEQEND
  0
POLYLINE
  8
0
 66
     1
 10
0
 20
0
  0
VERTEX
  8
0
 10
76.158
 20
105.741
  0
VERTEX
  8
0
 10
76.9144
 20
105.741
  0
VERTEX
  8
0
 10
76.9845
 20
105.7466
  0
VERTEX
  8
0
 10
77.0506
 20
105.7635
  0
VERTEX
  8
0
 10
77.1128
 20
105.7917
  0
VERTEX
  8
0
 10
77.171
 20
105.8312
  0
VERTEX
  8
0
 10
77.2225
 20
105.8792
  0
VERTEX
  8
0
 10
77.2644
 20
105.9327
  0
VERTEX
  8
0
 10
77.2968
 20
105.9919
  0
VERTEX
  8
0
 10
77.3196
 20
106.0568
  0
VERTEX
  8
0
 10
77.3432
 20
106.1798
  0
VERTEX
  8
0
 10
77.3511
 20
106.305
  0
VERTEX
  8
0
 10
77.3432
 20
106.4336
  0
VERTEX
  8
0
 10
77.3196
 20
106.5577
  0
VERTEX
  8
0
 10
77.3104
 20
106.5896
  0
VERTEX
  8
0
 10
77.2998
 20
106.6197
  0
VERTEX
  8
0
 10
77.2879
 20
106.6482
  0
VERTEX
  8
0
 10
77.2747
 20
106.6749
  0
VERTEX
  8
0
 10
77.2601
 20
106.6999
  0
VERTEX
  8
0
 10
77.2442
 20
106.7232
  0
VERTEX
  8
0
 10
77.2269
 20
106.7448
  0
VERTEX
  8
0
 10
77.2082
 20
106.7646
  0
VERTEX
  8
0
 10
77.1883
 20
106.7827
  0
VERTEX
  8
0
 10
77.1669
 20
106.7991
  0
VERTEX
  8
0
 10
77.1443
 20
106.8138
  0
VERTEX
  8
0
 10
77.1202
 20
106.8267
  0
VERTEX
  8
0
 10
77.0949
 20
106.8379
  0
VERTEX
  8
0
 10
77.0682
 20
106.8474
  0
VERTEX
  8
0
 10
77.0401
 20
106.8552
  0
VERTEX
  8
0
 10
77.0107
 20
106.8612
  0
VERTEX
  8
0
 10
76.9799
 20
106.8655
  0
VERTEX
  8
0
 10
76.9479
 20
106.8681
  0
VERTEX
  8
0
 10
76.9144
 20
106.869
  0
VERTEX
  8
0
 10
76.158
 20
106.869
  0
VERTEX
  8
0
 10
76.158
 20
105.741
  0
SEQEND
  0
POLYLINE
  8
0
 66
     1
 10
0
 20
0
  0
VERTEX
  8
0
 10
81.21
 20
105.181
  0
VERTEX
  8
0
 10
81.21
 20
104.0885
  0
VERTEX
  8
0
 10
81.209
 20
104.0355
  0
VERTEX
  8
0
 10
81.2059
 20
103.9833
  0
VERTEX
  8
0
 10
81.2007
 20
103.9321
  0
VERTEX
  8
0
 10
81.1934
 20
103.8817
  0
VERTEX
  8
0
 10
81.184
 20
103.8323
  0
VERTEX
  8
0
 10
81.1726
 20
103.7837
  0
VERTEX
  8
0
 10
81.159
 20
103.736
  0
VERTEX
  8
0
 10
81.1434
 20
103.6892
  0
VERTEX
  8
0
 10
81.1257
 20
103.6433
  0
VERTEX
  8
0
 10
81.1059
 20
103.5983
  0
VERTEX
  8
0
 10
81.0841
 20
103.5542
  0
VERTEX
  8
0
 10
81.0601
 20
103.5109
  0
VERTEX
  8
0
 10
81.0341
 20
103.4686
  0
VERTEX
  8
0
 10
81.006
 20
103.4271
  0
VERTEX
  8
0
 10
80.9758
 20
103.3865
  0
VERTEX
  8
0
 10
80.9435
 20
103.3469
  0
VERTEX
  8
0
 10
80.9092
 20
103.3081
  0
VERTEX
  8
0
 10
80.8727
 20
103.2702
  0
VERTEX
  8
0
 10
80.8348
 20
103.2337
  0
VERTEX
  8
0
 10
80.796
 20
103.1994
  0
VERTEX
  8
0
 10
80.7563
 20
103.1671
  0
VERTEX
  8
0
 10
80.7157
 20
103.1369
  0
VERTEX
  8
0
 10
80.6743
 20
103.1088
  0
VERTEX
  8
0
 10
80.6319
 20
103.0828
  0
VERTEX
  8
0
 10
80.5886
 20
103.0589
  0
VERTEX
  8
0
 10
80.5445
 20
103.037
  0
VERTEX
  8
0
 10
80.4995
 20
103.0173
  0
VERTEX
  8
0
 10
80.4536
 20
102.9996
  0
VERTEX
  8
0
 10
80.4068
 20
102.984
  0
VERTEX
  8
0
 10
80.3591
 20
102.9704
  0
VERTEX
  8
0
 10
80.3105
 20
102.959
  0
VERTEX
  8
0
 10
80.261
 20
102.9496
  0
VERTEX
  8
0
 10
80.2106
 20
102.9423
  0
VERTEX
  8
0
 10
80.1594
 20
102.9371
  0
VERTEX
  8
0
 10
80.1072
 20
102.934
  0
VERTEX
  8
0
 10
80.0542
 20
102.933
  0
VERTEX
  8
0
 10
79.9896
 20
102.9346
  0
VERTEX
  8
0
 10
79.9261
 20
102.9396
  0
VERTEX
  8
0
 10
79.8638
 20
102.9479
  0
VERTEX
  8
0
 10
79.8026
 20
102.9594
  0
VERTEX
  8
0
 10
79.7426
 20
102.9743
  0
VERTEX
  8
0
 10
79.6838
 20
102.9925
  0
VERTEX
  8
0
 10
79.6261
 20
103.0141
  0
VERTEX
  8
0
 10
79.5695
 20
103.0389
  0
VERTEX
  8
0
 10
79.5141
 20
103.067
  0
VERTEX
  8
0
 10
79.4599
 20
103.0985
  0
VERTEX
  8
0
 10
79.4068
 20
103.1332
  0
VERTEX
  8
0
 10
79.3549
 20
103.1713
  0
VERTEX
  8
0
 10
79.305
 20
103.2119
  0
VERTEX
  8
0
 10
79.2579
 20
103.2545
  0
VERTEX
  8
0
 10
79.2137
 20
103.2989
  0
VERTEX
  8
0
 10
79.1723
 20
103.3451
  0
VERTEX
  8
0
 10
79.1337
 20
103.3933
  0
VERTEX
  8
0
 10
79.098
 20
103.4433
  0
VERTEX
  8
0
 10
79.0651
 20
103.4952
  0
VERTEX
  8
0
 10
79.0351
 20
103.549
  0
VERTEX
  8
0
 10
79.0079
 20
103.6047
  0
VERTEX
  8
0
 10
78.9836
 20
103.6622
  0
VERTEX
  8
0
 10
78.9621
 20
103.7216
  0
VERTEX
  8
0
 10
78.9434
 20
103.7828
  0
VERTEX
  8
0
 10
78.9028
 20
103.9413
  0
VERTEX
  8
0
 10
78.867
 20
104.101
  0
VERTEX
  8
0
 10
78.836
 20
104.262
  0
VERTEX
  8
0
 10
78.8097
 20
104.4241
  0
VERTEX
  8
0
 10
78.7882
 20
104.5875
  0
VERTEX
  8
0
 10
78.7715
 20
104.7521
  0
VERTEX
  8
0
 10
78.7596
 20
104.9179
  0
VERTEX
  8
0
 10
78.7524
 20
105.085
  0
VERTEX
  8
0
 10
78.75
 20
105.2532
  0
VERTEX
  8
0
 10
78.7524
 20
105.4178
  0
VERTEX
  8
0
 10
78.7596
 20
105.5819
  0
VERTEX
  8
0
 10
78.7715
 20
105.7453
  0
VERTEX
  8
0
 10
78.7882
 20
105.9083
  0
VERTEX
  8
0
 10
78.8097
 20
106.0706
  0
VERTEX
  8
0
 10
78.836
 20
106.2325
  0
VERTEX
  8
0
 10
78.867
 20
106.3937
  0
VERTEX
  8
0
 10
78.9028
 20
106.5544
  0
VERTEX
  8
0
 10
78.9434
 20
106.7146
  0
VERTEX
  8
0
 10
78.9613
 20
106.7759
  0
VERTEX
  8
0
 10
78.9822
 20
106.8353
  0
VERTEX
  8
0
 10
79.0059
 20
106.8929
  0
VERTEX
  8
0
 10
79.0326
 20
106.9487
  0
VERTEX
  8
0
 10
79.0622
 20
107.0026
  0
VERTEX
  8
0
 10
79.0946
 20
107.0547
  0
VERTEX
  8
0
 10
79.13
 20
107.1049
  0
VERTEX
  8
0
 10
79.1683
 20
107.1533
  0
VERTEX
  8
0
 10
79.2094
 20
107.1998
  0
VERTEX
  8
0
 10
79.2535
 20
107.2445
  0
VERTEX
  8
0
 10
79.3005
 20
107.2874
  0
VERTEX
  8
0
 10
79.3504
 20
107.3284
  0
VERTEX
  8
0
 10
79.4024
 20
107.3668
  0
VERTEX
  8
0
 10
79.4555
 20
107.4019
  0
VERTEX
  8
0
 10
79.5099
 20
107.4336
  0
VERTEX
  8
0
 10
79.5655
 20
107.462
  0
VERTEX
  8
0
 10
79.6223
 20
107.4871
  0
VERTEX
  8
0
 10
79.6804
 20
107.5088
  0
VERTEX
  8
0
 10
79.7396
 20
107.5272
  0
VERTEX
  8
0
 10
79.8001
 20
107.5422
  0
VERTEX
  8
0
 10
79.8618
 20
107.5539
  0
VERTEX
  8
0
 10
79.9247
 20
107.5623
  0
VERTEX
  8
0
 10
79.9889
 20
107.5673
  0
VERTEX
  8
0
 10
80.0542
 20
107.569
  0
VERTEX
  8
0
 10
80.1072
 20
107.5679
  0
VERTEX
  8
0
 10
80.1594
 20
107.5648
  0
VERTEX
  8
0
 10
80.2106
 20
107.5596
  0
VERTEX
  8
0
 10
80.261
 20
107.5523
  0
VERTEX
  8
0
 10
80.3105
 20
107.5429
  0
VERTEX
  8
0
 10
80.3591
 20
107.5315
  0
VERTEX
  8
0
 10
80.4068
 20
107.5179
  0
VERTEX
  8
0
 10
80.4536
 20
107.5023
  0
VERTEX
  8
0
 10
80.4995
 20
107.4846
  0
VERTEX
  8
0
 10
80.5445
 20
107.4648
  0
VERTEX
  8
0
 10
80.5886
 20
107.4429
  0
VERTEX
  8
0
 10
80.6319
 20
107.419
  0
VERTEX
  8
0
 10
80.6743
 20
107.3929
  0
VERTEX
  8
0
 10
80.7157
 20
107.3648
  0
VERTEX
  8
0
 10
80.7563
 20
107.3346
  0
VERTEX
  8
0
 10
80.796
 20
107.3023
  0
VERTEX
  8
0
 10
80.8348
 20
107.2679
  0
VERTEX
  8
0
 10
80.8727
 20
107.2315
  0
VERTEX
  8
0
 10
80.9092
 20
107.1935
  0
VERTEX
  8
0
 10
80.9435
 20
107.1547
  0
VERTEX
  8
0
 10
80.9758
 20
107.1151
  0
VERTEX
  8
0
 10
81.006
 20
107.0746
  0
VERTEX
  8
0
 10
81.0341
 20
107.0332
  0
VERTEX
  8
0
 10
81.0601
 20
106.991
  0
VERTEX
  8
0
 10
81.0841
 20
106.9479
  0
VERTEX
  8
0
 10
81.1059
 20
106.9039
  0
VERTEX
  8
0
 10
81.1257
 20
106.8591
  0
VERTEX
  8
0
 10
81.1434
 20
106.8134
  0
VERTEX
  8
0
 10
81.159
 20
106.7669
  0
VERTEX
  8
0
 10
81.1726
 20
106.7195
  0
VERTEX
  8
0
 10
81.184
 20
106.6712
  0
VERTEX
  8
0
 10
81.1934
 20
106.6221
  0
VERTEX
  8
0
 10
81.2007
 20
106.5721
  0
VERTEX
  8
0
 10
81.2059
 20
106.5212
  0
VERTEX
  8
0
 10
81.209
 20
106.4695
  0
VERTEX
  8
0
 10
81.21
 20
106.417
  0
VERTEX
  8
0
 10
80.578
 20
106.417
  0
VERTEX
  8
0
 10
80.5756
 20
106.4702
  0
VERTEX
  8
0
 10
80.5684
 20
106.5214
  0
VERTEX
  8
0
 10
80.5565
 20
106.5707
  0
VERTEX
  8
0
 10
80.5397
 20
106.618
  0
VERTEX
  8
0
 10
80.5181
 20
106.6633
  0
VERTEX
  8
0
 10
80.4917
 20
106.7066
  0
VERTEX
  8
0
 10
80.4606
 20
106.748
  0
VERTEX
  8
0
 10
80.4246
 20
106.7874
  0
VERTEX
  8
0
 10
80.3852
 20
106.8234
  0
VERTEX
  8
0
 10
80.3439
 20
106.8546
  0
VERTEX
  8
0
 10
80.3006
 20
106.881
  0
VERTEX
  8
0
 10
80.2553
 20
106.9026
  0
VERTEX
  8
0
 10
80.2081
 20
106.9194
  0
VERTEX
  8
0
 10
80.1589
 20
106.9314
  0
VERTEX
  8
0
 10
80.1077
 20
106.9386
  0
VERTEX
  8
0
 10
80.0545
 20
106.941
  0
VERTEX
  8
0
 10
79.9855
 20
106.9366
  0
VERTEX
  8
0
 10
79.9194
 20
106.9237
  0
VERTEX
  8
0
 10
79.8563
 20
106.9021
  0
VERTEX
  8
0
 10
79.796
 20
106.8718
  0
VERTEX
  8
0
 10
79.7386
 20
106.8329
  0
VERTEX
  8
0
 10
79.6864
 20
106.7872
  0
VERTEX
  8
0
 10
79.6418
 20
106.7364
  0
VERTEX
  8
0
 10
79.6048
 20
106.6806
  0
VERTEX
  8
0
 10
79.5754
 20
106.6197
  0
VERTEX
  8
0
 10
79.5535
 20
106.5538
  0
VERTEX
  8
0
 10
79.5133
 20
106.3947
  0
VERTEX
  8
0
 10
79.4785
 20
106.2345
  0
VERTEX
  8
0
 10
79.449
 20
106.0734
  0
VERTEX
  8
0
 10
79.4249
 20
105.9113
  0
VERTEX
  8
0
 10
79.4061
 20
105.7482
  0
VERTEX
  8
0
 10
79.3927
 20
105.5841
  0
VERTEX
  8
0
 10
79.3847
 20
105.419
  0
VERTEX
  8
0
 10
79.382
 20
105.253
  0
VERTEX
  8
0
 10
79.3846
 20
105.0899
  0
VERTEX
  8
0
 10
79.3924
 20
104.9272
  0
VERTEX
  8
0
 10
79.4055
 20
104.7647
  0
VERTEX
  8
0
 10
79.4237
 20
104.6025
  0
VERTEX
  8
0
 10
79.4471
 20
104.4406
  0
VERTEX
  8
0
 10
79.4757
 20
104.279
  0
VERTEX
  8
0
 10
79.5096
 20
104.1177
  0
VERTEX
  8
0
 10
79.5486
 20
103.9566
  0
VERTEX
  8
0
 10
79.5705
 20
103.8906
  0
VERTEX
  8
0
 10
79.6001
 20
103.8295
  0
VERTEX
  8
0
 10
79.6375
 20
103.7732
  0
VERTEX
  8
0
 10
79.6826
 20
103.7218
  0
VERTEX
  8
0
 10
79.7355
 20
103.6752
  0
VERTEX
  8
0
 10
79.7935
 20
103.6355
  0
VERTEX
  8
0
 10
79.8543
 20
103.6047
  0
VERTEX
  8
0
 10
79.9178
 20
103.5826
  0
VERTEX
  8
0
 10
79.984
 20
103.5694
  0
VERTEX
  8
0
 10
80.0528
 20
103.565
  0
VERTEX
  8
0
 10
80.1059
 20
103.5674
  0
VERTEX
  8
0
 10
80.157
 20
103.5746
  0
VERTEX
  8
0
 10
80.2061
 20
103.5865
  0
VERTEX
  8
0
 10
80.2532
 20
103.6033
  0
VERTEX
  8
0
 10
80.2984
 20
103.6249
  0
VERTEX
  8
0
 10
80.3416
 20
103.6512
  0
VERTEX
  8
0
 10
80.3828
 20
103.6824
  0
VERTEX
  8
0
 10
80.422
 20
103.7183
  0
VERTEX
  8
0
 10
80.4579
 20
103.7577
  0
VERTEX
  8
0
 10
80.489
 20
103.799
  0
VERTEX
  8
0
 10
80.5153
 20
103.8423
  0
VERTEX
  8
0
 10
80.5368
 20
103.8875
  0
VERTEX
  8
0
 10
80.5536
 20
103.9347
  0
VERTEX
  8
0
 10
80.5655
 20
103.9839
  0
VERTEX
  8
0
 10
80.5727
 20
104.0351
  0
VERTEX
  8
0
 10
80.5751
 20
104.0883
  0
VERTEX
  8
0
 10
80.578
 20
104.553
  0
VERTEX
  8
0
 10
80.086
 20
104.553
  0
VERTEX
  8
0
 10
80.086
 20
105.181
  0
VERTEX
  8
0
 10
81.21
 20
105.181
  0
SEQEND
  0
POLYLINE
  8
0
 66
     1
 10
0
 20
0
  0
VERTEX
  8
0
 10
84.4057
 20
103.005
  0
VERTEX
  8
0
 10
82.158
 20
103.005
  0
VERTEX
  8
0
 10
82.158
 20
107.501
  0
VERTEX
  8
0
 10
84.3338
 20
107.501
  0
VERTEX
  8
0
 10
84.3338
 20
106.869
  0
VERTEX
  8
0
 10
82.79
 20
106.869
  0
VERTEX
  8
0
 10
82.79
 20
105.741
  0
VERTEX
  8
0
 10
83.742
 20
105.741
  0
VERTEX
  8
0
 10
83.742
 20
105.113
  0
VERTEX
  8
0
 10
82.79
 20
105.113
  0
VERTEX
  8
0
 10
82.79
 20
103.637
  0
VERTEX
  8
0
 10
84.4057
 20
103.637
  0
VERTEX
  8
0
 10
84.4057
 20
103.005
  0
SEQEND
  0
POLYLINE
  8
0
 66
     1
 10
0
 20
0
  0
VERTEX
  8
0
 10
87.626
 20
103.005
  0
VERTEX
  8
0
 10
87.1355
 20
103.005
  0
VERTEX
  8
0
 10
85.798
 20
105.9995
  0
VERTEX
  8
0
 10
85.798
 20
103.005
  0
VERTEX
  8
0
 10
85.166
 20
103.005
  0
VERTEX
  8
0
 10
85.166
 20
107.501
  0
VERTEX
  8
0
 10
85.8133
 20
107.501
  0
VERTEX
  8
0
 10
86.994
 20
104.866
  0
VERTEX
  8
0
 10
86.994
 20
107.501
  0
VERTEX
  8
0
 10
87.626
 20
107.501
  0
VERTEX
  8
0
 10
87.626
 20
103.005
  0
SEQEND
  0
POLYLINE
  8
0
 66
     1
 10
0
 20
0
  0
VERTEX
  8
0
 10
91.034
 20
104.201
  0
VERTEX
  8
0
 10
91.034
 20
104.0885
  0
VERTEX
  8
0
 10
91.033
 20
104.036
  0
VERTEX
  8
0
 10
91.0299
 20
103.9843
  0
VERTEX
  8
0
 10
91.0247
 20
103.9335
  0
VERTEX
  8
0
 10
91.0174
 20
103.8835
  0
VERTEX
  8
0
 10
91.008
 20
103.8343
  0
VERTEX
  8
0
 10
90.9966
 20
103.786
  0
VERTEX
  8
0
 10
90.983
 20
103.7386
  0
VERTEX
  8
0
 10
90.9674
 20
103.692
  0
VERTEX
  8
0
 10
90.9497
 20
103.6462
  0
VERTEX
  8
0
 10
90.9299
 20
103.6013
  0
VERTEX
  8
0
 10
90.9081
 20
103.5572
  0
VERTEX
  8
0
 10
90.8841
 20
103.514
  0
VERTEX
  8
0
 10
90.8581
 20
103.4716
  0
VERTEX
  8
0
 10
90.83
 20
103.4301
  0
VERTEX
  8
0
 10
90.7998
 20
103.3894
  0
VERTEX
  8
0
 10
90.7675
 20
103.3496
  0
VERTEX
  8
0
 10
90.7332
 20
103.3106
  0
VERTEX
  8
0
 10
90.6967
 20
103.2724
  0
VERTEX
  8
0
 10
90.6588
 20
103.2358
  0
VERTEX
  8
0
 10
90.62
 20
103.2012
  0
VERTEX
  8
0
 10
90.5803
 20
103.1687
  0
VERTEX
  8
0
 10
90.5397
 20
103.1383
  0
VERTEX
  8
0
 10
90.4983
 20
103.11
  0
VERTEX
  8
0
 10
90.4559
 20
103.0838
  0
VERTEX
  8
0
 10
90.4126
 20
103.0597
  0
VERTEX
  8
0
 10
90.3685
 20
103.0377
  0
VERTEX
  8
0
 10
90.3235
 20
103.0178
  0
VERTEX
  8
0
 10
90.2776
 20
103
  0
VERTEX
  8
0
 10
90.2307
 20
102.9843
  0
VERTEX
  8
0
 10
90.1831
 20
102.9707
  0
VERTEX
  8
0
 10
90.1345
 20
102.9592
  0
VERTEX
  8
0
 10
90.085
 20
102.9497
  0
VERTEX
  8
0
 10
90.0346
 20
102.9424
  0
VERTEX
  8
0
 10
89.9834
 20
102.9372
  0
VERTEX
  8
0
 10
89.9312
 20
102.934
  0
VERTEX
  8
0
 10
89.8782
 20
102.933
  0
VERTEX
  8
0
 10
89.8136
 20
102.9346
  0
VERTEX
  8
0
 10
89.7501
 20
102.9396
  0
VERTEX
  8
0
 10
89.6878
 20
102.9479
  0
VERTEX
  8
0
 10
89.6266
 20
102.9594
  0
VERTEX
  8
0
 10
89.5666
 20
102.9743
  0
VERTEX
  8
0
 10
89.5078
 20
102.9925
  0
VERTEX
  8
0
 10
89.4501
 20
103.0141
  0
VERTEX
  8
0
 10
89.3935
 20
103.0389
  0
VERTEX
  8
0
 10
89.3381
 20
103.067
  0
VERTEX
  8
0
 10
89.2839
 20
103.0985
  0
VERTEX
  8
0
 10
89.2308
 20
103.1332
  0
VERTEX
  8
0
 10
89.1789
 20
103.1713
  0
VERTEX
  8
0
 10
89.129
 20
103.2119
  0
VERTEX
  8
0
 10
89.0819
 20
103.2545
  0
VERTEX
  8
0
 10
89.0377
 20
103.2989
  0
VERTEX
  8
0
 10
88.9963
 20
103.3451
  0
VERTEX
  8
0
 10
88.9577
 20
103.3933
  0
VERTEX
  8
0
 10
88.922
 20
103.4433
  0
VERTEX
  8
0
 10
88.8891
 20
103.4952
  0
VERTEX
  8
0
 10
88.8591
 20
103.549
  0
VERTEX
  8
0
 10
88.8319
 20
103.6047
  0
VERTEX
  8
0
 10
88.8076
 20
103.6622
  0
VERTEX
  8
0
 10
88.7861
 20
103.7216
  0
VERTEX
  8
0
 10
88.7674
 20
103.7828
  0
VERTEX
  8
0
 10
88.7268
 20
103.9422
  0
VERTEX
  8
0
 10
88.691
 20
104.1026
  0
VERTEX
  8
0
 10
88.66
 20
104.264
  0
VERTEX
  8
0
 10
88.6337
 20
104.4263
  0
VERTEX
  8
0
 10
88.6122
 20
104.5897
  0
VERTEX
  8
0
 10
88.5955
 20
104.7541
  0
VERTEX
  8
0
 10
88.5836
 20
104.9195
  0
VERTEX
  8
0
 10
88.5764
 20
105.0858
  0
VERTEX
  8
0
 10
88.574
 20
105.2532
  0
VERTEX
  8
0
 10
88.5764
 20
105.4169
  0
VERTEX
  8
0
 10
88.5834
 20
105.5803
  0
VERTEX
  8
0
 10
88.595
 20
105.7433
  0
VERTEX
  8
0
 10
88.6113
 20
105.906
  0
VERTEX
  8
0
 10
88.6323
 20
106.0684
  0
VERTEX
  8
0
 10
88.658
 20
106.2305
  0
VERTEX
  8
0
 10
88.6883
 20
106.3922
  0
VERTEX
  8
0
 10
88.7233
 20
106.5535
  0
VERTEX
  8
0
 10
88.7629
 20
106.7146
  0
VERTEX
  8
0
 10
88.7816
 20
106.7759
  0
VERTEX
  8
0
 10
88.8031
 20
106.8353
  0
VERTEX
  8
0
 10
88.8274
 20
106.8929
  0
VERTEX
  8
0
 10
88.8546
 20
106.9487
  0
VERTEX
  8
0
 10
88.8846
 20
107.0026
  0
VERTEX
  8
0
 10
88.9175
 20
107.0547
  0
VERTEX
  8
0
 10
88.9532
 20
107.1049
  0
VERTEX
  8
0
 10
88.9918
 20
107.1533
  0
VERTEX
  8
0
 10
89.0332
 20
107.1998
  0
VERTEX
  8
0
 10
89.0774
 20
107.2445
  0
VERTEX
  8
0
 10
89.1245
 20
107.2874
  0
VERTEX
  8
0
 10
89.1744
 20
107.3284
  0
VERTEX
  8
0
 10
89.2264
 20
107.3668
  0
VERTEX
  8
0
 10
89.2795
 20
107.4019
  0
VERTEX
  8
0
 10
89.3339
 20
107.4336
  0
VERTEX
  8
0
 10
89.3895
 20
107.462
  0
VERTEX
  8
0
 10
89.4463
 20
107.4871
  0
VERTEX
  8
0
 10
89.5044
 20
107.5088
  0
VERTEX
  8
0
 10
89.5636
 20
107.5272
  0
VERTEX
  8
0
 10
89.6241
 20
107.5422
  0
VERTEX
  8
0
 10
89.6858
 20
107.5539
  0
VERTEX
  8
0
 10
89.7487
 20
107.5623
  0
VERTEX
  8
0
 10
89.8129
 20
107.5673
  0
VERTEX
  8
0
 10
89.8782
 20
107.569
  0
VERTEX
  8
0
 10
89.9312
 20
107.5679
  0
VERTEX
  8
0
 10
89.9834
 20
107.5648
  0
VERTEX
  8
0
 10
90.0346
 20
107.5596
  0
VERTEX
  8
0
 10
90.085
 20
107.5523
  0
VERTEX
  8
0
 10
90.1345
 20
107.5429
  0
VERTEX
  8
0
 10
90.1831
 20
107.5315
  0
VERTEX
  8
0
 10
90.2307
 20
107.5179
  0
VERTEX
  8
0
 10
90.2776
 20
107.5023
  0
VERTEX
  8
0
 10
90.3235
 20
107.4846
  0
VERTEX
  8
0
 10
90.3685
 20
107.4648
  0
VERTEX
  8
0
 10
90.4126
 20
107.443
  0
VERTEX
  8
0
 10
90.4559
 20
107.419
  0
VERTEX
  8
0
 10
90.4983
 20
107.393
  0
VERTEX
  8
0
 10
90.5397
 20
107.3649
  0
VERTEX
  8
0
 10
90.5803
 20
107.3347
  0
VERTEX
  8
0
 10
90.62
 20
107.3024
  0
VERTEX
  8
0
 10
90.6588
 20
107.268
  0
VERTEX
  8
0
 10
90.6967
 20
107.2316
  0
VERTEX
  8
0
 10
90.7332
 20
107.1937
  0
VERTEX
  8
0
 10
90.7675
 20
107.1549
  0
VERTEX
  8
0
 10
90.7998
 20
107.1153
  0
VERTEX
  8
0
 10
90.83
 20
107.0748
  0
VERTEX
  8
0
 10
90.8581
 20
107.0334
  0
VERTEX
  8
0
 10
90.8841
 20
106.9912
  0
VERTEX
  8
0
 10
90.9081
 20
106.9481
  0
VERTEX
  8
0
 10
90.9299
 20
106.9042
  0
VERTEX
  8
0
 10
90.9497
 20
106.8594
  0
VERTEX
  8
0
 10
90.9674
 20
106.8137
  0
VERTEX
  8
0
 10
90.983
 20
106.7672
  0
VERTEX
  8
0
 10
90.9966
 20
106.7198
  0
VERTEX
  8
0
 10
91.008
 20
106.6715
  0
VERTEX
  8
0
 10
91.0174
 20
106.6224
  0
VERTEX
  8
0
 10
91.0247
 20
106.5725
  0
VERTEX
  8
0
 10
91.0299
 20
106.5216
  0
VERTEX
  8
0
 10
91.033
 20
106.47
  0
VERTEX
  8
0
 10
91.034
 20
106.4174
  0
VERTEX
  8
0
 10
91.034
 20
106.305
  0
VERTEX
  8
0
 10
90.402
 20
106.305
  0
VERTEX
  8
0
 10
90.402
 20
106.4177
  0
VERTEX
  8
0
 10
90.3996
 20
106.4709
  0
VERTEX
  8
0
 10
90.3924
 20
106.522
  0
VERTEX
  8
0
 10
90.3805
 20
106.5712
  0
VERTEX
  8
0
 10
90.3637
 20
106.6184
  0
VERTEX
  8
0
 10
90.3421
 20
106.6637
  0
VERTEX
  8
0
 10
90.3157
 20
106.707
  0
VERTEX
  8
0
 10
90.2846
 20
106.7483
  0
VERTEX
  8
0
 10
90.2486
 20
106.7876
  0
VERTEX
  8
0
 10
90.2092
 20
106.8235
  0
VERTEX
  8
0
 10
90.1679
 20
106.8547
  0
VERTEX
  8
0
 10
90.1246
 20
106.8811
  0
VERTEX
  8
0
 10
90.0793
 20
106.9026
  0
VERTEX
  8
0
 10
90.0321
 20
106.9194
  0
VERTEX
  8
0
 10
89.9829
 20
106.9314
  0
VERTEX
  8
0
 10
89.9317
 20
106.9386
  0
VERTEX
  8
0
 10
89.8785
 20
106.941
  0
VERTEX
  8
0
 10
89.8095
 20
106.9366
  0
VERTEX
  8
0
 10
89.7434
 20
106.9237
  0
VERTEX
  8
0
 10
89.6803
 20
106.9021
  0
VERTEX
  8
0
 10
89.62
 20
106.8718
  0
VERTEX
  8
0
 10
89.5626
 20
106.8329
  0
VERTEX
  8
0
 10
89.5104
 20
106.7872
  0
VERTEX
  8
0
 10
89.4658
 20
106.7364
  0
VERTEX
  8
0
 10
89.4288
 20
106.6806
  0
VERTEX
  8
0
 10
89.3994
 20
106.6197
  0
VERTEX
  8
0
 10
89.3775
 20
106.5538
  0
VERTEX
  8
0
 10
89.3373
 20
106.3947
  0
VERTEX
  8
0
 10
89.3025
 20
106.2345
  0
VERTEX
  8
0
 10
89.273
 20
106.0734
  0
VERTEX
  8
0
 10
89.2489
 20
105.9113
  0
VERTEX
  8
0
 10
89.2301
 20
105.7482
  0
VERTEX
  8
0
 10
89.2167
 20
105.5841
  0
VERTEX
  8
0
 10
89.2087
 20
105.419
  0
VERTEX
  8
0
 10
89.206
 20
105.253
  0
VERTEX
  8
0
 10
89.2087
 20
105.0859
  0
VERTEX
  8
0
 10
89.2167
 20
104.9199
  0
VERTEX
  8
0
 10
89.2301
 20
104.755
  0
VERTEX
  8
0
 10
89.2489
 20
104.5913
  0
VERTEX
  8
0
 10
89.273
 20
104.4287
  0
VERTEX
  8
0
 10
89.3025
 20
104.2672
  0
VERTEX
  8
0
 10
89.3373
 20
104.1068
  0
VERTEX
  8
0
 10
89.3775
 20
103.9476
  0
VERTEX
  8
0
 10
89.3994
 20
103.8833
  0
VERTEX
  8
0
 10
89.4288
 20
103.8237
  0
VERTEX
  8
0
 10
89.4658
 20
103.7688
  0
VERTEX
  8
0
 10
89.5104
 20
103.7186
  0
VERTEX
  8
0
 10
89.5626
 20
103.673
  0
VERTEX
  8
0
 10
89.62
 20
103.6341
  0
VERTEX
  8
0
 10
89.6803
 20
103.6039
  0
VERTEX
  8
0
 10
89.7434
 20
103.5823
  0
VERTEX
  8
0
 10
89.8095
 20
103.5693
  0
VERTEX
  8
0
 10
89.8785
 20
103.565
  0
VERTEX
  8
0
 10
89.9317
 20
103.5674
  0
VERTEX
  8
0
 10
89.9829
 20
103.5746
  0
VERTEX
  8
0
 10
90.0321
 20
103.5865
  0
VERTEX
  8
0
 10
90.0793
 20
103.6033
  0
VERTEX
  8
0
 10
90.1246
 20
103.6249
  0
VERTEX
  8
0
 10
90.1679
 20
103.6512
  0
VERTEX
  8
0
 10
90.2092
 20
103.6824
  0
VERTEX
  8
0
 10
90.2486
 20
103.7183
  0
VERTEX
  8
0
 10
90.2846
 20
103.7577
  0
VERTEX
  8
0
 10
90.3157
 20
103.799
  0
VERTEX
  8
0
 10
90.3421
 20
103.8422
  0
VERTEX
  8
0
 10
90.3637
 20
103.8875
  0
VERTEX
  8
0
 10
90.3805
 20
103.9347
  0
VERTEX
  8
0
 10
90.3924
 20
103.9839
  0
VERTEX
  8
0
 10
90.3996
 20
104.0351
  0
VERTEX
  8
0
 10
90.402
 20
104.0882
  0
VERTEX
  8
0
 10
90.402
 20
104.201
  0
VERTEX
  8
0
 10
91.034
 20
104.201
  0
SEQEND
  0
POLYLINE
  8
0
 66
     1
 10
0
 20
0
  0
VERTEX
  8
0
 10
94.3556
 20
107.501
  0
VERTEX
  8
0
 10
93.266
 20
105.0415
  0
VERTEX
  8
0
 10
93.266
 20
103.005
  0
VERTEX
  8
0
 10
92.634
 20
103.005
  0
VERTEX
  8
0
 10
92.634
 20
105.0417
  0
VERTEX
  8
0
 10
91.546
 20
107.501
  0
VERTEX
  8
0
 10
92.2415
 20
107.501
  0
VERTEX
  8
0
 10
92.9502
 20
105.8987
  0
VERTEX
  8
0
 10
93.66
 20
107.501
  0
VERTEX
  8
0
 10
94.3556
 20
107.501
  0
SEQEND
  0
POLYLINE
  8
0
 66
     1
 10
0
 20
0
  0
VERTEX
  8
0
 10
75.326
 20
96.505
  0
VERTEX
  8
0
 10
74.698
 20
96.505
  0
VERTEX
  8
0
 10
74.698
 20
101.001
  0
VERTEX
  8
0
 10
75.326
 20
101.001
  0
VERTEX
  8
0
 10
75.326
 20
96.505
  0
SEQEND
  0
POLYLINE
  8
0
 66
     1
 10
0
 20
0
  0
VERTEX
  8
0
 10
78.742
 20
96.505
  0
VERTEX
  8
0
 10
78.2515
 20
96.505
  0
VERTEX
  8
0
 10
76.914
 20
99.4995
  0
VERTEX
  8
0
 10
76.914
 20
96.505
  0
VERTEX
  8
0
 10
76.282
 20
96.505
  0
VERTEX
  8
0
 10
76.282
 20
101.001
  0
VERTEX
  8
0
 10
76.9293
 20
101.001
  0
VERTEX
  8
0
 10
78.11
 20
98.366
  0
VERTEX
  8
0
 10
78.11
 20
101.001
  0
VERTEX
  8
0
 10
78.742
 20
101.001
  0
VERTEX
  8
0
 10
78.742
 20
96.505
  0
SEQEND
  0
POLYLINE
  8
0
 66
     1
 10
0
 20
0
  0
VERTEX
  8
0
 10
81.9377
 20
100.369
  0
VERTEX
  8
0
 10
80.322
 20
100.369
  0
VERTEX
  8
0
 10
80.322
 20
99.241
  0
VERTEX
  8
0
 10
81.238
 20
99.241
  0
VERTEX
  8
0
 10
81.238
 20
98.613
  0
VERTEX
  8
0
 10
80.322
 20
98.613
  0
VERTEX
  8
0
 10
80.322
 20
96.505
  0
VERTEX
  8
0
 10
79.69
 20
96.505
  0
VERTEX
  8
0
 10
79.69
 20
101.001
  0
VERTEX
  8
0
 10
81.9377
 20
101.001
  0
VERTEX
  8
0
 10
81.9377
 20
100.369
  0
SEQEND
  0
POLYLINE
  8
0
 66
     1
 10
0
 20
0
  0
VERTEX
  8
0
 10
85.298
 20
98.7532
  0
VERTEX
  8
0
 10
85.2956
 20
98.5886
  0
VERTEX
  8
0
 10
85.2885
 20
98.4244
  0
VERTEX
  8
0
 10
85.2765
 20
98.2606
  0
VERTEX
  8
0
 10
85.2598
 20
98.0973
  0
VERTEX
  8
0
 10
85.2383
 20
97.9344
  0
VERTEX
  8
0
 10
85.2121
 20
97.772
  0
VERTEX
  8
0
 10
85.181
 20
97.61
  0
VERTEX
  8
0
 10
85.1452
 20
97.4484
  0
VERTEX
  8
0
 10
85.1046
 20
97.2873
  0
VERTEX
  8
0
 10
85.0867
 20
97.2261
  0
VERTEX
  8
0
 10
85.0659
 20
97.1666
  0
VERTEX
  8
0
 10
85.0422
 20
97.109
  0
VERTEX
  8
0
 10
85.0156
 20
97.0533
  0
VERTEX
  8
0
 10
84.9862
 20
96.9993
  0
VERTEX
  8
0
 10
84.9539
 20
96.9473
  0
VERTEX
  8
0
 10
84.9187
 20
96.897
  0
VERTEX
  8
0
 10
84.8807
 20
96.8486
  0
VERTEX
  8
0
 10
84.8398
 20
96.8021
  0
VERTEX
  8
0
 10
84.796
 20
96.7574
  0
VERTEX
  8
0
 10
84.7493
 20
96.7145
  0
VERTEX
  8
0
 10
84.6998
 20
96.6735
  0
VERTEX
  8
0
 10
84.6482
 20
96.6351
  0
VERTEX
  8
0
 10
84.5953
 20
96.6
  0
VERTEX
  8
0
 10
84.5412
 20
96.5683
  0
VERTEX
  8
0
 10
84.4859
 20
96.5399
  0
VERTEX
  8
0
 10
84.4293
 20
96.5148
  0
VERTEX
  8
0
 10
84.3714
 20
96.4931
  0
VERTEX
  8
0
 10
84.3123
 20
96.4747
  0
VERTEX
  8
0
 10
84.2519
 20
96.4597
  0
VERTEX
  8
0
 10
84.1903
 20
96.448
  0
VERTEX
  8
0
 10
84.1275
 20
96.4396
  0
VERTEX
  8
0
 10
84.0634
 20
96.4346
  0
VERTEX
  8
0
 10
83.998
 20
96.433
  0
VERTEX
  8
0
 10
83.9334
 20
96.4346
  0
VERTEX
  8
0
 10
83.8699
 20
96.4396
  0
VERTEX
  8
0
 10
83.8075
 20
96.448
  0
VERTEX
  8
0
 10
83.7464
 20
96.4597
  0
VERTEX
  8
0
 10
83.6863
 20
96.4747
  0
VERTEX
  8
0
 10
83.6275
 20
96.4931
  0
VERTEX
  8
0
 10
83.5698
 20
96.5148
  0
VERTEX
  8
0
 10
83.5132
 20
96.5399
  0
VERTEX
  8
0
 10
83.4578
 20
96.5683
  0
VERTEX
  8
0
 10
83.4036
 20
96.6
  0
VERTEX
  8
0
 10
83.3505
 20
96.6351
  0
VERTEX
  8
0
 10
83.2985
 20
96.6735
  0
VERTEX
  8
0
 10
83.2486
 20
96.7145
  0
VERTEX
  8
0
 10
83.2016
 20
96.7573
  0
VERTEX
  8
0
 10
83.1575
 20
96.8018
  0
VERTEX
  8
0
 10
83.1164
 20
96.8481
  0
VERTEX
  8
0
 10
83.0781
 20
96.8963
  0
VERTEX
  8
0
 10
83.0427
 20
96.9461
  0
VERTEX
  8
0
 10
83.0102
 20
96.9978
  0
VERTEX
  8
0
 10
82.9807
 20
97.0513
  0
VERTEX
  8
0
 10
82.954
 20
97.1065
  0
VERTEX
  8
0
 10
82.9303
 20
97.1635
  0
VERTEX
  8
0
 10
82.9094
 20
97.2223
  0
VERTEX
  8
0
 10
82.8915
 20
97.2828
  0
VERTEX
  8
0
 10
82.8509
 20
97.444
  0
VERTEX
  8
0
 10
82.815
 20
97.6057
  0
VERTEX
  8
0
 10
82.784
 20
97.768
  0
VERTEX
  8
0
 10
82.7577
 20
97.9308
  0
VERTEX
  8
0
 10
82.7362
 20
98.0942
  0
VERTEX
  8
0
 10
82.7195
 20
98.2581
  0
VERTEX
  8
0
 10
82.7076
 20
98.4226
  0
VERTEX
  8
0
 10
82.7004
 20
98.5876
  0
VERTEX
  8
0
 10
82.698
 20
98.7532
  0
VERTEX
  8
0
 10
82.7004
 20
98.9206
  0
VERTEX
  8
0
 10
82.7076
 20
99.0872
  0
VERTEX
  8
0
 10
82.7195
 20
99.2528
  0
VERTEX
  8
0
 10
82.7362
 20
99.4176
  0
VERTEX
  8
0
 10
82.7577
 20
99.5815
  0
VERTEX
  8
0
 10
82.784
 20
99.7445
  0
VERTEX
  8
0
 10
82.815
 20
99.9066
  0
VERTEX
  8
0
 10
82.8509
 20
100.0678
  0
VERTEX
  8
0
 10
82.8915
 20
100.2281
  0
VERTEX
  8
0
 10
82.9101
 20
100.2886
  0
VERTEX
  8
0
 10
82.9316
 20
100.3473
  0
VERTEX
  8
0
 10
82.9558
 20
100.4042
  0
VERTEX
  8
0
 10
82.9829
 20
100.4592
  0
VERTEX
  8
0
 10
83.0128
 20
100.5123
  0
VERTEX
  8
0
 10
83.0455
 20
100.5637
  0
VERTEX
  8
0
 10
83.081
 20
100.6131
  0
VERTEX
  8
0
 10
83.1194
 20
100.6608
  0
VERTEX
  8
0
 10
83.1605
 20
100.7066
  0
VERTEX
  8
0
 10
83.2044
 20
100.7505
  0
VERTEX
  8
0
 10
83.2512
 20
100.7926
  0
VERTEX
  8
0
 10
83.3008
 20
100.8329
  0
VERTEX
  8
0
 10
83.3524
 20
100.8706
  0
VERTEX
  8
0
 10
83.4051
 20
100.905
  0
VERTEX
  8
0
 10
83.4591
 20
100.9362
  0
VERTEX
  8
0
 10
83.5142
 20
100.964
  0
VERTEX
  8
0
 10
83.5705
 20
100.9886
  0
VERTEX
  8
0
 10
83.628
 20
101.01
  0
VERTEX
  8
0
 10
83.6867
 20
101.028
  0
VERTEX
  8
0
 10
83.7466
 20
101.0427
  0
VERTEX
  8
0
 10
83.8077
 20
101.0542
  0
VERTEX
  8
0
 10
83.8699
 20
101.0624
  0
VERTEX
  8
0
 10
83.9334
 20
101.0673
  0
VERTEX
  8
0
 10
83.998
 20
101.069
  0
VERTEX
  8
0
 10
84.0627
 20
101.0673
  0
VERTEX
  8
0
 10
84.1261
 20
101.0625
  0
VERTEX
  8
0
 10
84.1884
 20
101.0544
  0
VERTEX
  8
0
 10
84.2494
 20
101.043
  0
VERTEX
  8
0
 10
84.3093
 20
101.0284
  0
VERTEX
  8
0
 10
84.368
 20
101.0105
  0
VERTEX
  8
0
 10
84.4255
 20
100.9894
  0
VERTEX
  8
0
 10
84.4819
 20
100.965
  0
VERTEX
  8
0
 10
84.537
 20
100.9374
  0
VERTEX
  8
0
 10
84.5909
 20
100.9066
  0
VERTEX
  8
0
 10
84.6437
 20
100.8725
  0
VERTEX
  8
0
 10
84.6953
 20
100.8352
  0
VERTEX
  8
0
 10
84.7448
 20
100.7952
  0
VERTEX
  8
0
 10
84.7915
 20
100.7535
  0
VERTEX
  8
0
 10
84.8353
 20
100.7098
  0
VERTEX
  8
0
 10
84.8762
 20
100.6643
  0
VERTEX
  8
0
 10
84.9142
 20
100.6169
  0
VERTEX
  8
0
 10
84.9494
 20
100.5676
  0
VERTEX
  8
0
 10
84.9817
 20
100.5165
  0
VERTEX
  8
0
 10
85.0111
 20
100.4634
  0
VERTEX
  8
0
 10
85.0377
 20
100.4085
  0
VERTEX
  8
0
 10
85.0614
 20
100.3518
  0
VERTEX
  8
0
 10
85.0822
 20
100.2931
  0
VERTEX
  8
0
 10
85.1001
 20
100.2326
  0
VERTEX
  8
0
 10
85.1377
 20
100.0891
  0
VERTEX
  8
0
 10
85.1714
 20
99.9446
  0
VERTEX
  8
0
 10
85.201
 20
99.7992
  0
VERTEX
  8
0
 10
85.2268
 20
99.6527
  0
VERTEX
  8
0
 10
85.2485
 20
99.5053
  0
VERTEX
  8
0
 10
85.2664
 20
99.3568
  0
VERTEX
  8
0
 10
85.2802
 20
99.2074
  0
VERTEX
  8
0
 10
85.2901
 20
99.057
  0
VERTEX
  8
0
 10
85.2961
 20
98.9056
  0
VERTEX
  8
0
 10
85.298
 20
98.7532
  0
VERTEX
  8
0
 10
85.298
 20
98.7532
  0
SEQEND
  0
POLYLINE
  8
0
 66
     1
 10
0
 20
0
  0
VERTEX
  8
0
 10
84.666
 20
98.753
  0
VERTEX
  8
0
 10
84.6634
 20
98.9222
  0
VERTEX
  8
0
 10
84.6553
 20
99.09
  0
VERTEX
  8
0
 10
84.6419
 20
99.2564
  0
VERTEX
  8
0
 10
84.6232
 20
99.4214
  0
VERTEX
  8
0
 10
84.599
 20
99.585
  0
VERTEX
  8
0
 10
84.5696
 20
99.7472
  0
VERTEX
  8
0
 10
84.5347
 20
99.908
  0
VERTEX
  8
0
 10
84.4945
 20
100.0673
  0
VERTEX
  8
0
 10
84.4728
 20
100.1299
  0
VERTEX
  8
0
 10
84.4436
 20
100.188
  0
VERTEX
  8
0
 10
84.4071
 20
100.2416
  0
VERTEX
  8
0
 10
84.3631
 20
100.2906
  0
VERTEX
  8
0
 10
84.3117
 20
100.3352
  0
VERTEX
  8
0
 10
84.2551
 20
100.3733
  0
VERTEX
  8
0
 10
84.1954
 20
100.4029
  0
VERTEX
  8
0
 10
84.1327
 20
100.424
  0
VERTEX
  8
0
 10
84.0669
 20
100.4367
  0
VERTEX
  8
0
 10
83.998
 20
100.441
  0
VERTEX
  8
0
 10
83.9292
 20
100.4367
  0
VERTEX
  8
0
 10
83.8634
 20
100.424
  0
VERTEX
  8
0
 10
83.8006
 20
100.4029
  0
VERTEX
  8
0
 10
83.741
 20
100.3733
  0
VERTEX
  8
0
 10
83.6843
 20
100.3352
  0
VERTEX
  8
0
 10
83.633
 20
100.2904
  0
VERTEX
  8
0
 10
83.589
 20
100.2408
  0
VERTEX
  8
0
 10
83.5524
 20
100.1864
  0
VERTEX
  8
0
 10
83.5233
 20
100.127
  0
VERTEX
  8
0
 10
83.5015
 20
100.0628
  0
VERTEX
  8
0
 10
83.4613
 20
99.9026
  0
VERTEX
  8
0
 10
83.4265
 20
99.7413
  0
VERTEX
  8
0
 10
83.397
 20
99.579
  0
VERTEX
  8
0
 10
83.3729
 20
99.4158
  0
VERTEX
  8
0
 10
83.3541
 20
99.2516
  0
VERTEX
  8
0
 10
83.3407
 20
99.0863
  0
VERTEX
  8
0
 10
83.3327
 20
98.9201
  0
VERTEX
  8
0
 10
83.33
 20
98.753
  0
VERTEX
  8
0
 10
83.3327
 20
98.5878
  0
VERTEX
  8
0
 10
83.3407
 20
98.4232
  0
VERTEX
  8
0
 10
83.3541
 20
98.2592
  0
VERTEX
  8
0
 10
83.3729
 20
98.0958
  0
VERTEX
  8
0
 10
83.397
 20
97.9329
  0
VERTEX
  8
0
 10
83.4265
 20
97.7706
  0
VERTEX
  8
0
 10
83.4613
 20
97.6088
  0
VERTEX
  8
0
 10
83.5015
 20
97.4476
  0
VERTEX
  8
0
 10
83.5233
 20
97.3833
  0
VERTEX
  8
0
 10
83.5524
 20
97.3237
  0
VERTEX
  8
0
 10
83.589
 20
97.2688
  0
VERTEX
  8
0
 10
83.633
 20
97.2186
  0
VERTEX
  8
0
 10
83.6843
 20
97.173
  0
VERTEX
  8
0
 10
83.741
 20
97.1341
  0
VERTEX
  8
0
 10
83.8006
 20
97.1039
  0
VERTEX
  8
0
 10
83.8634
 20
97.0823
  0
VERTEX
  8
0
 10
83.9292
 20
97.0693
  0
VERTEX
  8
0
 10
83.998
 20
97.065
  0
VERTEX
  8
0
 10
84.0669
 20
97.0692
  0
VERTEX
  8
0
 10
84.1327
 20
97.0819
  0
VERTEX
  8
0
 10
84.1954
 20
97.103
  0
VERTEX
  8
0
 10
84.2551
 20
97.1327
  0
VERTEX
  8
0
 10
84.3117
 20
97.1707
  0
VERTEX
  8
0
 10
84.3631
 20
97.2155
  0
VERTEX
  8
0
 10
84.4071
 20
97.2651
  0
VERTEX
  8
0
 10
84.4436
 20
97.3196
  0
VERTEX
  8
0
 10
84.4728
 20
97.3789
  0
VERTEX
  8
0
 10
84.4945
 20
97.4431
  0
VERTEX
  8
0
 10
84.5347
 20
97.6044
  0
VERTEX
  8
0
 10
84.5696
 20
97.7663
  0
VERTEX
  8
0
 10
84.599
 20
97.929
  0
VERTEX
  8
0
 10
84.6232
 20
98.0924
  0
VERTEX
  8
0
 10
84.6419
 20
98.2565
  0
VERTEX
  8
0
 10
84.6553
 20
98.4213
  0
VERTEX
  8
0
 10
84.6634
 20
98.5868
  0
VERTEX
  8
0
 10
84.666
 20
98.753
  0
VERTEX
  8
0
 10
84.666
 20
98.753
  0
SEQEND
  0
POLYLINE
  8
0
 66
     1
 10
0
 20
0
  0
VERTEX
  8
0
 10
69.7321
 20
88.505
  0
VERTEX
  8
0
 10
68.8216
 20
88.505
  0
VERTEX
  8
0
 10
67.9751
 20
90.53
  0
VERTEX
  8
0
 10
67.1285
 20
88.505
  0
VERTEX
  8
0
 10
66.218
 20
88.505
  0
VERTEX
  8
0
 10
67.5155
 20
91.6087
  0
VERTEX
  8
0
 10
66.315
 20
94.501
  0
VERTEX
  8
0
 10
67.2255
 20
94.501
  0
VERTEX
  8
0
 10
67.975
 20
92.708
  0
VERTEX
  8
0
 10
68.7246
 20
94.501
  0
VERTEX
  8
0
 10
69.6351
 20
94.501
  0
VERTEX
  8
0
 10
68.426
 20
91.6087
  0
VERTEX
  8
0
 10
69.7321
 20
88.505
  0
SEQEND
  0
POLYLINE
  8
0
 66
     1
 10
0
 20
0
  0
VERTEX
  8
0
 10
74.2601
 20
88.505
  0
VERTEX
  8
0
 10
73.3496
 20
88.505
  0
VERTEX
  8
0
 10
72.5031
 20
90.53
  0
VERTEX
  8
0
 10
71.6565
 20
88.505
  0
VERTEX
  8
0
 10
70.746
 20
88.505
  0
VERTEX
  8
0
 10
72.0435
 20
91.6087
  0
VERTEX
  8
0
 10
70.843
 20
94.501
  0
VERTEX
  8
0
 10
71.7535
 20
94.501
  0
VERTEX
  8
0
 10
72.503
 20
92.708
  0
VERTEX
  8
0
 10
73.2526
 20
94.501
  0
VERTEX
  8
0
 10
74.1631
 20
94.501
  0
VERTEX
  8
0
 10
72.954
 20
91.6087
  0
VERTEX
  8
0
 10
74.2601
 20
88.505
  0
SEQEND
  0
POLYLINE
  8
0
 66
     1
 10
0
 20
0
  0
VERTEX
  8
0
 10
76.462
 20
88.925
  0
VERTEX
  8
0
 10
76.4597
 20
88.8734
  0
VERTEX
  8
0
 10
76.4527
 20
88.8235
  0
VERTEX
  8
0
 10
76.4409
 20
88.7755
  0
VERTEX
  8
0
 10
76.4245
 20
88.7292
  0
VERTEX
  8
0
 10
76.4034
 20
88.6847
  0
VERTEX
  8
0
 10
76.3777
 20
88.642
  0
VERTEX
  8
0
 10
76.3472
 20
88.6011
  0
VERTEX
  8
0
 10
76.312
 20
88.562
  0
VERTEX
  8
0
 10
76.2735
 20
88.5261
  0
VERTEX
  8
0
 10
76.2329
 20
88.495
  0
VERTEX
  8
0
 10
76.1902
 20
88.4687
  0
VERTEX
  8
0
 10
76.1455
 20
88.4472
  0
VERTEX
  8
0
 10
76.0987
 20
88.4305
  0
VERTEX
  8
0
 10
76.0499
 20
88.4185
  0
VERTEX
  8
0
 10
75.999
 20
88.4114
  0
VERTEX
  8
0
 10
75.946
 20
88.409
  0
VERTEX
  8
0
 10
75.8944
 20
88.4114
  0
VERTEX
  8
0
 10
75.8446
 20
88.4185
  0
VERTEX
  8
0
 10
75.7965
 20
88.4305
  0
VERTEX
  8
0
 10
75.7503
 20
88.4472
  0
VERTEX
  8
0
 10
75.7058
 20
88.4687
  0
VERTEX
  8
0
 10
75.6631
 20
88.495
  0
VERTEX
  8
0
 10
75.6222
 20
88.5261
  0
VERTEX
  8
0
 10
75.583
 20
88.562
  0
VERTEX
  8
0
 10
75.5472
 20
88.6011
  0
VERTEX
  8
0
 10
75.5161
 20
88.642
  0
VERTEX
  8
0
 10
75.4898
 20
88.6847
  0
VERTEX
  8
0
 10
75.4683
 20
88.7292
  0
VERTEX
  8
0
 10
75.4515
 20
88.7755
  0
VERTEX
  8
0
 10
75.4396
 20
88.8235
  0
VERTEX
  8
0
 10
75.4324
 20
88.8734
  0
VERTEX
  8
0
 10
75.43
 20
88.925
  0
VERTEX
  8
0
 10
75.4324
 20
88.9779
  0
VERTEX
  8
0
 10
75.4396
 20
89.0288
  0
VERTEX
  8
0
 10
75.4515
 20
89.0777
  0
VERTEX
  8
0
 10
75.4683
 20
89.1245
  0
VERTEX
  8
0
 10
75.4898
 20
89.1692
  0
VERTEX
  8
0
 10
75.5161
 20
89.2118
  0
VERTEX
  8
0
 10
75.5472
 20
89.2524
  0
VERTEX
  8
0
 10
75.583
 20
89.291
  0
VERTEX
  8
0
 10
75.6222
 20
89.3261
  0
VERTEX
  8
0
 10
75.6631
 20
89.3566
  0
VERTEX
  8
0
 10
75.7058
 20
89.3824
  0
VERTEX
  8
0
 10
75.7503
 20
89.4035
  0
VERTEX
  8
0
 10
75.7965
 20
89.4199
  0
VERTEX
  8
0
 10
75.8446
 20
89.4316
  0
VERTEX
  8
0
 10
75.8944
 20
89.4386
  0
VERTEX
  8
0
 10
75.946
 20
89.441
  0
VERTEX
  8
0
 10
75.999
 20
89.4386
  0
VERTEX
  8
0
 10
76.0499
 20
89.4316
  0
VERTEX
  8
0
 10
76.0987
 20
89.4199
  0
VERTEX
  8
0
 10
76.1455
 20
89.4035
  0
VERTEX
  8
0
 10
76.1902
 20
89.3824
  0
VERTEX
  8
0
 10
76.2329
 20
89.3566
  0
VERTEX
  8
0
 10
76.2735
 20
89.3261
  0
VERTEX
  8
0
 10
76.312
 20
89.291
  0
VERTEX
  8
0
 10
76.3472
 20
89.2524
  0
VERTEX
  8
0
 10
76.3777
 20
89.2118
  0
VERTEX
  8
0
 10
76.4034
 20
89.1692
  0
VERTEX
  8
0
 10
76.4245
 20
89.1245
  0
VERTEX
  8
0
 10
76.4409
 20
89.0777
  0
VERTEX
  8
0
 10
76.4527
 20
89.0288
  0
VERTEX
  8
0
 10
76.4597
 20
88.9779
  0
VERTEX
  8
0
 10
76.462
 20
88.925
  0
VERTEX
  8
0
 10
76.462
 20
88.925
  0
SEQEND
  0
POLYLINE
  8
0
 66
     1
 10
0
 20
0
  0
VERTEX
  8
0
 10
79.8801
 20
88.505
  0
VERTEX
  8
0
 10
78.9696
 20
88.505
  0
VERTEX
  8
0
 10
78.1231
 20
90.53
  0
VERTEX
  8
0
 10
77.2765
 20
88.505
  0
VERTEX
  8
0
 10
76.366
 20
88.505
  0
VERTEX
  8
0
 10
77.6635
 20
91.6087
  0
VERTEX
  8
0
 10
76.463
 20
94.501
  0
VERTEX
  8
0
 10
77.3735
 20
94.501
  0
VERTEX
  8
0
 10
78.123
 20
92.708
  0
VERTEX
  8
0
 10
78.8726
 20
94.501
  0
VERTEX
  8
0
 10
79.7831
 20
94.501
  0
VERTEX
  8
0
 10
78.574
 20
91.6087
  0
VERTEX
  8
0
 10
79.8801
 20
88.505
  0
SEQEND
  0
POLYLINE
  8
0
 66
     1
 10
0
 20
0
  0
VERTEX
  8
0
 10
88.8765
 20
93.657
  0
VERTEX
  8
0
 10
86.722
 20
93.657
  0
VERTEX
  8
0
 10
86.722
 20
92.157
  0
VERTEX
  8
0
 10
87.942
 20
92.157
  0
VERTEX
  8
0
 10
87.942
 20
91.317
  0
VERTEX
  8
0
 10
86.722
 20
91.317
  0
VERTEX
  8
0
 10
86.722
 20
88.505
  0
VERTEX
  8
0
 10
85.878
 20
88.505
  0
VERTEX
  8
0
 10
85.878
 20
94.501
  0
VERTEX
  8
0
 10
88.8765
 20
94.501
  0
VERTEX
  8
0
 10
88.8765
 20
93.657
  0
SEQEND
  0
POLYLINE
  8
0
 66
     1
 10
0
 20
0
  0
VERTEX
  8
0
 10
93.778
 20
88.505
  0
VERTEX
  8
0
 10
92.938
 20
88.505
  0
VERTEX
  8
0
 10
92.938
 20
91.8752
  0
VERTEX
  8
0
 10
91.837
 20
88.5051
  0
VERTEX
  8
0
 10
90.738
 20
91.8756
  0
VERTEX
  8
0
 10
90.738
 20
88.505
  0
VERTEX
  8
0
 10
89.894
 20
88.505
  0
VERTEX
  8
0
 10
89.894
 20
94.501
  0
VERTEX
  8
0
 10
90.7655
 20
94.501
  0
VERTEX
  8
0
 10
91.8357
 20
91.2188
  0
VERTEX
  8
0
 10
92.908
 20
94.501
  0
VERTEX
  8
0
 10
93.778
 20
94.501
  0
VERTEX
  8
0
 10
93.778
 20
88.505
  0
SEQEND
  0
ENDSEC
  0
EOF