  0
SECTION
  2
HEADER
  9
$ACADVER
  1
AC1009
  0
ENDSEC
  0
SECTION
  2
TABLES
  0
TABLE
  2
STYLE
 70
   1
  0
STYLE
  2
STANDARD
 70
    64
 40
0.0
 41
1.0
 50
0.0
 71
     0
 42
1.0
  3
txt
  4

  0
ENDTAB
  0
ENDSEC
  0
SECTION
  2
ENTITIES
  0
ARC
  8
0
 10
1.5
 20
51.5
 40
1.5
 50
180
 51
270
  0
ARC
  8
0
 10
22.5
 20
51.5
 40
1.5
 50
270
 51
360
  0
ARC
  8
0
 10
22.5
 20
72.5
 40
1.5
 50
0
 51
90
  0
ARC
  8
0
 10
1.5
 20
72.5
 40
1.5
 50
90
 51
180
  0
POLYLINE
  8
0
 66
     1
 10
0
 20
0
  0
VERTEX
  8
0
 10
1.5
 20
50
  0
VERTEX
  8
0
 10
22.5
 20
50
  0
SEQEND
  0
POLYLINE
  8
0
 66
     1
 10
0
 20
0
  0
VERTEX
  8
0
 10
24
 20
51.5
  0
VERTEX
  8
0
 10
24
 20
72.5
  0
SEQEND
  0
POLYLINE
  8
0
 66
     1
 10
0
 20
0
  0
VERTEX
  8
0
 10
22.5
 20
74
  0
VERTEX
  8
0
 10
1.5
 20
74
  0
SEQEND
  0
POLYLINE
  8
0
 66
     1
 10
0
 20
0
  0
VERTEX
  8
0
 10
0
 20
72.5
  0
VERTEX
  8
0
 10
0
 20
51.5
  0
SEQEND
  0
ARC
  8
0
 10
1.5
 20
51.5
 40
1
 50
180
 51
270
  0
ARC
  8
0
 10
1.5
 20
51.5
 40
0.5
 50
180
 51
270
  0
ARC
  8
0
 10
22.5
 20
51.5
 40
1
 50
270
 51
360
  0
ARC
  8
0
 10
22.5
 20
51.5
 40
0.5
 50
270
 51
360
  0
ARC
  8
0
 10
22.5
 20
72.5
 40
1
 50
0
 51
90
  0
ARC
  8
0
 10
22.5
 20
72.5
 40
0.5
 50
0
 51
90
  0
ARC
  8
0
 10
1.5
 20
72.5
 40
1
 50
90
 51
180
  0
ARC
  8
0
 10
1.5
 20
72.5
 40
0.5
 50
90
 51
180
  0
POLYLINE
  8
0
 66
     1
 10
0
 20
0
  0
VERTEX
  8
0
 10
1.5
 20
51
  0
VERTEX
  8
0
 10
22.5
 20
51
  0
SEQEND
  0
POLYLINE
  8
0
 66
     1
 10
0
 20
0
  0
VERTEX
  8
0
 10
22.5
 20
50.5
  0
VERTEX
  8
0
 10
1.5
 20
50.5
  0
SEQEND
  0
POLYLINE
  8
0
 66
     1
 10
0
 20
0
  0
VERTEX
  8
0
 10
23
 20
51.5
  0
VERTEX
  8
0
 10
23
 20
72.5
  0
SEQEND
  0
POLYLINE
  8
0
 66
     1
 10
0
 20
0
  0
VERTEX
  8
0
 10
23.5
 20
72.5
  0
VERTEX
  8
0
 10
23.5
 20
51.5
  0
SEQEND
  0
POLYLINE
  8
0
 66
     1
 10
0
 20
0
  0
VERTEX
  8
0
 10
22.5
 20
73
  0
VERTEX
  8
0
 10
1.5
 20
73
  0
SEQEND
  0
POLYLINE
  8
0
 66
     1
 10
0
 20
0
  0
VERTEX
  8
0
 10
1.5
 20
73.5
  0
VERTEX
  8
0
 10
22.5
 20
73.5
  0
SEQEND
  0
POLYLINE
  8
0
 66
     1
 10
0
 20
0
  0
VERTEX
  8
0
 10
1
 20
72.5
  0
VERTEX
  8
0
 10
1
 20
51.5
  0
SEQEND
  0
POLYLINE
  8
0
 66
     1
 10
0
 20
0
  0
VERTEX
  8
0
 10
0.5
 20
51.5
  0
VERTEX
  8
0
 10
0.5
 20
72.5
  0
SEQEND
  0
POLYLINE
  8
0
 66
     1
 10
0
 20
0
  0
VERTEX
  8
0
 10
25.808
 20
73.2788
  0
VERTEX
  8
0
 10
25.904
 20
73.2788
  0
VERTEX
  8
0
 10
25.904
 20
72.7348
  0
VERTEX
  8
0
 10
25.86
 20
72.7388
  0
VERTEX
  8
0
 10
25.815
 20
72.7532
  0
VERTEX
  8
0
 10
25.7691
 20
72.7779
  0
VERTEX
  8
0
 10
25.7221
 20
72.813
  0
VERTEX
  8
0
 10
25.6627
 20
72.8696
  0
VERTEX
  8
0
 10
25.5959
 20
72.9458
  0
VERTEX
  8
0
 10
25.5445
 20
73.0065
  0
VERTEX
  8
0
 10
25.5009
 20
73.0546
  0
VERTEX
  8
0
 10
25.4652
 20
73.0899
  0
VERTEX
  8
0
 10
25.4197
 20
73.127
  0
VERTEX
  8
0
 10
25.3764
 20
73.1536
  0
VERTEX
  8
0
 10
25.3353
 20
73.1695
  0
VERTEX
  8
0
 10
25.2963
 20
73.1748
  0
VERTEX
  8
0
 10
25.2377
 20
73.1633
  0
VERTEX
  8
0
 10
25.1912
 20
73.1287
  0
VERTEX
  8
0
 10
25.1621
 20
73.0794
  0
VERTEX
  8
0
 10
25.152
 20
73.0195
  0
VERTEX
  8
0
 10
25.1629
 20
72.9523
  0
VERTEX
  8
0
 10
25.197
 20
72.9014
  0
VERTEX
  8
0
 10
25.2504
 20
72.8691
  0
VERTEX
  8
0
 10
25.3194
 20
72.858
  0
VERTEX
  8
0
 10
25.3086
 20
72.754
  0
VERTEX
  8
0
 10
25.2536
 20
72.7628
  0
VERTEX
  8
0
 10
25.2055
 20
72.7791
  0
VERTEX
  8
0
 10
25.1642
 20
72.803
  0
VERTEX
  8
0
 10
25.1298
 20
72.8344
  0
VERTEX
  8
0
 10
25.0955
 20
72.8865
  0
VERTEX
  8
0
 10
25.0748
 20
72.9489
  0
VERTEX
  8
0
 10
25.068
 20
73.0217
  0
VERTEX
  8
0
 10
25.0746
 20
73.0903
  0
VERTEX
  8
0
 10
25.0946
 20
73.1505
  0
VERTEX
  8
0
 10
25.1278
 20
73.2023
  0
VERTEX
  8
0
 10
25.1625
 20
73.2358
  0
VERTEX
  8
0
 10
25.2027
 20
73.2597
  0
VERTEX
  8
0
 10
25.2485
 20
73.274
  0
VERTEX
  8
0
 10
25.2998
 20
73.2788
  0
VERTEX
  8
0
 10
25.3498
 20
73.2733
  0
VERTEX
  8
0
 10
25.3998
 20
73.2569
  0
VERTEX
  8
0
 10
25.45
 20
73.2295
  0
VERTEX
  8
0
 10
25.5003
 20
73.1911
  0
VERTEX
  8
0
 10
25.5412
 20
73.1523
  0
VERTEX
  8
0
 10
25.5902
 20
73.1005
  0
VERTEX
  8
0
 10
25.6473
 20
73.0355
  0
VERTEX
  8
0
 10
25.6832
 20
72.9934
  0
VERTEX
  8
0
 10
25.7081
 20
72.9648
  0
VERTEX
  8
0
 10
25.722
 20
72.9495
  0
VERTEX
  8
0
 10
25.7657
 20
72.9075
  0
VERTEX
  8
0
 10
25.808
 20
72.8759
  0
VERTEX
  8
0
 10
25.808
 20
73.2788
  0
SEQEND
  0
LINE
  8
0
 10
25.5
 20
73.4743
 11
25.5
 21
74
  0
LINE
  8
0
 10
25.6789
 20
73.6422
 11
25.5
 21
74
  0
LINE
  8
0
 10
25.3211
 20
73.6422
 11
25.5
 21
74
  0
LINE
  8
0
 10
25.7
 20
74
 11
24.5
 21
74
  0
LINE
  8
0
 10
25.5
 20
72.5257
 11
25.5
 21
72
  0
LINE
  8
0
 10
25.3211
 20
72.3578
 11
25.5
 21
72
  0
LINE
  8
0
 10
25.6789
 20
72.3578
 11
25.5
 21
72
  0
LINE
  8
0
 10
25.7
 20
72
 11
24.5
 21
72
  0
POLYLINE
  8
0
 66
     1
 10
0
 20
0
  0
VERTEX
  8
0
 10
25.808
 20
61.9548
  0
VERTEX
  8
0
 10
25.904
 20
61.9548
  0
VERTEX
  8
0
 10
25.904
 20
61.4108
  0
VERTEX
  8
0
 10
25.86
 20
61.4148
  0
VERTEX
  8
0
 10
25.815
 20
61.4292
  0
VERTEX
  8
0
 10
25.7691
 20
61.4539
  0
VERTEX
  8
0
 10
25.7221
 20
61.489
  0
VERTEX
  8
0
 10
25.6627
 20
61.5456
  0
VERTEX
  8
0
 10
25.5959
 20
61.6218
  0
VERTEX
  8
0
 10
25.5445
 20
61.6825
  0
VERTEX
  8
0
 10
25.5009
 20
61.7306
  0
VERTEX
  8
0
 10
25.4652
 20
61.7659
  0
VERTEX
  8
0
 10
25.4197
 20
61.803
  0
VERTEX
  8
0
 10
25.3764
 20
61.8296
  0
VERTEX
  8
0
 10
25.3353
 20
61.8455
  0
VERTEX
  8
0
 10
25.2963
 20
61.8508
  0
VERTEX
  8
0
 10
25.2377
 20
61.8393
  0
VERTEX
  8
0
 10
25.1912
 20
61.8047
  0
VERTEX
  8
0
 10
25.1621
 20
61.7554
  0
VERTEX
  8
0
 10
25.152
 20
61.6955
  0
VERTEX
  8
0
 10
25.1629
 20
61.6283
  0
VERTEX
  8
0
 10
25.197
 20
61.5774
  0
VERTEX
  8
0
 10
25.2504
 20
61.5451
  0
VERTEX
  8
0
 10
25.3194
 20
61.534
  0
VERTEX
  8
0
 10
25.3086
 20
61.43
  0
VERTEX
  8
0
 10
25.2536
 20
61.4388
  0
VERTEX
  8
0
 10
25.2055
 20
61.4551
  0
VERTEX
  8
0
 10
25.1642
 20
61.479
  0
VERTEX
  8
0
 10
25.1298
 20
61.5104
  0
VERTEX
  8
0
 10
25.0955
 20
61.5625
  0
VERTEX
  8
0
 10
25.0748
 20
61.6249
  0
VERTEX
  8
0
 10
25.068
 20
61.6977
  0
VERTEX
  8
0
 10
25.0746
 20
61.7663
  0
VERTEX
  8
0
 10
25.0946
 20
61.8265
  0
VERTEX
  8
0
 10
25.1278
 20
61.8783
  0
VERTEX
  8
0
 10
25.1625
 20
61.9118
  0
VERTEX
  8
0
 10
25.2027
 20
61.9357
  0
VERTEX
  8
0
 10
25.2485
 20
61.95
  0
VERTEX
  8
0
 10
25.2998
 20
61.9548
  0
VERTEX
  8
0
 10
25.3498
 20
61.9493
  0
VERTEX
  8
0
 10
25.3998
 20
61.9329
  0
VERTEX
  8
0
 10
25.45
 20
61.9055
  0
VERTEX
  8
0
 10
25.5003
 20
61.8671
  0
VERTEX
  8
0
 10
25.5412
 20
61.8283
  0
VERTEX
  8
0
 10
25.5902
 20
61.7765
  0
VERTEX
  8
0
 10
25.6473
 20
61.7115
  0
VERTEX
  8
0
 10
25.6832
 20
61.6694
  0
VERTEX
  8
0
 10
25.7081
 20
61.6408
  0
VERTEX
  8
0
 10
25.722
 20
61.6255
  0
VERTEX
  8
0
 10
25.7657
 20
61.5835
  0
VERTEX
  8
0
 10
25.808
 20
61.5519
  0
VERTEX
  8
0
 10
25.808
 20
61.9548
  0
SEQEND
  0
POLYLINE
  8
0
 66
     1
 10
0
 20
0
  0
VERTEX
  8
0
 10
25.4923
 20
62.0628
  0
VERTEX
  8
0
 10
25.4387
 20
62.064
  0
VERTEX
  8
0
 10
25.3886
 20
62.0676
  0
VERTEX
  8
0
 10
25.3421
 20
62.0736
  0
VERTEX
  8
0
 10
25.2992
 20
62.0819
  0
VERTEX
  8
0
 10
25.2598
 20
62.0927
  0
VERTEX
  8
0
 10
25.2241
 20
62.1059
  0
VERTEX
  8
0
 10
25.1919
 20
62.1215
  0
VERTEX
  8
0
 10
25.1632
 20
62.1394
  0
VERTEX
  8
0
 10
25.1382
 20
62.1598
  0
VERTEX
  8
0
 10
25.1167
 20
62.1825
  0
VERTEX
  8
0
 10
25.0804
 20
62.2495
  0
VERTEX
  8
0
 10
25.068
 20
62.3328
  0
VERTEX
  8
0
 10
25.0745
 20
62.3945
  0
VERTEX
  8
0
 10
25.0952
 20
62.4497
  0
VERTEX
  8
0
 10
25.1193
 20
62.4855
  0
VERTEX
  8
0
 10
25.1515
 20
62.5168
  0
VERTEX
  8
0
 10
25.1918
 20
62.5437
  0
VERTEX
  8
0
 10
25.24
 20
62.5661
  0
VERTEX
  8
0
 10
25.2963
 20
62.5842
  0
VERTEX
  8
0
 10
25.381
 20
62.5981
  0
VERTEX
  8
0
 10
25.4923
 20
62.6028
  0
VERTEX
  8
0
 10
25.5458
 20
62.6016
  0
VERTEX
  8
0
 10
25.5957
 20
62.598
  0
VERTEX
  8
0
 10
25.6421
 20
62.592
  0
VERTEX
  8
0
 10
25.685
 20
62.5836
  0
VERTEX
  8
0
 10
25.7243
 20
62.5729
  0
VERTEX
  8
0
 10
25.76
 20
62.5597
  0
VERTEX
  8
0
 10
25.7921
 20
62.5441
  0
VERTEX
  8
0
 10
25.8207
 20
62.5261
  0
VERTEX
  8
0
 10
25.8458
 20
62.5058
  0
VERTEX
  8
0
 10
25.8673
 20
62.483
  0
VERTEX
  8
0
 10
25.9035
 20
62.4161
  0
VERTEX
  8
0
 10
25.916
 20
62.3328
  0
VERTEX
  8
0
 10
25.9154
 20
62.3117
  0
VERTEX
  8
0
 10
25.9134
 20
62.2914
  0
VERTEX
  8
0
 10
25.9101
 20
62.272
  0
VERTEX
  8
0
 10
25.9054
 20
62.2535
  0
VERTEX
  8
0
 10
25.8994
 20
62.2358
  0
VERTEX
  8
0
 10
25.892
 20
62.2189
  0
VERTEX
  8
0
 10
25.8832
 20
62.203
  0
VERTEX
  8
0
 10
25.8731
 20
62.1879
  0
VERTEX
  8
0
 10
25.8616
 20
62.1736
  0
VERTEX
  8
0
 10
25.8487
 20
62.1603
  0
VERTEX
  8
0
 10
25.8345
 20
62.1477
  0
VERTEX
  8
0
 10
25.8189
 20
62.1361
  0
VERTEX
  8
0
 10
25.802
 20
62.1253
  0
VERTEX
  8
0
 10
25.7837
 20
62.1153
  0
VERTEX
  8
0
 10
25.764
 20
62.1063
  0
VERTEX
  8
0
 10
25.7429
 20
62.098
  0
VERTEX
  8
0
 10
25.7205
 20
62.0907
  0
VERTEX
  8
0
 10
25.6968
 20
62.0842
  0
VERTEX
  8
0
 10
25.6717
 20
62.0785
  0
VERTEX
  8
0
 10
25.6452
 20
62.0738
  0
VERTEX
  8
0
 10
25.6173
 20
62.0699
  0
VERTEX
  8
0
 10
25.5881
 20
62.0668
  0
VERTEX
  8
0
 10
25.5575
 20
62.0646
  0
VERTEX
  8
0
 10
25.5256
 20
62.0633
  0
VERTEX
  8
0
 10
25.4923
 20
62.0628
  0
VERTEX
  8
0
 10
25.4923
 20
62.0628
  0
SEQEND
  0
POLYLINE
  8
0
 66
     1
 10
0
 20
0
  0
VERTEX
  8
0
 10
25.492
 20
62.1668
  0
VERTEX
  8
0
 10
25.5772
 20
62.1692
  0
VERTEX
  8
0
 10
25.6479
 20
62.1766
  0
VERTEX
  8
0
 10
25.7039
 20
62.1889
  0
VERTEX
  8
0
 10
25.7377
 20
62.2011
  0
VERTEX
  8
0
 10
25.7664
 20
62.2161
  0
VERTEX
  8
0
 10
25.7899
 20
62.2339
  0
VERTEX
  8
0
 10
25.8082
 20
62.2545
  0
VERTEX
  8
0
 10
25.8213
 20
62.2778
  0
VERTEX
  8
0
 10
25.8292
 20
62.3039
  0
VERTEX
  8
0
 10
25.832
 20
62.3328
  0
VERTEX
  8
0
 10
25.8311
 20
62.3498
  0
VERTEX
  8
0
 10
25.8284
 20
62.3659
  0
VERTEX
  8
0
 10
25.8238
 20
62.3811
  0
VERTEX
  8
0
 10
25.8173
 20
62.3953
  0
VERTEX
  8
0
 10
25.8089
 20
62.4087
  0
VERTEX
  8
0
 10
25.7986
 20
62.4211
  0
VERTEX
  8
0
 10
25.7863
 20
62.4326
  0
VERTEX
  8
0
 10
25.7722
 20
62.4431
  0
VERTEX
  8
0
 10
25.7562
 20
62.4528
  0
VERTEX
  8
0
 10
25.7383
 20
62.4615
  0
VERTEX
  8
0
 10
25.7186
 20
62.4694
  0
VERTEX
  8
0
 10
25.6969
 20
62.4763
  0
VERTEX
  8
0
 10
25.6733
 20
62.4822
  0
VERTEX
  8
0
 10
25.6478
 20
62.4873
  0
VERTEX
  8
0
 10
25.6204
 20
62.4914
  0
VERTEX
  8
0
 10
25.5912
 20
62.4946
  0
VERTEX
  8
0
 10
25.56
 20
62.4969
  0
VERTEX
  8
0
 10
25.5269
 20
62.4983
  0
VERTEX
  8
0
 10
25.492
 20
62.4988
  0
VERTEX
  8
0
 10
25.4067
 20
62.4963
  0
VERTEX
  8
0
 10
25.3361
 20
62.489
  0
VERTEX
  8
0
 10
25.28
 20
62.4767
  0
VERTEX
  8
0
 10
25.2462
 20
62.4643
  0
VERTEX
  8
0
 10
25.2175
 20
62.4491
  0
VERTEX
  8
0
 10
25.1941
 20
62.4312
  0
VERTEX
  8
0
 10
25.1758
 20
62.4105
  0
VERTEX
  8
0
 10
25.1627
 20
62.387
  0
VERTEX
  8
0
 10
25.1547
 20
62.3607
  0
VERTEX
  8
0
 10
25.152
 20
62.3317
  0
VERTEX
  8
0
 10
25.1583
 20
62.288
  0
VERTEX
  8
0
 10
25.1782
 20
62.2506
  0
VERTEX
  8
0
 10
25.2115
 20
62.2195
  0
VERTEX
  8
0
 10
25.2355
 20
62.2055
  0
VERTEX
  8
0
 10
25.2649
 20
62.1937
  0
VERTEX
  8
0
 10
25.2996
 20
62.184
  0
VERTEX
  8
0
 10
25.3397
 20
62.1765
  0
VERTEX
  8
0
 10
25.3851
 20
62.1711
  0
VERTEX
  8
0
 10
25.4359
 20
62.1679
  0
VERTEX
  8
0
 10
25.492
 20
62.1668
  0
VERTEX
  8
0
 10
25.492
 20
62.1668
  0
SEQEND
  0
LINE
  8
0
 10
25.5
 20
62.799
 11
25.5
 21
72
  0
LINE
  8
0
 10
25.6789
 20
71.6422
 11
25.5
 21
72
  0
LINE
  8
0
 10
25.3211
 20
71.6422
 11
25.5
 21
72
  0
LINE
  8
0
 10
25.5
 20
61.201
 11
25.5
 21
52
  0
LINE
  8
0
 10
25.3211
 20
52.3578
 11
25.5
 21
52
  0
LINE
  8
0
 10
25.6789
 20
52.3578
 11
25.5
 21
52
  0
LINE
  8
0
 10
25.7
 20
52
 11
24.5
 21
52
  0
POLYLINE
  8
0
 66
     1
 10
0
 20
0
  0
VERTEX
  8
0
 10
1.272
 20
48.1948
  0
VERTEX
  8
0
 10
1.272
 20
48.0988
  0
VERTEX
  8
0
 10
0.728
 20
48.0988
  0
VERTEX
  8
0
 10
0.732
 20
48.1428
  0
VERTEX
  8
0
 10
0.7464
 20
48.1877
  0
VERTEX
  8
0
 10
0.7711
 20
48.2337
  0
VERTEX
  8
0
 10
0.8062
 20
48.2807
  0
VERTEX
  8
0
 10
0.8627
 20
48.3401
  0
VERTEX
  8
0
 10
0.939
 20
48.4069
  0
VERTEX
  8
0
 10
0.9997
 20
48.4583
  0
VERTEX
  8
0
 10
1.0477
 20
48.5019
  0
VERTEX
  8
0
 10
1.083
 20
48.5376
  0
VERTEX
  8
0
 10
1.1202
 20
48.5831
  0
VERTEX
  8
0
 10
1.1467
 20
48.6264
  0
VERTEX
  8
0
 10
1.1627
 20
48.6675
  0
VERTEX
  8
0
 10
1.168
 20
48.7064
  0
VERTEX
  8
0
 10
1.1564
 20
48.7651
  0
VERTEX
  8
0
 10
1.1218
 20
48.8115
  0
VERTEX
  8
0
 10
1.0726
 20
48.8407
  0
VERTEX
  8
0
 10
1.0127
 20
48.8508
  0
VERTEX
  8
0
 10
0.9455
 20
48.8398
  0
VERTEX
  8
0
 10
0.8945
 20
48.8058
  0
VERTEX
  8
0
 10
0.8623
 20
48.7524
  0
VERTEX
  8
0
 10
0.8512
 20
48.6834
  0
VERTEX
  8
0
 10
0.7472
 20
48.6942
  0
VERTEX
  8
0
 10
0.756
 20
48.7492
  0
VERTEX
  8
0
 10
0.7723
 20
48.7973
  0
VERTEX
  8
0
 10
0.7962
 20
48.8385
  0
VERTEX
  8
0
 10
0.8276
 20
48.8729
  0
VERTEX
  8
0
 10
0.8797
 20
48.9073
  0
VERTEX
  8
0
 10
0.9421
 20
48.9279
  0
VERTEX
  8
0
 10
1.0149
 20
48.9348
  0
VERTEX
  8
0
 10
1.0835
 20
48.9281
  0
VERTEX
  8
0
 10
1.1437
 20
48.9082
  0
VERTEX
  8
0
 10
1.1955
 20
48.875
  0
VERTEX
  8
0
 10
1.2289
 20
48.8403
  0
VERTEX
  8
0
 10
1.2528
 20
48.8001
  0
VERTEX
  8
0
 10
1.2672
 20
48.7543
  0
VERTEX
  8
0
 10
1.272
 20
48.7029
  0
VERTEX
  8
0
 10
1.2665
 20
48.653
  0
VERTEX
  8
0
 10
1.25
 20
48.6029
  0
VERTEX
  8
0
 10
1.2226
 20
48.5527
  0
VERTEX
  8
0
 10
1.1843
 20
48.5024
  0
VERTEX
  8
0
 10
1.1455
 20
48.4615
  0
VERTEX
  8
0
 10
1.0936
 20
48.4125
  0
VERTEX
  8
0
 10
1.0287
 20
48.3554
  0
VERTEX
  8
0
 10
0.9866
 20
48.3195
  0
VERTEX
  8
0
 10
0.958
 20
48.2947
  0
VERTEX
  8
0
 10
0.9427
 20
48.2808
  0
VERTEX
  8
0
 10
0.9007
 20
48.2371
  0
VERTEX
  8
0
 10
0.869
 20
48.1948
  0
VERTEX
  8
0
 10
1.272
 20
48.1948
  0
SEQEND
  0
LINE
  8
0
 10
1.4743
 20
48.5
 11
2
 21
48.5
  0
LINE
  8
0
 10
1.6422
 20
48.3211
 11
2
 21
48.5
  0
LINE
  8
0
 10
1.6422
 20
48.6789
 11
2
 21
48.5
  0
LINE
  8
0
 10
2
 20
48.3
 11
2
 21
49.5
  0
LINE
  8
0
 10
0.5257
 20
48.5
 11
0
 21
48.5
  0
LINE
  8
0
 10
0.3578
 20
48.6789
 11
0
 21
48.5
  0
LINE
  8
0
 10
0.3578
 20
48.3211
 11
0
 21
48.5
  0
LINE
  8
0
 10
0
 20
48.3
 11
0
 21
49.5
  0
POLYLINE
  8
0
 66
     1
 10
0
 20
0
  0
VERTEX
  8
0
 10
11.948
 20
48.1948
  0
VERTEX
  8
0
 10
11.948
 20
48.0988
  0
VERTEX
  8
0
 10
11.404
 20
48.0988
  0
VERTEX
  8
0
 10
11.408
 20
48.1428
  0
VERTEX
  8
0
 10
11.4224
 20
48.1877
  0
VERTEX
  8
0
 10
11.4471
 20
48.2337
  0
VERTEX
  8
0
 10
11.4822
 20
48.2807
  0
VERTEX
  8
0
 10
11.5387
 20
48.3401
  0
VERTEX
  8
0
 10
11.615
 20
48.4069
  0
VERTEX
  8
0
 10
11.6757
 20
48.4583
  0
VERTEX
  8
0
 10
11.7237
 20
48.5019
  0
VERTEX
  8
0
 10
11.759
 20
48.5376
  0
VERTEX
  8
0
 10
11.7962
 20
48.5831
  0
VERTEX
  8
0
 10
11.8227
 20
48.6264
  0
VERTEX
  8
0
 10
11.8387
 20
48.6675
  0
VERTEX
  8
0
 10
11.844
 20
48.7064
  0
VERTEX
  8
0
 10
11.8324
 20
48.7651
  0
VERTEX
  8
0
 10
11.7978
 20
48.8115
  0
VERTEX
  8
0
 10
11.7486
 20
48.8407
  0
VERTEX
  8
0
 10
11.6887
 20
48.8508
  0
VERTEX
  8
0
 10
11.6215
 20
48.8398
  0
VERTEX
  8
0
 10
11.5705
 20
48.8058
  0
VERTEX
  8
0
 10
11.5383
 20
48.7524
  0
VERTEX
  8
0
 10
11.5272
 20
48.6834
  0
VERTEX
  8
0
 10
11.4232
 20
48.6942
  0
VERTEX
  8
0
 10
11.432
 20
48.7492
  0
VERTEX
  8
0
 10
11.4483
 20
48.7973
  0
VERTEX
  8
0
 10
11.4722
 20
48.8385
  0
VERTEX
  8
0
 10
11.5036
 20
48.8729
  0
VERTEX
  8
0
 10
11.5557
 20
48.9073
  0
VERTEX
  8
0
 10
11.6181
 20
48.9279
  0
VERTEX
  8
0
 10
11.6909
 20
48.9348
  0
VERTEX
  8
0
 10
11.7595
 20
48.9281
  0
VERTEX
  8
0
 10
11.8197
 20
48.9082
  0
VERTEX
  8
0
 10
11.8715
 20
48.875
  0
VERTEX
  8
0
 10
11.9049
 20
48.8403
  0
VERTEX
  8
0
 10
11.9288
 20
48.8001
  0
VERTEX
  8
0
 10
11.9432
 20
48.7543
  0
VERTEX
  8
0
 10
11.948
 20
48.7029
  0
VERTEX
  8
0
 10
11.9425
 20
48.653
  0
VERTEX
  8
0
 10
11.926
 20
48.6029
  0
VERTEX
  8
0
 10
11.8986
 20
48.5527
  0
VERTEX
  8
0
 10
11.8603
 20
48.5024
  0
VERTEX
  8
0
 10
11.8215
 20
48.4615
  0
VERTEX
  8
0
 10
11.7696
 20
48.4125
  0
VERTEX
  8
0
 10
11.7047
 20
48.3554
  0
VERTEX
  8
0
 10
11.6626
 20
48.3195
  0
VERTEX
  8
0
 10
11.634
 20
48.2947
  0
VERTEX
  8
0
 10
11.6187
 20
48.2808
  0
VERTEX
  8
0
 10
11.5767
 20
48.2371
  0
VERTEX
  8
0
 10
11.545
 20
48.1948
  0
VERTEX
  8
0
 10
11.948
 20
48.1948
  0
SEQEND
  0
POLYLINE
  8
0
 66
     1
 10
0
 20
0
  0
VERTEX
  8
0
 10
12.06
 20
48.5105
  0
VERTEX
  8
0
 10
12.0612
 20
48.5641
  0
VERTEX
  8
0
 10
12.0648
 20
48.6142
  0
VERTEX
  8
0
 10
12.0707
 20
48.6606
  0
VERTEX
  8
0
 10
12.0791
 20
48.7036
  0
VERTEX
  8
0
 10
12.0899
 20
48.7429
  0
VERTEX
  8
0
 10
12.1031
 20
48.7787
  0
VERTEX
  8
0
 10
12.1186
 20
48.8109
  0
VERTEX
  8
0
 10
12.1366
 20
48.8395
  0
VERTEX
  8
0
 10
12.157
 20
48.8646
  0
VERTEX
  8
0
 10
12.1797
 20
48.8861
  0
VERTEX
  8
0
 10
12.2467
 20
48.9223
  0
VERTEX
  8
0
 10
12.33
 20
48.9348
  0
VERTEX
  8
0
 10
12.3917
 20
48.9283
  0
VERTEX
  8
0
 10
12.4469
 20
48.9076
  0
VERTEX
  8
0
 10
12.4826
 20
48.8834
  0
VERTEX
  8
0
 10
12.514
 20
48.8512
  0
VERTEX
  8
0
 10
12.5408
 20
48.811
  0
VERTEX
  8
0
 10
12.5633
 20
48.7627
  0
VERTEX
  8
0
 10
12.5813
 20
48.7065
  0
VERTEX
  8
0
 10
12.5953
 20
48.6218
  0
VERTEX
  8
0
 10
12.6
 20
48.5105
  0
VERTEX
  8
0
 10
12.5988
 20
48.457
  0
VERTEX
  8
0
 10
12.5952
 20
48.407
  0
VERTEX
  8
0
 10
12.5892
 20
48.3606
  0
VERTEX
  8
0
 10
12.5808
 20
48.3178
  0
VERTEX
  8
0
 10
12.57
 20
48.2785
  0
VERTEX
  8
0
 10
12.5569
 20
48.2428
  0
VERTEX
  8
0
 10
12.5413
 20
48.2106
  0
VERTEX
  8
0
 10
12.5233
 20
48.182
  0
VERTEX
  8
0
 10
12.503
 20
48.157
  0
VERTEX
  8
0
 10
12.4802
 20
48.1355
  0
VERTEX
  8
0
 10
12.4133
 20
48.0992
  0
VERTEX
  8
0
 10
12.33
 20
48.0868
  0
VERTEX
  8
0
 10
12.3088
 20
48.0874
  0
VERTEX
  8
0
 10
12.2886
 20
48.0893
  0
VERTEX
  8
0
 10
12.2692
 20
48.0927
  0
VERTEX
  8
0
 10
12.2506
 20
48.0973
  0
VERTEX
  8
0
 10
12.2329
 20
48.1034
  0
VERTEX
  8
0
 10
12.2161
 20
48.1108
  0
VERTEX
  8
0
 10
12.2002
 20
48.1196
  0
VERTEX
  8
0
 10
12.1851
 20
48.1297
  0
VERTEX
  8
0
 10
12.1708
 20
48.1412
  0
VERTEX
  8
0
 10
12.1574
 20
48.154
  0
VERTEX
  8
0
 10
12.1449
 20
48.1683
  0
VERTEX
  8
0
 10
12.1333
 20
48.1838
  0
VERTEX
  8
0
 10
12.1225
 20
48.2008
  0
VERTEX
  8
0
 10
12.1125
 20
48.2191
  0
VERTEX
  8
0
 10
12.1034
 20
48.2388
  0
VERTEX
  8
0
 10
12.0952
 20
48.2598
  0
VERTEX
  8
0
 10
12.0879
 20
48.2822
  0
VERTEX
  8
0
 10
12.0814
 20
48.306
  0
VERTEX
  8
0
 10
12.0757
 20
48.3311
  0
VERTEX
  8
0
 10
12.0709
 20
48.3576
  0
VERTEX
  8
0
 10
12.067
 20
48.3854
  0
VERTEX
  8
0
 10
12.064
 20
48.4147
  0
VERTEX
  8
0
 10
12.0618
 20
48.4452
  0
VERTEX
  8
0
 10
12.0604
 20
48.4772
  0
VERTEX
  8
0
 10
12.06
 20
48.5105
  0
VERTEX
  8
0
 10
12.06
 20
48.5105
  0
SEQEND
  0
POLYLINE
  8
0
 66
     1
 10
0
 20
0
  0
VERTEX
  8
0
 10
12.164
 20
48.5108
  0
VERTEX
  8
0
 10
12.1664
 20
48.4255
  0
VERTEX
  8
0
 10
12.1738
 20
48.3549
  0
VERTEX
  8
0
 10
12.1861
 20
48.2989
  0
VERTEX
  8
0
 10
12.1983
 20
48.265
  0
VERTEX
  8
0
 10
12.2133
 20
48.2364
  0
VERTEX
  8
0
 10
12.2311
 20
48.2129
  0
VERTEX
  8
0
 10
12.2517
 20
48.1946
  0
VERTEX
  8
0
 10
12.275
 20
48.1815
  0
VERTEX
  8
0
 10
12.3011
 20
48.1735
  0
VERTEX
  8
0
 10
12.33
 20
48.1708
  0
VERTEX
  8
0
 10
12.347
 20
48.1716
  0
VERTEX
  8
0
 10
12.3631
 20
48.1743
  0
VERTEX
  8
0
 10
12.3783
 20
48.179
  0
VERTEX
  8
0
 10
12.3925
 20
48.1855
  0
VERTEX
  8
0
 10
12.4058
 20
48.1939
  0
VERTEX
  8
0
 10
12.4183
 20
48.2042
  0
VERTEX
  8
0
 10
12.4298
 20
48.2164
  0
VERTEX
  8
0
 10
12.4403
 20
48.2305
  0
VERTEX
  8
0
 10
12.45
 20
48.2465
  0
VERTEX
  8
0
 10
12.4587
 20
48.2644
  0
VERTEX
  8
0
 10
12.4665
 20
48.2842
  0
VERTEX
  8
0
 10
12.4734
 20
48.3059
  0
VERTEX
  8
0
 10
12.4794
 20
48.3295
  0
VERTEX
  8
0
 10
12.4845
 20
48.3549
  0
VERTEX
  8
0
 10
12.4886
 20
48.3823
  0
VERTEX
  8
0
 10
12.4918
 20
48.4116
  0
VERTEX
  8
0
 10
12.4941
 20
48.4428
  0
VERTEX
  8
0
 10
12.4955
 20
48.4758
  0
VERTEX
  8
0
 10
12.496
 20
48.5108
  0
VERTEX
  8
0
 10
12.4935
 20
48.596
  0
VERTEX
  8
0
 10
12.4861
 20
48.6667
  0
VERTEX
  8
0
 10
12.4738
 20
48.7227
  0
VERTEX
  8
0
 10
12.4615
 20
48.7566
  0
VERTEX
  8
0
 10
12.4463
 20
48.7852
  0
VERTEX
  8
0
 10
12.4284
 20
48.8087
  0
VERTEX
  8
0
 10
12.4076
 20
48.827
  0
VERTEX
  8
0
 10
12.3842
 20
48.8401
  0
VERTEX
  8
0
 10
12.3579
 20
48.848
  0
VERTEX
  8
0
 10
12.3288
 20
48.8508
  0
VERTEX
  8
0
 10
12.2852
 20
48.8444
  0
VERTEX
  8
0
 10
12.2478
 20
48.8246
  0
VERTEX
  8
0
 10
12.2167
 20
48.7913
  0
VERTEX
  8
0
 10
12.2027
 20
48.7672
  0
VERTEX
  8
0
 10
12.1909
 20
48.7379
  0
VERTEX
  8
0
 10
12.1812
 20
48.7031
  0
VERTEX
  8
0
 10
12.1736
 20
48.6631
  0
VERTEX
  8
0
 10
12.1683
 20
48.6176
  0
VERTEX
  8
0
 10
12.165
 20
48.5669
  0
VERTEX
  8
0
 10
12.164
 20
48.5108
  0
VERTEX
  8
0
 10
12.164
 20
48.5108
  0
SEQEND
  0
LINE
  8
0
 10
12.799
 20
48.5
 11
22
 21
48.5
  0
LINE
  8
0
 10
21.6422
 20
48.3211
 11
22
 21
48.5
  0
LINE
  8
0
 10
21.6422
 20
48.6789
 11
22
 21
48.5
  0
LINE
  8
0
 10
22
 20
48.3
 11
22
 21
49.5
  0
LINE
  8
0
 10
11.201
 20
48.5
 11
2
 21
48.5
  0
LINE
  8
0
 10
2.3578
 20
48.6789
 11
2
 21
48.5
  0
LINE
  8
0
 10
2.3578
 20
48.3211
 11
2
 21
48.5
  0
POLYLINE
  8
0
 66
     1
 10
0
 20
0
  0
VERTEX
  8
0
 10
23.272
 20
48.1948
  0
VERTEX
  8
0
 10
23.272
 20
48.0988
  0
VERTEX
  8
0
 10
22.728
 20
48.0988
  0
VERTEX
  8
0
 10
22.732
 20
48.1428
  0
VERTEX
  8
0
 10
22.7464
 20
48.1877
  0
VERTEX
  8
0
 10
22.7711
 20
48.2337
  0
VERTEX
  8
0
 10
22.8062
 20
48.2807
  0
VERTEX
  8
0
 10
22.8627
 20
48.3401
  0
VERTEX
  8
0
 10
22.939
 20
48.4069
  0
VERTEX
  8
0
 10
22.9997
 20
48.4583
  0
VERTEX
  8
0
 10
23.0477
 20
48.5019
  0
VERTEX
  8
0
 10
23.083
 20
48.5376
  0
VERTEX
  8
0
 10
23.1202
 20
48.5831
  0
VERTEX
  8
0
 10
23.1467
 20
48.6264
  0
VERTEX
  8
0
 10
23.1627
 20
48.6675
  0
VERTEX
  8
0
 10
23.168
 20
48.7064
  0
VERTEX
  8
0
 10
23.1564
 20
48.7651
  0
VERTEX
  8
0
 10
23.1218
 20
48.8115
  0
VERTEX
  8
0
 10
23.0726
 20
48.8407
  0
VERTEX
  8
0
 10
23.0127
 20
48.8508
  0
VERTEX
  8
0
 10
22.9455
 20
48.8398
  0
VERTEX
  8
0
 10
22.8945
 20
48.8058
  0
VERTEX
  8
0
 10
22.8623
 20
48.7524
  0
VERTEX
  8
0
 10
22.8512
 20
48.6834
  0
VERTEX
  8
0
 10
22.7472
 20
48.6942
  0
VERTEX
  8
0
 10
22.756
 20
48.7492
  0
VERTEX
  8
0
 10
22.7723
 20
48.7973
  0
VERTEX
  8
0
 10
22.7962
 20
48.8385
  0
VERTEX
  8
0
 10
22.8276
 20
48.8729
  0
VERTEX
  8
0
 10
22.8797
 20
48.9073
  0
VERTEX
  8
0
 10
22.9421
 20
48.9279
  0
VERTEX
  8
0
 10
23.0149
 20
48.9348
  0
VERTEX
  8
0
 10
23.0835
 20
48.9281
  0
VERTEX
  8
0
 10
23.1437
 20
48.9082
  0
VERTEX
  8
0
 10
23.1955
 20
48.875
  0
VERTEX
  8
0
 10
23.2289
 20
48.8403
  0
VERTEX
  8
0
 10
23.2528
 20
48.8001
  0
VERTEX
  8
0
 10
23.2672
 20
48.7543
  0
VERTEX
  8
0
 10
23.272
 20
48.7029
  0
VERTEX
  8
0
 10
23.2665
 20
48.653
  0
VERTEX
  8
0
 10
23.25
 20
48.6029
  0
VERTEX
  8
0
 10
23.2226
 20
48.5527
  0
VERTEX
  8
0
 10
23.1843
 20
48.5024
  0
VERTEX
  8
0
 10
23.1455
 20
48.4615
  0
VERTEX
  8
0
 10
23.0936
 20
48.4125
  0
VERTEX
  8
0
 10
23.0287
 20
48.3554
  0
VERTEX
  8
0
 10
22.9866
 20
48.3195
  0
VERTEX
  8
0
 10
22.958
 20
48.2947
  0
VERTEX
  8
0
 10
22.9427
 20
48.2808
  0
VERTEX
  8
0
 10
22.9007
 20
48.2371
  0
VERTEX
  8
0
 10
22.869
 20
48.1948
  0
VERTEX
  8
0
 10
23.272
 20
48.1948
  0
SEQEND
  0
LINE
  8
0
 10
23.4743
 20
48.5
 11
24
 21
48.5
  0
LINE
  8
0
 10
23.6422
 20
48.3211
 11
24
 21
48.5
  0
LINE
  8
0
 10
23.6422
 20
48.6789
 11
24
 21
48.5
  0
LINE
  8
0
 10
24
 20
48.3
 11
24
 21
49.5
  0
LINE
  8
0
 10
22.5257
 20
48.5
 11
22
 21
48.5
  0
LINE
  8
0
 10
22.3578
 20
48.6789
 11
22
 21
48.5
  0
LINE
  8
0
 10
22.3578
 20
48.3211
 11
22
 21
48.5
  0
LINE
  8
0
 10
22
 20
48.3
 11
22
 21
49.5
  0
POLYLINE
  8
0
 66
     1
 10
0
 20
0
  0
VERTEX
  8
0
 10
25.808
 20
51.2788
  0
VERTEX
  8
0
 10
25.904
 20
51.2788
  0
VERTEX
  8
0
 10
25.904
 20
50.7348
  0
VERTEX
  8
0
 10
25.86
 20
50.7388
  0
VERTEX
  8
0
 10
25.815
 20
50.7532
  0
VERTEX
  8
0
 10
25.7691
 20
50.7779
  0
VERTEX
  8
0
 10
25.7221
 20
50.813
  0
VERTEX
  8
0
 10
25.6627
 20
50.8696
  0
VERTEX
  8
0
 10
25.5959
 20
50.9458
  0
VERTEX
  8
0
 10
25.5445
 20
51.0065
  0
VERTEX
  8
0
 10
25.5009
 20
51.0546
  0
VERTEX
  8
0
 10
25.4652
 20
51.0899
  0
VERTEX
  8
0
 10
25.4197
 20
51.127
  0
VERTEX
  8
0
 10
25.3764
 20
51.1536
  0
VERTEX
  8
0
 10
25.3353
 20
51.1695
  0
VERTEX
  8
0
 10
25.2963
 20
51.1748
  0
VERTEX
  8
0
 10
25.2377
 20
51.1633
  0
VERTEX
  8
0
 10
25.1912
 20
51.1287
  0
VERTEX
  8
0
 10
25.1621
 20
51.0794
  0
VERTEX
  8
0
 10
25.152
 20
51.0195
  0
VERTEX
  8
0
 10
25.1629
 20
50.9523
  0
VERTEX
  8
0
 10
25.197
 20
50.9014
  0
VERTEX
  8
0
 10
25.2504
 20
50.8691
  0
VERTEX
  8
0
 10
25.3194
 20
50.858
  0
VERTEX
  8
0
 10
25.3086
 20
50.754
  0
VERTEX
  8
0
 10
25.2536
 20
50.7628
  0
VERTEX
  8
0
 10
25.2055
 20
50.7791
  0
VERTEX
  8
0
 10
25.1642
 20
50.803
  0
VERTEX
  8
0
 10
25.1298
 20
50.8344
  0
VERTEX
  8
0
 10
25.0955
 20
50.8865
  0
VERTEX
  8
0
 10
25.0748
 20
50.9489
  0
VERTEX
  8
0
 10
25.068
 20
51.0217
  0
VERTEX
  8
0
 10
25.0746
 20
51.0903
  0
VERTEX
  8
0
 10
25.0946
 20
51.1505
  0
VERTEX
  8
0
 10
25.1278
 20
51.2023
  0
VERTEX
  8
0
 10
25.1625
 20
51.2358
  0
VERTEX
  8
0
 10
25.2027
 20
51.2597
  0
VERTEX
  8
0
 10
25.2485
 20
51.274
  0
VERTEX
  8
0
 10
25.2998
 20
51.2788
  0
VERTEX
  8
0
 10
25.3498
 20
51.2733
  0
VERTEX
  8
0
 10
25.3998
 20
51.2569
  0
VERTEX
  8
0
 10
25.45
 20
51.2295
  0
VERTEX
  8
0
 10
25.5003
 20
51.1911
  0
VERTEX
  8
0
 10
25.5412
 20
51.1523
  0
VERTEX
  8
0
 10
25.5902
 20
51.1005
  0
VERTEX
  8
0
 10
25.6473
 20
51.0355
  0
VERTEX
  8
0
 10
25.6832
 20
50.9934
  0
VERTEX
  8
0
 10
25.7081
 20
50.9648
  0
VERTEX
  8
0
 10
25.722
 20
50.9495
  0
VERTEX
  8
0
 10
25.7657
 20
50.9075
  0
VERTEX
  8
0
 10
25.808
 20
50.8759
  0
VERTEX
  8
0
 10
25.808
 20
51.2788
  0
SEQEND
  0
LINE
  8
0
 10
25.5
 20
51.4743
 11
25.5
 21
52
  0
LINE
  8
0
 10
25.6789
 20
51.6422
 11
25.5
 21
52
  0
LINE
  8
0
 10
25.3211
 20
51.6422
 11
25.5
 21
52
  0
LINE
  8
0
 10
25.7
 20
52
 11
24.5
 21
52
  0
LINE
  8
0
 10
25.5
 20
50.5257
 11
25.5
 21
50
  0
LINE
  8
0
 10
25.3211
 20
50.3578
 11
25.5
 21
50
  0
LINE
  8
0
 10
25.6789
 20
50.3578
 11
25.5
 21
50
  0
LINE
  8
0
 10
25.7
 20
50
 11
24.5
 21
50
  0
POLYLINE
  8
0
 66
     1
 10
0
 20
0
  0
VERTEX
  8
0
 10
27.808
 20
61.9548
  0
VERTEX
  8
0
 10
27.904
 20
61.9548
  0
VERTEX
  8
0
 10
27.904
 20
61.4108
  0
VERTEX
  8
0
 10
27.86
 20
61.4148
  0
VERTEX
  8
0
 10
27.815
 20
61.4292
  0
VERTEX
  8
0
 10
27.7691
 20
61.4539
  0
VERTEX
  8
0
 10
27.7221
 20
61.489
  0
VERTEX
  8
0
 10
27.6627
 20
61.5456
  0
VERTEX
  8
0
 10
27.5959
 20
61.6218
  0
VERTEX
  8
0
 10
27.5445
 20
61.6825
  0
VERTEX
  8
0
 10
27.5009
 20
61.7306
  0
VERTEX
  8
0
 10
27.4652
 20
61.7659
  0
VERTEX
  8
0
 10
27.4197
 20
61.803
  0
VERTEX
  8
0
 10
27.3764
 20
61.8296
  0
VERTEX
  8
0
 10
27.3353
 20
61.8455
  0
VERTEX
  8
0
 10
27.2963
 20
61.8508
  0
VERTEX
  8
0
 10
27.2377
 20
61.8393
  0
VERTEX
  8
0
 10
27.1912
 20
61.8047
  0
VERTEX
  8
0
 10
27.1621
 20
61.7554
  0
VERTEX
  8
0
 10
27.152
 20
61.6955
  0
VERTEX
  8
0
 10
27.1629
 20
61.6283
  0
VERTEX
  8
0
 10
27.197
 20
61.5774
  0
VERTEX
  8
0
 10
27.2504
 20
61.5451
  0
VERTEX
  8
0
 10
27.3194
 20
61.534
  0
VERTEX
  8
0
 10
27.3086
 20
61.43
  0
VERTEX
  8
0
 10
27.2536
 20
61.4388
  0
VERTEX
  8
0
 10
27.2055
 20
61.4551
  0
VERTEX
  8
0
 10
27.1642
 20
61.479
  0
VERTEX
  8
0
 10
27.1298
 20
61.5104
  0
VERTEX
  8
0
 10
27.0955
 20
61.5625
  0
VERTEX
  8
0
 10
27.0748
 20
61.6249
  0
VERTEX
  8
0
 10
27.068
 20
61.6977
  0
VERTEX
  8
0
 10
27.0746
 20
61.7663
  0
VERTEX
  8
0
 10
27.0946
 20
61.8265
  0
VERTEX
  8
0
 10
27.1278
 20
61.8783
  0
VERTEX
  8
0
 10
27.1625
 20
61.9118
  0
VERTEX
  8
0
 10
27.2027
 20
61.9357
  0
VERTEX
  8
0
 10
27.2485
 20
61.95
  0
VERTEX
  8
0
 10
27.2998
 20
61.9548
  0
VERTEX
  8
0
 10
27.3498
 20
61.9493
  0
VERTEX
  8
0
 10
27.3998
 20
61.9329
  0
VERTEX
  8
0
 10
27.45
 20
61.9055
  0
VERTEX
  8
0
 10
27.5003
 20
61.8671
  0
VERTEX
  8
0
 10
27.5412
 20
61.8283
  0
VERTEX
  8
0
 10
27.5902
 20
61.7765
  0
VERTEX
  8
0
 10
27.6473
 20
61.7115
  0
VERTEX
  8
0
 10
27.6832
 20
61.6694
  0
VERTEX
  8
0
 10
27.7081
 20
61.6408
  0
VERTEX
  8
0
 10
27.722
 20
61.6255
  0
VERTEX
  8
0
 10
27.7657
 20
61.5835
  0
VERTEX
  8
0
 10
27.808
 20
61.5519
  0
VERTEX
  8
0
 10
27.808
 20
61.9548
  0
SEQEND
  0
POLYLINE
  8
0
 66
     1
 10
0
 20
0
  0
VERTEX
  8
0
 10
27.904
 20
62.3908
  0
VERTEX
  8
0
 10
27.7
 20
62.3908
  0
VERTEX
  8
0
 10
27.7
 20
62.0308
  0
VERTEX
  8
0
 10
27.608
 20
62.0308
  0
VERTEX
  8
0
 10
27.072
 20
62.4082
  0
VERTEX
  8
0
 10
27.072
 20
62.4908
  0
VERTEX
  8
0
 10
27.608
 20
62.4908
  0
VERTEX
  8
0
 10
27.608
 20
62.6029
  0
VERTEX
  8
0
 10
27.7
 20
62.6029
  0
VERTEX
  8
0
 10
27.7
 20
62.4908
  0
VERTEX
  8
0
 10
27.904
 20
62.4908
  0
VERTEX
  8
0
 10
27.904
 20
62.3908
  0
SEQEND
  0
POLYLINE
  8
0
 66
     1
 10
0
 20
0
  0
VERTEX
  8
0
 10
27.608
 20
62.3908
  0
VERTEX
  8
0
 10
27.2287
 20
62.3908
  0
VERTEX
  8
0
 10
27.6088
 20
62.128
  0
VERTEX
  8
0
 10
27.608
 20
62.3908
  0
SEQEND
  0
LINE
  8
0
 10
27.5
 20
62.799
 11
27.5
 21
74
  0
LINE
  8
0
 10
27.6789
 20
73.6422
 11
27.5
 21
74
  0
LINE
  8
0
 10
27.3211
 20
73.6422
 11
27.5
 21
74
  0
LINE
  8
0
 10
27.7
 20
74
 11
24.2
 21
74
  0
LINE
  8
0
 10
27.5
 20
61.201
 11
27.5
 21
50
  0
LINE
  8
0
 10
27.3211
 20
50.3578
 11
27.5
 21
50
  0
LINE
  8
0
 10
27.6789
 20
50.3578
 11
27.5
 21
50
  0
LINE
  8
0
 10
27.7
 20
50
 11
24.2
 21
50
  0
POLYLINE
  8
0
 66
     1
 10
0
 20
0
  0
VERTEX
  8
0
 10
11.948
 20
46.1948
  0
VERTEX
  8
0
 10
11.948
 20
46.0988
  0
VERTEX
  8
0
 10
11.404
 20
46.0988
  0
VERTEX
  8
0
 10
11.408
 20
46.1428
  0
VERTEX
  8
0
 10
11.4224
 20
46.1877
  0
VERTEX
  8
0
 10
11.4471
 20
46.2337
  0
VERTEX
  8
0
 10
11.4822
 20
46.2807
  0
VERTEX
  8
0
 10
11.5387
 20
46.3401
  0
VERTEX
  8
0
 10
11.615
 20
46.4069
  0
VERTEX
  8
0
 10
11.6757
 20
46.4583
  0
VERTEX
  8
0
 10
11.7237
 20
46.5019
  0
VERTEX
  8
0
 10
11.759
 20
46.5376
  0
VERTEX
  8
0
 10
11.7962
 20
46.5831
  0
VERTEX
  8
0
 10
11.8227
 20
46.6264
  0
VERTEX
  8
0
 10
11.8387
 20
46.6675
  0
VERTEX
  8
0
 10
11.844
 20
46.7064
  0
VERTEX
  8
0
 10
11.8324
 20
46.7651
  0
VERTEX
  8
0
 10
11.7978
 20
46.8115
  0
VERTEX
  8
0
 10
11.7486
 20
46.8407
  0
VERTEX
  8
0
 10
11.6887
 20
46.8508
  0
VERTEX
  8
0
 10
11.6215
 20
46.8398
  0
VERTEX
  8
0
 10
11.5705
 20
46.8058
  0
VERTEX
  8
0
 10
11.5383
 20
46.7524
  0
VERTEX
  8
0
 10
11.5272
 20
46.6834
  0
VERTEX
  8
0
 10
11.4232
 20
46.6942
  0
VERTEX
  8
0
 10
11.432
 20
46.7492
  0
VERTEX
  8
0
 10
11.4483
 20
46.7973
  0
VERTEX
  8
0
 10
11.4722
 20
46.8385
  0
VERTEX
  8
0
 10
11.5036
 20
46.8729
  0
VERTEX
  8
0
 10
11.5557
 20
46.9073
  0
VERTEX
  8
0
 10
11.6181
 20
46.9279
  0
VERTEX
  8
0
 10
11.6909
 20
46.9348
  0
VERTEX
  8
0
 10
11.7595
 20
46.9281
  0
VERTEX
  8
0
 10
11.8197
 20
46.9082
  0
VERTEX
  8
0
 10
11.8715
 20
46.875
  0
VERTEX
  8
0
 10
11.9049
 20
46.8403
  0
VERTEX
  8
0
 10
11.9288
 20
46.8001
  0
VERTEX
  8
0
 10
11.9432
 20
46.7543
  0
VERTEX
  8
0
 10
11.948
 20
46.7029
  0
VERTEX
  8
0
 10
11.9425
 20
46.653
  0
VERTEX
  8
0
 10
11.926
 20
46.6029
  0
VERTEX
  8
0
 10
11.8986
 20
46.5527
  0
VERTEX
  8
0
 10
11.8603
 20
46.5024
  0
VERTEX
  8
0
 10
11.8215
 20
46.4615
  0
VERTEX
  8
0
 10
11.7696
 20
46.4125
  0
VERTEX
  8
0
 10
11.7047
 20
46.3554
  0
VERTEX
  8
0
 10
11.6626
 20
46.3195
  0
VERTEX
  8
0
 10
11.634
 20
46.2947
  0
VERTEX
  8
0
 10
11.6187
 20
46.2808
  0
VERTEX
  8
0
 10
11.5767
 20
46.2371
  0
VERTEX
  8
0
 10
11.545
 20
46.1948
  0
VERTEX
  8
0
 10
11.948
 20
46.1948
  0
SEQEND
  0
POLYLINE
  8
0
 66
     1
 10
0
 20
0
  0
VERTEX
  8
0
 10
12.384
 20
46.0988
  0
VERTEX
  8
0
 10
12.384
 20
46.3028
  0
VERTEX
  8
0
 10
12.024
 20
46.3028
  0
VERTEX
  8
0
 10
12.024
 20
46.3948
  0
VERTEX
  8
0
 10
12.4014
 20
46.9308
  0
VERTEX
  8
0
 10
12.484
 20
46.9308
  0
VERTEX
  8
0
 10
12.484
 20
46.3948
  0
VERTEX
  8
0
 10
12.596
 20
46.3948
  0
VERTEX
  8
0
 10
12.596
 20
46.3028
  0
VERTEX
  8
0
 10
12.484
 20
46.3028
  0
VERTEX
  8
0
 10
12.484
 20
46.0988
  0
VERTEX
  8
0
 10
12.384
 20
46.0988
  0
SEQEND
  0
POLYLINE
  8
0
 66
     1
 10
0
 20
0
  0
VERTEX
  8
0
 10
12.384
 20
46.3948
  0
VERTEX
  8
0
 10
12.384
 20
46.7741
  0
VERTEX
  8
0
 10
12.1212
 20
46.3939
  0
VERTEX
  8
0
 10
12.384
 20
46.3948
  0
SEQEND
  0
LINE
  8
0
 10
12.799
 20
46.5
 11
24
 21
46.5
  0
LINE
  8
0
 10
23.6422
 20
46.3211
 11
24
 21
46.5
  0
LINE
  8
0
 10
23.6422
 20
46.6789
 11
24
 21
46.5
  0
LINE
  8
0
 10
24
 20
46.3
 11
24
 21
49.8
  0
LINE
  8
0
 10
11.201
 20
46.5
 11
0
 21
46.5
  0
LINE
  8
0
 10
0.3578
 20
46.6789
 11
0
 21
46.5
  0
LINE
  8
0
 10
0.3578
 20
46.3211
 11
0
 21
46.5
  0
LINE
  8
0
 10
0
 20
46.3
 11
0
 21
49.8
  0
POLYLINE
  8
0
 66
     1
 10
0
 20
0
  0
VERTEX
  8
0
 10
0.304
 20
44.7708
  0
VERTEX
  8
0
 10
0.204
 20
44.7708
  0
VERTEX
  8
0
 10
0.204
 20
45.4219
  0
VERTEX
  8
0
 10
0.1128
 20
45.3532
  0
VERTEX
  8
0
 10
-0
 20
45.2995
  0
VERTEX
  8
0
 10
-0
 20
45.3982
  0
VERTEX
  8
0
 10
0.0557
 20
45.4271
  0
VERTEX
  8
0
 10
0.105
 20
45.4584
  0
VERTEX
  8
0
 10
0.148
 20
45.492
  0
VERTEX
  8
0
 10
0.1846
 20
45.5279
  0
VERTEX
  8
0
 10
0.2148
 20
45.5662
  0
VERTEX
  8
0
 10
0.2387
 20
45.6068
  0
VERTEX
  8
0
 10
0.304
 20
45.6068
  0
VERTEX
  8
0
 10
0.304
 20
44.7708
  0
SEQEND
  0
POLYLINE
  8
0
 66
     1
 10
0
 20
0
  0
VERTEX
  8
0
 10
0.616
 20
44.7708
  0
VERTEX
  8
0
 10
0.616
 20
44.8908
  0
VERTEX
  8
0
 10
0.732
 20
44.8908
  0
VERTEX
  8
0
 10
0.732
 20
44.7708
  0
VERTEX
  8
0
 10
0.616
 20
44.7708
  0
SEQEND
  0
POLYLINE
  8
0
 66
     1
 10
0
 20
0
  0
VERTEX
  8
0
 10
0.88
 20
44.9913
  0
VERTEX
  8
0
 10
0.9865
 20
45.0005
  0
VERTEX
  8
0
 10
0.9931
 20
44.9674
  0
VERTEX
  8
0
 10
1.0025
 20
44.9382
  0
VERTEX
  8
0
 10
1.0146
 20
44.9129
  0
VERTEX
  8
0
 10
1.0295
 20
44.8915
  0
VERTEX
  8
0
 10
1.0472
 20
44.8739
  0
VERTEX
  8
0
 10
1.0676
 20
44.8603
  0
VERTEX
  8
0
 10
1.0907
 20
44.8506
  0
VERTEX
  8
0
 10
1.1167
 20
44.8447
  0
VERTEX
  8
0
 10
1.1453
 20
44.8428
  0
VERTEX
  8
0
 10
1.1958
 20
44.8497
  0
VERTEX
  8
0
 10
1.239
 20
44.8706
  0
VERTEX
  8
0
 10
1.2749
 20
44.9053
  0
VERTEX
  8
0
 10
1.3087
 20
44.9689
  0
VERTEX
  8
0
 10
1.32
 20
45.0462
  0
VERTEX
  8
0
 10
1.3083
 20
45.1222
  0
VERTEX
  8
0
 10
1.2732
 20
45.1822
  0
VERTEX
  8
0
 10
1.238
 20
45.2112
  0
VERTEX
  8
0
 10
1.1949
 20
45.2287
  0
VERTEX
  8
0
 10
1.1437
 20
45.2348
  0
VERTEX
  8
0
 10
1.0979
 20
45.2299
  0
VERTEX
  8
0
 10
1.0576
 20
45.2147
  0
VERTEX
  8
0
 10
1.0227
 20
45.1892
  0
VERTEX
  8
0
 10
0.9932
 20
45.1533
  0
VERTEX
  8
0
 10
0.898
 20
45.1658
  0
VERTEX
  8
0
 10
0.9782
 20
45.5908
  0
VERTEX
  8
0
 10
1.3895
 20
45.5908
  0
VERTEX
  8
0
 10
1.3895
 20
45.4948
  0
VERTEX
  8
0
 10
1.0618
 20
45.4948
  0
VERTEX
  8
0
 10
1.0156
 20
45.2712
  0
VERTEX
  8
0
 10
1.0917
 20
45.3096
  0
VERTEX
  8
0
 10
1.1714
 20
45.3228
  0
VERTEX
  8
0
 10
1.2252
 20
45.3181
  0
VERTEX
  8
0
 10
1.2741
 20
45.3036
  0
VERTEX
  8
0
 10
1.3181
 20
45.2791
  0
VERTEX
  8
0
 10
1.3571
 20
45.2447
  0
VERTEX
  8
0
 10
1.3881
 20
45.2042
  0
VERTEX
  8
0
 10
1.4103
 20
45.1589
  0
VERTEX
  8
0
 10
1.4235
 20
45.1089
  0
VERTEX
  8
0
 10
1.428
 20
45.0541
  0
VERTEX
  8
0
 10
1.4207
 20
44.9827
  0
VERTEX
  8
0
 10
1.3989
 20
44.9178
  0
VERTEX
  8
0
 10
1.3626
 20
44.8595
  0
VERTEX
  8
0
 10
1.3285
 20
44.8234
  0
VERTEX
  8
0
 10
1.2897
 20
44.7953
  0
VERTEX
  8
0
 10
1.2463
 20
44.7752
  0
VERTEX
  8
0
 10
1.1982
 20
44.763
  0
VERTEX
  8
0
 10
1.1455
 20
44.7588
  0
VERTEX
  8
0
 10
1.0765
 20
44.7656
  0
VERTEX
  8
0
 10
1.016
 20
44.7858
  0
VERTEX
  8
0
 10
0.964
 20
44.8197
  0
VERTEX
  8
0
 10
0.9221
 20
44.8665
  0
VERTEX
  8
0
 10
0.8941
 20
44.9237
  0
VERTEX
  8
0
 10
0.88
 20
44.9913
  0
VERTEX
  8
0
 10
0.88
 20
44.9913
  0
SEQEND
  0
POLYLINE
  8
0
 66
     1
 10
0
 20
0
  0
VERTEX
  8
0
 10
1.524
 20
45.1825
  0
VERTEX
  8
0
 10
1.5252
 20
45.2361
  0
VERTEX
  8
0
 10
1.5288
 20
45.2862
  0
VERTEX
  8
0
 10
1.5347
 20
45.3326
  0
VERTEX
  8
0
 10
1.5431
 20
45.3756
  0
VERTEX
  8
0
 10
1.5539
 20
45.4149
  0
VERTEX
  8
0
 10
1.5671
 20
45.4507
  0
VERTEX
  8
0
 10
1.5826
 20
45.4829
  0
VERTEX
  8
0
 10
1.6006
 20
45.5115
  0
VERTEX
  8
0
 10
1.621
 20
45.5366
  0
VERTEX
  8
0
 10
1.6437
 20
45.5581
  0
VERTEX
  8
0
 10
1.7107
 20
45.5943
  0
VERTEX
  8
0
 10
1.794
 20
45.6068
  0
VERTEX
  8
0
 10
1.8557
 20
45.6003
  0
VERTEX
  8
0
 10
1.9109
 20
45.5796
  0
VERTEX
  8
0
 10
1.9466
 20
45.5554
  0
VERTEX
  8
0
 10
1.978
 20
45.5232
  0
VERTEX
  8
0
 10
2.0048
 20
45.483
  0
VERTEX
  8
0
 10
2.0273
 20
45.4347
  0
VERTEX
  8
0
 10
2.0453
 20
45.3785
  0
VERTEX
  8
0
 10
2.0593
 20
45.2938
  0
VERTEX
  8
0
 10
2.064
 20
45.1825
  0
VERTEX
  8
0
 10
2.0628
 20
45.129
  0
VERTEX
  8
0
 10
2.0592
 20
45.079
  0
VERTEX
  8
0
 10
2.0532
 20
45.0326
  0
VERTEX
  8
0
 10
2.0448
 20
44.9898
  0
VERTEX
  8
0
 10
2.034
 20
44.9505
  0
VERTEX
  8
0
 10
2.0209
 20
44.9148
  0
VERTEX
  8
0
 10
2.0053
 20
44.8826
  0
VERTEX
  8
0
 10
1.9873
 20
44.854
  0
VERTEX
  8
0
 10
1.967
 20
44.829
  0
VERTEX
  8
0
 10
1.9442
 20
44.8075
  0
VERTEX
  8
0
 10
1.8773
 20
44.7712
  0
VERTEX
  8
0
 10
1.794
 20
44.7588
  0
VERTEX
  8
0
 10
1.7728
 20
44.7594
  0
VERTEX
  8
0
 10
1.7526
 20
44.7613
  0
VERTEX
  8
0
 10
1.7332
 20
44.7647
  0
VERTEX
  8
0
 10
1.7146
 20
44.7693
  0
VERTEX
  8
0
 10
1.6969
 20
44.7754
  0
VERTEX
  8
0
 10
1.6801
 20
44.7828
  0
VERTEX
  8
0
 10
1.6642
 20
44.7916
  0
VERTEX
  8
0
 10
1.6491
 20
44.8017
  0
VERTEX
  8
0
 10
1.6348
 20
44.8132
  0
VERTEX
  8
0
 10
1.6214
 20
44.826
  0
VERTEX
  8
0
 10
1.6089
 20
44.8403
  0
VERTEX
  8
0
 10
1.5973
 20
44.8558
  0
VERTEX
  8
0
 10
1.5865
 20
44.8728
  0
VERTEX
  8
0
 10
1.5765
 20
44.8911
  0
VERTEX
  8
0
 10
1.5674
 20
44.9108
  0
VERTEX
  8
0
 10
1.5592
 20
44.9318
  0
VERTEX
  8
0
 10
1.5519
 20
44.9542
  0
VERTEX
  8
0
 10
1.5454
 20
44.978
  0
VERTEX
  8
0
 10
1.5397
 20
45.0031
  0
VERTEX
  8
0
 10
1.5349
 20
45.0296
  0
VERTEX
  8
0
 10
1.531
 20
45.0574
  0
VERTEX
  8
0
 10
1.528
 20
45.0867
  0
VERTEX
  8
0
 10
1.5258
 20
45.1172
  0
VERTEX
  8
0
 10
1.5244
 20
45.1492
  0
VERTEX
  8
0
 10
1.524
 20
45.1825
  0
VERTEX
  8
0
 10
1.524
 20
45.1825
  0
SEQEND
  0
POLYLINE
  8
0
 66
     1
 10
0
 20
0
  0
VERTEX
  8
0
 10
1.628
 20
45.1828
  0
VERTEX
  8
0
 10
1.6304
 20
45.0975
  0
VERTEX
  8
0
 10
1.6378
 20
45.0269
  0
VERTEX
  8
0
 10
1.6501
 20
44.9708
  0
VERTEX
  8
0
 10
1.6623
 20
44.937
  0
VERTEX
  8
0
 10
1.6773
 20
44.9084
  0
VERTEX
  8
0
 10
1.6951
 20
44.8849
  0
VERTEX
  8
0
 10
1.7157
 20
44.8666
  0
VERTEX
  8
0
 10
1.739
 20
44.8535
  0
VERTEX
  8
0
 10
1.7651
 20
44.8455
  0
VERTEX
  8
0
 10
1.794
 20
44.8428
  0
VERTEX
  8
0
 10
1.811
 20
44.8436
  0
VERTEX
  8
0
 10
1.8271
 20
44.8463
  0
VERTEX
  8
0
 10
1.8423
 20
44.851
  0
VERTEX
  8
0
 10
1.8565
 20
44.8575
  0
VERTEX
  8
0
 10
1.8698
 20
44.8659
  0
VERTEX
  8
0
 10
1.8823
 20
44.8762
  0
VERTEX
  8
0
 10
1.8938
 20
44.8884
  0
VERTEX
  8
0
 10
1.9043
 20
44.9025
  0
VERTEX
  8
0
 10
1.914
 20
44.9185
  0
VERTEX
  8
0
 10
1.9227
 20
44.9364
  0
VERTEX
  8
0
 10
1.9305
 20
44.9562
  0
VERTEX
  8
0
 10
1.9374
 20
44.9779
  0
VERTEX
  8
0
 10
1.9434
 20
45.0015
  0
VERTEX
  8
0
 10
1.9485
 20
45.0269
  0
VERTEX
  8
0
 10
1.9526
 20
45.0543
  0
VERTEX
  8
0
 10
1.9558
 20
45.0836
  0
VERTEX
  8
0
 10
1.9581
 20
45.1148
  0
VERTEX
  8
0
 10
1.9595
 20
45.1478
  0
VERTEX
  8
0
 10
1.96
 20
45.1828
  0
VERTEX
  8
0
 10
1.9575
 20
45.268
  0
VERTEX
  8
0
 10
1.9501
 20
45.3387
  0
VERTEX
  8
0
 10
1.9378
 20
45.3947
  0
VERTEX
  8
0
 10
1.9255
 20
45.4286
  0
VERTEX
  8
0
 10
1.9103
 20
45.4572
  0
VERTEX
  8
0
 10
1.8924
 20
45.4807
  0
VERTEX
  8
0
 10
1.8716
 20
45.499
  0
VERTEX
  8
0
 10
1.8482
 20
45.5121
  0
VERTEX
  8
0
 10
1.8219
 20
45.52
  0
VERTEX
  8
0
 10
1.7928
 20
45.5228
  0
VERTEX
  8
0
 10
1.7492
 20
45.5164
  0
VERTEX
  8
0
 10
1.7118
 20
45.4966
  0
VERTEX
  8
0
 10
1.6807
 20
45.4633
  0
VERTEX
  8
0
 10
1.6667
 20
45.4392
  0
VERTEX
  8
0
 10
1.6549
 20
45.4099
  0
VERTEX
  8
0
 10
1.6452
 20
45.3751
  0
VERTEX
  8
0
 10
1.6376
 20
45.3351
  0
VERTEX
  8
0
 10
1.6323
 20
45.2896
  0
VERTEX
  8
0
 10
1.629
 20
45.2389
  0
VERTEX
  8
0
 10
1.628
 20
45.1828
  0
VERTEX
  8
0
 10
1.628
 20
45.1828
  0
SEQEND
  0
POLYLINE
  8
0
 66
     1
 10
0
 20
0
  0
VERTEX
  8
0
 10
2.1963
 20
45.3108
  0
VERTEX
  8
0
 10
2.168
 20
45.4678
  0
VERTEX
  8
0
 10
2.168
 20
45.6028
  0
VERTEX
  8
0
 10
2.284
 20
45.6028
  0
VERTEX
  8
0
 10
2.284
 20
45.4678
  0
VERTEX
  8
0
 10
2.2585
 20
45.3108
  0
VERTEX
  8
0
 10
2.1963
 20
45.3108
  0
SEQEND
  0
POLYLINE
  8
0
 66
     1
 10
0
 20
0
  0
VERTEX
  8
0
 10
2.3837
 20
45.3108
  0
VERTEX
  8
0
 10
2.356
 20
45.4678
  0
VERTEX
  8
0
 10
2.356
 20
45.6028
  0
VERTEX
  8
0
 10
2.472
 20
45.6028
  0
VERTEX
  8
0
 10
2.472
 20
45.4678
  0
VERTEX
  8
0
 10
2.4448
 20
45.3108
  0
VERTEX
  8
0
 10
2.3837
 20
45.3108
  0
SEQEND
  0
POLYLINE
  8
0
 66
     1
 10
0
 20
0
  0
VERTEX
  8
0
 10
3.148
 20
44.7708
  0
VERTEX
  8
0
 10
3.148
 20
45.6028
  0
VERTEX
  8
0
 10
3.514
 20
45.6028
  0
VERTEX
  8
0
 10
3.5978
 20
45.599
  0
VERTEX
  8
0
 10
3.6598
 20
45.5875
  0
VERTEX
  8
0
 10
3.726
 20
45.5546
  0
VERTEX
  8
0
 10
3.7736
 20
45.5012
  0
VERTEX
  8
0
 10
3.7991
 20
45.4418
  0
VERTEX
  8
0
 10
3.808
 20
45.3758
  0
VERTEX
  8
0
 10
3.8069
 20
45.349
  0
VERTEX
  8
0
 10
3.8035
 20
45.3239
  0
VERTEX
  8
0
 10
3.7977
 20
45.3004
  0
VERTEX
  8
0
 10
3.7895
 20
45.2785
  0
VERTEX
  8
0
 10
3.779
 20
45.2583
  0
VERTEX
  8
0
 10
3.766
 20
45.2397
  0
VERTEX
  8
0
 10
3.7506
 20
45.2227
  0
VERTEX
  8
0
 10
3.7329
 20
45.2073
  0
VERTEX
  8
0
 10
3.7127
 20
45.1936
  0
VERTEX
  8
0
 10
3.6902
 20
45.1815
  0
VERTEX
  8
0
 10
3.6653
 20
45.171
  0
VERTEX
  8
0
 10
3.638
 20
45.1622
  0
VERTEX
  8
0
 10
3.6083
 20
45.1549
  0
VERTEX
  8
0
 10
3.5762
 20
45.1493
  0
VERTEX
  8
0
 10
3.6147
 20
45.1285
  0
VERTEX
  8
0
 10
3.6422
 20
45.1079
  0
VERTEX
  8
0
 10
3.6901
 20
45.0567
  0
VERTEX
  8
0
 10
3.7331
 20
44.9972
  0
VERTEX
  8
0
 10
3.877
 20
44.7708
  0
VERTEX
  8
0
 10
3.74
 20
44.7708
  0
VERTEX
  8
0
 10
3.6295
 20
44.9467
  0
VERTEX
  8
0
 10
3.5953
 20
44.9992
  0
VERTEX
  8
0
 10
3.5684
 20
45.0379
  0
VERTEX
  8
0
 10
3.5284
 20
45.0868
  0
VERTEX
  8
0
 10
3.4943
 20
45.1167
  0
VERTEX
  8
0
 10
3.4694
 20
45.1305
  0
VERTEX
  8
0
 10
3.4445
 20
45.1388
  0
VERTEX
  8
0
 10
3.4204
 20
45.1418
  0
VERTEX
  8
0
 10
3.3833
 20
45.1428
  0
VERTEX
  8
0
 10
3.256
 20
45.1428
  0
VERTEX
  8
0
 10
3.256
 20
44.7708
  0
VERTEX
  8
0
 10
3.148
 20
44.7708
  0
SEQEND
  0
POLYLINE
  8
0
 66
     1
 10
0
 20
0
  0
VERTEX
  8
0
 10
3.256
 20
45.2388
  0
VERTEX
  8
0
 10
3.4918
 20
45.2388
  0
VERTEX
  8
0
 10
3.5439
 20
45.2414
  0
VERTEX
  8
0
 10
3.5882
 20
45.2491
  0
VERTEX
  8
0
 10
3.6247
 20
45.262
  0
VERTEX
  8
0
 10
3.6532
 20
45.2801
  0
VERTEX
  8
0
 10
3.6739
 20
45.3033
  0
VERTEX
  8
0
 10
3.6905
 20
45.3389
  0
VERTEX
  8
0
 10
3.696
 20
45.3773
  0
VERTEX
  8
0
 10
3.6897
 20
45.4204
  0
VERTEX
  8
0
 10
3.6711
 20
45.4553
  0
VERTEX
  8
0
 10
3.64
 20
45.4822
  0
VERTEX
  8
0
 10
3.5867
 20
45.5036
  0
VERTEX
  8
0
 10
3.5184
 20
45.5108
  0
VERTEX
  8
0
 10
3.256
 20
45.5108
  0
VERTEX
  8
0
 10
3.256
 20
45.2388
  0
SEQEND
  0
POLYLINE
  8
0
 66
     1
 10
0
 20
0
  0
VERTEX
  8
0
 10
4.3614
 20
44.8487
  0
VERTEX
  8
0
 10
4.3093
 20
44.8113
  0
VERTEX
  8
0
 10
4.2552
 20
44.7846
  0
VERTEX
  8
0
 10
4.199
 20
44.7684
  0
VERTEX
  8
0
 10
4.1408
 20
44.7628
  0
VERTEX
  8
0
 10
4.061
 20
44.7726
  0
VERTEX
  8
0
 10
3.9975
 20
44.8032
  0
VERTEX
  8
0
 10
3.9636
 20
44.838
  0
VERTEX
  8
0
 10
3.9431
 20
44.8814
  0
VERTEX
  8
0
 10
3.936
 20
44.9336
  0
VERTEX
  8
0
 10
3.9403
 20
44.9751
  0
VERTEX
  8
0
 10
3.9537
 20
45.012
  0
VERTEX
  8
0
 10
3.9762
 20
45.0442
  0
VERTEX
  8
0
 10
4.0079
 20
45.0718
  0
VERTEX
  8
0
 10
4.0417
 20
45.0911
  0
VERTEX
  8
0
 10
4.081
 20
45.105
  0
VERTEX
  8
0
 10
4.1178
 20
45.1127
  0
VERTEX
  8
0
 10
4.171
 20
45.1202
  0
VERTEX
  8
0
 10
4.247
 20
45.1308
  0
VERTEX
  8
0
 10
4.3071
 20
45.1424
  0
VERTEX
  8
0
 10
4.3514
 20
45.155
  0
VERTEX
  8
0
 10
4.3515
 20
45.1726
  0
VERTEX
  8
0
 10
4.352
 20
45.1814
  0
VERTEX
  8
0
 10
4.3448
 20
45.2341
  0
VERTEX
  8
0
 10
4.3233
 20
45.2685
  0
VERTEX
  8
0
 10
4.2754
 20
45.2939
  0
VERTEX
  8
0
 10
4.2081
 20
45.3028
  0
VERTEX
  8
0
 10
4.1481
 20
45.2972
  0
VERTEX
  8
0
 10
4.1052
 20
45.2792
  0
VERTEX
  8
0
 10
4.074
 20
45.2442
  0
VERTEX
  8
0
 10
4.0524
 20
45.1895
  0
VERTEX
  8
0
 10
3.9535
 20
45.203
  0
VERTEX
  8
0
 10
3.9673
 20
45.2489
  0
VERTEX
  8
0
 10
3.9877
 20
45.2881
  0
VERTEX
  8
0
 10
4.0146
 20
45.3206
  0
VERTEX
  8
0
 10
4.048
 20
45.3463
  0
VERTEX
  8
0
 10
4.0878
 20
45.3654
  0
VERTEX
  8
0
 10
4.1504
 20
45.3812
  0
VERTEX
  8
0
 10
4.2239
 20
45.3868
  0
VERTEX
  8
0
 10
4.2771
 20
45.3844
  0
VERTEX
  8
0
 10
4.3232
 20
45.3768
  0
VERTEX
  8
0
 10
4.3623
 20
45.364
  0
VERTEX
  8
0
 10
4.3943
 20
45.3459
  0
VERTEX
  8
0
 10
4.4193
 20
45.3227
  0
VERTEX
  8
0
 10
4.4382
 20
45.2921
  0
VERTEX
  8
0
 10
4.4509
 20
45.2535
  0
VERTEX
  8
0
 10
4.4547
 20
45.2186
  0
VERTEX
  8
0
 10
4.456
 20
45.1593
  0
VERTEX
  8
0
 10
4.456
 20
45.0232
  0
VERTEX
  8
0
 10
4.456
 20
44.9788
  0
VERTEX
  8
0
 10
4.4561
 20
44.9437
  0
VERTEX
  8
0
 10
4.4562
 20
44.9178
  0
VERTEX
  8
0
 10
4.4563
 20
44.9012
  0
VERTEX
  8
0
 10
4.4565
 20
44.8938
  0
VERTEX
  8
0
 10
4.4666
 20
44.8256
  0
VERTEX
  8
0
 10
4.4878
 20
44.7708
  0
VERTEX
  8
0
 10
4.3817
 20
44.7708
  0
VERTEX
  8
0
 10
4.369
 20
44.8069
  0
VERTEX
  8
0
 10
4.3614
 20
44.8487
  0
VERTEX
  8
0
 10
4.3614
 20
44.8487
  0
SEQEND
  0
POLYLINE
  8
0
 66
     1
 10
0
 20
0
  0
VERTEX
  8
0
 10
4.352
 20
45.0755
  0
VERTEX
  8
0
 10
4.283
 20
45.0551
  0
VERTEX
  8
0
 10
4.1864
 20
45.0375
  0
VERTEX
  8
0
 10
4.143
 20
45.0305
  0
VERTEX
  8
0
 10
4.1155
 20
45.024
  0
VERTEX
  8
0
 10
4.0811
 20
45.0077
  0
VERTEX
  8
0
 10
4.058
 20
44.9843
  0
VERTEX
  8
0
 10
4.0478
 20
44.9621
  0
VERTEX
  8
0
 10
4.044
 20
44.9368
  0
VERTEX
  8
0
 10
4.0531
 20
44.8948
  0
VERTEX
  8
0
 10
4.0817
 20
44.864
  0
VERTEX
  8
0
 10
4.1187
 20
44.8481
  0
VERTEX
  8
0
 10
4.1645
 20
44.8428
  0
VERTEX
  8
0
 10
4.2041
 20
44.8454
  0
VERTEX
  8
0
 10
4.2393
 20
44.8534
  0
VERTEX
  8
0
 10
4.27
 20
44.8666
  0
VERTEX
  8
0
 10
4.2964
 20
44.8851
  0
VERTEX
  8
0
 10
4.3182
 20
44.9088
  0
VERTEX
  8
0
 10
4.3357
 20
44.9379
  0
VERTEX
  8
0
 10
4.3479
 20
44.9801
  0
VERTEX
  8
0
 10
4.352
 20
45.0386
  0
VERTEX
  8
0
 10
4.352
 20
45.0755
  0
SEQEND
  0
POLYLINE
  8
0
 66
     1
 10
0
 20
0
  0
VERTEX
  8
0
 10
5
 20
44.7708
  0
VERTEX
  8
0
 10
5
 20
44.8504
  0
VERTEX
  8
0
 10
4.9753
 20
44.819
  0
VERTEX
  8
0
 10
4.9462
 20
44.7946
  0
VERTEX
  8
0
 10
4.9128
 20
44.7771
  0
VERTEX
  8
0
 10
4.8751
 20
44.7665
  0
VERTEX
  8
0
 10
4.833
 20
44.7628
  0
VERTEX
  8
0
 10
4.7627
 20
44.7728
  0
VERTEX
  8
0
 10
4.6991
 20
44.8038
  0
VERTEX
  8
0
 10
4.6469
 20
44.8509
  0
VERTEX
  8
0
 10
4.6083
 20
44.9123
  0
VERTEX
  8
0
 10
4.5843
 20
44.9871
  0
VERTEX
  8
0
 10
4.576
 20
45.0742
  0
VERTEX
  8
0
 10
4.5776
 20
45.121
  0
VERTEX
  8
0
 10
4.583
 20
45.1643
  0
VERTEX
  8
0
 10
4.5923
 20
45.2039
  0
VERTEX
  8
0
 10
4.6054
 20
45.2399
  0
VERTEX
  8
0
 10
4.6223
 20
45.2723
  0
VERTEX
  8
0
 10
4.643
 20
45.3011
  0
VERTEX
  8
0
 10
4.6676
 20
45.3264
  0
VERTEX
  8
0
 10
4.696
 20
45.348
  0
VERTEX
  8
0
 10
4.7592
 20
45.3771
  0
VERTEX
  8
0
 10
4.8301
 20
45.3868
  0
VERTEX
  8
0
 10
4.8802
 20
45.3817
  0
VERTEX
  8
0
 10
4.9245
 20
45.3664
  0
VERTEX
  8
0
 10
4.9631
 20
45.3409
  0
VERTEX
  8
0
 10
4.996
 20
45.3052
  0
VERTEX
  8
0
 10
4.996
 20
45.6028
  0
VERTEX
  8
0
 10
5.096
 20
45.6028
  0
VERTEX
  8
0
 10
5.096
 20
44.7708
  0
VERTEX
  8
0
 10
5
 20
44.7708
  0
SEQEND
  0
POLYLINE
  8
0
 66
     1
 10
0
 20
0
  0
VERTEX
  8
0
 10
4.68
 20
45.0745
  0
VERTEX
  8
0
 10
4.6889
 20
44.9914
  0
VERTEX
  8
0
 10
4.7155
 20
44.9225
  0
VERTEX
  8
0
 10
4.7398
 20
44.8896
  0
VERTEX
  8
0
 10
4.7692
 20
44.866
  0
VERTEX
  8
0
 10
4.8037
 20
44.8517
  0
VERTEX
  8
0
 10
4.8432
 20
44.8468
  0
VERTEX
  8
0
 10
4.8822
 20
44.8511
  0
VERTEX
  8
0
 10
4.9161
 20
44.8645
  0
VERTEX
  8
0
 10
4.9449
 20
44.887
  0
VERTEX
  8
0
 10
4.9687
 20
44.9186
  0
VERTEX
  8
0
 10
4.9945
 20
44.9852
  0
VERTEX
  8
0
 10
5.0031
 20
45.0661
  0
VERTEX
  8
0
 10
4.9948
 20
45.1534
  0
VERTEX
  8
0
 10
4.9698
 20
45.2237
  0
VERTEX
  8
0
 10
4.9455
 20
45.2583
  0
VERTEX
  8
0
 10
4.9155
 20
45.283
  0
VERTEX
  8
0
 10
4.88
 20
45.2978
  0
VERTEX
  8
0
 10
4.8387
 20
45.3028
  0
VERTEX
  8
0
 10
4.7986
 20
45.2981
  0
VERTEX
  8
0
 10
4.7641
 20
45.2838
  0
VERTEX
  8
0
 10
4.7353
 20
45.2602
  0
VERTEX
  8
0
 10
4.7122
 20
45.227
  0
VERTEX
  8
0
 10
4.688
 20
45.1592
  0
VERTEX
  8
0
 10
4.68
 20
45.0745
  0
VERTEX
  8
0
 10
4.68
 20
45.0745
  0
SEQEND
  0
POLYLINE
  8
0
 66
     1
 10
0
 20
0
  0
VERTEX
  8
0
 10
5.252
 20
45.4868
  0
VERTEX
  8
0
 10
5.252
 20
45.6028
  0
VERTEX
  8
0
 10
5.352
 20
45.6028
  0
VERTEX
  8
0
 10
5.352
 20
45.4868
  0
VERTEX
  8
0
 10
5.252
 20
45.4868
  0
SEQEND
  0
POLYLINE
  8
0
 66
     1
 10
0
 20
0
  0
VERTEX
  8
0
 10
5.252
 20
44.7708
  0
VERTEX
  8
0
 10
5.252
 20
45.374
  0
VERTEX
  8
0
 10
5.352
 20
45.374
  0
VERTEX
  8
0
 10
5.352
 20
44.7708
  0
VERTEX
  8
0
 10
5.252
 20
44.7708
  0
SEQEND
  0
POLYLINE
  8
0
 66
     1
 10
0
 20
0
  0
VERTEX
  8
0
 10
5.9
 20
44.7708
  0
VERTEX
  8
0
 10
5.9
 20
44.8628
  0
VERTEX
  8
0
 10
5.8704
 20
44.8268
  0
VERTEX
  8
0
 10
5.8367
 20
44.7988
  0
VERTEX
  8
0
 10
5.799
 20
44.7788
  0
VERTEX
  8
0
 10
5.7571
 20
44.7668
  0
VERTEX
  8
0
 10
5.7112
 20
44.7628
  0
VERTEX
  8
0
 10
5.6649
 20
44.7672
  0
VERTEX
  8
0
 10
5.62
 20
44.7803
  0
VERTEX
  8
0
 10
5.5763
 20
44.8032
  0
VERTEX
  8
0
 10
5.5449
 20
44.8338
  0
VERTEX
  8
0
 10
5.5266
 20
44.8673
  0
VERTEX
  8
0
 10
5.5142
 20
44.9093
  0
VERTEX
  8
0
 10
5.5095
 20
44.9482
  0
VERTEX
  8
0
 10
5.508
 20
45.004
  0
VERTEX
  8
0
 10
5.508
 20
45.3748
  0
VERTEX
  8
0
 10
5.608
 20
45.3748
  0
VERTEX
  8
0
 10
5.608
 20
45.0433
  0
VERTEX
  8
0
 10
5.6095
 20
44.976
  0
VERTEX
  8
0
 10
5.6142
 20
44.9363
  0
VERTEX
  8
0
 10
5.6255
 20
44.9059
  0
VERTEX
  8
0
 10
5.6429
 20
44.8821
  0
VERTEX
  8
0
 10
5.6664
 20
44.865
  0
VERTEX
  8
0
 10
5.6962
 20
44.8546
  0
VERTEX
  8
0
 10
5.7321
 20
44.8508
  0
VERTEX
  8
0
 10
5.7765
 20
44.8562
  0
VERTEX
  8
0
 10
5.818
 20
44.8736
  0
VERTEX
  8
0
 10
5.8522
 20
44.9012
  0
VERTEX
  8
0
 10
5.875
 20
44.9374
  0
VERTEX
  8
0
 10
5.8877
 20
44.987
  0
VERTEX
  8
0
 10
5.892
 20
45.0545
  0
VERTEX
  8
0
 10
5.892
 20
45.3748
  0
VERTEX
  8
0
 10
5.992
 20
45.3748
  0
VERTEX
  8
0
 10
5.992
 20
44.7708
  0
VERTEX
  8
0
 10
5.9
 20
44.7708
  0
SEQEND
  0
POLYLINE
  8
0
 66
     1
 10
0
 20
0
  0
VERTEX
  8
0
 10
6.112
 20
44.9537
  0
VERTEX
  8
0
 10
6.2121
 20
44.9694
  0
VERTEX
  8
0
 10
6.2183
 20
44.9407
  0
VERTEX
  8
0
 10
6.2283
 20
44.9158
  0
VERTEX
  8
0
 10
6.242
 20
44.8947
  0
VERTEX
  8
0
 10
6.2595
 20
44.8774
  0
VERTEX
  8
0
 10
6.2807
 20
44.864
  0
VERTEX
  8
0
 10
6.3056
 20
44.8545
  0
VERTEX
  8
0
 10
6.3343
 20
44.8487
  0
VERTEX
  8
0
 10
6.3667
 20
44.8468
  0
VERTEX
  8
0
 10
6.4165
 20
44.8518
  0
VERTEX
  8
0
 10
6.4578
 20
44.867
  0
VERTEX
  8
0
 10
6.4924
 20
44.898
  0
VERTEX
  8
0
 10
6.504
 20
44.9417
  0
VERTEX
  8
0
 10
6.4965
 20
44.9723
  0
VERTEX
  8
0
 10
6.4741
 20
44.9955
  0
VERTEX
  8
0
 10
6.4535
 20
45.0053
  0
VERTEX
  8
0
 10
6.419
 20
45.0168
  0
VERTEX
  8
0
 10
6.3703
 20
45.0298
  0
VERTEX
  8
0
 10
6.3145
 20
45.044
  0
VERTEX
  8
0
 10
6.2741
 20
45.0552
  0
VERTEX
  8
0
 10
6.2492
 20
45.0635
  0
VERTEX
  8
0
 10
6.1886
 20
45.0948
  0
VERTEX
  8
0
 10
6.15
 20
45.1347
  0
VERTEX
  8
0
 10
6.1335
 20
45.1725
  0
VERTEX
  8
0
 10
6.128
 20
45.215
  0
VERTEX
  8
0
 10
6.1356
 20
45.2654
  0
VERTEX
  8
0
 10
6.1584
 20
45.3088
  0
VERTEX
  8
0
 10
6.1964
 20
45.3452
  0
VERTEX
  8
0
 10
6.2628
 20
45.3761
  0
VERTEX
  8
0
 10
6.349
 20
45.3868
  0
VERTEX
  8
0
 10
6.4145
 20
45.382
  0
VERTEX
  8
0
 10
6.4728
 20
45.3665
  0
VERTEX
  8
0
 10
6.5193
 20
45.3424
  0
VERTEX
  8
0
 10
6.5525
 20
45.3103
  0
VERTEX
  8
0
 10
6.5733
 20
45.2713
  0
VERTEX
  8
0
 10
6.587
 20
45.2193
  0
VERTEX
  8
0
 10
6.4869
 20
45.2058
  0
VERTEX
  8
0
 10
6.4806
 20
45.2314
  0
VERTEX
  8
0
 10
6.4701
 20
45.2531
  0
VERTEX
  8
0
 10
6.4554
 20
45.2709
  0
VERTEX
  8
0
 10
6.4365
 20
45.2847
  0
VERTEX
  8
0
 10
6.4135
 20
45.2946
  0
VERTEX
  8
0
 10
6.3863
 20
45.3007
  0
VERTEX
  8
0
 10
6.3548
 20
45.3028
  0
VERTEX
  8
0
 10
6.3204
 20
45.3014
  0
VERTEX
  8
0
 10
6.2912
 20
45.2967
  0
VERTEX
  8
0
 10
6.2673
 20
45.2889
  0
VERTEX
  8
0
 10
6.2486
 20
45.278
  0
VERTEX
  8
0
 10
6.2351
 20
45.2638
  0
VERTEX
  8
0
 10
6.2269
 20
45.2464
  0
VERTEX
  8
0
 10
6.224
 20
45.2259
  0
VERTEX
  8
0
 10
6.2268
 20
45.2077
  0
VERTEX
  8
0
 10
6.2364
 20
45.1902
  0
VERTEX
  8
0
 10
6.2527
 20
45.175
  0
VERTEX
  8
0
 10
6.2755
 20
45.1636
  0
VERTEX
  8
0
 10
6.2911
 20
45.1585
  0
VERTEX
  8
0
 10
6.3211
 20
45.1499
  0
VERTEX
  8
0
 10
6.3655
 20
45.1378
  0
VERTEX
  8
0
 10
6.4309
 20
45.1193
  0
VERTEX
  8
0
 10
6.4811
 20
45.1036
  0
VERTEX
  8
0
 10
6.5162
 20
45.0906
  0
VERTEX
  8
0
 10
6.5491
 20
45.0728
  0
VERTEX
  8
0
 10
6.5747
 20
45.05
  0
VERTEX
  8
0
 10
6.593
 20
45.0222
  0
VERTEX
  8
0
 10
6.6041
 20
44.9893
  0
VERTEX
  8
0
 10
6.608
 20
44.9514
  0
VERTEX
  8
0
 10
6.6008
 20
44.9026
  0
VERTEX
  8
0
 10
6.5782
 20
44.856
  0
VERTEX
  8
0
 10
6.5553
 20
44.8277
  0
VERTEX
  8
0
 10
6.5275
 20
44.8045
  0
VERTEX
  8
0
 10
6.4948
 20
44.7864
  0
VERTEX
  8
0
 10
6.4572
 20
44.7734
  0
VERTEX
  8
0
 10
6.4147
 20
44.7655
  0
VERTEX
  8
0
 10
6.3673
 20
44.7628
  0
VERTEX
  8
0
 10
6.3344
 20
44.7638
  0
VERTEX
  8
0
 10
6.3037
 20
44.767
  0
VERTEX
  8
0
 10
6.2752
 20
44.7726
  0
VERTEX
  8
0
 10
6.249
 20
44.7804
  0
VERTEX
  8
0
 10
6.2249
 20
44.7905
  0
VERTEX
  8
0
 10
6.203
 20
44.8029
  0
VERTEX
  8
0
 10
6.1834
 20
44.8176
  0
VERTEX
  8
0
 10
6.166
 20
44.8346
  0
VERTEX
  8
0
 10
6.1508
 20
44.8538
  0
VERTEX
  8
0
 10
6.1377
 20
44.8754
  0
VERTEX
  8
0
 10
6.1269
 20
44.8992
  0
VERTEX
  8
0
 10
6.1184
 20
44.9253
  0
VERTEX
  8
0
 10
6.112
 20
44.9537
  0
VERTEX
  8
0
 10
6.112
 20
44.9537
  0
SEQEND
  0
POLYLINE
  8
0
 66
     1
 10
0
 20
0
  0
VERTEX
  8
0
 10
6.76
 20
44.7708
  0
VERTEX
  8
0
 10
6.76
 20
44.8908
  0
VERTEX
  8
0
 10
6.876
 20
44.8908
  0
VERTEX
  8
0
 10
6.876
 20
44.7748
  0
VERTEX
  8
0
 10
6.8733
 20
44.7364
  0
VERTEX
  8
0
 10
6.8654
 20
44.7023
  0
VERTEX
  8
0
 10
6.8521
 20
44.6727
  0
VERTEX
  8
0
 10
6.8336
 20
44.6476
  0
VERTEX
  8
0
 10
6.8097
 20
44.627
  0
VERTEX
  8
0
 10
6.7805
 20
44.6108
  0
VERTEX
  8
0
 10
6.752
 20
44.6533
  0
VERTEX
  8
0
 10
6.7791
 20
44.6701
  0
VERTEX
  8
0
 10
6.7988
 20
44.6953
  0
VERTEX
  8
0
 10
6.8112
 20
44.7289
  0
VERTEX
  8
0
 10
6.8163
 20
44.7708
  0
VERTEX
  8
0
 10
6.76
 20
44.7708
  0
SEQEND
  0
POLYLINE
  8
0
 66
     1
 10
0
 20
0
  0
VERTEX
  8
0
 10
7.56
 20
45.1825
  0
VERTEX
  8
0
 10
7.5612
 20
45.2361
  0
VERTEX
  8
0
 10
7.5648
 20
45.2862
  0
VERTEX
  8
0
 10
7.5707
 20
45.3326
  0
VERTEX
  8
0
 10
7.5791
 20
45.3756
  0
VERTEX
  8
0
 10
7.5899
 20
45.4149
  0
VERTEX
  8
0
 10
7.6031
 20
45.4507
  0
VERTEX
  8
0
 10
7.6186
 20
45.4829
  0
VERTEX
  8
0
 10
7.6366
 20
45.5115
  0
VERTEX
  8
0
 10
7.657
 20
45.5366
  0
VERTEX
  8
0
 10
7.6797
 20
45.5581
  0
VERTEX
  8
0
 10
7.7467
 20
45.5943
  0
VERTEX
  8
0
 10
7.83
 20
45.6068
  0
VERTEX
  8
0
 10
7.8917
 20
45.6003
  0
VERTEX
  8
0
 10
7.9469
 20
45.5796
  0
VERTEX
  8
0
 10
7.9826
 20
45.5554
  0
VERTEX
  8
0
 10
8.014
 20
45.5232
  0
VERTEX
  8
0
 10
8.0408
 20
45.483
  0
VERTEX
  8
0
 10
8.0633
 20
45.4347
  0
VERTEX
  8
0
 10
8.0813
 20
45.3785
  0
VERTEX
  8
0
 10
8.0953
 20
45.2938
  0
VERTEX
  8
0
 10
8.1
 20
45.1825
  0
VERTEX
  8
0
 10
8.0988
 20
45.129
  0
VERTEX
  8
0
 10
8.0952
 20
45.079
  0
VERTEX
  8
0
 10
8.0892
 20
45.0326
  0
VERTEX
  8
0
 10
8.0808
 20
44.9898
  0
VERTEX
  8
0
 10
8.07
 20
44.9505
  0
VERTEX
  8
0
 10
8.0569
 20
44.9148
  0
VERTEX
  8
0
 10
8.0413
 20
44.8826
  0
VERTEX
  8
0
 10
8.0233
 20
44.854
  0
VERTEX
  8
0
 10
8.003
 20
44.829
  0
VERTEX
  8
0
 10
7.9802
 20
44.8075
  0
VERTEX
  8
0
 10
7.9133
 20
44.7712
  0
VERTEX
  8
0
 10
7.83
 20
44.7588
  0
VERTEX
  8
0
 10
7.8088
 20
44.7594
  0
VERTEX
  8
0
 10
7.7886
 20
44.7613
  0
VERTEX
  8
0
 10
7.7692
 20
44.7647
  0
VERTEX
  8
0
 10
7.7506
 20
44.7693
  0
VERTEX
  8
0
 10
7.7329
 20
44.7754
  0
VERTEX
  8
0
 10
7.7161
 20
44.7828
  0
VERTEX
  8
0
 10
7.7002
 20
44.7916
  0
VERTEX
  8
0
 10
7.6851
 20
44.8017
  0
VERTEX
  8
0
 10
7.6708
 20
44.8132
  0
VERTEX
  8
0
 10
7.6574
 20
44.826
  0
VERTEX
  8
0
 10
7.6449
 20
44.8403
  0
VERTEX
  8
0
 10
7.6333
 20
44.8558
  0
VERTEX
  8
0
 10
7.6225
 20
44.8728
  0
VERTEX
  8
0
 10
7.6125
 20
44.8911
  0
VERTEX
  8
0
 10
7.6034
 20
44.9108
  0
VERTEX
  8
0
 10
7.5952
 20
44.9318
  0
VERTEX
  8
0
 10
7.5879
 20
44.9542
  0
VERTEX
  8
0
 10
7.5814
 20
44.978
  0
VERTEX
  8
0
 10
7.5757
 20
45.0031
  0
VERTEX
  8
0
 10
7.5709
 20
45.0296
  0
VERTEX
  8
0
 10
7.567
 20
45.0574
  0
VERTEX
  8
0
 10
7.564
 20
45.0867
  0
VERTEX
  8
0
 10
7.5618
 20
45.1172
  0
VERTEX
  8
0
 10
7.5604
 20
45.1492
  0
VERTEX
  8
0
 10
7.56
 20
45.1825
  0
VERTEX
  8
0
 10
7.56
 20
45.1825
  0
SEQEND
  0
POLYLINE
  8
0
 66
     1
 10
0
 20
0
  0
VERTEX
  8
0
 10
7.664
 20
45.1828
  0
VERTEX
  8
0
 10
7.6664
 20
45.0975
  0
VERTEX
  8
0
 10
7.6738
 20
45.0269
  0
VERTEX
  8
0
 10
7.6861
 20
44.9708
  0
VERTEX
  8
0
 10
7.6983
 20
44.937
  0
VERTEX
  8
0
 10
7.7133
 20
44.9084
  0
VERTEX
  8
0
 10
7.7311
 20
44.8849
  0
VERTEX
  8
0
 10
7.7517
 20
44.8666
  0
VERTEX
  8
0
 10
7.775
 20
44.8535
  0
VERTEX
  8
0
 10
7.8011
 20
44.8455
  0
VERTEX
  8
0
 10
7.83
 20
44.8428
  0
VERTEX
  8
0
 10
7.847
 20
44.8436
  0
VERTEX
  8
0
 10
7.8631
 20
44.8463
  0
VERTEX
  8
0
 10
7.8783
 20
44.851
  0
VERTEX
  8
0
 10
7.8925
 20
44.8575
  0
VERTEX
  8
0
 10
7.9058
 20
44.8659
  0
VERTEX
  8
0
 10
7.9183
 20
44.8762
  0
VERTEX
  8
0
 10
7.9298
 20
44.8884
  0
VERTEX
  8
0
 10
7.9403
 20
44.9025
  0
VERTEX
  8
0
 10
7.95
 20
44.9185
  0
VERTEX
  8
0
 10
7.9587
 20
44.9364
  0
VERTEX
  8
0
 10
7.9665
 20
44.9562
  0
VERTEX
  8
0
 10
7.9734
 20
44.9779
  0
VERTEX
  8
0
 10
7.9794
 20
45.0015
  0
VERTEX
  8
0
 10
7.9845
 20
45.0269
  0
VERTEX
  8
0
 10
7.9886
 20
45.0543
  0
VERTEX
  8
0
 10
7.9918
 20
45.0836
  0
VERTEX
  8
0
 10
7.9941
 20
45.1148
  0
VERTEX
  8
0
 10
7.9955
 20
45.1478
  0
VERTEX
  8
0
 10
7.996
 20
45.1828
  0
VERTEX
  8
0
 10
7.9935
 20
45.268
  0
VERTEX
  8
0
 10
7.9861
 20
45.3387
  0
VERTEX
  8
0
 10
7.9738
 20
45.3947
  0
VERTEX
  8
0
 10
7.9615
 20
45.4286
  0
VERTEX
  8
0
 10
7.9463
 20
45.4572
  0
VERTEX
  8
0
 10
7.9284
 20
45.4807
  0
VERTEX
  8
0
 10
7.9076
 20
45.499
  0
VERTEX
  8
0
 10
7.8842
 20
45.5121
  0
VERTEX
  8
0
 10
7.8579
 20
45.52
  0
VERTEX
  8
0
 10
7.8288
 20
45.5228
  0
VERTEX
  8
0
 10
7.7852
 20
45.5164
  0
VERTEX
  8
0
 10
7.7478
 20
45.4966
  0
VERTEX
  8
0
 10
7.7167
 20
45.4633
  0
VERTEX
  8
0
 10
7.7027
 20
45.4392
  0
VERTEX
  8
0
 10
7.6909
 20
45.4099
  0
VERTEX
  8
0
 10
7.6812
 20
45.3751
  0
VERTEX
  8
0
 10
7.6736
 20
45.3351
  0
VERTEX
  8
0
 10
7.6683
 20
45.2896
  0
VERTEX
  8
0
 10
7.665
 20
45.2389
  0
VERTEX
  8
0
 10
7.664
 20
45.1828
  0
VERTEX
  8
0
 10
7.664
 20
45.1828
  0
SEQEND
  0
POLYLINE
  8
0
 66
     1
 10
0
 20
0
  0
VERTEX
  8
0
 10
8.256
 20
44.7708
  0
VERTEX
  8
0
 10
8.256
 20
44.8908
  0
VERTEX
  8
0
 10
8.372
 20
44.8908
  0
VERTEX
  8
0
 10
8.372
 20
44.7708
  0
VERTEX
  8
0
 10
8.256
 20
44.7708
  0
SEQEND
  0
POLYLINE
  8
0
 66
     1
 10
0
 20
0
  0
VERTEX
  8
0
 10
8.52
 20
44.9913
  0
VERTEX
  8
0
 10
8.6265
 20
45.0005
  0
VERTEX
  8
0
 10
8.6331
 20
44.9674
  0
VERTEX
  8
0
 10
8.6425
 20
44.9382
  0
VERTEX
  8
0
 10
8.6546
 20
44.9129
  0
VERTEX
  8
0
 10
8.6695
 20
44.8915
  0
VERTEX
  8
0
 10
8.6872
 20
44.8739
  0
VERTEX
  8
0
 10
8.7076
 20
44.8603
  0
VERTEX
  8
0
 10
8.7307
 20
44.8506
  0
VERTEX
  8
0
 10
8.7567
 20
44.8447
  0
VERTEX
  8
0
 10
8.7853
 20
44.8428
  0
VERTEX
  8
0
 10
8.8358
 20
44.8497
  0
VERTEX
  8
0
 10
8.879
 20
44.8706
  0
VERTEX
  8
0
 10
8.9149
 20
44.9053
  0
VERTEX
  8
0
 10
8.9487
 20
44.9689
  0
VERTEX
  8
0
 10
8.96
 20
45.0462
  0
VERTEX
  8
0
 10
8.9483
 20
45.1222
  0
VERTEX
  8
0
 10
8.9132
 20
45.1822
  0
VERTEX
  8
0
 10
8.878
 20
45.2112
  0
VERTEX
  8
0
 10
8.8349
 20
45.2287
  0
VERTEX
  8
0
 10
8.7837
 20
45.2348
  0
VERTEX
  8
0
 10
8.7379
 20
45.2299
  0
VERTEX
  8
0
 10
8.6976
 20
45.2147
  0
VERTEX
  8
0
 10
8.6627
 20
45.1892
  0
VERTEX
  8
0
 10
8.6332
 20
45.1533
  0
VERTEX
  8
0
 10
8.538
 20
45.1658
  0
VERTEX
  8
0
 10
8.6182
 20
45.5908
  0
VERTEX
  8
0
 10
9.0295
 20
45.5908
  0
VERTEX
  8
0
 10
9.0295
 20
45.4948
  0
VERTEX
  8
0
 10
8.7018
 20
45.4948
  0
VERTEX
  8
0
 10
8.6556
 20
45.2712
  0
VERTEX
  8
0
 10
8.7317
 20
45.3096
  0
VERTEX
  8
0
 10
8.8114
 20
45.3228
  0
VERTEX
  8
0
 10
8.8652
 20
45.3181
  0
VERTEX
  8
0
 10
8.9141
 20
45.3036
  0
VERTEX
  8
0
 10
8.9581
 20
45.2791
  0
VERTEX
  8
0
 10
8.9971
 20
45.2447
  0
VERTEX
  8
0
 10
9.0281
 20
45.2042
  0
VERTEX
  8
0
 10
9.0503
 20
45.1589
  0
VERTEX
  8
0
 10
9.0635
 20
45.1089
  0
VERTEX
  8
0
 10
9.068
 20
45.0541
  0
VERTEX
  8
0
 10
9.0607
 20
44.9827
  0
VERTEX
  8
0
 10
9.0389
 20
44.9178
  0
VERTEX
  8
0
 10
9.0026
 20
44.8595
  0
VERTEX
  8
0
 10
8.9685
 20
44.8234
  0
VERTEX
  8
0
 10
8.9297
 20
44.7953
  0
VERTEX
  8
0
 10
8.8863
 20
44.7752
  0
VERTEX
  8
0
 10
8.8382
 20
44.763
  0
VERTEX
  8
0
 10
8.7855
 20
44.7588
  0
VERTEX
  8
0
 10
8.7165
 20
44.7656
  0
VERTEX
  8
0
 10
8.656
 20
44.7858
  0
VERTEX
  8
0
 10
8.604
 20
44.8197
  0
VERTEX
  8
0
 10
8.5621
 20
44.8665
  0
VERTEX
  8
0
 10
8.5341
 20
44.9237
  0
VERTEX
  8
0
 10
8.52
 20
44.9913
  0
VERTEX
  8
0
 10
8.52
 20
44.9913
  0
SEQEND
  0
POLYLINE
  8
0
 66
     1
 10
0
 20
0
  0
VERTEX
  8
0
 10
9.164
 20
45.1825
  0
VERTEX
  8
0
 10
9.1652
 20
45.2361
  0
VERTEX
  8
0
 10
9.1688
 20
45.2862
  0
VERTEX
  8
0
 10
9.1747
 20
45.3326
  0
VERTEX
  8
0
 10
9.1831
 20
45.3756
  0
VERTEX
  8
0
 10
9.1939
 20
45.4149
  0
VERTEX
  8
0
 10
9.2071
 20
45.4507
  0
VERTEX
  8
0
 10
9.2226
 20
45.4829
  0
VERTEX
  8
0
 10
9.2406
 20
45.5115
  0
VERTEX
  8
0
 10
9.261
 20
45.5366
  0
VERTEX
  8
0
 10
9.2837
 20
45.5581
  0
VERTEX
  8
0
 10
9.3507
 20
45.5943
  0
VERTEX
  8
0
 10
9.434
 20
45.6068
  0
VERTEX
  8
0
 10
9.4957
 20
45.6003
  0
VERTEX
  8
0
 10
9.5509
 20
45.5796
  0
VERTEX
  8
0
 10
9.5866
 20
45.5554
  0
VERTEX
  8
0
 10
9.618
 20
45.5232
  0
VERTEX
  8
0
 10
9.6448
 20
45.483
  0
VERTEX
  8
0
 10
9.6673
 20
45.4347
  0
VERTEX
  8
0
 10
9.6853
 20
45.3785
  0
VERTEX
  8
0
 10
9.6993
 20
45.2938
  0
VERTEX
  8
0
 10
9.704
 20
45.1825
  0
VERTEX
  8
0
 10
9.7028
 20
45.129
  0
VERTEX
  8
0
 10
9.6992
 20
45.079
  0
VERTEX
  8
0
 10
9.6932
 20
45.0326
  0
VERTEX
  8
0
 10
9.6848
 20
44.9898
  0
VERTEX
  8
0
 10
9.674
 20
44.9505
  0
VERTEX
  8
0
 10
9.6609
 20
44.9148
  0
VERTEX
  8
0
 10
9.6453
 20
44.8826
  0
VERTEX
  8
0
 10
9.6273
 20
44.854
  0
VERTEX
  8
0
 10
9.607
 20
44.829
  0
VERTEX
  8
0
 10
9.5842
 20
44.8075
  0
VERTEX
  8
0
 10
9.5173
 20
44.7712
  0
VERTEX
  8
0
 10
9.434
 20
44.7588
  0
VERTEX
  8
0
 10
9.4128
 20
44.7594
  0
VERTEX
  8
0
 10
9.3926
 20
44.7613
  0
VERTEX
  8
0
 10
9.3732
 20
44.7647
  0
VERTEX
  8
0
 10
9.3546
 20
44.7693
  0
VERTEX
  8
0
 10
9.3369
 20
44.7754
  0
VERTEX
  8
0
 10
9.3201
 20
44.7828
  0
VERTEX
  8
0
 10
9.3042
 20
44.7916
  0
VERTEX
  8
0
 10
9.2891
 20
44.8017
  0
VERTEX
  8
0
 10
9.2748
 20
44.8132
  0
VERTEX
  8
0
 10
9.2614
 20
44.826
  0
VERTEX
  8
0
 10
9.2489
 20
44.8403
  0
VERTEX
  8
0
 10
9.2373
 20
44.8558
  0
VERTEX
  8
0
 10
9.2265
 20
44.8728
  0
VERTEX
  8
0
 10
9.2165
 20
44.8911
  0
VERTEX
  8
0
 10
9.2074
 20
44.9108
  0
VERTEX
  8
0
 10
9.1992
 20
44.9318
  0
VERTEX
  8
0
 10
9.1919
 20
44.9542
  0
VERTEX
  8
0
 10
9.1854
 20
44.978
  0
VERTEX
  8
0
 10
9.1797
 20
45.0031
  0
VERTEX
  8
0
 10
9.1749
 20
45.0296
  0
VERTEX
  8
0
 10
9.171
 20
45.0574
  0
VERTEX
  8
0
 10
9.168
 20
45.0867
  0
VERTEX
  8
0
 10
9.1658
 20
45.1172
  0
VERTEX
  8
0
 10
9.1644
 20
45.1492
  0
VERTEX
  8
0
 10
9.164
 20
45.1825
  0
VERTEX
  8
0
 10
9.164
 20
45.1825
  0
SEQEND
  0
POLYLINE
  8
0
 66
     1
 10
0
 20
0
  0
VERTEX
  8
0
 10
9.268
 20
45.1828
  0
VERTEX
  8
0
 10
9.2704
 20
45.0975
  0
VERTEX
  8
0
 10
9.2778
 20
45.0269
  0
VERTEX
  8
0
 10
9.2901
 20
44.9708
  0
VERTEX
  8
0
 10
9.3023
 20
44.937
  0
VERTEX
  8
0
 10
9.3173
 20
44.9084
  0
VERTEX
  8
0
 10
9.3351
 20
44.8849
  0
VERTEX
  8
0
 10
9.3557
 20
44.8666
  0
VERTEX
  8
0
 10
9.379
 20
44.8535
  0
VERTEX
  8
0
 10
9.4051
 20
44.8455
  0
VERTEX
  8
0
 10
9.434
 20
44.8428
  0
VERTEX
  8
0
 10
9.451
 20
44.8436
  0
VERTEX
  8
0
 10
9.4671
 20
44.8463
  0
VERTEX
  8
0
 10
9.4823
 20
44.851
  0
VERTEX
  8
0
 10
9.4965
 20
44.8575
  0
VERTEX
  8
0
 10
9.5098
 20
44.8659
  0
VERTEX
  8
0
 10
9.5223
 20
44.8762
  0
VERTEX
  8
0
 10
9.5338
 20
44.8884
  0
VERTEX
  8
0
 10
9.5443
 20
44.9025
  0
VERTEX
  8
0
 10
9.554
 20
44.9185
  0
VERTEX
  8
0
 10
9.5627
 20
44.9364
  0
VERTEX
  8
0
 10
9.5705
 20
44.9562
  0
VERTEX
  8
0
 10
9.5774
 20
44.9779
  0
VERTEX
  8
0
 10
9.5834
 20
45.0015
  0
VERTEX
  8
0
 10
9.5885
 20
45.0269
  0
VERTEX
  8
0
 10
9.5926
 20
45.0543
  0
VERTEX
  8
0
 10
9.5958
 20
45.0836
  0
VERTEX
  8
0
 10
9.5981
 20
45.1148
  0
VERTEX
  8
0
 10
9.5995
 20
45.1478
  0
VERTEX
  8
0
 10
9.6
 20
45.1828
  0
VERTEX
  8
0
 10
9.5975
 20
45.268
  0
VERTEX
  8
0
 10
9.5901
 20
45.3387
  0
VERTEX
  8
0
 10
9.5778
 20
45.3947
  0
VERTEX
  8
0
 10
9.5655
 20
45.4286
  0
VERTEX
  8
0
 10
9.5503
 20
45.4572
  0
VERTEX
  8
0
 10
9.5324
 20
45.4807
  0
VERTEX
  8
0
 10
9.5116
 20
45.499
  0
VERTEX
  8
0
 10
9.4882
 20
45.5121
  0
VERTEX
  8
0
 10
9.4619
 20
45.52
  0
VERTEX
  8
0
 10
9.4328
 20
45.5228
  0
VERTEX
  8
0
 10
9.3892
 20
45.5164
  0
VERTEX
  8
0
 10
9.3518
 20
45.4966
  0
VERTEX
  8
0
 10
9.3207
 20
45.4633
  0
VERTEX
  8
0
 10
9.3067
 20
45.4392
  0
VERTEX
  8
0
 10
9.2949
 20
45.4099
  0
VERTEX
  8
0
 10
9.2852
 20
45.3751
  0
VERTEX
  8
0
 10
9.2776
 20
45.3351
  0
VERTEX
  8
0
 10
9.2723
 20
45.2896
  0
VERTEX
  8
0
 10
9.269
 20
45.2389
  0
VERTEX
  8
0
 10
9.268
 20
45.1828
  0
VERTEX
  8
0
 10
9.268
 20
45.1828
  0
SEQEND
  0
POLYLINE
  8
0
 66
     1
 10
0
 20
0
  0
VERTEX
  8
0
 10
9.8363
 20
45.3108
  0
VERTEX
  8
0
 10
9.808
 20
45.4678
  0
VERTEX
  8
0
 10
9.808
 20
45.6028
  0
VERTEX
  8
0
 10
9.924
 20
45.6028
  0
VERTEX
  8
0
 10
9.924
 20
45.4678
  0
VERTEX
  8
0
 10
9.8985
 20
45.3108
  0
VERTEX
  8
0
 10
9.8363
 20
45.3108
  0
SEQEND
  0
POLYLINE
  8
0
 66
     1
 10
0
 20
0
  0
VERTEX
  8
0
 10
10.0237
 20
45.3108
  0
VERTEX
  8
0
 10
9.996
 20
45.4678
  0
VERTEX
  8
0
 10
9.996
 20
45.6028
  0
VERTEX
  8
0
 10
10.112
 20
45.6028
  0
VERTEX
  8
0
 10
10.112
 20
45.4678
  0
VERTEX
  8
0
 10
10.0848
 20
45.3108
  0
VERTEX
  8
0
 10
10.0237
 20
45.3108
  0
SEQEND
  0
POLYLINE
  8
0
 66
     1
 10
0
 20
0
  0
VERTEX
  8
0
 10
10.784
 20
44.7708
  0
VERTEX
  8
0
 10
10.784
 20
45.6028
  0
VERTEX
  8
0
 10
11.094
 20
45.6028
  0
VERTEX
  8
0
 10
11.1784
 20
45.5964
  0
VERTEX
  8
0
 10
11.2457
 20
45.5772
  0
VERTEX
  8
0
 10
11.2951
 20
45.5465
  0
VERTEX
  8
0
 10
11.3339
 20
45.5018
  0
VERTEX
  8
0
 10
11.3592
 20
45.448
  0
VERTEX
  8
0
 10
11.368
 20
45.39
  0
VERTEX
  8
0
 10
11.3651
 20
45.3526
  0
VERTEX
  8
0
 10
11.3557
 20
45.3184
  0
VERTEX
  8
0
 10
11.3398
 20
45.2874
  0
VERTEX
  8
0
 10
11.3173
 20
45.2596
  0
VERTEX
  8
0
 10
11.2884
 20
45.2349
  0
VERTEX
  8
0
 10
11.2528
 20
45.2135
  0
VERTEX
  8
0
 10
11.3173
 20
45.1844
  0
VERTEX
  8
0
 10
11.3658
 20
45.1402
  0
VERTEX
  8
0
 10
11.3974
 20
45.0815
  0
VERTEX
  8
0
 10
11.408
 20
45.012
  0
VERTEX
  8
0
 10
11.4025
 20
44.9596
  0
VERTEX
  8
0
 10
11.386
 20
44.9093
  0
VERTEX
  8
0
 10
11.3586
 20
44.862
  0
VERTEX
  8
0
 10
11.3228
 20
44.8258
  0
VERTEX
  8
0
 10
11.2818
 20
44.8018
  0
VERTEX
  8
0
 10
11.2308
 20
44.7846
  0
VERTEX
  8
0
 10
11.1699
 20
44.7742
  0
VERTEX
  8
0
 10
11.0991
 20
44.7708
  0
VERTEX
  8
0
 10
10.784
 20
44.7708
  0
SEQEND
  0
POLYLINE
  8
0
 66
     1
 10
0
 20
0
  0
VERTEX
  8
0
 10
10.892
 20
45.2548
  0
VERTEX
  8
0
 10
11.0712
 20
45.2548
  0
VERTEX
  8
0
 10
11.1335
 20
45.2572
  0
VERTEX
  8
0
 10
11.1757
 20
45.2645
  0
VERTEX
  8
0
 10
11.2057
 20
45.277
  0
VERTEX
  8
0
 10
11.2291
 20
45.2948
  0
VERTEX
  8
0
 10
11.2459
 20
45.3176
  0
VERTEX
  8
0
 10
11.2562
 20
45.3456
  0
VERTEX
  8
0
 10
11.26
 20
45.3788
  0
VERTEX
  8
0
 10
11.2573
 20
45.4125
  0
VERTEX
  8
0
 10
11.2483
 20
45.441
  0
VERTEX
  8
0
 10
11.233
 20
45.4642
  0
VERTEX
  8
0
 10
11.2115
 20
45.4822
  0
VERTEX
  8
0
 10
11.1837
 20
45.4948
  0
VERTEX
  8
0
 10
11.1338
 20
45.5038
  0
VERTEX
  8
0
 10
11.0576
 20
45.5068
  0
VERTEX
  8
0
 10
10.892
 20
45.5068
  0
VERTEX
  8
0
 10
10.892
 20
45.2548
  0
SEQEND
  0
POLYLINE
  8
0
 66
     1
 10
0
 20
0
  0
VERTEX
  8
0
 10
10.892
 20
44.8668
  0
VERTEX
  8
0
 10
11.0991
 20
44.8668
  0
VERTEX
  8
0
 10
11.1445
 20
44.8678
  0
VERTEX
  8
0
 10
11.174
 20
44.8708
  0
VERTEX
  8
0
 10
11.2195
 20
44.8851
  0
VERTEX
  8
0
 10
11.2547
 20
44.9085
  0
VERTEX
  8
0
 10
11.2795
 20
44.941
  0
VERTEX
  8
0
 10
11.2916
 20
44.974
  0
VERTEX
  8
0
 10
11.296
 20
45.0128
  0
VERTEX
  8
0
 10
11.2927
 20
45.0501
  0
VERTEX
  8
0
 10
11.2821
 20
45.0819
  0
VERTEX
  8
0
 10
11.264
 20
45.1082
  0
VERTEX
  8
0
 10
11.2386
 20
45.129
  0
VERTEX
  8
0
 10
11.2057
 20
45.1443
  0
VERTEX
  8
0
 10
11.1541
 20
45.1552
  0
VERTEX
  8
0
 10
11.0843
 20
45.1588
  0
VERTEX
  8
0
 10
10.892
 20
45.1588
  0
VERTEX
  8
0
 10
10.892
 20
44.8668
  0
SEQEND
  0
POLYLINE
  8
0
 66
     1
 10
0
 20
0
  0
VERTEX
  8
0
 10
11.508
 20
45.0748
  0
VERTEX
  8
0
 10
11.5105
 20
45.1277
  0
VERTEX
  8
0
 10
11.5182
 20
45.1758
  0
VERTEX
  8
0
 10
11.531
 20
45.2191
  0
VERTEX
  8
0
 10
11.549
 20
45.2577
  0
VERTEX
  8
0
 10
11.5721
 20
45.2915
  0
VERTEX
  8
0
 10
11.6003
 20
45.3205
  0
VERTEX
  8
0
 10
11.6552
 20
45.3573
  0
VERTEX
  8
0
 10
11.7179
 20
45.3794
  0
VERTEX
  8
0
 10
11.7883
 20
45.3868
  0
VERTEX
  8
0
 10
11.8387
 20
45.3833
  0
VERTEX
  8
0
 10
11.8847
 20
45.3728
  0
VERTEX
  8
0
 10
11.9262
 20
45.3554
  0
VERTEX
  8
0
 10
11.9633
 20
45.331
  0
VERTEX
  8
0
 10
11.9959
 20
45.2997
  0
VERTEX
  8
0
 10
12.0274
 20
45.2549
  0
VERTEX
  8
0
 10
12.05
 20
45.204
  0
VERTEX
  8
0
 10
12.0635
 20
45.1467
  0
VERTEX
  8
0
 10
12.068
 20
45.0832
  0
VERTEX
  8
0
 10
12.0663
 20
45.0384
  0
VERTEX
  8
0
 10
12.0613
 20
44.9969
  0
VERTEX
  8
0
 10
12.0529
 20
44.9587
  0
VERTEX
  8
0
 10
12.0412
 20
44.9239
  0
VERTEX
  8
0
 10
12.0261
 20
44.8923
  0
VERTEX
  8
0
 10
12.0077
 20
44.8641
  0
VERTEX
  8
0
 10
11.9859
 20
44.8392
  0
VERTEX
  8
0
 10
11.9608
 20
44.8176
  0
VERTEX
  8
0
 10
11.9323
 20
44.7993
  0
VERTEX
  8
0
 10
11.8634
 20
44.7722
  0
VERTEX
  8
0
 10
11.7883
 20
44.7628
  0
VERTEX
  8
0
 10
11.7361
 20
44.7662
  0
VERTEX
  8
0
 10
11.6888
 20
44.7768
  0
VERTEX
  8
0
 10
11.6466
 20
44.7947
  0
VERTEX
  8
0
 10
11.6094
 20
44.8198
  0
VERTEX
  8
0
 10
11.5772
 20
44.8522
  0
VERTEX
  8
0
 10
11.5469
 20
44.8973
  0
VERTEX
  8
0
 10
11.5253
 20
44.9494
  0
VERTEX
  8
0
 10
11.5123
 20
45.0086
  0
VERTEX
  8
0
 10
11.508
 20
45.0748
  0
VERTEX
  8
0
 10
11.508
 20
45.0748
  0
SEQEND
  0
POLYLINE
  8
0
 66
     1
 10
0
 20
0
  0
VERTEX
  8
0
 10
11.612
 20
45.075
  0
VERTEX
  8
0
 10
11.6217
 20
44.9877
  0
VERTEX
  8
0
 10
11.6508
 20
44.9186
  0
VERTEX
  8
0
 10
11.6768
 20
44.8874
  0
VERTEX
  8
0
 10
11.7083
 20
44.865
  0
VERTEX
  8
0
 10
11.7455
 20
44.8515
  0
VERTEX
  8
0
 10
11.7883
 20
44.8468
  0
VERTEX
  8
0
 10
11.8311
 20
44.8512
  0
VERTEX
  8
0
 10
11.8682
 20
44.8649
  0
VERTEX
  8
0
 10
11.8998
 20
44.8879
  0
VERTEX
  8
0
 10
11.9257
 20
44.9203
  0
VERTEX
  8
0
 10
11.9544
 20
44.9907
  0
VERTEX
  8
0
 10
11.964
 20
45.0784
  0
VERTEX
  8
0
 10
11.954
 20
45.1634
  0
VERTEX
  8
0
 10
11.924
 20
45.2321
  0
VERTEX
  8
0
 10
11.8977
 20
45.263
  0
VERTEX
  8
0
 10
11.8664
 20
45.2851
  0
VERTEX
  8
0
 10
11.8299
 20
45.2984
  0
VERTEX
  8
0
 10
11.7883
 20
45.3028
  0
VERTEX
  8
0
 10
11.7455
 20
45.2983
  0
VERTEX
  8
0
 10
11.7083
 20
45.2848
  0
VERTEX
  8
0
 10
11.6768
 20
45.2624
  0
VERTEX
  8
0
 10
11.6508
 20
45.231
  0
VERTEX
  8
0
 10
11.6217
 20
45.1617
  0
VERTEX
  8
0
 10
11.612
 20
45.075
  0
VERTEX
  8
0
 10
11.612
 20
45.075
  0
SEQEND
  0
POLYLINE
  8
0
 66
     1
 10
0
 20
0
  0
VERTEX
  8
0
 10
12.188
 20
44.7708
  0
VERTEX
  8
0
 10
12.188
 20
45.374
  0
VERTEX
  8
0
 10
12.28
 20
45.374
  0
VERTEX
  8
0
 10
12.28
 20
45.2832
  0
VERTEX
  8
0
 10
12.3064
 20
45.326
  0
VERTEX
  8
0
 10
12.3306
 20
45.3548
  0
VERTEX
  8
0
 10
12.3669
 20
45.3788
  0
VERTEX
  8
0
 10
12.4094
 20
45.3868
  0
VERTEX
  8
0
 10
12.4607
 20
45.3787
  0
VERTEX
  8
0
 10
12.5135
 20
45.3543
  0
VERTEX
  8
0
 10
12.4783
 20
45.2606
  0
VERTEX
  8
0
 10
12.4408
 20
45.2772
  0
VERTEX
  8
0
 10
12.4033
 20
45.2828
  0
VERTEX
  8
0
 10
12.3703
 20
45.277
  0
VERTEX
  8
0
 10
12.3397
 20
45.2595
  0
VERTEX
  8
0
 10
12.3191
 20
45.2366
  0
VERTEX
  8
0
 10
12.305
 20
45.2065
  0
VERTEX
  8
0
 10
12.2922
 20
45.15
  0
VERTEX
  8
0
 10
12.288
 20
45.0871
  0
VERTEX
  8
0
 10
12.288
 20
44.7708
  0
VERTEX
  8
0
 10
12.188
 20
44.7708
  0
SEQEND
  0
POLYLINE
  8
0
 66
     1
 10
0
 20
0
  0
VERTEX
  8
0
 10
12.964
 20
44.7708
  0
VERTEX
  8
0
 10
12.964
 20
44.8504
  0
VERTEX
  8
0
 10
12.9393
 20
44.819
  0
VERTEX
  8
0
 10
12.9102
 20
44.7946
  0
VERTEX
  8
0
 10
12.8768
 20
44.7771
  0
VERTEX
  8
0
 10
12.8391
 20
44.7665
  0
VERTEX
  8
0
 10
12.797
 20
44.7628
  0
VERTEX
  8
0
 10
12.7267
 20
44.7728
  0
VERTEX
  8
0
 10
12.6631
 20
44.8038
  0
VERTEX
  8
0
 10
12.6109
 20
44.8509
  0
VERTEX
  8
0
 10
12.5723
 20
44.9123
  0
VERTEX
  8
0
 10
12.5483
 20
44.9871
  0
VERTEX
  8
0
 10
12.54
 20
45.0742
  0
VERTEX
  8
0
 10
12.5416
 20
45.121
  0
VERTEX
  8
0
 10
12.547
 20
45.1643
  0
VERTEX
  8
0
 10
12.5563
 20
45.2039
  0
VERTEX
  8
0
 10
12.5694
 20
45.2399
  0
VERTEX
  8
0
 10
12.5863
 20
45.2723
  0
VERTEX
  8
0
 10
12.607
 20
45.3011
  0
VERTEX
  8
0
 10
12.6316
 20
45.3264
  0
VERTEX
  8
0
 10
12.66
 20
45.348
  0
VERTEX
  8
0
 10
12.7232
 20
45.3771
  0
VERTEX
  8
0
 10
12.7941
 20
45.3868
  0
VERTEX
  8
0
 10
12.8442
 20
45.3817
  0
VERTEX
  8
0
 10
12.8885
 20
45.3664
  0
VERTEX
  8
0
 10
12.9271
 20
45.3409
  0
VERTEX
  8
0
 10
12.96
 20
45.3052
  0
VERTEX
  8
0
 10
12.96
 20
45.6028
  0
VERTEX
  8
0
 10
13.06
 20
45.6028
  0
VERTEX
  8
0
 10
13.06
 20
44.7708
  0
VERTEX
  8
0
 10
12.964
 20
44.7708
  0
SEQEND
  0
POLYLINE
  8
0
 66
     1
 10
0
 20
0
  0
VERTEX
  8
0
 10
12.644
 20
45.0745
  0
VERTEX
  8
0
 10
12.6529
 20
44.9914
  0
VERTEX
  8
0
 10
12.6795
 20
44.9225
  0
VERTEX
  8
0
 10
12.7038
 20
44.8896
  0
VERTEX
  8
0
 10
12.7332
 20
44.866
  0
VERTEX
  8
0
 10
12.7677
 20
44.8517
  0
VERTEX
  8
0
 10
12.8072
 20
44.8468
  0
VERTEX
  8
0
 10
12.8462
 20
44.8511
  0
VERTEX
  8
0
 10
12.8801
 20
44.8645
  0
VERTEX
  8
0
 10
12.9089
 20
44.887
  0
VERTEX
  8
0
 10
12.9327
 20
44.9186
  0
VERTEX
  8
0
 10
12.9585
 20
44.9852
  0
VERTEX
  8
0
 10
12.9671
 20
45.0661
  0
VERTEX
  8
0
 10
12.9588
 20
45.1534
  0
VERTEX
  8
0
 10
12.9338
 20
45.2237
  0
VERTEX
  8
0
 10
12.9095
 20
45.2583
  0
VERTEX
  8
0
 10
12.8795
 20
45.283
  0
VERTEX
  8
0
 10
12.844
 20
45.2978
  0
VERTEX
  8
0
 10
12.8027
 20
45.3028
  0
VERTEX
  8
0
 10
12.7626
 20
45.2981
  0
VERTEX
  8
0
 10
12.7281
 20
45.2838
  0
VERTEX
  8
0
 10
12.6993
 20
45.2602
  0
VERTEX
  8
0
 10
12.6762
 20
45.227
  0
VERTEX
  8
0
 10
12.652
 20
45.1592
  0
VERTEX
  8
0
 10
12.644
 20
45.0745
  0
VERTEX
  8
0
 10
12.644
 20
45.0745
  0
SEQEND
  0
POLYLINE
  8
0
 66
     1
 10
0
 20
0
  0
VERTEX
  8
0
 10
13.6238
 20
44.9677
  0
VERTEX
  8
0
 10
13.729
 20
44.9548
  0
VERTEX
  8
0
 10
13.7192
 20
44.9242
  0
VERTEX
  8
0
 10
13.7072
 20
44.8962
  0
VERTEX
  8
0
 10
13.693
 20
44.8708
  0
VERTEX
  8
0
 10
13.6766
 20
44.8481
  0
VERTEX
  8
0
 10
13.658
 20
44.8281
  0
VERTEX
  8
0
 10
13.6371
 20
44.8108
  0
VERTEX
  8
0
 10
13.6141
 20
44.7961
  0
VERTEX
  8
0
 10
13.5888
 20
44.7841
  0
VERTEX
  8
0
 10
13.5613
 20
44.7748
  0
VERTEX
  8
0
 10
13.5316
 20
44.7681
  0
VERTEX
  8
0
 10
13.4996
 20
44.7641
  0
VERTEX
  8
0
 10
13.4655
 20
44.7628
  0
VERTEX
  8
0
 10
13.4029
 20
44.7678
  0
VERTEX
  8
0
 10
13.3473
 20
44.7829
  0
VERTEX
  8
0
 10
13.2985
 20
44.808
  0
VERTEX
  8
0
 10
13.2567
 20
44.8432
  0
VERTEX
  8
0
 10
13.2291
 20
44.8779
  0
VERTEX
  8
0
 10
13.2076
 20
44.918
  0
VERTEX
  8
0
 10
13.1922
 20
44.9633
  0
VERTEX
  8
0
 10
13.183
 20
45.0139
  0
VERTEX
  8
0
 10
13.18
 20
45.0697
  0
VERTEX
  8
0
 10
13.1843
 20
45.1358
  0
VERTEX
  8
0
 10
13.1972
 20
45.1952
  0
VERTEX
  8
0
 10
13.2187
 20
45.248
  0
VERTEX
  8
0
 10
13.2488
 20
45.294
  0
VERTEX
  8
0
 10
13.2814
 20
45.3274
  0
VERTEX
  8
0
 10
13.3189
 20
45.3534
  0
VERTEX
  8
0
 10
13.3611
 20
45.3719
  0
VERTEX
  8
0
 10
13.4081
 20
45.3831
  0
VERTEX
  8
0
 10
13.4598
 20
45.3868
  0
VERTEX
  8
0
 10
13.5103
 20
45.3831
  0
VERTEX
  8
0
 10
13.5561
 20
45.372
  0
VERTEX
  8
0
 10
13.5971
 20
45.3536
  0
VERTEX
  8
0
 10
13.6335
 20
45.3278
  0
VERTEX
  8
0
 10
13.6652
 20
45.2946
  0
VERTEX
  8
0
 10
13.6946
 20
45.249
  0
VERTEX
  8
0
 10
13.7156
 20
45.197
  0
VERTEX
  8
0
 10
13.7281
 20
45.1386
  0
VERTEX
  8
0
 10
13.7323
 20
45.0739
  0
VERTEX
  8
0
 10
13.7322
 20
45.0598
  0
VERTEX
  8
0
 10
13.7318
 20
45.0468
  0
VERTEX
  8
0
 10
13.284
 20
45.0468
  0
VERTEX
  8
0
 10
13.2982
 20
44.9689
  0
VERTEX
  8
0
 10
13.332
 20
44.9072
  0
VERTEX
  8
0
 10
13.3687
 20
44.8736
  0
VERTEX
  8
0
 10
13.4132
 20
44.8535
  0
VERTEX
  8
0
 10
13.4655
 20
44.8468
  0
VERTEX
  8
0
 10
13.5014
 20
44.8501
  0
VERTEX
  8
0
 10
13.5336
 20
44.8602
  0
VERTEX
  8
0
 10
13.5619
 20
44.877
  0
VERTEX
  8
0
 10
13.5864
 20
44.9005
  0
VERTEX
  8
0
 10
13.607
 20
44.9308
  0
VERTEX
  8
0
 10
13.6238
 20
44.9677
  0
VERTEX
  8
0
 10
13.6238
 20
44.9677
  0
SEQEND
  0
POLYLINE
  8
0
 66
     1
 10
0
 20
0
  0
VERTEX
  8
0
 10
13.2905
 20
45.1308
  0
VERTEX
  8
0
 10
13.6252
 20
45.1308
  0
VERTEX
  8
0
 10
13.6122
 20
45.1969
  0
VERTEX
  8
0
 10
13.5868
 20
45.2442
  0
VERTEX
  8
0
 10
13.5512
 20
45.2765
  0
VERTEX
  8
0
 10
13.5093
 20
45.296
  0
VERTEX
  8
0
 10
13.461
 20
45.3028
  0
VERTEX
  8
0
 10
13.3938
 20
45.2907
  0
VERTEX
  8
0
 10
13.3402
 20
45.2532
  0
VERTEX
  8
0
 10
13.3055
 20
45.1989
  0
VERTEX
  8
0
 10
13.2905
 20
45.1308
  0
VERTEX
  8
0
 10
13.2905
 20
45.1308
  0
SEQEND
  0
POLYLINE
  8
0
 66
     1
 10
0
 20
0
  0
VERTEX
  8
0
 10
13.856
 20
44.7708
  0
VERTEX
  8
0
 10
13.856
 20
45.374
  0
VERTEX
  8
0
 10
13.948
 20
45.374
  0
VERTEX
  8
0
 10
13.948
 20
45.2832
  0
VERTEX
  8
0
 10
13.9744
 20
45.326
  0
VERTEX
  8
0
 10
13.9986
 20
45.3548
  0
VERTEX
  8
0
 10
14.0349
 20
45.3788
  0
VERTEX
  8
0
 10
14.0774
 20
45.3868
  0
VERTEX
  8
0
 10
14.1287
 20
45.3787
  0
VERTEX
  8
0
 10
14.1815
 20
45.3543
  0
VERTEX
  8
0
 10
14.1463
 20
45.2606
  0
VERTEX
  8
0
 10
14.1088
 20
45.2772
  0
VERTEX
  8
0
 10
14.0713
 20
45.2828
  0
VERTEX
  8
0
 10
14.0383
 20
45.277
  0
VERTEX
  8
0
 10
14.0077
 20
45.2595
  0
VERTEX
  8
0
 10
13.9871
 20
45.2366
  0
VERTEX
  8
0
 10
13.973
 20
45.2065
  0
VERTEX
  8
0
 10
13.9602
 20
45.15
  0
VERTEX
  8
0
 10
13.956
 20
45.0871
  0
VERTEX
  8
0
 10
13.956
 20
44.7708
  0
VERTEX
  8
0
 10
13.856
 20
44.7708
  0
SEQEND
  0
POLYLINE
  8
0
 66
     1
 10
0
 20
0
  0
VERTEX
  8
0
 10
14.272
 20
44.7708
  0
VERTEX
  8
0
 10
14.272
 20
44.8908
  0
VERTEX
  8
0
 10
14.388
 20
44.8908
  0
VERTEX
  8
0
 10
14.388
 20
44.7748
  0
VERTEX
  8
0
 10
14.3853
 20
44.7364
  0
VERTEX
  8
0
 10
14.3774
 20
44.7023
  0
VERTEX
  8
0
 10
14.3641
 20
44.6727
  0
VERTEX
  8
0
 10
14.3456
 20
44.6476
  0
VERTEX
  8
0
 10
14.3217
 20
44.627
  0
VERTEX
  8
0
 10
14.2925
 20
44.6108
  0
VERTEX
  8
0
 10
14.264
 20
44.6533
  0
VERTEX
  8
0
 10
14.2911
 20
44.6701
  0
VERTEX
  8
0
 10
14.3108
 20
44.6953
  0
VERTEX
  8
0
 10
14.3232
 20
44.7289
  0
VERTEX
  8
0
 10
14.3283
 20
44.7708
  0
VERTEX
  8
0
 10
14.272
 20
44.7708
  0
SEQEND
  0
POLYLINE
  8
0
 66
     1
 10
0
 20
0
  0
VERTEX
  8
0
 10
15.076
 20
45.1825
  0
VERTEX
  8
0
 10
15.0772
 20
45.2361
  0
VERTEX
  8
0
 10
15.0808
 20
45.2862
  0
VERTEX
  8
0
 10
15.0867
 20
45.3326
  0
VERTEX
  8
0
 10
15.0951
 20
45.3756
  0
VERTEX
  8
0
 10
15.1059
 20
45.4149
  0
VERTEX
  8
0
 10
15.1191
 20
45.4507
  0
VERTEX
  8
0
 10
15.1346
 20
45.4829
  0
VERTEX
  8
0
 10
15.1526
 20
45.5115
  0
VERTEX
  8
0
 10
15.173
 20
45.5366
  0
VERTEX
  8
0
 10
15.1957
 20
45.5581
  0
VERTEX
  8
0
 10
15.2627
 20
45.5943
  0
VERTEX
  8
0
 10
15.346
 20
45.6068
  0
VERTEX
  8
0
 10
15.4077
 20
45.6003
  0
VERTEX
  8
0
 10
15.4629
 20
45.5796
  0
VERTEX
  8
0
 10
15.4986
 20
45.5554
  0
VERTEX
  8
0
 10
15.53
 20
45.5232
  0
VERTEX
  8
0
 10
15.5568
 20
45.483
  0
VERTEX
  8
0
 10
15.5793
 20
45.4347
  0
VERTEX
  8
0
 10
15.5973
 20
45.3785
  0
VERTEX
  8
0
 10
15.6113
 20
45.2938
  0
VERTEX
  8
0
 10
15.616
 20
45.1825
  0
VERTEX
  8
0
 10
15.6148
 20
45.129
  0
VERTEX
  8
0
 10
15.6112
 20
45.079
  0
VERTEX
  8
0
 10
15.6052
 20
45.0326
  0
VERTEX
  8
0
 10
15.5968
 20
44.9898
  0
VERTEX
  8
0
 10
15.586
 20
44.9505
  0
VERTEX
  8
0
 10
15.5729
 20
44.9148
  0
VERTEX
  8
0
 10
15.5573
 20
44.8826
  0
VERTEX
  8
0
 10
15.5393
 20
44.854
  0
VERTEX
  8
0
 10
15.519
 20
44.829
  0
VERTEX
  8
0
 10
15.4962
 20
44.8075
  0
VERTEX
  8
0
 10
15.4293
 20
44.7712
  0
VERTEX
  8
0
 10
15.346
 20
44.7588
  0
VERTEX
  8
0
 10
15.3248
 20
44.7594
  0
VERTEX
  8
0
 10
15.3046
 20
44.7613
  0
VERTEX
  8
0
 10
15.2852
 20
44.7647
  0
VERTEX
  8
0
 10
15.2666
 20
44.7693
  0
VERTEX
  8
0
 10
15.2489
 20
44.7754
  0
VERTEX
  8
0
 10
15.2321
 20
44.7828
  0
VERTEX
  8
0
 10
15.2162
 20
44.7916
  0
VERTEX
  8
0
 10
15.2011
 20
44.8017
  0
VERTEX
  8
0
 10
15.1868
 20
44.8132
  0
VERTEX
  8
0
 10
15.1734
 20
44.826
  0
VERTEX
  8
0
 10
15.1609
 20
44.8403
  0
VERTEX
  8
0
 10
15.1493
 20
44.8558
  0
VERTEX
  8
0
 10
15.1385
 20
44.8728
  0
VERTEX
  8
0
 10
15.1285
 20
44.8911
  0
VERTEX
  8
0
 10
15.1194
 20
44.9108
  0
VERTEX
  8
0
 10
15.1112
 20
44.9318
  0
VERTEX
  8
0
 10
15.1039
 20
44.9542
  0
VERTEX
  8
0
 10
15.0974
 20
44.978
  0
VERTEX
  8
0
 10
15.0917
 20
45.0031
  0
VERTEX
  8
0
 10
15.0869
 20
45.0296
  0
VERTEX
  8
0
 10
15.083
 20
45.0574
  0
VERTEX
  8
0
 10
15.08
 20
45.0867
  0
VERTEX
  8
0
 10
15.0778
 20
45.1172
  0
VERTEX
  8
0
 10
15.0764
 20
45.1492
  0
VERTEX
  8
0
 10
15.076
 20
45.1825
  0
VERTEX
  8
0
 10
15.076
 20
45.1825
  0
SEQEND
  0
POLYLINE
  8
0
 66
     1
 10
0
 20
0
  0
VERTEX
  8
0
 10
15.18
 20
45.1828
  0
VERTEX
  8
0
 10
15.1824
 20
45.0975
  0
VERTEX
  8
0
 10
15.1898
 20
45.0269
  0
VERTEX
  8
0
 10
15.2021
 20
44.9708
  0
VERTEX
  8
0
 10
15.2143
 20
44.937
  0
VERTEX
  8
0
 10
15.2293
 20
44.9084
  0
VERTEX
  8
0
 10
15.2471
 20
44.8849
  0
VERTEX
  8
0
 10
15.2677
 20
44.8666
  0
VERTEX
  8
0
 10
15.291
 20
44.8535
  0
VERTEX
  8
0
 10
15.3171
 20
44.8455
  0
VERTEX
  8
0
 10
15.346
 20
44.8428
  0
VERTEX
  8
0
 10
15.363
 20
44.8436
  0
VERTEX
  8
0
 10
15.3791
 20
44.8463
  0
VERTEX
  8
0
 10
15.3943
 20
44.851
  0
VERTEX
  8
0
 10
15.4085
 20
44.8575
  0
VERTEX
  8
0
 10
15.4218
 20
44.8659
  0
VERTEX
  8
0
 10
15.4343
 20
44.8762
  0
VERTEX
  8
0
 10
15.4458
 20
44.8884
  0
VERTEX
  8
0
 10
15.4563
 20
44.9025
  0
VERTEX
  8
0
 10
15.466
 20
44.9185
  0
VERTEX
  8
0
 10
15.4747
 20
44.9364
  0
VERTEX
  8
0
 10
15.4825
 20
44.9562
  0
VERTEX
  8
0
 10
15.4894
 20
44.9779
  0
VERTEX
  8
0
 10
15.4954
 20
45.0015
  0
VERTEX
  8
0
 10
15.5005
 20
45.0269
  0
VERTEX
  8
0
 10
15.5046
 20
45.0543
  0
VERTEX
  8
0
 10
15.5078
 20
45.0836
  0
VERTEX
  8
0
 10
15.5101
 20
45.1148
  0
VERTEX
  8
0
 10
15.5115
 20
45.1478
  0
VERTEX
  8
0
 10
15.512
 20
45.1828
  0
VERTEX
  8
0
 10
15.5095
 20
45.268
  0
VERTEX
  8
0
 10
15.5021
 20
45.3387
  0
VERTEX
  8
0
 10
15.4898
 20
45.3947
  0
VERTEX
  8
0
 10
15.4775
 20
45.4286
  0
VERTEX
  8
0
 10
15.4623
 20
45.4572
  0
VERTEX
  8
0
 10
15.4444
 20
45.4807
  0
VERTEX
  8
0
 10
15.4236
 20
45.499
  0
VERTEX
  8
0
 10
15.4002
 20
45.5121
  0
VERTEX
  8
0
 10
15.3739
 20
45.52
  0
VERTEX
  8
0
 10
15.3448
 20
45.5228
  0
VERTEX
  8
0
 10
15.3012
 20
45.5164
  0
VERTEX
  8
0
 10
15.2638
 20
45.4966
  0
VERTEX
  8
0
 10
15.2327
 20
45.4633
  0
VERTEX
  8
0
 10
15.2187
 20
45.4392
  0
VERTEX
  8
0
 10
15.2069
 20
45.4099
  0
VERTEX
  8
0
 10
15.1972
 20
45.3751
  0
VERTEX
  8
0
 10
15.1896
 20
45.3351
  0
VERTEX
  8
0
 10
15.1843
 20
45.2896
  0
VERTEX
  8
0
 10
15.181
 20
45.2389
  0
VERTEX
  8
0
 10
15.18
 20
45.1828
  0
VERTEX
  8
0
 10
15.18
 20
45.1828
  0
SEQEND
  0
POLYLINE
  8
0
 66
     1
 10
0
 20
0
  0
VERTEX
  8
0
 10
15.768
 20
44.7708
  0
VERTEX
  8
0
 10
15.768
 20
44.8908
  0
VERTEX
  8
0
 10
15.884
 20
44.8908
  0
VERTEX
  8
0
 10
15.884
 20
44.7708
  0
VERTEX
  8
0
 10
15.768
 20
44.7708
  0
SEQEND
  0
POLYLINE
  8
0
 66
     1
 10
0
 20
0
  0
VERTEX
  8
0
 10
16.032
 20
44.9913
  0
VERTEX
  8
0
 10
16.1385
 20
45.0005
  0
VERTEX
  8
0
 10
16.1451
 20
44.9674
  0
VERTEX
  8
0
 10
16.1545
 20
44.9382
  0
VERTEX
  8
0
 10
16.1666
 20
44.9129
  0
VERTEX
  8
0
 10
16.1815
 20
44.8915
  0
VERTEX
  8
0
 10
16.1992
 20
44.8739
  0
VERTEX
  8
0
 10
16.2196
 20
44.8603
  0
VERTEX
  8
0
 10
16.2427
 20
44.8506
  0
VERTEX
  8
0
 10
16.2687
 20
44.8447
  0
VERTEX
  8
0
 10
16.2973
 20
44.8428
  0
VERTEX
  8
0
 10
16.3478
 20
44.8497
  0
VERTEX
  8
0
 10
16.391
 20
44.8706
  0
VERTEX
  8
0
 10
16.4269
 20
44.9053
  0
VERTEX
  8
0
 10
16.4607
 20
44.9689
  0
VERTEX
  8
0
 10
16.472
 20
45.0462
  0
VERTEX
  8
0
 10
16.4603
 20
45.1222
  0
VERTEX
  8
0
 10
16.4252
 20
45.1822
  0
VERTEX
  8
0
 10
16.39
 20
45.2112
  0
VERTEX
  8
0
 10
16.3469
 20
45.2287
  0
VERTEX
  8
0
 10
16.2957
 20
45.2348
  0
VERTEX
  8
0
 10
16.2499
 20
45.2299
  0
VERTEX
  8
0
 10
16.2096
 20
45.2147
  0
VERTEX
  8
0
 10
16.1747
 20
45.1892
  0
VERTEX
  8
0
 10
16.1452
 20
45.1533
  0
VERTEX
  8
0
 10
16.05
 20
45.1658
  0
VERTEX
  8
0
 10
16.1302
 20
45.5908
  0
VERTEX
  8
0
 10
16.5415
 20
45.5908
  0
VERTEX
  8
0
 10
16.5415
 20
45.4948
  0
VERTEX
  8
0
 10
16.2138
 20
45.4948
  0
VERTEX
  8
0
 10
16.1676
 20
45.2712
  0
VERTEX
  8
0
 10
16.2437
 20
45.3096
  0
VERTEX
  8
0
 10
16.3234
 20
45.3228
  0
VERTEX
  8
0
 10
16.3772
 20
45.3181
  0
VERTEX
  8
0
 10
16.4261
 20
45.3036
  0
VERTEX
  8
0
 10
16.4701
 20
45.2791
  0
VERTEX
  8
0
 10
16.5091
 20
45.2447
  0
VERTEX
  8
0
 10
16.5401
 20
45.2042
  0
VERTEX
  8
0
 10
16.5623
 20
45.1589
  0
VERTEX
  8
0
 10
16.5755
 20
45.1089
  0
VERTEX
  8
0
 10
16.58
 20
45.0541
  0
VERTEX
  8
0
 10
16.5727
 20
44.9827
  0
VERTEX
  8
0
 10
16.5509
 20
44.9178
  0
VERTEX
  8
0
 10
16.5146
 20
44.8595
  0
VERTEX
  8
0
 10
16.4805
 20
44.8234
  0
VERTEX
  8
0
 10
16.4417
 20
44.7953
  0
VERTEX
  8
0
 10
16.3983
 20
44.7752
  0
VERTEX
  8
0
 10
16.3502
 20
44.763
  0
VERTEX
  8
0
 10
16.2975
 20
44.7588
  0
VERTEX
  8
0
 10
16.2285
 20
44.7656
  0
VERTEX
  8
0
 10
16.168
 20
44.7858
  0
VERTEX
  8
0
 10
16.116
 20
44.8197
  0
VERTEX
  8
0
 10
16.0741
 20
44.8665
  0
VERTEX
  8
0
 10
16.0461
 20
44.9237
  0
VERTEX
  8
0
 10
16.032
 20
44.9913
  0
VERTEX
  8
0
 10
16.032
 20
44.9913
  0
SEQEND
  0
POLYLINE
  8
0
 66
     1
 10
0
 20
0
  0
VERTEX
  8
0
 10
16.68
 20
45.1825
  0
VERTEX
  8
0
 10
16.6812
 20
45.2361
  0
VERTEX
  8
0
 10
16.6848
 20
45.2862
  0
VERTEX
  8
0
 10
16.6907
 20
45.3326
  0
VERTEX
  8
0
 10
16.6991
 20
45.3756
  0
VERTEX
  8
0
 10
16.7099
 20
45.4149
  0
VERTEX
  8
0
 10
16.7231
 20
45.4507
  0
VERTEX
  8
0
 10
16.7386
 20
45.4829
  0
VERTEX
  8
0
 10
16.7566
 20
45.5115
  0
VERTEX
  8
0
 10
16.777
 20
45.5366
  0
VERTEX
  8
0
 10
16.7997
 20
45.5581
  0
VERTEX
  8
0
 10
16.8667
 20
45.5943
  0
VERTEX
  8
0
 10
16.95
 20
45.6068
  0
VERTEX
  8
0
 10
17.0117
 20
45.6003
  0
VERTEX
  8
0
 10
17.0669
 20
45.5796
  0
VERTEX
  8
0
 10
17.1026
 20
45.5554
  0
VERTEX
  8
0
 10
17.134
 20
45.5232
  0
VERTEX
  8
0
 10
17.1608
 20
45.483
  0
VERTEX
  8
0
 10
17.1833
 20
45.4347
  0
VERTEX
  8
0
 10
17.2013
 20
45.3785
  0
VERTEX
  8
0
 10
17.2153
 20
45.2938
  0
VERTEX
  8
0
 10
17.22
 20
45.1825
  0
VERTEX
  8
0
 10
17.2188
 20
45.129
  0
VERTEX
  8
0
 10
17.2152
 20
45.079
  0
VERTEX
  8
0
 10
17.2092
 20
45.0326
  0
VERTEX
  8
0
 10
17.2008
 20
44.9898
  0
VERTEX
  8
0
 10
17.19
 20
44.9505
  0
VERTEX
  8
0
 10
17.1769
 20
44.9148
  0
VERTEX
  8
0
 10
17.1613
 20
44.8826
  0
VERTEX
  8
0
 10
17.1433
 20
44.854
  0
VERTEX
  8
0
 10
17.123
 20
44.829
  0
VERTEX
  8
0
 10
17.1002
 20
44.8075
  0
VERTEX
  8
0
 10
17.0333
 20
44.7712
  0
VERTEX
  8
0
 10
16.95
 20
44.7588
  0
VERTEX
  8
0
 10
16.9288
 20
44.7594
  0
VERTEX
  8
0
 10
16.9086
 20
44.7613
  0
VERTEX
  8
0
 10
16.8892
 20
44.7647
  0
VERTEX
  8
0
 10
16.8706
 20
44.7693
  0
VERTEX
  8
0
 10
16.8529
 20
44.7754
  0
VERTEX
  8
0
 10
16.8361
 20
44.7828
  0
VERTEX
  8
0
 10
16.8202
 20
44.7916
  0
VERTEX
  8
0
 10
16.8051
 20
44.8017
  0
VERTEX
  8
0
 10
16.7908
 20
44.8132
  0
VERTEX
  8
0
 10
16.7774
 20
44.826
  0
VERTEX
  8
0
 10
16.7649
 20
44.8403
  0
VERTEX
  8
0
 10
16.7533
 20
44.8558
  0
VERTEX
  8
0
 10
16.7425
 20
44.8728
  0
VERTEX
  8
0
 10
16.7325
 20
44.8911
  0
VERTEX
  8
0
 10
16.7234
 20
44.9108
  0
VERTEX
  8
0
 10
16.7152
 20
44.9318
  0
VERTEX
  8
0
 10
16.7079
 20
44.9542
  0
VERTEX
  8
0
 10
16.7014
 20
44.978
  0
VERTEX
  8
0
 10
16.6957
 20
45.0031
  0
VERTEX
  8
0
 10
16.6909
 20
45.0296
  0
VERTEX
  8
0
 10
16.687
 20
45.0574
  0
VERTEX
  8
0
 10
16.684
 20
45.0867
  0
VERTEX
  8
0
 10
16.6818
 20
45.1172
  0
VERTEX
  8
0
 10
16.6804
 20
45.1492
  0
VERTEX
  8
0
 10
16.68
 20
45.1825
  0
VERTEX
  8
0
 10
16.68
 20
45.1825
  0
SEQEND
  0
POLYLINE
  8
0
 66
     1
 10
0
 20
0
  0
VERTEX
  8
0
 10
16.784
 20
45.1828
  0
VERTEX
  8
0
 10
16.7864
 20
45.0975
  0
VERTEX
  8
0
 10
16.7938
 20
45.0269
  0
VERTEX
  8
0
 10
16.8061
 20
44.9708
  0
VERTEX
  8
0
 10
16.8183
 20
44.937
  0
VERTEX
  8
0
 10
16.8333
 20
44.9084
  0
VERTEX
  8
0
 10
16.8511
 20
44.8849
  0
VERTEX
  8
0
 10
16.8717
 20
44.8666
  0
VERTEX
  8
0
 10
16.895
 20
44.8535
  0
VERTEX
  8
0
 10
16.9211
 20
44.8455
  0
VERTEX
  8
0
 10
16.95
 20
44.8428
  0
VERTEX
  8
0
 10
16.967
 20
44.8436
  0
VERTEX
  8
0
 10
16.9831
 20
44.8463
  0
VERTEX
  8
0
 10
16.9983
 20
44.851
  0
VERTEX
  8
0
 10
17.0125
 20
44.8575
  0
VERTEX
  8
0
 10
17.0258
 20
44.8659
  0
VERTEX
  8
0
 10
17.0383
 20
44.8762
  0
VERTEX
  8
0
 10
17.0498
 20
44.8884
  0
VERTEX
  8
0
 10
17.0603
 20
44.9025
  0
VERTEX
  8
0
 10
17.07
 20
44.9185
  0
VERTEX
  8
0
 10
17.0787
 20
44.9364
  0
VERTEX
  8
0
 10
17.0865
 20
44.9562
  0
VERTEX
  8
0
 10
17.0934
 20
44.9779
  0
VERTEX
  8
0
 10
17.0994
 20
45.0015
  0
VERTEX
  8
0
 10
17.1045
 20
45.0269
  0
VERTEX
  8
0
 10
17.1086
 20
45.0543
  0
VERTEX
  8
0
 10
17.1118
 20
45.0836
  0
VERTEX
  8
0
 10
17.1141
 20
45.1148
  0
VERTEX
  8
0
 10
17.1155
 20
45.1478
  0
VERTEX
  8
0
 10
17.116
 20
45.1828
  0
VERTEX
  8
0
 10
17.1135
 20
45.268
  0
VERTEX
  8
0
 10
17.1061
 20
45.3387
  0
VERTEX
  8
0
 10
17.0938
 20
45.3947
  0
VERTEX
  8
0
 10
17.0815
 20
45.4286
  0
VERTEX
  8
0
 10
17.0663
 20
45.4572
  0
VERTEX
  8
0
 10
17.0484
 20
45.4807
  0
VERTEX
  8
0
 10
17.0276
 20
45.499
  0
VERTEX
  8
0
 10
17.0042
 20
45.5121
  0
VERTEX
  8
0
 10
16.9779
 20
45.52
  0
VERTEX
  8
0
 10
16.9488
 20
45.5228
  0
VERTEX
  8
0
 10
16.9052
 20
45.5164
  0
VERTEX
  8
0
 10
16.8678
 20
45.4966
  0
VERTEX
  8
0
 10
16.8367
 20
45.4633
  0
VERTEX
  8
0
 10
16.8227
 20
45.4392
  0
VERTEX
  8
0
 10
16.8109
 20
45.4099
  0
VERTEX
  8
0
 10
16.8012
 20
45.3751
  0
VERTEX
  8
0
 10
16.7936
 20
45.3351
  0
VERTEX
  8
0
 10
16.7883
 20
45.2896
  0
VERTEX
  8
0
 10
16.785
 20
45.2389
  0
VERTEX
  8
0
 10
16.784
 20
45.1828
  0
VERTEX
  8
0
 10
16.784
 20
45.1828
  0
SEQEND
  0
POLYLINE
  8
0
 66
     1
 10
0
 20
0
  0
VERTEX
  8
0
 10
17.3523
 20
45.3108
  0
VERTEX
  8
0
 10
17.324
 20
45.4678
  0
VERTEX
  8
0
 10
17.324
 20
45.6028
  0
VERTEX
  8
0
 10
17.44
 20
45.6028
  0
VERTEX
  8
0
 10
17.44
 20
45.4678
  0
VERTEX
  8
0
 10
17.4145
 20
45.3108
  0
VERTEX
  8
0
 10
17.3523
 20
45.3108
  0
SEQEND
  0
POLYLINE
  8
0
 66
     1
 10
0
 20
0
  0
VERTEX
  8
0
 10
17.5397
 20
45.3108
  0
VERTEX
  8
0
 10
17.512
 20
45.4678
  0
VERTEX
  8
0
 10
17.512
 20
45.6028
  0
VERTEX
  8
0
 10
17.628
 20
45.6028
  0
VERTEX
  8
0
 10
17.628
 20
45.4678
  0
VERTEX
  8
0
 10
17.6008
 20
45.3108
  0
VERTEX
  8
0
 10
17.5397
 20
45.3108
  0
SEQEND
  0
POLYLINE
  8
0
 66
     1
 10
0
 20
0
  0
VERTEX
  8
0
 10
18.32
 20
44.7708
  0
VERTEX
  8
0
 10
18.32
 20
45.6028
  0
VERTEX
  8
0
 10
18.428
 20
45.6028
  0
VERTEX
  8
0
 10
18.428
 20
44.7708
  0
VERTEX
  8
0
 10
18.32
 20
44.7708
  0
SEQEND
  0
POLYLINE
  8
0
 66
     1
 10
0
 20
0
  0
VERTEX
  8
0
 10
18.612
 20
44.7708
  0
VERTEX
  8
0
 10
18.612
 20
45.374
  0
VERTEX
  8
0
 10
18.704
 20
45.374
  0
VERTEX
  8
0
 10
18.704
 20
45.2888
  0
VERTEX
  8
0
 10
18.7328
 20
45.3239
  0
VERTEX
  8
0
 10
18.7663
 20
45.3512
  0
VERTEX
  8
0
 10
18.8044
 20
45.3708
  0
VERTEX
  8
0
 10
18.8473
 20
45.3827
  0
VERTEX
  8
0
 10
18.8949
 20
45.3868
  0
VERTEX
  8
0
 10
18.946
 20
45.3818
  0
VERTEX
  8
0
 10
18.9943
 20
45.3669
  0
VERTEX
  8
0
 10
19.0309
 20
45.346
  0
VERTEX
  8
0
 10
19.0597
 20
45.318
  0
VERTEX
  8
0
 10
19.0809
 20
45.2828
  0
VERTEX
  8
0
 10
19.0943
 20
45.2405
  0
VERTEX
  8
0
 10
19.0986
 20
45.2023
  0
VERTEX
  8
0
 10
19.1
 20
45.1412
  0
VERTEX
  8
0
 10
19.1
 20
44.7708
  0
VERTEX
  8
0
 10
19
 20
44.7708
  0
VERTEX
  8
0
 10
19
 20
45.1375
  0
VERTEX
  8
0
 10
18.998
 20
45.1842
  0
VERTEX
  8
0
 10
18.992
 20
45.2176
  0
VERTEX
  8
0
 10
18.9745
 20
45.2536
  0
VERTEX
  8
0
 10
18.945
 20
45.28
  0
VERTEX
  8
0
 10
18.9119
 20
45.2941
  0
VERTEX
  8
0
 10
18.8734
 20
45.2988
  0
VERTEX
  8
0
 10
18.8476
 20
45.2974
  0
VERTEX
  8
0
 10
18.8241
 20
45.2933
  0
VERTEX
  8
0
 10
18.8028
 20
45.2864
  0
VERTEX
  8
0
 10
18.7837
 20
45.2767
  0
VERTEX
  8
0
 10
18.7669
 20
45.2643
  0
VERTEX
  8
0
 10
18.7523
 20
45.2491
  0
VERTEX
  8
0
 10
18.74
 20
45.2312
  0
VERTEX
  8
0
 10
18.7299
 20
45.2105
  0
VERTEX
  8
0
 10
18.7221
 20
45.187
  0
VERTEX
  8
0
 10
18.7165
 20
45.1608
  0
VERTEX
  8
0
 10
18.7131
 20
45.1318
  0
VERTEX
  8
0
 10
18.712
 20
45.1001
  0
VERTEX
  8
0
 10
18.712
 20
44.7708
  0
VERTEX
  8
0
 10
18.612
 20
44.7708
  0
SEQEND
  0
POLYLINE
  8
0
 66
     1
 10
0
 20
0
  0
VERTEX
  8
0
 10
19.644
 20
44.7708
  0
VERTEX
  8
0
 10
19.644
 20
44.8504
  0
VERTEX
  8
0
 10
19.6193
 20
44.819
  0
VERTEX
  8
0
 10
19.5902
 20
44.7946
  0
VERTEX
  8
0
 10
19.5568
 20
44.7771
  0
VERTEX
  8
0
 10
19.5191
 20
44.7665
  0
VERTEX
  8
0
 10
19.477
 20
44.7628
  0
VERTEX
  8
0
 10
19.4067
 20
44.7728
  0
VERTEX
  8
0
 10
19.3431
 20
44.8038
  0
VERTEX
  8
0
 10
19.2909
 20
44.8509
  0
VERTEX
  8
0
 10
19.2523
 20
44.9123
  0
VERTEX
  8
0
 10
19.2283
 20
44.9871
  0
VERTEX
  8
0
 10
19.22
 20
45.0742
  0
VERTEX
  8
0
 10
19.2216
 20
45.121
  0
VERTEX
  8
0
 10
19.227
 20
45.1643
  0
VERTEX
  8
0
 10
19.2363
 20
45.2039
  0
VERTEX
  8
0
 10
19.2494
 20
45.2399
  0
VERTEX
  8
0
 10
19.2663
 20
45.2723
  0
VERTEX
  8
0
 10
19.287
 20
45.3011
  0
VERTEX
  8
0
 10
19.3116
 20
45.3264
  0
VERTEX
  8
0
 10
19.34
 20
45.348
  0
VERTEX
  8
0
 10
19.4032
 20
45.3771
  0
VERTEX
  8
0
 10
19.4741
 20
45.3868
  0
VERTEX
  8
0
 10
19.5242
 20
45.3817
  0
VERTEX
  8
0
 10
19.5685
 20
45.3664
  0
VERTEX
  8
0
 10
19.6071
 20
45.3409
  0
VERTEX
  8
0
 10
19.64
 20
45.3052
  0
VERTEX
  8
0
 10
19.64
 20
45.6028
  0
VERTEX
  8
0
 10
19.74
 20
45.6028
  0
VERTEX
  8
0
 10
19.74
 20
44.7708
  0
VERTEX
  8
0
 10
19.644
 20
44.7708
  0
SEQEND
  0
POLYLINE
  8
0
 66
     1
 10
0
 20
0
  0
VERTEX
  8
0
 10
19.324
 20
45.0745
  0
VERTEX
  8
0
 10
19.3329
 20
44.9914
  0
VERTEX
  8
0
 10
19.3595
 20
44.9225
  0
VERTEX
  8
0
 10
19.3838
 20
44.8896
  0
VERTEX
  8
0
 10
19.4132
 20
44.866
  0
VERTEX
  8
0
 10
19.4477
 20
44.8517
  0
VERTEX
  8
0
 10
19.4872
 20
44.8468
  0
VERTEX
  8
0
 10
19.5262
 20
44.8511
  0
VERTEX
  8
0
 10
19.5601
 20
44.8645
  0
VERTEX
  8
0
 10
19.5889
 20
44.887
  0
VERTEX
  8
0
 10
19.6127
 20
44.9186
  0
VERTEX
  8
0
 10
19.6385
 20
44.9852
  0
VERTEX
  8
0
 10
19.6471
 20
45.0661
  0
VERTEX
  8
0
 10
19.6388
 20
45.1534
  0
VERTEX
  8
0
 10
19.6138
 20
45.2237
  0
VERTEX
  8
0
 10
19.5895
 20
45.2583
  0
VERTEX
  8
0
 10
19.5595
 20
45.283
  0
VERTEX
  8
0
 10
19.524
 20
45.2978
  0
VERTEX
  8
0
 10
19.4827
 20
45.3028
  0
VERTEX
  8
0
 10
19.4426
 20
45.2981
  0
VERTEX
  8
0
 10
19.4081
 20
45.2838
  0
VERTEX
  8
0
 10
19.3793
 20
45.2602
  0
VERTEX
  8
0
 10
19.3562
 20
45.227
  0
VERTEX
  8
0
 10
19.332
 20
45.1592
  0
VERTEX
  8
0
 10
19.324
 20
45.0745
  0
VERTEX
  8
0
 10
19.324
 20
45.0745
  0
SEQEND
  0
POLYLINE
  8
0
 66
     1
 10
0
 20
0
  0
VERTEX
  8
0
 10
20.3038
 20
44.9677
  0
VERTEX
  8
0
 10
20.409
 20
44.9548
  0
VERTEX
  8
0
 10
20.3992
 20
44.9242
  0
VERTEX
  8
0
 10
20.3872
 20
44.8962
  0
VERTEX
  8
0
 10
20.373
 20
44.8708
  0
VERTEX
  8
0
 10
20.3566
 20
44.8481
  0
VERTEX
  8
0
 10
20.338
 20
44.8281
  0
VERTEX
  8
0
 10
20.3171
 20
44.8108
  0
VERTEX
  8
0
 10
20.2941
 20
44.7961
  0
VERTEX
  8
0
 10
20.2688
 20
44.7841
  0
VERTEX
  8
0
 10
20.2413
 20
44.7748
  0
VERTEX
  8
0
 10
20.2116
 20
44.7681
  0
VERTEX
  8
0
 10
20.1796
 20
44.7641
  0
VERTEX
  8
0
 10
20.1455
 20
44.7628
  0
VERTEX
  8
0
 10
20.0829
 20
44.7678
  0
VERTEX
  8
0
 10
20.0273
 20
44.7829
  0
VERTEX
  8
0
 10
19.9785
 20
44.808
  0
VERTEX
  8
0
 10
19.9367
 20
44.8432
  0
VERTEX
  8
0
 10
19.9091
 20
44.8779
  0
VERTEX
  8
0
 10
19.8876
 20
44.918
  0
VERTEX
  8
0
 10
19.8722
 20
44.9633
  0
VERTEX
  8
0
 10
19.863
 20
45.0139
  0
VERTEX
  8
0
 10
19.86
 20
45.0697
  0
VERTEX
  8
0
 10
19.8643
 20
45.1358
  0
VERTEX
  8
0
 10
19.8772
 20
45.1952
  0
VERTEX
  8
0
 10
19.8987
 20
45.248
  0
VERTEX
  8
0
 10
19.9288
 20
45.294
  0
VERTEX
  8
0
 10
19.9614
 20
45.3274
  0
VERTEX
  8
0
 10
19.9989
 20
45.3534
  0
VERTEX
  8
0
 10
20.0411
 20
45.3719
  0
VERTEX
  8
0
 10
20.0881
 20
45.3831
  0
VERTEX
  8
0
 10
20.1398
 20
45.3868
  0
VERTEX
  8
0
 10
20.1903
 20
45.3831
  0
VERTEX
  8
0
 10
20.2361
 20
45.372
  0
VERTEX
  8
0
 10
20.2771
 20
45.3536
  0
VERTEX
  8
0
 10
20.3135
 20
45.3278
  0
VERTEX
  8
0
 10
20.3452
 20
45.2946
  0
VERTEX
  8
0
 10
20.3746
 20
45.249
  0
VERTEX
  8
0
 10
20.3956
 20
45.197
  0
VERTEX
  8
0
 10
20.4081
 20
45.1386
  0
VERTEX
  8
0
 10
20.4123
 20
45.0739
  0
VERTEX
  8
0
 10
20.4122
 20
45.0598
  0
VERTEX
  8
0
 10
20.4118
 20
45.0468
  0
VERTEX
  8
0
 10
19.964
 20
45.0468
  0
VERTEX
  8
0
 10
19.9782
 20
44.9689
  0
VERTEX
  8
0
 10
20.012
 20
44.9072
  0
VERTEX
  8
0
 10
20.0487
 20
44.8736
  0
VERTEX
  8
0
 10
20.0932
 20
44.8535
  0
VERTEX
  8
0
 10
20.1455
 20
44.8468
  0
VERTEX
  8
0
 10
20.1814
 20
44.8501
  0
VERTEX
  8
0
 10
20.2136
 20
44.8602
  0
VERTEX
  8
0
 10
20.2419
 20
44.877
  0
VERTEX
  8
0
 10
20.2664
 20
44.9005
  0
VERTEX
  8
0
 10
20.287
 20
44.9308
  0
VERTEX
  8
0
 10
20.3038
 20
44.9677
  0
VERTEX
  8
0
 10
20.3038
 20
44.9677
  0
SEQEND
  0
POLYLINE
  8
0
 66
     1
 10
0
 20
0
  0
VERTEX
  8
0
 10
19.9705
 20
45.1308
  0
VERTEX
  8
0
 10
20.3052
 20
45.1308
  0
VERTEX
  8
0
 10
20.2922
 20
45.1969
  0
VERTEX
  8
0
 10
20.2668
 20
45.2442
  0
VERTEX
  8
0
 10
20.2312
 20
45.2765
  0
VERTEX
  8
0
 10
20.1893
 20
45.296
  0
VERTEX
  8
0
 10
20.141
 20
45.3028
  0
VERTEX
  8
0
 10
20.0738
 20
45.2907
  0
VERTEX
  8
0
 10
20.0202
 20
45.2532
  0
VERTEX
  8
0
 10
19.9855
 20
45.1989
  0
VERTEX
  8
0
 10
19.9705
 20
45.1308
  0
VERTEX
  8
0
 10
19.9705
 20
45.1308
  0
SEQEND
  0
POLYLINE
  8
0
 66
     1
 10
0
 20
0
  0
VERTEX
  8
0
 10
20.536
 20
44.7708
  0
VERTEX
  8
0
 10
20.536
 20
45.374
  0
VERTEX
  8
0
 10
20.628
 20
45.374
  0
VERTEX
  8
0
 10
20.628
 20
45.2888
  0
VERTEX
  8
0
 10
20.6568
 20
45.3239
  0
VERTEX
  8
0
 10
20.6903
 20
45.3512
  0
VERTEX
  8
0
 10
20.7284
 20
45.3708
  0
VERTEX
  8
0
 10
20.7713
 20
45.3827
  0
VERTEX
  8
0
 10
20.8189
 20
45.3868
  0
VERTEX
  8
0
 10
20.87
 20
45.3818
  0
VERTEX
  8
0
 10
20.9183
 20
45.3669
  0
VERTEX
  8
0
 10
20.9549
 20
45.346
  0
VERTEX
  8
0
 10
20.9837
 20
45.318
  0
VERTEX
  8
0
 10
21.0049
 20
45.2828
  0
VERTEX
  8
0
 10
21.0183
 20
45.2405
  0
VERTEX
  8
0
 10
21.0226
 20
45.2023
  0
VERTEX
  8
0
 10
21.024
 20
45.1412
  0
VERTEX
  8
0
 10
21.024
 20
44.7708
  0
VERTEX
  8
0
 10
20.924
 20
44.7708
  0
VERTEX
  8
0
 10
20.924
 20
45.1375
  0
VERTEX
  8
0
 10
20.922
 20
45.1842
  0
VERTEX
  8
0
 10
20.916
 20
45.2176
  0
VERTEX
  8
0
 10
20.8985
 20
45.2536
  0
VERTEX
  8
0
 10
20.869
 20
45.28
  0
VERTEX
  8
0
 10
20.8359
 20
45.2941
  0
VERTEX
  8
0
 10
20.7974
 20
45.2988
  0
VERTEX
  8
0
 10
20.7716
 20
45.2974
  0
VERTEX
  8
0
 10
20.7481
 20
45.2933
  0
VERTEX
  8
0
 10
20.7268
 20
45.2864
  0
VERTEX
  8
0
 10
20.7077
 20
45.2767
  0
VERTEX
  8
0
 10
20.6909
 20
45.2643
  0
VERTEX
  8
0
 10
20.6763
 20
45.2491
  0
VERTEX
  8
0
 10
20.664
 20
45.2312
  0
VERTEX
  8
0
 10
20.6539
 20
45.2105
  0
VERTEX
  8
0
 10
20.6461
 20
45.187
  0
VERTEX
  8
0
 10
20.6405
 20
45.1608
  0
VERTEX
  8
0
 10
20.6371
 20
45.1318
  0
VERTEX
  8
0
 10
20.636
 20
45.1001
  0
VERTEX
  8
0
 10
20.636
 20
44.7708
  0
VERTEX
  8
0
 10
20.536
 20
44.7708
  0
SEQEND
  0
POLYLINE
  8
0
 66
     1
 10
0
 20
0
  0
VERTEX
  8
0
 10
21.4016
 20
44.8656
  0
VERTEX
  8
0
 10
21.4162
 20
44.7758
  0
VERTEX
  8
0
 10
21.3756
 20
44.7693
  0
VERTEX
  8
0
 10
21.34
 20
44.7668
  0
VERTEX
  8
0
 10
21.2942
 20
44.7703
  0
VERTEX
  8
0
 10
21.2577
 20
44.782
  0
VERTEX
  8
0
 10
21.2303
 20
44.8019
  0
VERTEX
  8
0
 10
21.2123
 20
44.83
  0
VERTEX
  8
0
 10
21.2054
 20
44.8563
  0
VERTEX
  8
0
 10
21.2013
 20
44.8964
  0
VERTEX
  8
0
 10
21.2
 20
44.9501
  0
VERTEX
  8
0
 10
21.2
 20
45.2948
  0
VERTEX
  8
0
 10
21.124
 20
45.2948
  0
VERTEX
  8
0
 10
21.124
 20
45.3748
  0
VERTEX
  8
0
 10
21.2
 20
45.3748
  0
VERTEX
  8
0
 10
21.2
 20
45.5222
  0
VERTEX
  8
0
 10
21.3
 20
45.5828
  0
VERTEX
  8
0
 10
21.3
 20
45.3748
  0
VERTEX
  8
0
 10
21.4
 20
45.3748
  0
VERTEX
  8
0
 10
21.4
 20
45.2948
  0
VERTEX
  8
0
 10
21.3
 20
45.2948
  0
VERTEX
  8
0
 10
21.3
 20
44.9455
  0
VERTEX
  8
0
 10
21.3004
 20
44.9185
  0
VERTEX
  8
0
 10
21.3017
 20
44.9038
  0
VERTEX
  8
0
 10
21.3088
 20
44.8839
  0
VERTEX
  8
0
 10
21.3224
 20
44.8701
  0
VERTEX
  8
0
 10
21.3368
 20
44.8649
  0
VERTEX
  8
0
 10
21.3573
 20
44.8628
  0
VERTEX
  8
0
 10
21.3765
 20
44.8632
  0
VERTEX
  8
0
 10
21.4016
 20
44.8656
  0
VERTEX
  8
0
 10
21.4016
 20
44.8656
  0
SEQEND
  0
POLYLINE
  8
0
 66
     1
 10
0
 20
0
  0
VERTEX
  8
0
 10
21.532
 20
44.7708
  0
VERTEX
  8
0
 10
21.532
 20
44.8908
  0
VERTEX
  8
0
 10
21.648
 20
44.8908
  0
VERTEX
  8
0
 10
21.648
 20
44.7748
  0
VERTEX
  8
0
 10
21.6453
 20
44.7364
  0
VERTEX
  8
0
 10
21.6374
 20
44.7023
  0
VERTEX
  8
0
 10
21.6241
 20
44.6727
  0
VERTEX
  8
0
 10
21.6056
 20
44.6476
  0
VERTEX
  8
0
 10
21.5817
 20
44.627
  0
VERTEX
  8
0
 10
21.5525
 20
44.6108
  0
VERTEX
  8
0
 10
21.524
 20
44.6533
  0
VERTEX
  8
0
 10
21.5511
 20
44.6701
  0
VERTEX
  8
0
 10
21.5708
 20
44.6953
  0
VERTEX
  8
0
 10
21.5832
 20
44.7289
  0
VERTEX
  8
0
 10
21.5883
 20
44.7708
  0
VERTEX
  8
0
 10
21.532
 20
44.7708
  0
SEQEND
  0
POLYLINE
  8
0
 66
     1
 10
0
 20
0
  0
VERTEX
  8
0
 10
22.368
 20
44.7708
  0
VERTEX
  8
0
 10
22.368
 20
45.6028
  0
VERTEX
  8
0
 10
22.678
 20
45.6028
  0
VERTEX
  8
0
 10
22.7624
 20
45.5964
  0
VERTEX
  8
0
 10
22.8297
 20
45.5772
  0
VERTEX
  8
0
 10
22.8791
 20
45.5465
  0
VERTEX
  8
0
 10
22.9179
 20
45.5018
  0
VERTEX
  8
0
 10
22.9432
 20
45.448
  0
VERTEX
  8
0
 10
22.952
 20
45.39
  0
VERTEX
  8
0
 10
22.9491
 20
45.3526
  0
VERTEX
  8
0
 10
22.9397
 20
45.3184
  0
VERTEX
  8
0
 10
22.9238
 20
45.2874
  0
VERTEX
  8
0
 10
22.9013
 20
45.2596
  0
VERTEX
  8
0
 10
22.8724
 20
45.2349
  0
VERTEX
  8
0
 10
22.8368
 20
45.2135
  0
VERTEX
  8
0
 10
22.9013
 20
45.1844
  0
VERTEX
  8
0
 10
22.9498
 20
45.1402
  0
VERTEX
  8
0
 10
22.9814
 20
45.0815
  0
VERTEX
  8
0
 10
22.992
 20
45.012
  0
VERTEX
  8
0
 10
22.9865
 20
44.9596
  0
VERTEX
  8
0
 10
22.97
 20
44.9093
  0
VERTEX
  8
0
 10
22.9426
 20
44.862
  0
VERTEX
  8
0
 10
22.9068
 20
44.8258
  0
VERTEX
  8
0
 10
22.8658
 20
44.8018
  0
VERTEX
  8
0
 10
22.8148
 20
44.7846
  0
VERTEX
  8
0
 10
22.7539
 20
44.7742
  0
VERTEX
  8
0
 10
22.6831
 20
44.7708
  0
VERTEX
  8
0
 10
22.368
 20
44.7708
  0
SEQEND
  0
POLYLINE
  8
0
 66
     1
 10
0
 20
0
  0
VERTEX
  8
0
 10
22.476
 20
45.2548
  0
VERTEX
  8
0
 10
22.6552
 20
45.2548
  0
VERTEX
  8
0
 10
22.7175
 20
45.2572
  0
VERTEX
  8
0
 10
22.7597
 20
45.2645
  0
VERTEX
  8
0
 10
22.7897
 20
45.277
  0
VERTEX
  8
0
 10
22.8131
 20
45.2948
  0
VERTEX
  8
0
 10
22.8299
 20
45.3176
  0
VERTEX
  8
0
 10
22.8402
 20
45.3456
  0
VERTEX
  8
0
 10
22.844
 20
45.3788
  0
VERTEX
  8
0
 10
22.8413
 20
45.4125
  0
VERTEX
  8
0
 10
22.8323
 20
45.441
  0
VERTEX
  8
0
 10
22.817
 20
45.4642
  0
VERTEX
  8
0
 10
22.7955
 20
45.4822
  0
VERTEX
  8
0
 10
22.7677
 20
45.4948
  0
VERTEX
  8
0
 10
22.7178
 20
45.5038
  0
VERTEX
  8
0
 10
22.6416
 20
45.5068
  0
VERTEX
  8
0
 10
22.476
 20
45.5068
  0
VERTEX
  8
0
 10
22.476
 20
45.2548
  0
SEQEND
  0
POLYLINE
  8
0
 66
     1
 10
0
 20
0
  0
VERTEX
  8
0
 10
22.476
 20
44.8668
  0
VERTEX
  8
0
 10
22.6831
 20
44.8668
  0
VERTEX
  8
0
 10
22.7285
 20
44.8678
  0
VERTEX
  8
0
 10
22.758
 20
44.8708
  0
VERTEX
  8
0
 10
22.8035
 20
44.8851
  0
VERTEX
  8
0
 10
22.8387
 20
44.9085
  0
VERTEX
  8
0
 10
22.8635
 20
44.941
  0
VERTEX
  8
0
 10
22.8756
 20
44.974
  0
VERTEX
  8
0
 10
22.88
 20
45.0128
  0
VERTEX
  8
0
 10
22.8767
 20
45.0501
  0
VERTEX
  8
0
 10
22.8661
 20
45.0819
  0
VERTEX
  8
0
 10
22.848
 20
45.1082
  0
VERTEX
  8
0
 10
22.8226
 20
45.129
  0
VERTEX
  8
0
 10
22.7897
 20
45.1443
  0
VERTEX
  8
0
 10
22.7381
 20
45.1552
  0
VERTEX
  8
0
 10
22.6683
 20
45.1588
  0
VERTEX
  8
0
 10
22.476
 20
45.1588
  0
VERTEX
  8
0
 10
22.476
 20
44.8668
  0
SEQEND
  0
POLYLINE
  8
0
 66
     1
 10
0
 20
0
  0
VERTEX
  8
0
 10
23.128
 20
44.7708
  0
VERTEX
  8
0
 10
23.128
 20
45.6028
  0
VERTEX
  8
0
 10
23.228
 20
45.6028
  0
VERTEX
  8
0
 10
23.228
 20
44.7708
  0
VERTEX
  8
0
 10
23.128
 20
44.7708
  0
SEQEND
  0
POLYLINE
  8
0
 66
     1
 10
0
 20
0
  0
VERTEX
  8
0
 10
23.776
 20
44.7708
  0
VERTEX
  8
0
 10
23.776
 20
44.8628
  0
VERTEX
  8
0
 10
23.7464
 20
44.8268
  0
VERTEX
  8
0
 10
23.7127
 20
44.7988
  0
VERTEX
  8
0
 10
23.675
 20
44.7788
  0
VERTEX
  8
0
 10
23.6331
 20
44.7668
  0
VERTEX
  8
0
 10
23.5872
 20
44.7628
  0
VERTEX
  8
0
 10
23.5409
 20
44.7672
  0
VERTEX
  8
0
 10
23.496
 20
44.7803
  0
VERTEX
  8
0
 10
23.4523
 20
44.8032
  0
VERTEX
  8
0
 10
23.4209
 20
44.8338
  0
VERTEX
  8
0
 10
23.4026
 20
44.8673
  0
VERTEX
  8
0
 10
23.3902
 20
44.9093
  0
VERTEX
  8
0
 10
23.3855
 20
44.9482
  0
VERTEX
  8
0
 10
23.384
 20
45.004
  0
VERTEX
  8
0
 10
23.384
 20
45.3748
  0
VERTEX
  8
0
 10
23.484
 20
45.3748
  0
VERTEX
  8
0
 10
23.484
 20
45.0433
  0
VERTEX
  8
0
 10
23.4855
 20
44.976
  0
VERTEX
  8
0
 10
23.4902
 20
44.9363
  0
VERTEX
  8
0
 10
23.5015
 20
44.9059
  0
VERTEX
  8
0
 10
23.5189
 20
44.8821
  0
VERTEX
  8
0
 10
23.5424
 20
44.865
  0
VERTEX
  8
0
 10
23.5722
 20
44.8546
  0
VERTEX
  8
0
 10
23.6081
 20
44.8508
  0
VERTEX
  8
0
 10
23.6525
 20
44.8562
  0
VERTEX
  8
0
 10
23.694
 20
44.8736
  0
VERTEX
  8
0
 10
23.7282
 20
44.9012
  0
VERTEX
  8
0
 10
23.751
 20
44.9374
  0
VERTEX
  8
0
 10
23.7637
 20
44.987
  0
VERTEX
  8
0
 10
23.768
 20
45.0545
  0
VERTEX
  8
0
 10
23.768
 20
45.3748
  0
VERTEX
  8
0
 10
23.868
 20
45.3748
  0
VERTEX
  8
0
 10
23.868
 20
44.7708
  0
VERTEX
  8
0
 10
23.776
 20
44.7708
  0
SEQEND
  0
POLYLINE
  8
0
 66
     1
 10
0
 20
0
  0
VERTEX
  8
0
 10
24.4358
 20
44.9677
  0
VERTEX
  8
0
 10
24.541
 20
44.9548
  0
VERTEX
  8
0
 10
24.5312
 20
44.9242
  0
VERTEX
  8
0
 10
24.5192
 20
44.8962
  0
VERTEX
  8
0
 10
24.505
 20
44.8708
  0
VERTEX
  8
0
 10
24.4886
 20
44.8481
  0
VERTEX
  8
0
 10
24.47
 20
44.8281
  0
VERTEX
  8
0
 10
24.4491
 20
44.8108
  0
VERTEX
  8
0
 10
24.4261
 20
44.7961
  0
VERTEX
  8
0
 10
24.4008
 20
44.7841
  0
VERTEX
  8
0
 10
24.3733
 20
44.7748
  0
VERTEX
  8
0
 10
24.3436
 20
44.7681
  0
VERTEX
  8
0
 10
24.3116
 20
44.7641
  0
VERTEX
  8
0
 10
24.2775
 20
44.7628
  0
VERTEX
  8
0
 10
24.2149
 20
44.7678
  0
VERTEX
  8
0
 10
24.1593
 20
44.7829
  0
VERTEX
  8
0
 10
24.1105
 20
44.808
  0
VERTEX
  8
0
 10
24.0687
 20
44.8432
  0
VERTEX
  8
0
 10
24.0411
 20
44.8779
  0
VERTEX
  8
0
 10
24.0196
 20
44.918
  0
VERTEX
  8
0
 10
24.0042
 20
44.9633
  0
VERTEX
  8
0
 10
23.995
 20
45.0139
  0
VERTEX
  8
0
 10
23.992
 20
45.0697
  0
VERTEX
  8
0
 10
23.9963
 20
45.1358
  0
VERTEX
  8
0
 10
24.0092
 20
45.1952
  0
VERTEX
  8
0
 10
24.0307
 20
45.248
  0
VERTEX
  8
0
 10
24.0608
 20
45.294
  0
VERTEX
  8
0
 10
24.0934
 20
45.3274
  0
VERTEX
  8
0
 10
24.1309
 20
45.3534
  0
VERTEX
  8
0
 10
24.1731
 20
45.3719
  0
VERTEX
  8
0
 10
24.2201
 20
45.3831
  0
VERTEX
  8
0
 10
24.2718
 20
45.3868
  0
VERTEX
  8
0
 10
24.3223
 20
45.3831
  0
VERTEX
  8
0
 10
24.3681
 20
45.372
  0
VERTEX
  8
0
 10
24.4091
 20
45.3536
  0
VERTEX
  8
0
 10
24.4455
 20
45.3278
  0
VERTEX
  8
0
 10
24.4772
 20
45.2946
  0
VERTEX
  8
0
 10
24.5066
 20
45.249
  0
VERTEX
  8
0
 10
24.5276
 20
45.197
  0
VERTEX
  8
0
 10
24.5401
 20
45.1386
  0
VERTEX
  8
0
 10
24.5443
 20
45.0739
  0
VERTEX
  8
0
 10
24.5442
 20
45.0598
  0
VERTEX
  8
0
 10
24.5438
 20
45.0468
  0
VERTEX
  8
0
 10
24.096
 20
45.0468
  0
VERTEX
  8
0
 10
24.1102
 20
44.9689
  0
VERTEX
  8
0
 10
24.144
 20
44.9072
  0
VERTEX
  8
0
 10
24.1807
 20
44.8736
  0
VERTEX
  8
0
 10
24.2252
 20
44.8535
  0
VERTEX
  8
0
 10
24.2775
 20
44.8468
  0
VERTEX
  8
0
 10
24.3134
 20
44.8501
  0
VERTEX
  8
0
 10
24.3456
 20
44.8602
  0
VERTEX
  8
0
 10
24.3739
 20
44.877
  0
VERTEX
  8
0
 10
24.3984
 20
44.9005
  0
VERTEX
  8
0
 10
24.419
 20
44.9308
  0
VERTEX
  8
0
 10
24.4358
 20
44.9677
  0
VERTEX
  8
0
 10
24.4358
 20
44.9677
  0
SEQEND
  0
POLYLINE
  8
0
 66
     1
 10
0
 20
0
  0
VERTEX
  8
0
 10
24.1025
 20
45.1308
  0
VERTEX
  8
0
 10
24.4372
 20
45.1308
  0
VERTEX
  8
0
 10
24.4242
 20
45.1969
  0
VERTEX
  8
0
 10
24.3988
 20
45.2442
  0
VERTEX
  8
0
 10
24.3632
 20
45.2765
  0
VERTEX
  8
0
 10
24.3213
 20
45.296
  0
VERTEX
  8
0
 10
24.273
 20
45.3028
  0
VERTEX
  8
0
 10
24.2058
 20
45.2907
  0
VERTEX
  8
0
 10
24.1522
 20
45.2532
  0
VERTEX
  8
0
 10
24.1175
 20
45.1989
  0
VERTEX
  8
0
 10
24.1025
 20
45.1308
  0
VERTEX
  8
0
 10
24.1025
 20
45.1308
  0
SEQEND
  0
POLYLINE
  8
0
 66
     1
 10
0
 20
0
  0
VERTEX
  8
0
 10
25.164
 20
45.0748
  0
VERTEX
  8
0
 10
25.1665
 20
45.1277
  0
VERTEX
  8
0
 10
25.1742
 20
45.1758
  0
VERTEX
  8
0
 10
25.187
 20
45.2191
  0
VERTEX
  8
0
 10
25.205
 20
45.2577
  0
VERTEX
  8
0
 10
25.2281
 20
45.2915
  0
VERTEX
  8
0
 10
25.2563
 20
45.3205
  0
VERTEX
  8
0
 10
25.3112
 20
45.3573
  0
VERTEX
  8
0
 10
25.3739
 20
45.3794
  0
VERTEX
  8
0
 10
25.4443
 20
45.3868
  0
VERTEX
  8
0
 10
25.4947
 20
45.3833
  0
VERTEX
  8
0
 10
25.5407
 20
45.3728
  0
VERTEX
  8
0
 10
25.5822
 20
45.3554
  0
VERTEX
  8
0
 10
25.6193
 20
45.331
  0
VERTEX
  8
0
 10
25.6519
 20
45.2997
  0
VERTEX
  8
0
 10
25.6834
 20
45.2549
  0
VERTEX
  8
0
 10
25.706
 20
45.204
  0
VERTEX
  8
0
 10
25.7195
 20
45.1467
  0
VERTEX
  8
0
 10
25.724
 20
45.0832
  0
VERTEX
  8
0
 10
25.7223
 20
45.0384
  0
VERTEX
  8
0
 10
25.7173
 20
44.9969
  0
VERTEX
  8
0
 10
25.7089
 20
44.9587
  0
VERTEX
  8
0
 10
25.6972
 20
44.9239
  0
VERTEX
  8
0
 10
25.6821
 20
44.8923
  0
VERTEX
  8
0
 10
25.6637
 20
44.8641
  0
VERTEX
  8
0
 10
25.6419
 20
44.8392
  0
VERTEX
  8
0
 10
25.6168
 20
44.8176
  0
VERTEX
  8
0
 10
25.5883
 20
44.7993
  0
VERTEX
  8
0
 10
25.5194
 20
44.7722
  0
VERTEX
  8
0
 10
25.4443
 20
44.7628
  0
VERTEX
  8
0
 10
25.3921
 20
44.7662
  0
VERTEX
  8
0
 10
25.3448
 20
44.7768
  0
VERTEX
  8
0
 10
25.3026
 20
44.7947
  0
VERTEX
  8
0
 10
25.2654
 20
44.8198
  0
VERTEX
  8
0
 10
25.2332
 20
44.8522
  0
VERTEX
  8
0
 10
25.2029
 20
44.8973
  0
VERTEX
  8
0
 10
25.1813
 20
44.9494
  0
VERTEX
  8
0
 10
25.1683
 20
45.0086
  0
VERTEX
  8
0
 10
25.164
 20
45.0748
  0
VERTEX
  8
0
 10
25.164
 20
45.0748
  0
SEQEND
  0
POLYLINE
  8
0
 66
     1
 10
0
 20
0
  0
VERTEX
  8
0
 10
25.268
 20
45.075
  0
VERTEX
  8
0
 10
25.2777
 20
44.9877
  0
VERTEX
  8
0
 10
25.3068
 20
44.9186
  0
VERTEX
  8
0
 10
25.3328
 20
44.8874
  0
VERTEX
  8
0
 10
25.3643
 20
44.865
  0
VERTEX
  8
0
 10
25.4015
 20
44.8515
  0
VERTEX
  8
0
 10
25.4443
 20
44.8468
  0
VERTEX
  8
0
 10
25.4871
 20
44.8512
  0
VERTEX
  8
0
 10
25.5242
 20
44.8649
  0
VERTEX
  8
0
 10
25.5558
 20
44.8879
  0
VERTEX
  8
0
 10
25.5817
 20
44.9203
  0
VERTEX
  8
0
 10
25.6104
 20
44.9907
  0
VERTEX
  8
0
 10
25.62
 20
45.0784
  0
VERTEX
  8
0
 10
25.61
 20
45.1634
  0
VERTEX
  8
0
 10
25.58
 20
45.2321
  0
VERTEX
  8
0
 10
25.5537
 20
45.263
  0
VERTEX
  8
0
 10
25.5224
 20
45.2851
  0
VERTEX
  8
0
 10
25.4859
 20
45.2984
  0
VERTEX
  8
0
 10
25.4443
 20
45.3028
  0
VERTEX
  8
0
 10
25.4015
 20
45.2983
  0
VERTEX
  8
0
 10
25.3643
 20
45.2848
  0
VERTEX
  8
0
 10
25.3328
 20
45.2624
  0
VERTEX
  8
0
 10
25.3068
 20
45.231
  0
VERTEX
  8
0
 10
25.2777
 20
45.1617
  0
VERTEX
  8
0
 10
25.268
 20
45.075
  0
VERTEX
  8
0
 10
25.268
 20
45.075
  0
SEQEND
  0
POLYLINE
  8
0
 66
     1
 10
0
 20
0
  0
VERTEX
  8
0
 10
25.844
 20
44.7708
  0
VERTEX
  8
0
 10
25.844
 20
45.374
  0
VERTEX
  8
0
 10
25.936
 20
45.374
  0
VERTEX
  8
0
 10
25.936
 20
45.2888
  0
VERTEX
  8
0
 10
25.9648
 20
45.3239
  0
VERTEX
  8
0
 10
25.9983
 20
45.3512
  0
VERTEX
  8
0
 10
26.0364
 20
45.3708
  0
VERTEX
  8
0
 10
26.0793
 20
45.3827
  0
VERTEX
  8
0
 10
26.1269
 20
45.3868
  0
VERTEX
  8
0
 10
26.178
 20
45.3818
  0
VERTEX
  8
0
 10
26.2263
 20
45.3669
  0
VERTEX
  8
0
 10
26.2629
 20
45.346
  0
VERTEX
  8
0
 10
26.2917
 20
45.318
  0
VERTEX
  8
0
 10
26.3129
 20
45.2828
  0
VERTEX
  8
0
 10
26.3263
 20
45.2405
  0
VERTEX
  8
0
 10
26.3306
 20
45.2023
  0
VERTEX
  8
0
 10
26.332
 20
45.1412
  0
VERTEX
  8
0
 10
26.332
 20
44.7708
  0
VERTEX
  8
0
 10
26.232
 20
44.7708
  0
VERTEX
  8
0
 10
26.232
 20
45.1375
  0
VERTEX
  8
0
 10
26.23
 20
45.1842
  0
VERTEX
  8
0
 10
26.224
 20
45.2176
  0
VERTEX
  8
0
 10
26.2065
 20
45.2536
  0
VERTEX
  8
0
 10
26.177
 20
45.28
  0
VERTEX
  8
0
 10
26.1439
 20
45.2941
  0
VERTEX
  8
0
 10
26.1054
 20
45.2988
  0
VERTEX
  8
0
 10
26.0796
 20
45.2974
  0
VERTEX
  8
0
 10
26.0561
 20
45.2933
  0
VERTEX
  8
0
 10
26.0348
 20
45.2864
  0
VERTEX
  8
0
 10
26.0157
 20
45.2767
  0
VERTEX
  8
0
 10
25.9989
 20
45.2643
  0
VERTEX
  8
0
 10
25.9843
 20
45.2491
  0
VERTEX
  8
0
 10
25.972
 20
45.2312
  0
VERTEX
  8
0
 10
25.9619
 20
45.2105
  0
VERTEX
  8
0
 10
25.9541
 20
45.187
  0
VERTEX
  8
0
 10
25.9485
 20
45.1608
  0
VERTEX
  8
0
 10
25.9451
 20
45.1318
  0
VERTEX
  8
0
 10
25.944
 20
45.1001
  0
VERTEX
  8
0
 10
25.944
 20
44.7708
  0
VERTEX
  8
0
 10
25.844
 20
44.7708
  0
SEQEND
  0
POLYLINE
  8
0
 66
     1
 10
0
 20
0
  0
VERTEX
  8
0
 10
27.1768
 20
44.7708
  0
VERTEX
  8
0
 10
26.956
 20
45.6028
  0
VERTEX
  8
0
 10
27.0682
 20
45.6028
  0
VERTEX
  8
0
 10
27.1941
 20
45.0599
  0
VERTEX
  8
0
 10
27.213
 20
44.9741
  0
VERTEX
  8
0
 10
27.229
 20
44.8905
  0
VERTEX
  8
0
 10
27.2405
 20
44.9385
  0
VERTEX
  8
0
 10
27.2499
 20
44.9778
  0
VERTEX
  8
0
 10
27.2574
 20
45.0083
  0
VERTEX
  8
0
 10
27.2628
 20
45.0302
  0
VERTEX
  8
0
 10
27.2663
 20
45.0433
  0
VERTEX
  8
0
 10
27.4237
 20
45.6028
  0
VERTEX
  8
0
 10
27.5557
 20
45.6028
  0
VERTEX
  8
0
 10
27.6742
 20
45.1833
  0
VERTEX
  8
0
 10
27.712
 20
45.0325
  0
VERTEX
  8
0
 10
27.7381
 20
44.8905
  0
VERTEX
  8
0
 10
27.7476
 20
44.9358
  0
VERTEX
  8
0
 10
27.7613
 20
44.9959
  0
VERTEX
  8
0
 10
27.779
 20
45.0706
  0
VERTEX
  8
0
 10
27.9075
 20
45.6028
  0
VERTEX
  8
0
 10
28.0195
 20
45.6028
  0
VERTEX
  8
0
 10
27.7927
 20
44.7708
  0
VERTEX
  8
0
 10
27.6868
 20
44.7708
  0
VERTEX
  8
0
 10
27.5119
 20
45.4048
  0
VERTEX
  8
0
 10
27.4986
 20
45.4505
  0
VERTEX
  8
0
 10
27.4895
 20
45.4827
  0
VERTEX
  8
0
 10
27.4846
 20
45.5014
  0
VERTEX
  8
0
 10
27.4744
 20
45.452
  0
VERTEX
  8
0
 10
27.4635
 20
45.4048
  0
VERTEX
  8
0
 10
27.2893
 20
44.7708
  0
VERTEX
  8
0
 10
27.1768
 20
44.7708
  0
SEQEND
  0
POLYLINE
  8
0
 66
     1
 10
0
 20
0
  0
VERTEX
  8
0
 10
28.108
 20
44.7708
  0
VERTEX
  8
0
 10
28.108
 20
45.6028
  0
VERTEX
  8
0
 10
28.208
 20
45.6028
  0
VERTEX
  8
0
 10
28.208
 20
45.3052
  0
VERTEX
  8
0
 10
28.246
 20
45.3407
  0
VERTEX
  8
0
 10
28.2887
 20
45.3661
  0
VERTEX
  8
0
 10
28.3361
 20
45.3815
  0
VERTEX
  8
0
 10
28.3881
 20
45.3868
  0
VERTEX
  8
0
 10
28.4497
 20
45.3804
  0
VERTEX
  8
0
 10
28.5042
 20
45.3601
  0
VERTEX
  8
0
 10
28.5511
 20
45.3233
  0
VERTEX
  8
0
 10
28.5807
 20
45.2717
  0
VERTEX
  8
0
 10
28.5921
 20
45.2203
  0
VERTEX
  8
0
 10
28.596
 20
45.1525
  0
VERTEX
  8
0
 10
28.596
 20
44.7708
  0
VERTEX
  8
0
 10
28.496
 20
44.7708
  0
VERTEX
  8
0
 10
28.496
 20
45.1525
  0
VERTEX
  8
0
 10
28.4944
 20
45.183
  0
VERTEX
  8
0
 10
28.4897
 20
45.2099
  0
VERTEX
  8
0
 10
28.4818
 20
45.2333
  0
VERTEX
  8
0
 10
28.4707
 20
45.2531
  0
VERTEX
  8
0
 10
28.4565
 20
45.2693
  0
VERTEX
  8
0
 10
28.4392
 20
45.282
  0
VERTEX
  8
0
 10
28.4187
 20
45.2912
  0
VERTEX
  8
0
 10
28.395
 20
45.2968
  0
VERTEX
  8
0
 10
28.3682
 20
45.2988
  0
VERTEX
  8
0
 10
28.324
 20
45.2933
  0
VERTEX
  8
0
 10
28.2827
 20
45.2756
  0
VERTEX
  8
0
 10
28.2484
 20
45.2477
  0
VERTEX
  8
0
 10
28.2254
 20
45.2117
  0
VERTEX
  8
0
 10
28.2123
 20
45.1639
  0
VERTEX
  8
0
 10
28.208
 20
45.1003
  0
VERTEX
  8
0
 10
28.208
 20
44.7708
  0
VERTEX
  8
0
 10
28.108
 20
44.7708
  0
SEQEND
  0
POLYLINE
  8
0
 66
     1
 10
0
 20
0
  0
VERTEX
  8
0
 10
28.748
 20
45.4868
  0
VERTEX
  8
0
 10
28.748
 20
45.6028
  0
VERTEX
  8
0
 10
28.848
 20
45.6028
  0
VERTEX
  8
0
 10
28.848
 20
45.4868
  0
VERTEX
  8
0
 10
28.748
 20
45.4868
  0
SEQEND
  0
POLYLINE
  8
0
 66
     1
 10
0
 20
0
  0
VERTEX
  8
0
 10
28.748
 20
44.7708
  0
VERTEX
  8
0
 10
28.748
 20
45.374
  0
VERTEX
  8
0
 10
28.848
 20
45.374
  0
VERTEX
  8
0
 10
28.848
 20
44.7708
  0
VERTEX
  8
0
 10
28.748
 20
44.7708
  0
SEQEND
  0
POLYLINE
  8
0
 66
     1
 10
0
 20
0
  0
VERTEX
  8
0
 10
29.2296
 20
44.8656
  0
VERTEX
  8
0
 10
29.2442
 20
44.7758
  0
VERTEX
  8
0
 10
29.2036
 20
44.7693
  0
VERTEX
  8
0
 10
29.168
 20
44.7668
  0
VERTEX
  8
0
 10
29.1222
 20
44.7703
  0
VERTEX
  8
0
 10
29.0857
 20
44.782
  0
VERTEX
  8
0
 10
29.0583
 20
44.8019
  0
VERTEX
  8
0
 10
29.0403
 20
44.83
  0
VERTEX
  8
0
 10
29.0334
 20
44.8563
  0
VERTEX
  8
0
 10
29.0293
 20
44.8964
  0
VERTEX
  8
0
 10
29.028
 20
44.9501
  0
VERTEX
  8
0
 10
29.028
 20
45.2948
  0
VERTEX
  8
0
 10
28.952
 20
45.2948
  0
VERTEX
  8
0
 10
28.952
 20
45.3748
  0
VERTEX
  8
0
 10
29.028
 20
45.3748
  0
VERTEX
  8
0
 10
29.028
 20
45.5222
  0
VERTEX
  8
0
 10
29.128
 20
45.5828
  0
VERTEX
  8
0
 10
29.128
 20
45.3748
  0
VERTEX
  8
0
 10
29.228
 20
45.3748
  0
VERTEX
  8
0
 10
29.228
 20
45.2948
  0
VERTEX
  8
0
 10
29.128
 20
45.2948
  0
VERTEX
  8
0
 10
29.128
 20
44.9455
  0
VERTEX
  8
0
 10
29.1284
 20
44.9185
  0
VERTEX
  8
0
 10
29.1297
 20
44.9038
  0
VERTEX
  8
0
 10
29.1368
 20
44.8839
  0
VERTEX
  8
0
 10
29.1504
 20
44.8701
  0
VERTEX
  8
0
 10
29.1648
 20
44.8649
  0
VERTEX
  8
0
 10
29.1853
 20
44.8628
  0
VERTEX
  8
0
 10
29.2045
 20
44.8632
  0
VERTEX
  8
0
 10
29.2296
 20
44.8656
  0
VERTEX
  8
0
 10
29.2296
 20
44.8656
  0
SEQEND
  0
POLYLINE
  8
0
 66
     1
 10
0
 20
0
  0
VERTEX
  8
0
 10
29.7398
 20
44.9677
  0
VERTEX
  8
0
 10
29.845
 20
44.9548
  0
VERTEX
  8
0
 10
29.8352
 20
44.9242
  0
VERTEX
  8
0
 10
29.8232
 20
44.8962
  0
VERTEX
  8
0
 10
29.809
 20
44.8708
  0
VERTEX
  8
0
 10
29.7926
 20
44.8481
  0
VERTEX
  8
0
 10
29.774
 20
44.8281
  0
VERTEX
  8
0
 10
29.7531
 20
44.8108
  0
VERTEX
  8
0
 10
29.7301
 20
44.7961
  0
VERTEX
  8
0
 10
29.7048
 20
44.7841
  0
VERTEX
  8
0
 10
29.6773
 20
44.7748
  0
VERTEX
  8
0
 10
29.6476
 20
44.7681
  0
VERTEX
  8
0
 10
29.6156
 20
44.7641
  0
VERTEX
  8
0
 10
29.5815
 20
44.7628
  0
VERTEX
  8
0
 10
29.5189
 20
44.7678
  0
VERTEX
  8
0
 10
29.4633
 20
44.7829
  0
VERTEX
  8
0
 10
29.4145
 20
44.808
  0
VERTEX
  8
0
 10
29.3727
 20
44.8432
  0
VERTEX
  8
0
 10
29.3451
 20
44.8779
  0
VERTEX
  8
0
 10
29.3236
 20
44.918
  0
VERTEX
  8
0
 10
29.3082
 20
44.9633
  0
VERTEX
  8
0
 10
29.299
 20
45.0139
  0
VERTEX
  8
0
 10
29.296
 20
45.0697
  0
VERTEX
  8
0
 10
29.3003
 20
45.1358
  0
VERTEX
  8
0
 10
29.3132
 20
45.1952
  0
VERTEX
  8
0
 10
29.3347
 20
45.248
  0
VERTEX
  8
0
 10
29.3648
 20
45.294
  0
VERTEX
  8
0
 10
29.3974
 20
45.3274
  0
VERTEX
  8
0
 10
29.4349
 20
45.3534
  0
VERTEX
  8
0
 10
29.4771
 20
45.3719
  0
VERTEX
  8
0
 10
29.5241
 20
45.3831
  0
VERTEX
  8
0
 10
29.5758
 20
45.3868
  0
VERTEX
  8
0
 10
29.6263
 20
45.3831
  0
VERTEX
  8
0
 10
29.6721
 20
45.372
  0
VERTEX
  8
0
 10
29.7131
 20
45.3536
  0
VERTEX
  8
0
 10
29.7495
 20
45.3278
  0
VERTEX
  8
0
 10
29.7812
 20
45.2946
  0
VERTEX
  8
0
 10
29.8106
 20
45.249
  0
VERTEX
  8
0
 10
29.8316
 20
45.197
  0
VERTEX
  8
0
 10
29.8441
 20
45.1386
  0
VERTEX
  8
0
 10
29.8483
 20
45.0739
  0
VERTEX
  8
0
 10
29.8482
 20
45.0598
  0
VERTEX
  8
0
 10
29.8478
 20
45.0468
  0
VERTEX
  8
0
 10
29.4
 20
45.0468
  0
VERTEX
  8
0
 10
29.4142
 20
44.9689
  0
VERTEX
  8
0
 10
29.448
 20
44.9072
  0
VERTEX
  8
0
 10
29.4847
 20
44.8736
  0
VERTEX
  8
0
 10
29.5292
 20
44.8535
  0
VERTEX
  8
0
 10
29.5815
 20
44.8468
  0
VERTEX
  8
0
 10
29.6174
 20
44.8501
  0
VERTEX
  8
0
 10
29.6496
 20
44.8602
  0
VERTEX
  8
0
 10
29.6779
 20
44.877
  0
VERTEX
  8
0
 10
29.7024
 20
44.9005
  0
VERTEX
  8
0
 10
29.723
 20
44.9308
  0
VERTEX
  8
0
 10
29.7398
 20
44.9677
  0
VERTEX
  8
0
 10
29.7398
 20
44.9677
  0
SEQEND
  0
POLYLINE
  8
0
 66
     1
 10
0
 20
0
  0
VERTEX
  8
0
 10
29.4065
 20
45.1308
  0
VERTEX
  8
0
 10
29.7412
 20
45.1308
  0
VERTEX
  8
0
 10
29.7282
 20
45.1969
  0
VERTEX
  8
0
 10
29.7028
 20
45.2442
  0
VERTEX
  8
0
 10
29.6672
 20
45.2765
  0
VERTEX
  8
0
 10
29.6253
 20
45.296
  0
VERTEX
  8
0
 10
29.577
 20
45.3028
  0
VERTEX
  8
0
 10
29.5098
 20
45.2907
  0
VERTEX
  8
0
 10
29.4562
 20
45.2532
  0
VERTEX
  8
0
 10
29.4215
 20
45.1989
  0
VERTEX
  8
0
 10
29.4065
 20
45.1308
  0
VERTEX
  8
0
 10
29.4065
 20
45.1308
  0
SEQEND
  0
POLYLINE
  8
0
 66
     1
 10
0
 20
0
  0
VERTEX
  8
0
 10
30
 20
45.2588
  0
VERTEX
  8
0
 10
30
 20
45.3748
  0
VERTEX
  8
0
 10
30.116
 20
45.3748
  0
VERTEX
  8
0
 10
30.116
 20
45.2588
  0
VERTEX
  8
0
 10
30
 20
45.2588
  0
SEQEND
  0
POLYLINE
  8
0
 66
     1
 10
0
 20
0
  0
VERTEX
  8
0
 10
30
 20
44.7708
  0
VERTEX
  8
0
 10
30
 20
44.8868
  0
VERTEX
  8
0
 10
30.116
 20
44.8868
  0
VERTEX
  8
0
 10
30.116
 20
44.7725
  0
VERTEX
  8
0
 10
30.1133
 20
44.7345
  0
VERTEX
  8
0
 10
30.1054
 20
44.701
  0
VERTEX
  8
0
 10
30.0921
 20
44.6718
  0
VERTEX
  8
0
 10
30.0736
 20
44.6471
  0
VERTEX
  8
0
 10
30.0497
 20
44.6267
  0
VERTEX
  8
0
 10
30.0205
 20
44.6108
  0
VERTEX
  8
0
 10
29.992
 20
44.6533
  0
VERTEX
  8
0
 10
30.0191
 20
44.6701
  0
VERTEX
  8
0
 10
30.0388
 20
44.6953
  0
VERTEX
  8
0
 10
30.0512
 20
44.7289
  0
VERTEX
  8
0
 10
30.0563
 20
44.7708
  0
VERTEX
  8
0
 10
30
 20
44.7708
  0
SEQEND
  0
POLYLINE
  8
0
 66
     1
 10
0
 20
0
  0
VERTEX
  8
0
 10
-0
 20
43.1708
  0
VERTEX
  8
0
 10
-0
 20
44.0028
  0
VERTEX
  8
0
 10
0.366
 20
44.0028
  0
VERTEX
  8
0
 10
0.4498
 20
43.999
  0
VERTEX
  8
0
 10
0.5118
 20
43.9875
  0
VERTEX
  8
0
 10
0.578
 20
43.9546
  0
VERTEX
  8
0
 10
0.6256
 20
43.9012
  0
VERTEX
  8
0
 10
0.6511
 20
43.8418
  0
VERTEX
  8
0
 10
0.66
 20
43.7758
  0
VERTEX
  8
0
 10
0.6589
 20
43.749
  0
VERTEX
  8
0
 10
0.6555
 20
43.7239
  0
VERTEX
  8
0
 10
0.6497
 20
43.7004
  0
VERTEX
  8
0
 10
0.6415
 20
43.6785
  0
VERTEX
  8
0
 10
0.631
 20
43.6583
  0
VERTEX
  8
0
 10
0.618
 20
43.6397
  0
VERTEX
  8
0
 10
0.6026
 20
43.6227
  0
VERTEX
  8
0
 10
0.5849
 20
43.6073
  0
VERTEX
  8
0
 10
0.5647
 20
43.5936
  0
VERTEX
  8
0
 10
0.5422
 20
43.5815
  0
VERTEX
  8
0
 10
0.5173
 20
43.571
  0
VERTEX
  8
0
 10
0.49
 20
43.5622
  0
VERTEX
  8
0
 10
0.4603
 20
43.5549
  0
VERTEX
  8
0
 10
0.4282
 20
43.5493
  0
VERTEX
  8
0
 10
0.4667
 20
43.5285
  0
VERTEX
  8
0
 10
0.4942
 20
43.5079
  0
VERTEX
  8
0
 10
0.5421
 20
43.4567
  0
VERTEX
  8
0
 10
0.5851
 20
43.3972
  0
VERTEX
  8
0
 10
0.729
 20
43.1708
  0
VERTEX
  8
0
 10
0.592
 20
43.1708
  0
VERTEX
  8
0
 10
0.4815
 20
43.3467
  0
VERTEX
  8
0
 10
0.4473
 20
43.3992
  0
VERTEX
  8
0
 10
0.4204
 20
43.4379
  0
VERTEX
  8
0
 10
0.3804
 20
43.4868
  0
VERTEX
  8
0
 10
0.3463
 20
43.5167
  0
VERTEX
  8
0
 10
0.3214
 20
43.5305
  0
VERTEX
  8
0
 10
0.2965
 20
43.5388
  0
VERTEX
  8
0
 10
0.2724
 20
43.5418
  0
VERTEX
  8
0
 10
0.2353
 20
43.5428
  0
VERTEX
  8
0
 10
0.108
 20
43.5428
  0
VERTEX
  8
0
 10
0.108
 20
43.1708
  0
VERTEX
  8
0
 10
-0
 20
43.1708
  0
SEQEND
  0
POLYLINE
  8
0
 66
     1
 10
0
 20
0
  0
VERTEX
  8
0
 10
0.108
 20
43.6388
  0
VERTEX
  8
0
 10
0.3438
 20
43.6388
  0
VERTEX
  8
0
 10
0.3959
 20
43.6414
  0
VERTEX
  8
0
 10
0.4402
 20
43.6491
  0
VERTEX
  8
0
 10
0.4767
 20
43.662
  0
VERTEX
  8
0
 10
0.5052
 20
43.6801
  0
VERTEX
  8
0
 10
0.5259
 20
43.7033
  0
VERTEX
  8
0
 10
0.5425
 20
43.7389
  0
VERTEX
  8
0
 10
0.548
 20
43.7773
  0
VERTEX
  8
0
 10
0.5417
 20
43.8204
  0
VERTEX
  8
0
 10
0.5231
 20
43.8553
  0
VERTEX
  8
0
 10
0.492
 20
43.8822
  0
VERTEX
  8
0
 10
0.4387
 20
43.9036
  0
VERTEX
  8
0
 10
0.3704
 20
43.9108
  0
VERTEX
  8
0
 10
0.108
 20
43.9108
  0
VERTEX
  8
0
 10
0.108
 20
43.6388
  0
SEQEND
  0
POLYLINE
  8
0
 66
     1
 10
0
 20
0
  0
VERTEX
  8
0
 10
0.784
 20
43.4748
  0
VERTEX
  8
0
 10
0.7865
 20
43.5277
  0
VERTEX
  8
0
 10
0.7942
 20
43.5758
  0
VERTEX
  8
0
 10
0.807
 20
43.6191
  0
VERTEX
  8
0
 10
0.825
 20
43.6577
  0
VERTEX
  8
0
 10
0.8481
 20
43.6915
  0
VERTEX
  8
0
 10
0.8763
 20
43.7205
  0
VERTEX
  8
0
 10
0.9312
 20
43.7573
  0
VERTEX
  8
0
 10
0.9939
 20
43.7794
  0
VERTEX
  8
0
 10
1.0643
 20
43.7868
  0
VERTEX
  8
0
 10
1.1147
 20
43.7833
  0
VERTEX
  8
0
 10
1.1607
 20
43.7728
  0
VERTEX
  8
0
 10
1.2022
 20
43.7554
  0
VERTEX
  8
0
 10
1.2393
 20
43.731
  0
VERTEX
  8
0
 10
1.2719
 20
43.6997
  0
VERTEX
  8
0
 10
1.3034
 20
43.6549
  0
VERTEX
  8
0
 10
1.326
 20
43.604
  0
VERTEX
  8
0
 10
1.3395
 20
43.5467
  0
VERTEX
  8
0
 10
1.344
 20
43.4832
  0
VERTEX
  8
0
 10
1.3423
 20
43.4384
  0
VERTEX
  8
0
 10
1.3373
 20
43.3969
  0
VERTEX
  8
0
 10
1.3289
 20
43.3587
  0
VERTEX
  8
0
 10
1.3172
 20
43.3239
  0
VERTEX
  8
0
 10
1.3021
 20
43.2923
  0
VERTEX
  8
0
 10
1.2837
 20
43.2641
  0
VERTEX
  8
0
 10
1.2619
 20
43.2392
  0
VERTEX
  8
0
 10
1.2368
 20
43.2176
  0
VERTEX
  8
0
 10
1.2083
 20
43.1993
  0
VERTEX
  8
0
 10
1.1394
 20
43.1722
  0
VERTEX
  8
0
 10
1.0643
 20
43.1628
  0
VERTEX
  8
0
 10
1.0121
 20
43.1662
  0
VERTEX
  8
0
 10
0.9648
 20
43.1768
  0
VERTEX
  8
0
 10
0.9226
 20
43.1947
  0
VERTEX
  8
0
 10
0.8854
 20
43.2198
  0
VERTEX
  8
0
 10
0.8532
 20
43.2522
  0
VERTEX
  8
0
 10
0.8229
 20
43.2973
  0
VERTEX
  8
0
 10
0.8013
 20
43.3494
  0
VERTEX
  8
0
 10
0.7883
 20
43.4086
  0
VERTEX
  8
0
 10
0.784
 20
43.4748
  0
VERTEX
  8
0
 10
0.784
 20
43.4748
  0
SEQEND
  0
POLYLINE
  8
0
 66
     1
 10
0
 20
0
  0
VERTEX
  8
0
 10
0.888
 20
43.475
  0
VERTEX
  8
0
 10
0.8977
 20
43.3877
  0
VERTEX
  8
0
 10
0.9268
 20
43.3186
  0
VERTEX
  8
0
 10
0.9528
 20
43.2874
  0
VERTEX
  8
0
 10
0.9843
 20
43.265
  0
VERTEX
  8
0
 10
1.0215
 20
43.2515
  0
VERTEX
  8
0
 10
1.0643
 20
43.2468
  0
VERTEX
  8
0
 10
1.1071
 20
43.2512
  0
VERTEX
  8
0
 10
1.1442
 20
43.2649
  0
VERTEX
  8
0
 10
1.1758
 20
43.2879
  0
VERTEX
  8
0
 10
1.2017
 20
43.3203
  0
VERTEX
  8
0
 10
1.2304
 20
43.3907
  0
VERTEX
  8
0
 10
1.24
 20
43.4784
  0
VERTEX
  8
0
 10
1.23
 20
43.5634
  0
VERTEX
  8
0
 10
1.2
 20
43.6321
  0
VERTEX
  8
0
 10
1.1737
 20
43.663
  0
VERTEX
  8
0
 10
1.1424
 20
43.6851
  0
VERTEX
  8
0
 10
1.1059
 20
43.6984
  0
VERTEX
  8
0
 10
1.0643
 20
43.7028
  0
VERTEX
  8
0
 10
1.0215
 20
43.6983
  0
VERTEX
  8
0
 10
0.9843
 20
43.6848
  0
VERTEX
  8
0
 10
0.9528
 20
43.6624
  0
VERTEX
  8
0
 10
0.9268
 20
43.631
  0
VERTEX
  8
0
 10
0.8977
 20
43.5617
  0
VERTEX
  8
0
 10
0.888
 20
43.475
  0
VERTEX
  8
0
 10
0.888
 20
43.475
  0
SEQEND
  0
POLYLINE
  8
0
 66
     1
 10
0
 20
0
  0
VERTEX
  8
0
 10
1.852
 20
43.1708
  0
VERTEX
  8
0
 10
1.852
 20
43.2628
  0
VERTEX
  8
0
 10
1.8224
 20
43.2268
  0
VERTEX
  8
0
 10
1.7887
 20
43.1988
  0
VERTEX
  8
0
 10
1.751
 20
43.1788
  0
VERTEX
  8
0
 10
1.7091
 20
43.1668
  0
VERTEX
  8
0
 10
1.6632
 20
43.1628
  0
VERTEX
  8
0
 10
1.6169
 20
43.1672
  0
VERTEX
  8
0
 10
1.572
 20
43.1803
  0
VERTEX
  8
0
 10
1.5283
 20
43.2032
  0
VERTEX
  8
0
 10
1.4969
 20
43.2338
  0
VERTEX
  8
0
 10
1.4786
 20
43.2673
  0
VERTEX
  8
0
 10
1.4662
 20
43.3093
  0
VERTEX
  8
0
 10
1.4615
 20
43.3482
  0
VERTEX
  8
0
 10
1.46
 20
43.404
  0
VERTEX
  8
0
 10
1.46
 20
43.7748
  0
VERTEX
  8
0
 10
1.56
 20
43.7748
  0
VERTEX
  8
0
 10
1.56
 20
43.4433
  0
VERTEX
  8
0
 10
1.5615
 20
43.376
  0
VERTEX
  8
0
 10
1.5662
 20
43.3363
  0
VERTEX
  8
0
 10
1.5775
 20
43.3059
  0
VERTEX
  8
0
 10
1.5949
 20
43.2821
  0
VERTEX
  8
0
 10
1.6184
 20
43.265
  0
VERTEX
  8
0
 10
1.6482
 20
43.2546
  0
VERTEX
  8
0
 10
1.6841
 20
43.2508
  0
VERTEX
  8
0
 10
1.7285
 20
43.2562
  0
VERTEX
  8
0
 10
1.77
 20
43.2736
  0
VERTEX
  8
0
 10
1.8042
 20
43.3012
  0
VERTEX
  8
0
 10
1.827
 20
43.3374
  0
VERTEX
  8
0
 10
1.8397
 20
43.387
  0
VERTEX
  8
0
 10
1.844
 20
43.4545
  0
VERTEX
  8
0
 10
1.844
 20
43.7748
  0
VERTEX
  8
0
 10
1.944
 20
43.7748
  0
VERTEX
  8
0
 10
1.944
 20
43.1708
  0
VERTEX
  8
0
 10
1.852
 20
43.1708
  0
SEQEND
  0
POLYLINE
  8
0
 66
     1
 10
0
 20
0
  0
VERTEX
  8
0
 10
2.104
 20
43.1708
  0
VERTEX
  8
0
 10
2.104
 20
43.774
  0
VERTEX
  8
0
 10
2.196
 20
43.774
  0
VERTEX
  8
0
 10
2.196
 20
43.6888
  0
VERTEX
  8
0
 10
2.2248
 20
43.7239
  0
VERTEX
  8
0
 10
2.2583
 20
43.7512
  0
VERTEX
  8
0
 10
2.2964
 20
43.7708
  0
VERTEX
  8
0
 10
2.3393
 20
43.7827
  0
VERTEX
  8
0
 10
2.3869
 20
43.7868
  0
VERTEX
  8
0
 10
2.438
 20
43.7818
  0
VERTEX
  8
0
 10
2.4863
 20
43.7669
  0
VERTEX
  8
0
 10
2.5229
 20
43.746
  0
VERTEX
  8
0
 10
2.5517
 20
43.718
  0
VERTEX
  8
0
 10
2.5729
 20
43.6828
  0
VERTEX
  8
0
 10
2.5863
 20
43.6405
  0
VERTEX
  8
0
 10
2.5906
 20
43.6023
  0
VERTEX
  8
0
 10
2.592
 20
43.5412
  0
VERTEX
  8
0
 10
2.592
 20
43.1708
  0
VERTEX
  8
0
 10
2.492
 20
43.1708
  0
VERTEX
  8
0
 10
2.492
 20
43.5375
  0
VERTEX
  8
0
 10
2.49
 20
43.5842
  0
VERTEX
  8
0
 10
2.484
 20
43.6176
  0
VERTEX
  8
0
 10
2.4665
 20
43.6536
  0
VERTEX
  8
0
 10
2.437
 20
43.68
  0
VERTEX
  8
0
 10
2.4039
 20
43.6941
  0
VERTEX
  8
0
 10
2.3654
 20
43.6988
  0
VERTEX
  8
0
 10
2.3396
 20
43.6974
  0
VERTEX
  8
0
 10
2.3161
 20
43.6933
  0
VERTEX
  8
0
 10
2.2948
 20
43.6864
  0
VERTEX
  8
0
 10
2.2757
 20
43.6767
  0
VERTEX
  8
0
 10
2.2589
 20
43.6643
  0
VERTEX
  8
0
 10
2.2443
 20
43.6491
  0
VERTEX
  8
0
 10
2.232
 20
43.6312
  0
VERTEX
  8
0
 10
2.2219
 20
43.6105
  0
VERTEX
  8
0
 10
2.2141
 20
43.587
  0
VERTEX
  8
0
 10
2.2085
 20
43.5608
  0
VERTEX
  8
0
 10
2.2051
 20
43.5318
  0
VERTEX
  8
0
 10
2.204
 20
43.5001
  0
VERTEX
  8
0
 10
2.204
 20
43.1708
  0
VERTEX
  8
0
 10
2.104
 20
43.1708
  0
SEQEND
  0
POLYLINE
  8
0
 66
     1
 10
0
 20
0
  0
VERTEX
  8
0
 10
3.132
 20
43.1708
  0
VERTEX
  8
0
 10
3.132
 20
43.2504
  0
VERTEX
  8
0
 10
3.1073
 20
43.219
  0
VERTEX
  8
0
 10
3.0782
 20
43.1946
  0
VERTEX
  8
0
 10
3.0448
 20
43.1771
  0
VERTEX
  8
0
 10
3.0071
 20
43.1665
  0
VERTEX
  8
0
 10
2.965
 20
43.1628
  0
VERTEX
  8
0
 10
2.8947
 20
43.1728
  0
VERTEX
  8
0
 10
2.8311
 20
43.2038
  0
VERTEX
  8
0
 10
2.7789
 20
43.2509
  0
VERTEX
  8
0
 10
2.7403
 20
43.3123
  0
VERTEX
  8
0
 10
2.7163
 20
43.3871
  0
VERTEX
  8
0
 10
2.708
 20
43.4742
  0
VERTEX
  8
0
 10
2.7096
 20
43.521
  0
VERTEX
  8
0
 10
2.715
 20
43.5643
  0
VERTEX
  8
0
 10
2.7243
 20
43.6039
  0
VERTEX
  8
0
 10
2.7374
 20
43.6399
  0
VERTEX
  8
0
 10
2.7543
 20
43.6723
  0
VERTEX
  8
0
 10
2.775
 20
43.7011
  0
VERTEX
  8
0
 10
2.7996
 20
43.7264
  0
VERTEX
  8
0
 10
2.828
 20
43.748
  0
VERTEX
  8
0
 10
2.8912
 20
43.7771
  0
VERTEX
  8
0
 10
2.9621
 20
43.7868
  0
VERTEX
  8
0
 10
3.0122
 20
43.7817
  0
VERTEX
  8
0
 10
3.0565
 20
43.7664
  0
VERTEX
  8
0
 10
3.0951
 20
43.7409
  0
VERTEX
  8
0
 10
3.128
 20
43.7052
  0
VERTEX
  8
0
 10
3.128
 20
44.0028
  0
VERTEX
  8
0
 10
3.228
 20
44.0028
  0
VERTEX
  8
0
 10
3.228
 20
43.1708
  0
VERTEX
  8
0
 10
3.132
 20
43.1708
  0
SEQEND
  0
POLYLINE
  8
0
 66
     1
 10
0
 20
0
  0
VERTEX
  8
0
 10
2.812
 20
43.4745
  0
VERTEX
  8
0
 10
2.8209
 20
43.3914
  0
VERTEX
  8
0
 10
2.8475
 20
43.3225
  0
VERTEX
  8
0
 10
2.8718
 20
43.2896
  0
VERTEX
  8
0
 10
2.9012
 20
43.266
  0
VERTEX
  8
0
 10
2.9357
 20
43.2517
  0
VERTEX
  8
0
 10
2.9752
 20
43.2468
  0
VERTEX
  8
0
 10
3.0142
 20
43.2511
  0
VERTEX
  8
0
 10
3.0481
 20
43.2645
  0
VERTEX
  8
0
 10
3.0769
 20
43.287
  0
VERTEX
  8
0
 10
3.1007
 20
43.3186
  0
VERTEX
  8
0
 10
3.1265
 20
43.3852
  0
VERTEX
  8
0
 10
3.1351
 20
43.4661
  0
VERTEX
  8
0
 10
3.1268
 20
43.5534
  0
VERTEX
  8
0
 10
3.1018
 20
43.6237
  0
VERTEX
  8
0
 10
3.0775
 20
43.6583
  0
VERTEX
  8
0
 10
3.0475
 20
43.683
  0
VERTEX
  8
0
 10
3.012
 20
43.6978
  0
VERTEX
  8
0
 10
2.9707
 20
43.7028
  0
VERTEX
  8
0
 10
2.9306
 20
43.6981
  0
VERTEX
  8
0
 10
2.8961
 20
43.6838
  0
VERTEX
  8
0
 10
2.8673
 20
43.6602
  0
VERTEX
  8
0
 10
2.8442
 20
43.627
  0
VERTEX
  8
0
 10
2.82
 20
43.5592
  0
VERTEX
  8
0
 10
2.812
 20
43.4745
  0
VERTEX
  8
0
 10
2.812
 20
43.4745
  0
SEQEND
  0
POLYLINE
  8
0
 66
     1
 10
0
 20
0
  0
VERTEX
  8
0
 10
3.7958
 20
43.3677
  0
VERTEX
  8
0
 10
3.901
 20
43.3548
  0
VERTEX
  8
0
 10
3.8912
 20
43.3242
  0
VERTEX
  8
0
 10
3.8792
 20
43.2962
  0
VERTEX
  8
0
 10
3.865
 20
43.2708
  0
VERTEX
  8
0
 10
3.8486
 20
43.2481
  0
VERTEX
  8
0
 10
3.83
 20
43.2281
  0
VERTEX
  8
0
 10
3.8091
 20
43.2108
  0
VERTEX
  8
0
 10
3.7861
 20
43.1961
  0
VERTEX
  8
0
 10
3.7608
 20
43.1841
  0
VERTEX
  8
0
 10
3.7333
 20
43.1748
  0
VERTEX
  8
0
 10
3.7036
 20
43.1681
  0
VERTEX
  8
0
 10
3.6716
 20
43.1641
  0
VERTEX
  8
0
 10
3.6375
 20
43.1628
  0
VERTEX
  8
0
 10
3.5749
 20
43.1678
  0
VERTEX
  8
0
 10
3.5193
 20
43.1829
  0
VERTEX
  8
0
 10
3.4705
 20
43.208
  0
VERTEX
  8
0
 10
3.4287
 20
43.2432
  0
VERTEX
  8
0
 10
3.4011
 20
43.2779
  0
VERTEX
  8
0
 10
3.3796
 20
43.318
  0
VERTEX
  8
0
 10
3.3642
 20
43.3633
  0
VERTEX
  8
0
 10
3.355
 20
43.4139
  0
VERTEX
  8
0
 10
3.352
 20
43.4697
  0
VERTEX
  8
0
 10
3.3563
 20
43.5358
  0
VERTEX
  8
0
 10
3.3692
 20
43.5952
  0
VERTEX
  8
0
 10
3.3907
 20
43.648
  0
VERTEX
  8
0
 10
3.4208
 20
43.694
  0
VERTEX
  8
0
 10
3.4534
 20
43.7274
  0
VERTEX
  8
0
 10
3.4909
 20
43.7534
  0
VERTEX
  8
0
 10
3.5331
 20
43.7719
  0
VERTEX
  8
0
 10
3.5801
 20
43.7831
  0
VERTEX
  8
0
 10
3.6318
 20
43.7868
  0
VERTEX
  8
0
 10
3.6823
 20
43.7831
  0
VERTEX
  8
0
 10
3.7281
 20
43.772
  0
VERTEX
  8
0
 10
3.7691
 20
43.7536
  0
VERTEX
  8
0
 10
3.8055
 20
43.7278
  0
VERTEX
  8
0
 10
3.8372
 20
43.6946
  0
VERTEX
  8
0
 10
3.8666
 20
43.649
  0
VERTEX
  8
0
 10
3.8876
 20
43.597
  0
VERTEX
  8
0
 10
3.9001
 20
43.5386
  0
VERTEX
  8
0
 10
3.9043
 20
43.4739
  0
VERTEX
  8
0
 10
3.9042
 20
43.4598
  0
VERTEX
  8
0
 10
3.9038
 20
43.4468
  0
VERTEX
  8
0
 10
3.456
 20
43.4468
  0
VERTEX
  8
0
 10
3.4702
 20
43.3689
  0
VERTEX
  8
0
 10
3.504
 20
43.3072
  0
VERTEX
  8
0
 10
3.5407
 20
43.2736
  0
VERTEX
  8
0
 10
3.5852
 20
43.2535
  0
VERTEX
  8
0
 10
3.6375
 20
43.2468
  0
VERTEX
  8
0
 10
3.6734
 20
43.2501
  0
VERTEX
  8
0
 10
3.7056
 20
43.2602
  0
VERTEX
  8
0
 10
3.7339
 20
43.277
  0
VERTEX
  8
0
 10
3.7584
 20
43.3005
  0
VERTEX
  8
0
 10
3.779
 20
43.3308
  0
VERTEX
  8
0
 10
3.7958
 20
43.3677
  0
VERTEX
  8
0
 10
3.7958
 20
43.3677
  0
SEQEND
  0
POLYLINE
  8
0
 66
     1
 10
0
 20
0
  0
VERTEX
  8
0
 10
3.4625
 20
43.5308
  0
VERTEX
  8
0
 10
3.7972
 20
43.5308
  0
VERTEX
  8
0
 10
3.7842
 20
43.5969
  0
VERTEX
  8
0
 10
3.7588
 20
43.6442
  0
VERTEX
  8
0
 10
3.7232
 20
43.6765
  0
VERTEX
  8
0
 10
3.6813
 20
43.696
  0
VERTEX
  8
0
 10
3.633
 20
43.7028
  0
VERTEX
  8
0
 10
3.5658
 20
43.6907
  0
VERTEX
  8
0
 10
3.5122
 20
43.6532
  0
VERTEX
  8
0
 10
3.4775
 20
43.5989
  0
VERTEX
  8
0
 10
3.4625
 20
43.5308
  0
VERTEX
  8
0
 10
3.4625
 20
43.5308
  0
SEQEND
  0
POLYLINE
  8
0
 66
     1
 10
0
 20
0
  0
VERTEX
  8
0
 10
4.416
 20
43.1708
  0
VERTEX
  8
0
 10
4.416
 20
43.2504
  0
VERTEX
  8
0
 10
4.3913
 20
43.219
  0
VERTEX
  8
0
 10
4.3622
 20
43.1946
  0
VERTEX
  8
0
 10
4.3288
 20
43.1771
  0
VERTEX
  8
0
 10
4.2911
 20
43.1665
  0
VERTEX
  8
0
 10
4.249
 20
43.1628
  0
VERTEX
  8
0
 10
4.1787
 20
43.1728
  0
VERTEX
  8
0
 10
4.1151
 20
43.2038
  0
VERTEX
  8
0
 10
4.0629
 20
43.2509
  0
VERTEX
  8
0
 10
4.0243
 20
43.3123
  0
VERTEX
  8
0
 10
4.0003
 20
43.3871
  0
VERTEX
  8
0
 10
3.992
 20
43.4742
  0
VERTEX
  8
0
 10
3.9936
 20
43.521
  0
VERTEX
  8
0
 10
3.999
 20
43.5643
  0
VERTEX
  8
0
 10
4.0083
 20
43.6039
  0
VERTEX
  8
0
 10
4.0214
 20
43.6399
  0
VERTEX
  8
0
 10
4.0383
 20
43.6723
  0
VERTEX
  8
0
 10
4.059
 20
43.7011
  0
VERTEX
  8
0
 10
4.0836
 20
43.7264
  0
VERTEX
  8
0
 10
4.112
 20
43.748
  0
VERTEX
  8
0
 10
4.1752
 20
43.7771
  0
VERTEX
  8
0
 10
4.2461
 20
43.7868
  0
VERTEX
  8
0
 10
4.2962
 20
43.7817
  0
VERTEX
  8
0
 10
4.3405
 20
43.7664
  0
VERTEX
  8
0
 10
4.3791
 20
43.7409
  0
VERTEX
  8
0
 10
4.412
 20
43.7052
  0
VERTEX
  8
0
 10
4.412
 20
44.0028
  0
VERTEX
  8
0
 10
4.512
 20
44.0028
  0
VERTEX
  8
0
 10
4.512
 20
43.1708
  0
VERTEX
  8
0
 10
4.416
 20
43.1708
  0
SEQEND
  0
POLYLINE
  8
0
 66
     1
 10
0
 20
0
  0
VERTEX
  8
0
 10
4.096
 20
43.4745
  0
VERTEX
  8
0
 10
4.1049
 20
43.3914
  0
VERTEX
  8
0
 10
4.1315
 20
43.3225
  0
VERTEX
  8
0
 10
4.1558
 20
43.2896
  0
VERTEX
  8
0
 10
4.1852
 20
43.266
  0
VERTEX
  8
0
 10
4.2197
 20
43.2517
  0
VERTEX
  8
0
 10
4.2592
 20
43.2468
  0
VERTEX
  8
0
 10
4.2982
 20
43.2511
  0
VERTEX
  8
0
 10
4.3321
 20
43.2645
  0
VERTEX
  8
0
 10
4.3609
 20
43.287
  0
VERTEX
  8
0
 10
4.3847
 20
43.3186
  0
VERTEX
  8
0
 10
4.4105
 20
43.3852
  0
VERTEX
  8
0
 10
4.4191
 20
43.4661
  0
VERTEX
  8
0
 10
4.4108
 20
43.5534
  0
VERTEX
  8
0
 10
4.3858
 20
43.6237
  0
VERTEX
  8
0
 10
4.3615
 20
43.6583
  0
VERTEX
  8
0
 10
4.3315
 20
43.683
  0
VERTEX
  8
0
 10
4.296
 20
43.6978
  0
VERTEX
  8
0
 10
4.2547
 20
43.7028
  0
VERTEX
  8
0
 10
4.2146
 20
43.6981
  0
VERTEX
  8
0
 10
4.1801
 20
43.6838
  0
VERTEX
  8
0
 10
4.1513
 20
43.6602
  0
VERTEX
  8
0
 10
4.1282
 20
43.627
  0
VERTEX
  8
0
 10
4.104
 20
43.5592
  0
VERTEX
  8
0
 10
4.096
 20
43.4745
  0
VERTEX
  8
0
 10
4.096
 20
43.4745
  0
SEQEND
  0
POLYLINE
  8
0
 66
     1
 10
0
 20
0
  0
VERTEX
  8
0
 10
5.216
 20
43.1708
  0
VERTEX
  8
0
 10
5.216
 20
44.0028
  0
VERTEX
  8
0
 10
5.582
 20
44.0028
  0
VERTEX
  8
0
 10
5.6658
 20
43.999
  0
VERTEX
  8
0
 10
5.7278
 20
43.9875
  0
VERTEX
  8
0
 10
5.794
 20
43.9546
  0
VERTEX
  8
0
 10
5.8416
 20
43.9012
  0
VERTEX
  8
0
 10
5.8671
 20
43.8418
  0
VERTEX
  8
0
 10
5.876
 20
43.7758
  0
VERTEX
  8
0
 10
5.8749
 20
43.749
  0
VERTEX
  8
0
 10
5.8715
 20
43.7239
  0
VERTEX
  8
0
 10
5.8657
 20
43.7004
  0
VERTEX
  8
0
 10
5.8575
 20
43.6785
  0
VERTEX
  8
0
 10
5.847
 20
43.6583
  0
VERTEX
  8
0
 10
5.834
 20
43.6397
  0
VERTEX
  8
0
 10
5.8186
 20
43.6227
  0
VERTEX
  8
0
 10
5.8009
 20
43.6073
  0
VERTEX
  8
0
 10
5.7807
 20
43.5936
  0
VERTEX
  8
0
 10
5.7582
 20
43.5815
  0
VERTEX
  8
0
 10
5.7333
 20
43.571
  0
VERTEX
  8
0
 10
5.706
 20
43.5622
  0
VERTEX
  8
0
 10
5.6763
 20
43.5549
  0
VERTEX
  8
0
 10
5.6442
 20
43.5493
  0
VERTEX
  8
0
 10
5.6827
 20
43.5285
  0
VERTEX
  8
0
 10
5.7102
 20
43.5079
  0
VERTEX
  8
0
 10
5.7581
 20
43.4567
  0
VERTEX
  8
0
 10
5.8011
 20
43.3972
  0
VERTEX
  8
0
 10
5.945
 20
43.1708
  0
VERTEX
  8
0
 10
5.808
 20
43.1708
  0
VERTEX
  8
0
 10
5.6975
 20
43.3467
  0
VERTEX
  8
0
 10
5.6633
 20
43.3992
  0
VERTEX
  8
0
 10
5.6364
 20
43.4379
  0
VERTEX
  8
0
 10
5.5964
 20
43.4868
  0
VERTEX
  8
0
 10
5.5623
 20
43.5167
  0
VERTEX
  8
0
 10
5.5374
 20
43.5305
  0
VERTEX
  8
0
 10
5.5125
 20
43.5388
  0
VERTEX
  8
0
 10
5.4884
 20
43.5418
  0
VERTEX
  8
0
 10
5.4513
 20
43.5428
  0
VERTEX
  8
0
 10
5.324
 20
43.5428
  0
VERTEX
  8
0
 10
5.324
 20
43.1708
  0
VERTEX
  8
0
 10
5.216
 20
43.1708
  0
SEQEND
  0
POLYLINE
  8
0
 66
     1
 10
0
 20
0
  0
VERTEX
  8
0
 10
5.324
 20
43.6388
  0
VERTEX
  8
0
 10
5.5598
 20
43.6388
  0
VERTEX
  8
0
 10
5.6119
 20
43.6414
  0
VERTEX
  8
0
 10
5.6562
 20
43.6491
  0
VERTEX
  8
0
 10
5.6927
 20
43.662
  0
VERTEX
  8
0
 10
5.7212
 20
43.6801
  0
VERTEX
  8
0
 10
5.7419
 20
43.7033
  0
VERTEX
  8
0
 10
5.7585
 20
43.7389
  0
VERTEX
  8
0
 10
5.764
 20
43.7773
  0
VERTEX
  8
0
 10
5.7577
 20
43.8204
  0
VERTEX
  8
0
 10
5.7391
 20
43.8553
  0
VERTEX
  8
0
 10
5.708
 20
43.8822
  0
VERTEX
  8
0
 10
5.6547
 20
43.9036
  0
VERTEX
  8
0
 10
5.5864
 20
43.9108
  0
VERTEX
  8
0
 10
5.324
 20
43.9108
  0
VERTEX
  8
0
 10
5.324
 20
43.6388
  0
SEQEND
  0
POLYLINE
  8
0
 66
     1
 10
0
 20
0
  0
VERTEX
  8
0
 10
6.4478
 20
43.3677
  0
VERTEX
  8
0
 10
6.553
 20
43.3548
  0
VERTEX
  8
0
 10
6.5432
 20
43.3242
  0
VERTEX
  8
0
 10
6.5312
 20
43.2962
  0
VERTEX
  8
0
 10
6.517
 20
43.2708
  0
VERTEX
  8
0
 10
6.5006
 20
43.2481
  0
VERTEX
  8
0
 10
6.482
 20
43.2281
  0
VERTEX
  8
0
 10
6.4611
 20
43.2108
  0
VERTEX
  8
0
 10
6.4381
 20
43.1961
  0
VERTEX
  8
0
 10
6.4128
 20
43.1841
  0
VERTEX
  8
0
 10
6.3853
 20
43.1748
  0
VERTEX
  8
0
 10
6.3556
 20
43.1681
  0
VERTEX
  8
0
 10
6.3236
 20
43.1641
  0
VERTEX
  8
0
 10
6.2895
 20
43.1628
  0
VERTEX
  8
0
 10
6.2269
 20
43.1678
  0
VERTEX
  8
0
 10
6.1713
 20
43.1829
  0
VERTEX
  8
0
 10
6.1225
 20
43.208
  0
VERTEX
  8
0
 10
6.0807
 20
43.2432
  0
VERTEX
  8
0
 10
6.0531
 20
43.2779
  0
VERTEX
  8
0
 10
6.0316
 20
43.318
  0
VERTEX
  8
0
 10
6.0162
 20
43.3633
  0
VERTEX
  8
0
 10
6.007
 20
43.4139
  0
VERTEX
  8
0
 10
6.004
 20
43.4697
  0
VERTEX
  8
0
 10
6.0083
 20
43.5358
  0
VERTEX
  8
0
 10
6.0212
 20
43.5952
  0
VERTEX
  8
0
 10
6.0427
 20
43.648
  0
VERTEX
  8
0
 10
6.0728
 20
43.694
  0
VERTEX
  8
0
 10
6.1054
 20
43.7274
  0
VERTEX
  8
0
 10
6.1429
 20
43.7534
  0
VERTEX
  8
0
 10
6.1851
 20
43.7719
  0
VERTEX
  8
0
 10
6.2321
 20
43.7831
  0
VERTEX
  8
0
 10
6.2838
 20
43.7868
  0
VERTEX
  8
0
 10
6.3343
 20
43.7831
  0
VERTEX
  8
0
 10
6.3801
 20
43.772
  0
VERTEX
  8
0
 10
6.4211
 20
43.7536
  0
VERTEX
  8
0
 10
6.4575
 20
43.7278
  0
VERTEX
  8
0
 10
6.4892
 20
43.6946
  0
VERTEX
  8
0
 10
6.5186
 20
43.649
  0
VERTEX
  8
0
 10
6.5396
 20
43.597
  0
VERTEX
  8
0
 10
6.5521
 20
43.5386
  0
VERTEX
  8
0
 10
6.5563
 20
43.4739
  0
VERTEX
  8
0
 10
6.5562
 20
43.4598
  0
VERTEX
  8
0
 10
6.5558
 20
43.4468
  0
VERTEX
  8
0
 10
6.108
 20
43.4468
  0
VERTEX
  8
0
 10
6.1222
 20
43.3689
  0
VERTEX
  8
0
 10
6.156
 20
43.3072
  0
VERTEX
  8
0
 10
6.1927
 20
43.2736
  0
VERTEX
  8
0
 10
6.2372
 20
43.2535
  0
VERTEX
  8
0
 10
6.2895
 20
43.2468
  0
VERTEX
  8
0
 10
6.3254
 20
43.2501
  0
VERTEX
  8
0
 10
6.3576
 20
43.2602
  0
VERTEX
  8
0
 10
6.3859
 20
43.277
  0
VERTEX
  8
0
 10
6.4104
 20
43.3005
  0
VERTEX
  8
0
 10
6.431
 20
43.3308
  0
VERTEX
  8
0
 10
6.4478
 20
43.3677
  0
VERTEX
  8
0
 10
6.4478
 20
43.3677
  0
SEQEND
  0
POLYLINE
  8
0
 66
     1
 10
0
 20
0
  0
VERTEX
  8
0
 10
6.1145
 20
43.5308
  0
VERTEX
  8
0
 10
6.4492
 20
43.5308
  0
VERTEX
  8
0
 10
6.4362
 20
43.5969
  0
VERTEX
  8
0
 10
6.4108
 20
43.6442
  0
VERTEX
  8
0
 10
6.3752
 20
43.6765
  0
VERTEX
  8
0
 10
6.3333
 20
43.696
  0
VERTEX
  8
0
 10
6.285
 20
43.7028
  0
VERTEX
  8
0
 10
6.2178
 20
43.6907
  0
VERTEX
  8
0
 10
6.1642
 20
43.6532
  0
VERTEX
  8
0
 10
6.1295
 20
43.5989
  0
VERTEX
  8
0
 10
6.1145
 20
43.5308
  0
VERTEX
  8
0
 10
6.1145
 20
43.5308
  0
SEQEND
  0
POLYLINE
  8
0
 66
     1
 10
0
 20
0
  0
VERTEX
  8
0
 10
7.07
 20
43.3943
  0
VERTEX
  8
0
 10
7.1699
 20
43.3814
  0
VERTEX
  8
0
 10
7.1539
 20
43.3192
  0
VERTEX
  8
0
 10
7.1268
 20
43.2663
  0
VERTEX
  8
0
 10
7.0887
 20
43.2228
  0
VERTEX
  8
0
 10
7.0401
 20
43.1895
  0
VERTEX
  8
0
 10
6.9841
 20
43.1695
  0
VERTEX
  8
0
 10
6.9205
 20
43.1628
  0
VERTEX
  8
0
 10
6.8691
 20
43.1664
  0
VERTEX
  8
0
 10
6.8227
 20
43.1771
  0
VERTEX
  8
0
 10
6.7814
 20
43.195
  0
VERTEX
  8
0
 10
6.7452
 20
43.22
  0
VERTEX
  8
0
 10
6.714
 20
43.2522
  0
VERTEX
  8
0
 10
6.6851
 20
43.2969
  0
VERTEX
  8
0
 10
6.6645
 20
43.3486
  0
VERTEX
  8
0
 10
6.6521
 20
43.4071
  0
VERTEX
  8
0
 10
6.648
 20
43.4725
  0
VERTEX
  8
0
 10
6.6496
 20
43.5167
  0
VERTEX
  8
0
 10
6.6544
 20
43.5576
  0
VERTEX
  8
0
 10
6.6624
 20
43.5951
  0
VERTEX
  8
0
 10
6.6736
 20
43.6293
  0
VERTEX
  8
0
 10
6.688
 20
43.6601
  0
VERTEX
  8
0
 10
6.7056
 20
43.6876
  0
VERTEX
  8
0
 10
6.7265
 20
43.7118
  0
VERTEX
  8
0
 10
6.7505
 20
43.7327
  0
VERTEX
  8
0
 10
6.7777
 20
43.7502
  0
VERTEX
  8
0
 10
6.8466
 20
43.7774
  0
VERTEX
  8
0
 10
6.921
 20
43.7868
  0
VERTEX
  8
0
 10
7.0083
 20
43.7751
  0
VERTEX
  8
0
 10
7.0793
 20
43.7387
  0
VERTEX
  8
0
 10
7.1163
 20
43.7015
  0
VERTEX
  8
0
 10
7.1433
 20
43.6545
  0
VERTEX
  8
0
 10
7.1603
 20
43.5979
  0
VERTEX
  8
0
 10
7.0615
 20
43.5827
  0
VERTEX
  8
0
 10
7.052
 20
43.6146
  0
VERTEX
  8
0
 10
7.0392
 20
43.6415
  0
VERTEX
  8
0
 10
7.0231
 20
43.6636
  0
VERTEX
  8
0
 10
7.0036
 20
43.6807
  0
VERTEX
  8
0
 10
6.9807
 20
43.693
  0
VERTEX
  8
0
 10
6.9544
 20
43.7003
  0
VERTEX
  8
0
 10
6.9248
 20
43.7028
  0
VERTEX
  8
0
 10
6.8815
 20
43.6983
  0
VERTEX
  8
0
 10
6.8443
 20
43.685
  0
VERTEX
  8
0
 10
6.8132
 20
43.6628
  0
VERTEX
  8
0
 10
6.7881
 20
43.6317
  0
VERTEX
  8
0
 10
6.761
 20
43.5632
  0
VERTEX
  8
0
 10
6.752
 20
43.4753
  0
VERTEX
  8
0
 10
6.7528
 20
43.444
  0
VERTEX
  8
0
 10
6.7554
 20
43.415
  0
VERTEX
  8
0
 10
6.7596
 20
43.3883
  0
VERTEX
  8
0
 10
6.7656
 20
43.3639
  0
VERTEX
  8
0
 10
6.7733
 20
43.3418
  0
VERTEX
  8
0
 10
6.7827
 20
43.322
  0
VERTEX
  8
0
 10
6.7938
 20
43.3045
  0
VERTEX
  8
0
 10
6.8066
 20
43.2893
  0
VERTEX
  8
0
 10
6.8211
 20
43.2765
  0
VERTEX
  8
0
 10
6.8373
 20
43.2659
  0
VERTEX
  8
0
 10
6.8552
 20
43.2577
  0
VERTEX
  8
0
 10
6.8748
 20
43.2517
  0
VERTEX
  8
0
 10
6.8961
 20
43.2481
  0
VERTEX
  8
0
 10
6.9192
 20
43.2468
  0
VERTEX
  8
0
 10
6.9466
 20
43.2485
  0
VERTEX
  8
0
 10
6.9713
 20
43.2539
  0
VERTEX
  8
0
 10
6.9934
 20
43.2629
  0
VERTEX
  8
0
 10
7.0128
 20
43.2756
  0
VERTEX
  8
0
 10
7.0296
 20
43.292
  0
VERTEX
  8
0
 10
7.0437
 20
43.3121
  0
VERTEX
  8
0
 10
7.0551
 20
43.3358
  0
VERTEX
  8
0
 10
7.0639
 20
43.3632
  0
VERTEX
  8
0
 10
7.07
 20
43.3943
  0
VERTEX
  8
0
 10
7.07
 20
43.3943
  0
SEQEND
  0
POLYLINE
  8
0
 66
     1
 10
0
 20
0
  0
VERTEX
  8
0
 10
7.4776
 20
43.2656
  0
VERTEX
  8
0
 10
7.4922
 20
43.1758
  0
VERTEX
  8
0
 10
7.4516
 20
43.1693
  0
VERTEX
  8
0
 10
7.416
 20
43.1668
  0
VERTEX
  8
0
 10
7.3702
 20
43.1703
  0
VERTEX
  8
0
 10
7.3337
 20
43.182
  0
VERTEX
  8
0
 10
7.3063
 20
43.2019
  0
VERTEX
  8
0
 10
7.2883
 20
43.23
  0
VERTEX
  8
0
 10
7.2814
 20
43.2563
  0
VERTEX
  8
0
 10
7.2773
 20
43.2964
  0
VERTEX
  8
0
 10
7.276
 20
43.3501
  0
VERTEX
  8
0
 10
7.276
 20
43.6948
  0
VERTEX
  8
0
 10
7.2
 20
43.6948
  0
VERTEX
  8
0
 10
7.2
 20
43.7748
  0
VERTEX
  8
0
 10
7.276
 20
43.7748
  0
VERTEX
  8
0
 10
7.276
 20
43.9222
  0
VERTEX
  8
0
 10
7.376
 20
43.9828
  0
VERTEX
  8
0
 10
7.376
 20
43.7748
  0
VERTEX
  8
0
 10
7.476
 20
43.7748
  0
VERTEX
  8
0
 10
7.476
 20
43.6948
  0
VERTEX
  8
0
 10
7.376
 20
43.6948
  0
VERTEX
  8
0
 10
7.376
 20
43.3455
  0
VERTEX
  8
0
 10
7.3764
 20
43.3185
  0
VERTEX
  8
0
 10
7.3777
 20
43.3038
  0
VERTEX
  8
0
 10
7.3848
 20
43.2839
  0
VERTEX
  8
0
 10
7.3984
 20
43.2701
  0
VERTEX
  8
0
 10
7.4128
 20
43.2649
  0
VERTEX
  8
0
 10
7.4333
 20
43.2628
  0
VERTEX
  8
0
 10
7.4525
 20
43.2632
  0
VERTEX
  8
0
 10
7.4776
 20
43.2656
  0
VERTEX
  8
0
 10
7.4776
 20
43.2656
  0
SEQEND
  0
POLYLINE
  8
0
 66
     1
 10
0
 20
0
  0
VERTEX
  8
0
 10
7.9694
 20
43.2487
  0
VERTEX
  8
0
 10
7.9173
 20
43.2113
  0
VERTEX
  8
0
 10
7.8632
 20
43.1846
  0
VERTEX
  8
0
 10
7.807
 20
43.1684
  0
VERTEX
  8
0
 10
7.7488
 20
43.1628
  0
VERTEX
  8
0
 10
7.669
 20
43.1726
  0
VERTEX
  8
0
 10
7.6055
 20
43.2032
  0
VERTEX
  8
0
 10
7.5716
 20
43.238
  0
VERTEX
  8
0
 10
7.5511
 20
43.2814
  0
VERTEX
  8
0
 10
7.544
 20
43.3336
  0
VERTEX
  8
0
 10
7.5483
 20
43.3751
  0
VERTEX
  8
0
 10
7.5617
 20
43.412
  0
VERTEX
  8
0
 10
7.5842
 20
43.4442
  0
VERTEX
  8
0
 10
7.6159
 20
43.4718
  0
VERTEX
  8
0
 10
7.6497
 20
43.4911
  0
VERTEX
  8
0
 10
7.689
 20
43.505
  0
VERTEX
  8
0
 10
7.7258
 20
43.5127
  0
VERTEX
  8
0
 10
7.779
 20
43.5202
  0
VERTEX
  8
0
 10
7.855
 20
43.5308
  0
VERTEX
  8
0
 10
7.9151
 20
43.5424
  0
VERTEX
  8
0
 10
7.9594
 20
43.555
  0
VERTEX
  8
0
 10
7.9595
 20
43.5726
  0
VERTEX
  8
0
 10
7.96
 20
43.5814
  0
VERTEX
  8
0
 10
7.9528
 20
43.6341
  0
VERTEX
  8
0
 10
7.9313
 20
43.6685
  0
VERTEX
  8
0
 10
7.8834
 20
43.6939
  0
VERTEX
  8
0
 10
7.8161
 20
43.7028
  0
VERTEX
  8
0
 10
7.7561
 20
43.6972
  0
VERTEX
  8
0
 10
7.7132
 20
43.6792
  0
VERTEX
  8
0
 10
7.682
 20
43.6442
  0
VERTEX
  8
0
 10
7.6604
 20
43.5895
  0
VERTEX
  8
0
 10
7.5615
 20
43.603
  0
VERTEX
  8
0
 10
7.5753
 20
43.6489
  0
VERTEX
  8
0
 10
7.5957
 20
43.6881
  0
VERTEX
  8
0
 10
7.6226
 20
43.7206
  0
VERTEX
  8
0
 10
7.656
 20
43.7463
  0
VERTEX
  8
0
 10
7.6958
 20
43.7654
  0
VERTEX
  8
0
 10
7.7584
 20
43.7812
  0
VERTEX
  8
0
 10
7.8319
 20
43.7868
  0
VERTEX
  8
0
 10
7.8851
 20
43.7844
  0
VERTEX
  8
0
 10
7.9312
 20
43.7768
  0
VERTEX
  8
0
 10
7.9703
 20
43.764
  0
VERTEX
  8
0
 10
8.0023
 20
43.7459
  0
VERTEX
  8
0
 10
8.0273
 20
43.7227
  0
VERTEX
  8
0
 10
8.0462
 20
43.6921
  0
VERTEX
  8
0
 10
8.0589
 20
43.6535
  0
VERTEX
  8
0
 10
8.0627
 20
43.6186
  0
VERTEX
  8
0
 10
8.064
 20
43.5593
  0
VERTEX
  8
0
 10
8.064
 20
43.4232
  0
VERTEX
  8
0
 10
8.064
 20
43.3788
  0
VERTEX
  8
0
 10
8.0641
 20
43.3437
  0
VERTEX
  8
0
 10
8.0642
 20
43.3178
  0
VERTEX
  8
0
 10
8.0643
 20
43.3012
  0
VERTEX
  8
0
 10
8.0645
 20
43.2938
  0
VERTEX
  8
0
 10
8.0746
 20
43.2256
  0
VERTEX
  8
0
 10
8.0958
 20
43.1708
  0
VERTEX
  8
0
 10
7.9897
 20
43.1708
  0
VERTEX
  8
0
 10
7.977
 20
43.2069
  0
VERTEX
  8
0
 10
7.9694
 20
43.2487
  0
VERTEX
  8
0
 10
7.9694
 20
43.2487
  0
SEQEND
  0
POLYLINE
  8
0
 66
     1
 10
0
 20
0
  0
VERTEX
  8
0
 10
7.96
 20
43.4755
  0
VERTEX
  8
0
 10
7.891
 20
43.4551
  0
VERTEX
  8
0
 10
7.7944
 20
43.4375
  0
VERTEX
  8
0
 10
7.751
 20
43.4305
  0
VERTEX
  8
0
 10
7.7235
 20
43.424
  0
VERTEX
  8
0
 10
7.6891
 20
43.4077
  0
VERTEX
  8
0
 10
7.666
 20
43.3843
  0
VERTEX
  8
0
 10
7.6558
 20
43.3621
  0
VERTEX
  8
0
 10
7.652
 20
43.3368
  0
VERTEX
  8
0
 10
7.6611
 20
43.2948
  0
VERTEX
  8
0
 10
7.6897
 20
43.264
  0
VERTEX
  8
0
 10
7.7267
 20
43.2481
  0
VERTEX
  8
0
 10
7.7725
 20
43.2428
  0
VERTEX
  8
0
 10
7.8121
 20
43.2454
  0
VERTEX
  8
0
 10
7.8473
 20
43.2534
  0
VERTEX
  8
0
 10
7.878
 20
43.2666
  0
VERTEX
  8
0
 10
7.9044
 20
43.2851
  0
VERTEX
  8
0
 10
7.9262
 20
43.3088
  0
VERTEX
  8
0
 10
7.9437
 20
43.3379
  0
VERTEX
  8
0
 10
7.9559
 20
43.3801
  0
VERTEX
  8
0
 10
7.96
 20
43.4386
  0
VERTEX
  8
0
 10
7.96
 20
43.4755
  0
SEQEND
  0
POLYLINE
  8
0
 66
     1
 10
0
 20
0
  0
VERTEX
  8
0
 10
8.216
 20
43.1708
  0
VERTEX
  8
0
 10
8.216
 20
43.774
  0
VERTEX
  8
0
 10
8.308
 20
43.774
  0
VERTEX
  8
0
 10
8.308
 20
43.6888
  0
VERTEX
  8
0
 10
8.3368
 20
43.7239
  0
VERTEX
  8
0
 10
8.3703
 20
43.7512
  0
VERTEX
  8
0
 10
8.4084
 20
43.7708
  0
VERTEX
  8
0
 10
8.4513
 20
43.7827
  0
VERTEX
  8
0
 10
8.4989
 20
43.7868
  0
VERTEX
  8
0
 10
8.55
 20
43.7818
  0
VERTEX
  8
0
 10
8.5983
 20
43.7669
  0
VERTEX
  8
0
 10
8.6349
 20
43.746
  0
VERTEX
  8
0
 10
8.6637
 20
43.718
  0
VERTEX
  8
0
 10
8.6849
 20
43.6828
  0
VERTEX
  8
0
 10
8.6983
 20
43.6405
  0
VERTEX
  8
0
 10
8.7026
 20
43.6023
  0
VERTEX
  8
0
 10
8.704
 20
43.5412
  0
VERTEX
  8
0
 10
8.704
 20
43.1708
  0
VERTEX
  8
0
 10
8.604
 20
43.1708
  0
VERTEX
  8
0
 10
8.604
 20
43.5375
  0
VERTEX
  8
0
 10
8.602
 20
43.5842
  0
VERTEX
  8
0
 10
8.596
 20
43.6176
  0
VERTEX
  8
0
 10
8.5785
 20
43.6536
  0
VERTEX
  8
0
 10
8.549
 20
43.68
  0
VERTEX
  8
0
 10
8.5159
 20
43.6941
  0
VERTEX
  8
0
 10
8.4774
 20
43.6988
  0
VERTEX
  8
0
 10
8.4516
 20
43.6974
  0
VERTEX
  8
0
 10
8.4281
 20
43.6933
  0
VERTEX
  8
0
 10
8.4068
 20
43.6864
  0
VERTEX
  8
0
 10
8.3877
 20
43.6767
  0
VERTEX
  8
0
 10
8.3709
 20
43.6643
  0
VERTEX
  8
0
 10
8.3563
 20
43.6491
  0
VERTEX
  8
0
 10
8.344
 20
43.6312
  0
VERTEX
  8
0
 10
8.3339
 20
43.6105
  0
VERTEX
  8
0
 10
8.3261
 20
43.587
  0
VERTEX
  8
0
 10
8.3205
 20
43.5608
  0
VERTEX
  8
0
 10
8.3171
 20
43.5318
  0
VERTEX
  8
0
 10
8.316
 20
43.5001
  0
VERTEX
  8
0
 10
8.316
 20
43.1708
  0
VERTEX
  8
0
 10
8.216
 20
43.1708
  0
SEQEND
  0
POLYLINE
  8
0
 66
     1
 10
0
 20
0
  0
VERTEX
  8
0
 10
8.8443
 20
43.1252
  0
VERTEX
  8
0
 10
8.943
 20
43.1103
  0
VERTEX
  8
0
 10
8.9544
 20
43.0708
  0
VERTEX
  8
0
 10
8.9774
 20
43.0432
  0
VERTEX
  8
0
 10
9.0218
 20
43.0222
  0
VERTEX
  8
0
 10
9.0807
 20
43.0148
  0
VERTEX
  8
0
 10
9.1163
 20
43.0168
  0
VERTEX
  8
0
 10
9.1477
 20
43.0233
  0
VERTEX
  8
0
 10
9.1748
 20
43.0343
  0
VERTEX
  8
0
 10
9.1978
 20
43.0497
  0
VERTEX
  8
0
 10
9.2166
 20
43.0695
  0
VERTEX
  8
0
 10
9.2311
 20
43.0937
  0
VERTEX
  8
0
 10
9.2415
 20
43.1224
  0
VERTEX
  8
0
 10
9.2455
 20
43.1493
  0
VERTEX
  8
0
 10
9.248
 20
43.1929
  0
VERTEX
  8
0
 10
9.2488
 20
43.2532
  0
VERTEX
  8
0
 10
9.2137
 20
43.2172
  0
VERTEX
  8
0
 10
9.1743
 20
43.1914
  0
VERTEX
  8
0
 10
9.1307
 20
43.1759
  0
VERTEX
  8
0
 10
9.0829
 20
43.1708
  0
VERTEX
  8
0
 10
9.0358
 20
43.1745
  0
VERTEX
  8
0
 10
8.9928
 20
43.1856
  0
VERTEX
  8
0
 10
8.954
 20
43.2041
  0
VERTEX
  8
0
 10
8.9193
 20
43.2299
  0
VERTEX
  8
0
 10
8.8888
 20
43.2632
  0
VERTEX
  8
0
 10
8.8528
 20
43.3244
  0
VERTEX
  8
0
 10
8.8312
 20
43.3951
  0
VERTEX
  8
0
 10
8.824
 20
43.4754
  0
VERTEX
  8
0
 10
8.8308
 20
43.5544
  0
VERTEX
  8
0
 10
8.8515
 20
43.6268
  0
VERTEX
  8
0
 10
8.8906
 20
43.6966
  0
VERTEX
  8
0
 10
8.944
 20
43.7471
  0
VERTEX
  8
0
 10
9.0077
 20
43.7766
  0
VERTEX
  8
0
 10
9.082
 20
43.7868
  0
VERTEX
  8
0
 10
9.1323
 20
43.7817
  0
VERTEX
  8
0
 10
9.178
 20
43.7658
  0
VERTEX
  8
0
 10
9.2192
 20
43.7392
  0
VERTEX
  8
0
 10
9.256
 20
43.7018
  0
VERTEX
  8
0
 10
9.256
 20
43.774
  0
VERTEX
  8
0
 10
9.352
 20
43.774
  0
VERTEX
  8
0
 10
9.352
 20
43.2555
  0
VERTEX
  8
0
 10
9.3501
 20
43.1874
  0
VERTEX
  8
0
 10
9.3444
 20
43.132
  0
VERTEX
  8
0
 10
9.335
 20
43.0895
  0
VERTEX
  8
0
 10
9.3124
 20
43.039
  0
VERTEX
  8
0
 10
9.2784
 20
42.9974
  0
VERTEX
  8
0
 10
9.233
 20
42.9647
  0
VERTEX
  8
0
 10
9.1646
 20
42.9393
  0
VERTEX
  8
0
 10
9.0812
 20
42.9308
  0
VERTEX
  8
0
 10
9.0163
 20
42.9356
  0
VERTEX
  8
0
 10
8.9609
 20
42.9502
  0
VERTEX
  8
0
 10
8.9148
 20
42.9744
  0
VERTEX
  8
0
 10
8.8833
 20
43.0027
  0
VERTEX
  8
0
 10
8.8611
 20
43.0373
  0
VERTEX
  8
0
 10
8.8481
 20
43.0781
  0
VERTEX
  8
0
 10
8.8443
 20
43.1252
  0
VERTEX
  8
0
 10
8.8443
 20
43.1252
  0
SEQEND
  0
POLYLINE
  8
0
 66
     1
 10
0
 20
0
  0
VERTEX
  8
0
 10
8.928
 20
43.4828
  0
VERTEX
  8
0
 10
8.9364
 20
43.3963
  0
VERTEX
  8
0
 10
8.9617
 20
43.3281
  0
VERTEX
  8
0
 10
8.9857
 20
43.296
  0
VERTEX
  8
0
 10
9.0153
 20
43.2731
  0
VERTEX
  8
0
 10
9.0506
 20
43.2594
  0
VERTEX
  8
0
 10
9.0917
 20
43.2548
  0
VERTEX
  8
0
 10
9.1323
 20
43.2593
  0
VERTEX
  8
0
 10
9.1674
 20
43.2727
  0
VERTEX
  8
0
 10
9.197
 20
43.2951
  0
VERTEX
  8
0
 10
9.2211
 20
43.3264
  0
VERTEX
  8
0
 10
9.2473
 20
43.3942
  0
VERTEX
  8
0
 10
9.256
 20
43.4793
  0
VERTEX
  8
0
 10
9.2467
 20
43.5623
  0
VERTEX
  8
0
 10
9.2188
 20
43.6306
  0
VERTEX
  8
0
 10
9.1939
 20
43.6622
  0
VERTEX
  8
0
 10
9.1641
 20
43.6847
  0
VERTEX
  8
0
 10
9.1295
 20
43.6983
  0
VERTEX
  8
0
 10
9.09
 20
43.7028
  0
VERTEX
  8
0
 10
9.0511
 20
43.6983
  0
VERTEX
  8
0
 10
9.0171
 20
43.6849
  0
VERTEX
  8
0
 10
8.9881
 20
43.6625
  0
VERTEX
  8
0
 10
8.964
 20
43.6312
  0
VERTEX
  8
0
 10
8.937
 20
43.5642
  0
VERTEX
  8
0
 10
8.928
 20
43.4828
  0
VERTEX
  8
0
 10
8.928
 20
43.4828
  0
SEQEND
  0
POLYLINE
  8
0
 66
     1
 10
0
 20
0
  0
VERTEX
  8
0
 10
9.5
 20
43.1708
  0
VERTEX
  8
0
 10
9.5
 20
44.0028
  0
VERTEX
  8
0
 10
9.6
 20
44.0028
  0
VERTEX
  8
0
 10
9.6
 20
43.1708
  0
VERTEX
  8
0
 10
9.5
 20
43.1708
  0
SEQEND
  0
POLYLINE
  8
0
 66
     1
 10
0
 20
0
  0
VERTEX
  8
0
 10
10.1638
 20
43.3677
  0
VERTEX
  8
0
 10
10.269
 20
43.3548
  0
VERTEX
  8
0
 10
10.2592
 20
43.3242
  0
VERTEX
  8
0
 10
10.2472
 20
43.2962
  0
VERTEX
  8
0
 10
10.233
 20
43.2708
  0
VERTEX
  8
0
 10
10.2166
 20
43.2481
  0
VERTEX
  8
0
 10
10.198
 20
43.2281
  0
VERTEX
  8
0
 10
10.1771
 20
43.2108
  0
VERTEX
  8
0
 10
10.1541
 20
43.1961
  0
VERTEX
  8
0
 10
10.1288
 20
43.1841
  0
VERTEX
  8
0
 10
10.1013
 20
43.1748
  0
VERTEX
  8
0
 10
10.0716
 20
43.1681
  0
VERTEX
  8
0
 10
10.0396
 20
43.1641
  0
VERTEX
  8
0
 10
10.0055
 20
43.1628
  0
VERTEX
  8
0
 10
9.9429
 20
43.1678
  0
VERTEX
  8
0
 10
9.8873
 20
43.1829
  0
VERTEX
  8
0
 10
9.8385
 20
43.208
  0
VERTEX
  8
0
 10
9.7967
 20
43.2432
  0
VERTEX
  8
0
 10
9.7691
 20
43.2779
  0
VERTEX
  8
0
 10
9.7476
 20
43.318
  0
VERTEX
  8
0
 10
9.7322
 20
43.3633
  0
VERTEX
  8
0
 10
9.723
 20
43.4139
  0
VERTEX
  8
0
 10
9.72
 20
43.4697
  0
VERTEX
  8
0
 10
9.7243
 20
43.5358
  0
VERTEX
  8
0
 10
9.7372
 20
43.5952
  0
VERTEX
  8
0
 10
9.7587
 20
43.648
  0
VERTEX
  8
0
 10
9.7888
 20
43.694
  0
VERTEX
  8
0
 10
9.8214
 20
43.7274
  0
VERTEX
  8
0
 10
9.8589
 20
43.7534
  0
VERTEX
  8
0
 10
9.9011
 20
43.7719
  0
VERTEX
  8
0
 10
9.9481
 20
43.7831
  0
VERTEX
  8
0
 10
9.9998
 20
43.7868
  0
VERTEX
  8
0
 10
10.0503
 20
43.7831
  0
VERTEX
  8
0
 10
10.0961
 20
43.772
  0
VERTEX
  8
0
 10
10.1371
 20
43.7536
  0
VERTEX
  8
0
 10
10.1735
 20
43.7278
  0
VERTEX
  8
0
 10
10.2052
 20
43.6946
  0
VERTEX
  8
0
 10
10.2346
 20
43.649
  0
VERTEX
  8
0
 10
10.2556
 20
43.597
  0
VERTEX
  8
0
 10
10.2681
 20
43.5386
  0
VERTEX
  8
0
 10
10.2723
 20
43.4739
  0
VERTEX
  8
0
 10
10.2722
 20
43.4598
  0
VERTEX
  8
0
 10
10.2718
 20
43.4468
  0
VERTEX
  8
0
 10
9.824
 20
43.4468
  0
VERTEX
  8
0
 10
9.8382
 20
43.3689
  0
VERTEX
  8
0
 10
9.872
 20
43.3072
  0
VERTEX
  8
0
 10
9.9087
 20
43.2736
  0
VERTEX
  8
0
 10
9.9532
 20
43.2535
  0
VERTEX
  8
0
 10
10.0055
 20
43.2468
  0
VERTEX
  8
0
 10
10.0414
 20
43.2501
  0
VERTEX
  8
0
 10
10.0736
 20
43.2602
  0
VERTEX
  8
0
 10
10.1019
 20
43.277
  0
VERTEX
  8
0
 10
10.1264
 20
43.3005
  0
VERTEX
  8
0
 10
10.147
 20
43.3308
  0
VERTEX
  8
0
 10
10.1638
 20
43.3677
  0
VERTEX
  8
0
 10
10.1638
 20
43.3677
  0
SEQEND
  0
POLYLINE
  8
0
 66
     1
 10
0
 20
0
  0
VERTEX
  8
0
 10
9.8305
 20
43.5308
  0
VERTEX
  8
0
 10
10.1652
 20
43.5308
  0
VERTEX
  8
0
 10
10.1522
 20
43.5969
  0
VERTEX
  8
0
 10
10.1268
 20
43.6442
  0
VERTEX
  8
0
 10
10.0912
 20
43.6765
  0
VERTEX
  8
0
 10
10.0493
 20
43.696
  0
VERTEX
  8
0
 10
10.001
 20
43.7028
  0
VERTEX
  8
0
 10
9.9338
 20
43.6907
  0
VERTEX
  8
0
 10
9.8802
 20
43.6532
  0
VERTEX
  8
0
 10
9.8455
 20
43.5989
  0
VERTEX
  8
0
 10
9.8305
 20
43.5308
  0
VERTEX
  8
0
 10
9.8305
 20
43.5308
  0
SEQEND
  0
POLYLINE
  8
0
 66
     1
 10
0
 20
0
  0
VERTEX
  8
0
 10
11.292
 20
43.1708
  0
VERTEX
  8
0
 10
11.192
 20
43.1708
  0
VERTEX
  8
0
 10
11.192
 20
43.8219
  0
VERTEX
  8
0
 10
11.1008
 20
43.7532
  0
VERTEX
  8
0
 10
10.988
 20
43.6995
  0
VERTEX
  8
0
 10
10.988
 20
43.7982
  0
VERTEX
  8
0
 10
11.0437
 20
43.8271
  0
VERTEX
  8
0
 10
11.093
 20
43.8584
  0
VERTEX
  8
0
 10
11.136
 20
43.892
  0
VERTEX
  8
0
 10
11.1726
 20
43.9279
  0
VERTEX
  8
0
 10
11.2028
 20
43.9662
  0
VERTEX
  8
0
 10
11.2267
 20
44.0068
  0
VERTEX
  8
0
 10
11.292
 20
44.0068
  0
VERTEX
  8
0
 10
11.292
 20
43.1708
  0
SEQEND
  0
POLYLINE
  8
0
 66
     1
 10
0
 20
0
  0
VERTEX
  8
0
 10
11.548
 20
43.5825
  0
VERTEX
  8
0
 10
11.5492
 20
43.6361
  0
VERTEX
  8
0
 10
11.5528
 20
43.6862
  0
VERTEX
  8
0
 10
11.5587
 20
43.7326
  0
VERTEX
  8
0
 10
11.5671
 20
43.7756
  0
VERTEX
  8
0
 10
11.5779
 20
43.8149
  0
VERTEX
  8
0
 10
11.5911
 20
43.8507
  0
VERTEX
  8
0
 10
11.6066
 20
43.8829
  0
VERTEX
  8
0
 10
11.6246
 20
43.9115
  0
VERTEX
  8
0
 10
11.645
 20
43.9366
  0
VERTEX
  8
0
 10
11.6677
 20
43.9581
  0
VERTEX
  8
0
 10
11.7347
 20
43.9943
  0
VERTEX
  8
0
 10
11.818
 20
44.0068
  0
VERTEX
  8
0
 10
11.8797
 20
44.0003
  0
VERTEX
  8
0
 10
11.9349
 20
43.9796
  0
VERTEX
  8
0
 10
11.9706
 20
43.9554
  0
VERTEX
  8
0
 10
12.002
 20
43.9232
  0
VERTEX
  8
0
 10
12.0288
 20
43.883
  0
VERTEX
  8
0
 10
12.0513
 20
43.8347
  0
VERTEX
  8
0
 10
12.0693
 20
43.7785
  0
VERTEX
  8
0
 10
12.0833
 20
43.6938
  0
VERTEX
  8
0
 10
12.088
 20
43.5825
  0
VERTEX
  8
0
 10
12.0868
 20
43.529
  0
VERTEX
  8
0
 10
12.0832
 20
43.479
  0
VERTEX
  8
0
 10
12.0772
 20
43.4326
  0
VERTEX
  8
0
 10
12.0688
 20
43.3898
  0
VERTEX
  8
0
 10
12.058
 20
43.3505
  0
VERTEX
  8
0
 10
12.0449
 20
43.3148
  0
VERTEX
  8
0
 10
12.0293
 20
43.2826
  0
VERTEX
  8
0
 10
12.0113
 20
43.254
  0
VERTEX
  8
0
 10
11.991
 20
43.229
  0
VERTEX
  8
0
 10
11.9682
 20
43.2075
  0
VERTEX
  8
0
 10
11.9013
 20
43.1712
  0
VERTEX
  8
0
 10
11.818
 20
43.1588
  0
VERTEX
  8
0
 10
11.7968
 20
43.1594
  0
VERTEX
  8
0
 10
11.7766
 20
43.1613
  0
VERTEX
  8
0
 10
11.7572
 20
43.1647
  0
VERTEX
  8
0
 10
11.7386
 20
43.1693
  0
VERTEX
  8
0
 10
11.7209
 20
43.1754
  0
VERTEX
  8
0
 10
11.7041
 20
43.1828
  0
VERTEX
  8
0
 10
11.6882
 20
43.1916
  0
VERTEX
  8
0
 10
11.6731
 20
43.2017
  0
VERTEX
  8
0
 10
11.6588
 20
43.2132
  0
VERTEX
  8
0
 10
11.6454
 20
43.226
  0
VERTEX
  8
0
 10
11.6329
 20
43.2403
  0
VERTEX
  8
0
 10
11.6213
 20
43.2558
  0
VERTEX
  8
0
 10
11.6105
 20
43.2728
  0
VERTEX
  8
0
 10
11.6005
 20
43.2911
  0
VERTEX
  8
0
 10
11.5914
 20
43.3108
  0
VERTEX
  8
0
 10
11.5832
 20
43.3318
  0
VERTEX
  8
0
 10
11.5759
 20
43.3542
  0
VERTEX
  8
0
 10
11.5694
 20
43.378
  0
VERTEX
  8
0
 10
11.5637
 20
43.4031
  0
VERTEX
  8
0
 10
11.5589
 20
43.4296
  0
VERTEX
  8
0
 10
11.555
 20
43.4574
  0
VERTEX
  8
0
 10
11.552
 20
43.4867
  0
VERTEX
  8
0
 10
11.5498
 20
43.5172
  0
VERTEX
  8
0
 10
11.5484
 20
43.5492
  0
VERTEX
  8
0
 10
11.548
 20
43.5825
  0
VERTEX
  8
0
 10
11.548
 20
43.5825
  0
SEQEND
  0
POLYLINE
  8
0
 66
     1
 10
0
 20
0
  0
VERTEX
  8
0
 10
11.652
 20
43.5828
  0
VERTEX
  8
0
 10
11.6544
 20
43.4975
  0
VERTEX
  8
0
 10
11.6618
 20
43.4269
  0
VERTEX
  8
0
 10
11.6741
 20
43.3708
  0
VERTEX
  8
0
 10
11.6863
 20
43.337
  0
VERTEX
  8
0
 10
11.7013
 20
43.3084
  0
VERTEX
  8
0
 10
11.7191
 20
43.2849
  0
VERTEX
  8
0
 10
11.7397
 20
43.2666
  0
VERTEX
  8
0
 10
11.763
 20
43.2535
  0
VERTEX
  8
0
 10
11.7891
 20
43.2455
  0
VERTEX
  8
0
 10
11.818
 20
43.2428
  0
VERTEX
  8
0
 10
11.835
 20
43.2436
  0
VERTEX
  8
0
 10
11.8511
 20
43.2463
  0
VERTEX
  8
0
 10
11.8663
 20
43.251
  0
VERTEX
  8
0
 10
11.8805
 20
43.2575
  0
VERTEX
  8
0
 10
11.8938
 20
43.2659
  0
VERTEX
  8
0
 10
11.9063
 20
43.2762
  0
VERTEX
  8
0
 10
11.9178
 20
43.2884
  0
VERTEX
  8
0
 10
11.9283
 20
43.3025
  0
VERTEX
  8
0
 10
11.938
 20
43.3185
  0
VERTEX
  8
0
 10
11.9467
 20
43.3364
  0
VERTEX
  8
0
 10
11.9545
 20
43.3562
  0
VERTEX
  8
0
 10
11.9614
 20
43.3779
  0
VERTEX
  8
0
 10
11.9674
 20
43.4015
  0
VERTEX
  8
0
 10
11.9725
 20
43.4269
  0
VERTEX
  8
0
 10
11.9766
 20
43.4543
  0
VERTEX
  8
0
 10
11.9798
 20
43.4836
  0
VERTEX
  8
0
 10
11.9821
 20
43.5148
  0
VERTEX
  8
0
 10
11.9835
 20
43.5478
  0
VERTEX
  8
0
 10
11.984
 20
43.5828
  0
VERTEX
  8
0
 10
11.9815
 20
43.668
  0
VERTEX
  8
0
 10
11.9741
 20
43.7387
  0
VERTEX
  8
0
 10
11.9618
 20
43.7947
  0
VERTEX
  8
0
 10
11.9495
 20
43.8286
  0
VERTEX
  8
0
 10
11.9343
 20
43.8572
  0
VERTEX
  8
0
 10
11.9164
 20
43.8807
  0
VERTEX
  8
0
 10
11.8956
 20
43.899
  0
VERTEX
  8
0
 10
11.8722
 20
43.9121
  0
VERTEX
  8
0
 10
11.8459
 20
43.92
  0
VERTEX
  8
0
 10
11.8168
 20
43.9228
  0
VERTEX
  8
0
 10
11.7732
 20
43.9164
  0
VERTEX
  8
0
 10
11.7358
 20
43.8966
  0
VERTEX
  8
0
 10
11.7047
 20
43.8633
  0
VERTEX
  8
0
 10
11.6907
 20
43.8392
  0
VERTEX
  8
0
 10
11.6789
 20
43.8099
  0
VERTEX
  8
0
 10
11.6692
 20
43.7751
  0
VERTEX
  8
0
 10
11.6616
 20
43.7351
  0
VERTEX
  8
0
 10
11.6563
 20
43.6896
  0
VERTEX
  8
0
 10
11.653
 20
43.6389
  0
VERTEX
  8
0
 10
11.652
 20
43.5828
  0
VERTEX
  8
0
 10
11.652
 20
43.5828
  0
SEQEND
  0
POLYLINE
  8
0
 66
     1
 10
0
 20
0
  0
VERTEX
  8
0
 10
12.244
 20
43.1708
  0
VERTEX
  8
0
 10
12.244
 20
43.2908
  0
VERTEX
  8
0
 10
12.36
 20
43.2908
  0
VERTEX
  8
0
 10
12.36
 20
43.1708
  0
VERTEX
  8
0
 10
12.244
 20
43.1708
  0
SEQEND
  0
POLYLINE
  8
0
 66
     1
 10
0
 20
0
  0
VERTEX
  8
0
 10
12.512
 20
43.5825
  0
VERTEX
  8
0
 10
12.5132
 20
43.6361
  0
VERTEX
  8
0
 10
12.5168
 20
43.6862
  0
VERTEX
  8
0
 10
12.5227
 20
43.7326
  0
VERTEX
  8
0
 10
12.5311
 20
43.7756
  0
VERTEX
  8
0
 10
12.5419
 20
43.8149
  0
VERTEX
  8
0
 10
12.5551
 20
43.8507
  0
VERTEX
  8
0
 10
12.5706
 20
43.8829
  0
VERTEX
  8
0
 10
12.5886
 20
43.9115
  0
VERTEX
  8
0
 10
12.609
 20
43.9366
  0
VERTEX
  8
0
 10
12.6317
 20
43.9581
  0
VERTEX
  8
0
 10
12.6987
 20
43.9943
  0
VERTEX
  8
0
 10
12.782
 20
44.0068
  0
VERTEX
  8
0
 10
12.8437
 20
44.0003
  0
VERTEX
  8
0
 10
12.8989
 20
43.9796
  0
VERTEX
  8
0
 10
12.9346
 20
43.9554
  0
VERTEX
  8
0
 10
12.966
 20
43.9232
  0
VERTEX
  8
0
 10
12.9928
 20
43.883
  0
VERTEX
  8
0
 10
13.0153
 20
43.8347
  0
VERTEX
  8
0
 10
13.0333
 20
43.7785
  0
VERTEX
  8
0
 10
13.0473
 20
43.6938
  0
VERTEX
  8
0
 10
13.052
 20
43.5825
  0
VERTEX
  8
0
 10
13.0508
 20
43.529
  0
VERTEX
  8
0
 10
13.0472
 20
43.479
  0
VERTEX
  8
0
 10
13.0412
 20
43.4326
  0
VERTEX
  8
0
 10
13.0328
 20
43.3898
  0
VERTEX
  8
0
 10
13.022
 20
43.3505
  0
VERTEX
  8
0
 10
13.0089
 20
43.3148
  0
VERTEX
  8
0
 10
12.9933
 20
43.2826
  0
VERTEX
  8
0
 10
12.9753
 20
43.254
  0
VERTEX
  8
0
 10
12.955
 20
43.229
  0
VERTEX
  8
0
 10
12.9322
 20
43.2075
  0
VERTEX
  8
0
 10
12.8653
 20
43.1712
  0
VERTEX
  8
0
 10
12.782
 20
43.1588
  0
VERTEX
  8
0
 10
12.7608
 20
43.1594
  0
VERTEX
  8
0
 10
12.7406
 20
43.1613
  0
VERTEX
  8
0
 10
12.7212
 20
43.1647
  0
VERTEX
  8
0
 10
12.7026
 20
43.1693
  0
VERTEX
  8
0
 10
12.6849
 20
43.1754
  0
VERTEX
  8
0
 10
12.6681
 20
43.1828
  0
VERTEX
  8
0
 10
12.6522
 20
43.1916
  0
VERTEX
  8
0
 10
12.6371
 20
43.2017
  0
VERTEX
  8
0
 10
12.6228
 20
43.2132
  0
VERTEX
  8
0
 10
12.6094
 20
43.226
  0
VERTEX
  8
0
 10
12.5969
 20
43.2403
  0
VERTEX
  8
0
 10
12.5853
 20
43.2558
  0
VERTEX
  8
0
 10
12.5745
 20
43.2728
  0
VERTEX
  8
0
 10
12.5645
 20
43.2911
  0
VERTEX
  8
0
 10
12.5554
 20
43.3108
  0
VERTEX
  8
0
 10
12.5472
 20
43.3318
  0
VERTEX
  8
0
 10
12.5399
 20
43.3542
  0
VERTEX
  8
0
 10
12.5334
 20
43.378
  0
VERTEX
  8
0
 10
12.5277
 20
43.4031
  0
VERTEX
  8
0
 10
12.5229
 20
43.4296
  0
VERTEX
  8
0
 10
12.519
 20
43.4574
  0
VERTEX
  8
0
 10
12.516
 20
43.4867
  0
VERTEX
  8
0
 10
12.5138
 20
43.5172
  0
VERTEX
  8
0
 10
12.5124
 20
43.5492
  0
VERTEX
  8
0
 10
12.512
 20
43.5825
  0
VERTEX
  8
0
 10
12.512
 20
43.5825
  0
SEQEND
  0
POLYLINE
  8
0
 66
     1
 10
0
 20
0
  0
VERTEX
  8
0
 10
12.616
 20
43.5828
  0
VERTEX
  8
0
 10
12.6184
 20
43.4975
  0
VERTEX
  8
0
 10
12.6258
 20
43.4269
  0
VERTEX
  8
0
 10
12.6381
 20
43.3708
  0
VERTEX
  8
0
 10
12.6503
 20
43.337
  0
VERTEX
  8
0
 10
12.6653
 20
43.3084
  0
VERTEX
  8
0
 10
12.6831
 20
43.2849
  0
VERTEX
  8
0
 10
12.7037
 20
43.2666
  0
VERTEX
  8
0
 10
12.727
 20
43.2535
  0
VERTEX
  8
0
 10
12.7531
 20
43.2455
  0
VERTEX
  8
0
 10
12.782
 20
43.2428
  0
VERTEX
  8
0
 10
12.799
 20
43.2436
  0
VERTEX
  8
0
 10
12.8151
 20
43.2463
  0
VERTEX
  8
0
 10
12.8303
 20
43.251
  0
VERTEX
  8
0
 10
12.8445
 20
43.2575
  0
VERTEX
  8
0
 10
12.8578
 20
43.2659
  0
VERTEX
  8
0
 10
12.8703
 20
43.2762
  0
VERTEX
  8
0
 10
12.8818
 20
43.2884
  0
VERTEX
  8
0
 10
12.8923
 20
43.3025
  0
VERTEX
  8
0
 10
12.902
 20
43.3185
  0
VERTEX
  8
0
 10
12.9107
 20
43.3364
  0
VERTEX
  8
0
 10
12.9185
 20
43.3562
  0
VERTEX
  8
0
 10
12.9254
 20
43.3779
  0
VERTEX
  8
0
 10
12.9314
 20
43.4015
  0
VERTEX
  8
0
 10
12.9365
 20
43.4269
  0
VERTEX
  8
0
 10
12.9406
 20
43.4543
  0
VERTEX
  8
0
 10
12.9438
 20
43.4836
  0
VERTEX
  8
0
 10
12.9461
 20
43.5148
  0
VERTEX
  8
0
 10
12.9475
 20
43.5478
  0
VERTEX
  8
0
 10
12.948
 20
43.5828
  0
VERTEX
  8
0
 10
12.9455
 20
43.668
  0
VERTEX
  8
0
 10
12.9381
 20
43.7387
  0
VERTEX
  8
0
 10
12.9258
 20
43.7947
  0
VERTEX
  8
0
 10
12.9135
 20
43.8286
  0
VERTEX
  8
0
 10
12.8983
 20
43.8572
  0
VERTEX
  8
0
 10
12.8804
 20
43.8807
  0
VERTEX
  8
0
 10
12.8596
 20
43.899
  0
VERTEX
  8
0
 10
12.8362
 20
43.9121
  0
VERTEX
  8
0
 10
12.8099
 20
43.92
  0
VERTEX
  8
0
 10
12.7808
 20
43.9228
  0
VERTEX
  8
0
 10
12.7372
 20
43.9164
  0
VERTEX
  8
0
 10
12.6998
 20
43.8966
  0
VERTEX
  8
0
 10
12.6687
 20
43.8633
  0
VERTEX
  8
0
 10
12.6547
 20
43.8392
  0
VERTEX
  8
0
 10
12.6429
 20
43.8099
  0
VERTEX
  8
0
 10
12.6332
 20
43.7751
  0
VERTEX
  8
0
 10
12.6256
 20
43.7351
  0
VERTEX
  8
0
 10
12.6203
 20
43.6896
  0
VERTEX
  8
0
 10
12.617
 20
43.6389
  0
VERTEX
  8
0
 10
12.616
 20
43.5828
  0
VERTEX
  8
0
 10
12.616
 20
43.5828
  0
SEQEND
  0
POLYLINE
  8
0
 66
     1
 10
0
 20
0
  0
VERTEX
  8
0
 10
13.152
 20
43.5825
  0
VERTEX
  8
0
 10
13.1532
 20
43.6361
  0
VERTEX
  8
0
 10
13.1568
 20
43.6862
  0
VERTEX
  8
0
 10
13.1627
 20
43.7326
  0
VERTEX
  8
0
 10
13.1711
 20
43.7756
  0
VERTEX
  8
0
 10
13.1819
 20
43.8149
  0
VERTEX
  8
0
 10
13.1951
 20
43.8507
  0
VERTEX
  8
0
 10
13.2106
 20
43.8829
  0
VERTEX
  8
0
 10
13.2286
 20
43.9115
  0
VERTEX
  8
0
 10
13.249
 20
43.9366
  0
VERTEX
  8
0
 10
13.2717
 20
43.9581
  0
VERTEX
  8
0
 10
13.3387
 20
43.9943
  0
VERTEX
  8
0
 10
13.422
 20
44.0068
  0
VERTEX
  8
0
 10
13.4837
 20
44.0003
  0
VERTEX
  8
0
 10
13.5389
 20
43.9796
  0
VERTEX
  8
0
 10
13.5746
 20
43.9554
  0
VERTEX
  8
0
 10
13.606
 20
43.9232
  0
VERTEX
  8
0
 10
13.6328
 20
43.883
  0
VERTEX
  8
0
 10
13.6553
 20
43.8347
  0
VERTEX
  8
0
 10
13.6733
 20
43.7785
  0
VERTEX
  8
0
 10
13.6873
 20
43.6938
  0
VERTEX
  8
0
 10
13.692
 20
43.5825
  0
VERTEX
  8
0
 10
13.6908
 20
43.529
  0
VERTEX
  8
0
 10
13.6872
 20
43.479
  0
VERTEX
  8
0
 10
13.6812
 20
43.4326
  0
VERTEX
  8
0
 10
13.6728
 20
43.3898
  0
VERTEX
  8
0
 10
13.662
 20
43.3505
  0
VERTEX
  8
0
 10
13.6489
 20
43.3148
  0
VERTEX
  8
0
 10
13.6333
 20
43.2826
  0
VERTEX
  8
0
 10
13.6153
 20
43.254
  0
VERTEX
  8
0
 10
13.595
 20
43.229
  0
VERTEX
  8
0
 10
13.5722
 20
43.2075
  0
VERTEX
  8
0
 10
13.5053
 20
43.1712
  0
VERTEX
  8
0
 10
13.422
 20
43.1588
  0
VERTEX
  8
0
 10
13.4008
 20
43.1594
  0
VERTEX
  8
0
 10
13.3806
 20
43.1613
  0
VERTEX
  8
0
 10
13.3612
 20
43.1647
  0
VERTEX
  8
0
 10
13.3426
 20
43.1693
  0
VERTEX
  8
0
 10
13.3249
 20
43.1754
  0
VERTEX
  8
0
 10
13.3081
 20
43.1828
  0
VERTEX
  8
0
 10
13.2922
 20
43.1916
  0
VERTEX
  8
0
 10
13.2771
 20
43.2017
  0
VERTEX
  8
0
 10
13.2628
 20
43.2132
  0
VERTEX
  8
0
 10
13.2494
 20
43.226
  0
VERTEX
  8
0
 10
13.2369
 20
43.2403
  0
VERTEX
  8
0
 10
13.2253
 20
43.2558
  0
VERTEX
  8
0
 10
13.2145
 20
43.2728
  0
VERTEX
  8
0
 10
13.2045
 20
43.2911
  0
VERTEX
  8
0
 10
13.1954
 20
43.3108
  0
VERTEX
  8
0
 10
13.1872
 20
43.3318
  0
VERTEX
  8
0
 10
13.1799
 20
43.3542
  0
VERTEX
  8
0
 10
13.1734
 20
43.378
  0
VERTEX
  8
0
 10
13.1677
 20
43.4031
  0
VERTEX
  8
0
 10
13.1629
 20
43.4296
  0
VERTEX
  8
0
 10
13.159
 20
43.4574
  0
VERTEX
  8
0
 10
13.156
 20
43.4867
  0
VERTEX
  8
0
 10
13.1538
 20
43.5172
  0
VERTEX
  8
0
 10
13.1524
 20
43.5492
  0
VERTEX
  8
0
 10
13.152
 20
43.5825
  0
VERTEX
  8
0
 10
13.152
 20
43.5825
  0
SEQEND
  0
POLYLINE
  8
0
 66
     1
 10
0
 20
0
  0
VERTEX
  8
0
 10
13.256
 20
43.5828
  0
VERTEX
  8
0
 10
13.2584
 20
43.4975
  0
VERTEX
  8
0
 10
13.2658
 20
43.4269
  0
VERTEX
  8
0
 10
13.2781
 20
43.3708
  0
VERTEX
  8
0
 10
13.2903
 20
43.337
  0
VERTEX
  8
0
 10
13.3053
 20
43.3084
  0
VERTEX
  8
0
 10
13.3231
 20
43.2849
  0
VERTEX
  8
0
 10
13.3437
 20
43.2666
  0
VERTEX
  8
0
 10
13.367
 20
43.2535
  0
VERTEX
  8
0
 10
13.3931
 20
43.2455
  0
VERTEX
  8
0
 10
13.422
 20
43.2428
  0
VERTEX
  8
0
 10
13.439
 20
43.2436
  0
VERTEX
  8
0
 10
13.4551
 20
43.2463
  0
VERTEX
  8
0
 10
13.4703
 20
43.251
  0
VERTEX
  8
0
 10
13.4845
 20
43.2575
  0
VERTEX
  8
0
 10
13.4978
 20
43.2659
  0
VERTEX
  8
0
 10
13.5103
 20
43.2762
  0
VERTEX
  8
0
 10
13.5218
 20
43.2884
  0
VERTEX
  8
0
 10
13.5323
 20
43.3025
  0
VERTEX
  8
0
 10
13.542
 20
43.3185
  0
VERTEX
  8
0
 10
13.5507
 20
43.3364
  0
VERTEX
  8
0
 10
13.5585
 20
43.3562
  0
VERTEX
  8
0
 10
13.5654
 20
43.3779
  0
VERTEX
  8
0
 10
13.5714
 20
43.4015
  0
VERTEX
  8
0
 10
13.5765
 20
43.4269
  0
VERTEX
  8
0
 10
13.5806
 20
43.4543
  0
VERTEX
  8
0
 10
13.5838
 20
43.4836
  0
VERTEX
  8
0
 10
13.5861
 20
43.5148
  0
VERTEX
  8
0
 10
13.5875
 20
43.5478
  0
VERTEX
  8
0
 10
13.588
 20
43.5828
  0
VERTEX
  8
0
 10
13.5855
 20
43.668
  0
VERTEX
  8
0
 10
13.5781
 20
43.7387
  0
VERTEX
  8
0
 10
13.5658
 20
43.7947
  0
VERTEX
  8
0
 10
13.5535
 20
43.8286
  0
VERTEX
  8
0
 10
13.5383
 20
43.8572
  0
VERTEX
  8
0
 10
13.5204
 20
43.8807
  0
VERTEX
  8
0
 10
13.4996
 20
43.899
  0
VERTEX
  8
0
 10
13.4762
 20
43.9121
  0
VERTEX
  8
0
 10
13.4499
 20
43.92
  0
VERTEX
  8
0
 10
13.4208
 20
43.9228
  0
VERTEX
  8
0
 10
13.3772
 20
43.9164
  0
VERTEX
  8
0
 10
13.3398
 20
43.8966
  0
VERTEX
  8
0
 10
13.3087
 20
43.8633
  0
VERTEX
  8
0
 10
13.2947
 20
43.8392
  0
VERTEX
  8
0
 10
13.2829
 20
43.8099
  0
VERTEX
  8
0
 10
13.2732
 20
43.7751
  0
VERTEX
  8
0
 10
13.2656
 20
43.7351
  0
VERTEX
  8
0
 10
13.2603
 20
43.6896
  0
VERTEX
  8
0
 10
13.257
 20
43.6389
  0
VERTEX
  8
0
 10
13.256
 20
43.5828
  0
VERTEX
  8
0
 10
13.256
 20
43.5828
  0
SEQEND
  0
POLYLINE
  8
0
 66
     1
 10
0
 20
0
  0
VERTEX
  8
0
 10
13.8243
 20
43.7108
  0
VERTEX
  8
0
 10
13.796
 20
43.8678
  0
VERTEX
  8
0
 10
13.796
 20
44.0028
  0
VERTEX
  8
0
 10
13.912
 20
44.0028
  0
VERTEX
  8
0
 10
13.912
 20
43.8678
  0
VERTEX
  8
0
 10
13.8865
 20
43.7108
  0
VERTEX
  8
0
 10
13.8243
 20
43.7108
  0
SEQEND
  0
POLYLINE
  8
0
 66
     1
 10
0
 20
0
  0
VERTEX
  8
0
 10
14.0117
 20
43.7108
  0
VERTEX
  8
0
 10
13.984
 20
43.8678
  0
VERTEX
  8
0
 10
13.984
 20
44.0028
  0
VERTEX
  8
0
 10
14.1
 20
44.0028
  0
VERTEX
  8
0
 10
14.1
 20
43.8678
  0
VERTEX
  8
0
 10
14.0728
 20
43.7108
  0
VERTEX
  8
0
 10
14.0117
 20
43.7108
  0
SEQEND
  0
POLYLINE
  8
0
 66
     1
 10
0
 20
0
  0
VERTEX
  8
0
 10
14.776
 20
43.1708
  0
VERTEX
  8
0
 10
14.776
 20
44.0028
  0
VERTEX
  8
0
 10
15.142
 20
44.0028
  0
VERTEX
  8
0
 10
15.2258
 20
43.999
  0
VERTEX
  8
0
 10
15.2878
 20
43.9875
  0
VERTEX
  8
0
 10
15.354
 20
43.9546
  0
VERTEX
  8
0
 10
15.4016
 20
43.9012
  0
VERTEX
  8
0
 10
15.4271
 20
43.8418
  0
VERTEX
  8
0
 10
15.436
 20
43.7758
  0
VERTEX
  8
0
 10
15.4349
 20
43.749
  0
VERTEX
  8
0
 10
15.4315
 20
43.7239
  0
VERTEX
  8
0
 10
15.4257
 20
43.7004
  0
VERTEX
  8
0
 10
15.4175
 20
43.6785
  0
VERTEX
  8
0
 10
15.407
 20
43.6583
  0
VERTEX
  8
0
 10
15.394
 20
43.6397
  0
VERTEX
  8
0
 10
15.3786
 20
43.6227
  0
VERTEX
  8
0
 10
15.3609
 20
43.6073
  0
VERTEX
  8
0
 10
15.3407
 20
43.5936
  0
VERTEX
  8
0
 10
15.3182
 20
43.5815
  0
VERTEX
  8
0
 10
15.2933
 20
43.571
  0
VERTEX
  8
0
 10
15.266
 20
43.5622
  0
VERTEX
  8
0
 10
15.2363
 20
43.5549
  0
VERTEX
  8
0
 10
15.2042
 20
43.5493
  0
VERTEX
  8
0
 10
15.2427
 20
43.5285
  0
VERTEX
  8
0
 10
15.2702
 20
43.5079
  0
VERTEX
  8
0
 10
15.3181
 20
43.4567
  0
VERTEX
  8
0
 10
15.3611
 20
43.3972
  0
VERTEX
  8
0
 10
15.505
 20
43.1708
  0
VERTEX
  8
0
 10
15.368
 20
43.1708
  0
VERTEX
  8
0
 10
15.2575
 20
43.3467
  0
VERTEX
  8
0
 10
15.2233
 20
43.3992
  0
VERTEX
  8
0
 10
15.1964
 20
43.4379
  0
VERTEX
  8
0
 10
15.1564
 20
43.4868
  0
VERTEX
  8
0
 10
15.1223
 20
43.5167
  0
VERTEX
  8
0
 10
15.0974
 20
43.5305
  0
VERTEX
  8
0
 10
15.0725
 20
43.5388
  0
VERTEX
  8
0
 10
15.0484
 20
43.5418
  0
VERTEX
  8
0
 10
15.0113
 20
43.5428
  0
VERTEX
  8
0
 10
14.884
 20
43.5428
  0
VERTEX
  8
0
 10
14.884
 20
43.1708
  0
VERTEX
  8
0
 10
14.776
 20
43.1708
  0
SEQEND
  0
POLYLINE
  8
0
 66
     1
 10
0
 20
0
  0
VERTEX
  8
0
 10
14.884
 20
43.6388
  0
VERTEX
  8
0
 10
15.1198
 20
43.6388
  0
VERTEX
  8
0
 10
15.1719
 20
43.6414
  0
VERTEX
  8
0
 10
15.2162
 20
43.6491
  0
VERTEX
  8
0
 10
15.2527
 20
43.662
  0
VERTEX
  8
0
 10
15.2812
 20
43.6801
  0
VERTEX
  8
0
 10
15.3019
 20
43.7033
  0
VERTEX
  8
0
 10
15.3185
 20
43.7389
  0
VERTEX
  8
0
 10
15.324
 20
43.7773
  0
VERTEX
  8
0
 10
15.3177
 20
43.8204
  0
VERTEX
  8
0
 10
15.2991
 20
43.8553
  0
VERTEX
  8
0
 10
15.268
 20
43.8822
  0
VERTEX
  8
0
 10
15.2147
 20
43.9036
  0
VERTEX
  8
0
 10
15.1464
 20
43.9108
  0
VERTEX
  8
0
 10
14.884
 20
43.9108
  0
VERTEX
  8
0
 10
14.884
 20
43.6388
  0
SEQEND
  0
POLYLINE
  8
0
 66
     1
 10
0
 20
0
  0
VERTEX
  8
0
 10
15.9894
 20
43.2487
  0
VERTEX
  8
0
 10
15.9373
 20
43.2113
  0
VERTEX
  8
0
 10
15.8832
 20
43.1846
  0
VERTEX
  8
0
 10
15.827
 20
43.1684
  0
VERTEX
  8
0
 10
15.7688
 20
43.1628
  0
VERTEX
  8
0
 10
15.689
 20
43.1726
  0
VERTEX
  8
0
 10
15.6255
 20
43.2032
  0
VERTEX
  8
0
 10
15.5916
 20
43.238
  0
VERTEX
  8
0
 10
15.5711
 20
43.2814
  0
VERTEX
  8
0
 10
15.564
 20
43.3336
  0
VERTEX
  8
0
 10
15.5683
 20
43.3751
  0
VERTEX
  8
0
 10
15.5817
 20
43.412
  0
VERTEX
  8
0
 10
15.6042
 20
43.4442
  0
VERTEX
  8
0
 10
15.6359
 20
43.4718
  0
VERTEX
  8
0
 10
15.6697
 20
43.4911
  0
VERTEX
  8
0
 10
15.709
 20
43.505
  0
VERTEX
  8
0
 10
15.7458
 20
43.5127
  0
VERTEX
  8
0
 10
15.799
 20
43.5202
  0
VERTEX
  8
0
 10
15.875
 20
43.5308
  0
VERTEX
  8
0
 10
15.9351
 20
43.5424
  0
VERTEX
  8
0
 10
15.9794
 20
43.555
  0
VERTEX
  8
0
 10
15.9795
 20
43.5726
  0
VERTEX
  8
0
 10
15.98
 20
43.5814
  0
VERTEX
  8
0
 10
15.9728
 20
43.6341
  0
VERTEX
  8
0
 10
15.9513
 20
43.6685
  0
VERTEX
  8
0
 10
15.9034
 20
43.6939
  0
VERTEX
  8
0
 10
15.8361
 20
43.7028
  0
VERTEX
  8
0
 10
15.7761
 20
43.6972
  0
VERTEX
  8
0
 10
15.7332
 20
43.6792
  0
VERTEX
  8
0
 10
15.702
 20
43.6442
  0
VERTEX
  8
0
 10
15.6804
 20
43.5895
  0
VERTEX
  8
0
 10
15.5815
 20
43.603
  0
VERTEX
  8
0
 10
15.5953
 20
43.6489
  0
VERTEX
  8
0
 10
15.6157
 20
43.6881
  0
VERTEX
  8
0
 10
15.6426
 20
43.7206
  0
VERTEX
  8
0
 10
15.676
 20
43.7463
  0
VERTEX
  8
0
 10
15.7158
 20
43.7654
  0
VERTEX
  8
0
 10
15.7784
 20
43.7812
  0
VERTEX
  8
0
 10
15.8519
 20
43.7868
  0
VERTEX
  8
0
 10
15.9051
 20
43.7844
  0
VERTEX
  8
0
 10
15.9512
 20
43.7768
  0
VERTEX
  8
0
 10
15.9903
 20
43.764
  0
VERTEX
  8
0
 10
16.0223
 20
43.7459
  0
VERTEX
  8
0
 10
16.0473
 20
43.7227
  0
VERTEX
  8
0
 10
16.0662
 20
43.6921
  0
VERTEX
  8
0
 10
16.0789
 20
43.6535
  0
VERTEX
  8
0
 10
16.0827
 20
43.6186
  0
VERTEX
  8
0
 10
16.084
 20
43.5593
  0
VERTEX
  8
0
 10
16.084
 20
43.4232
  0
VERTEX
  8
0
 10
16.084
 20
43.3788
  0
VERTEX
  8
0
 10
16.0841
 20
43.3437
  0
VERTEX
  8
0
 10
16.0842
 20
43.3178
  0
VERTEX
  8
0
 10
16.0843
 20
43.3012
  0
VERTEX
  8
0
 10
16.0845
 20
43.2938
  0
VERTEX
  8
0
 10
16.0946
 20
43.2256
  0
VERTEX
  8
0
 10
16.1158
 20
43.1708
  0
VERTEX
  8
0
 10
16.0097
 20
43.1708
  0
VERTEX
  8
0
 10
15.997
 20
43.2069
  0
VERTEX
  8
0
 10
15.9894
 20
43.2487
  0
VERTEX
  8
0
 10
15.9894
 20
43.2487
  0
SEQEND
  0
POLYLINE
  8
0
 66
     1
 10
0
 20
0
  0
VERTEX
  8
0
 10
15.98
 20
43.4755
  0
VERTEX
  8
0
 10
15.911
 20
43.4551
  0
VERTEX
  8
0
 10
15.8144
 20
43.4375
  0
VERTEX
  8
0
 10
15.771
 20
43.4305
  0
VERTEX
  8
0
 10
15.7435
 20
43.424
  0
VERTEX
  8
0
 10
15.7091
 20
43.4077
  0
VERTEX
  8
0
 10
15.686
 20
43.3843
  0
VERTEX
  8
0
 10
15.6758
 20
43.3621
  0
VERTEX
  8
0
 10
15.672
 20
43.3368
  0
VERTEX
  8
0
 10
15.6811
 20
43.2948
  0
VERTEX
  8
0
 10
15.7097
 20
43.264
  0
VERTEX
  8
0
 10
15.7467
 20
43.2481
  0
VERTEX
  8
0
 10
15.7925
 20
43.2428
  0
VERTEX
  8
0
 10
15.8321
 20
43.2454
  0
VERTEX
  8
0
 10
15.8673
 20
43.2534
  0
VERTEX
  8
0
 10
15.898
 20
43.2666
  0
VERTEX
  8
0
 10
15.9244
 20
43.2851
  0
VERTEX
  8
0
 10
15.9462
 20
43.3088
  0
VERTEX
  8
0
 10
15.9637
 20
43.3379
  0
VERTEX
  8
0
 10
15.9759
 20
43.3801
  0
VERTEX
  8
0
 10
15.98
 20
43.4386
  0
VERTEX
  8
0
 10
15.98
 20
43.4755
  0
SEQEND
  0
POLYLINE
  8
0
 66
     1
 10
0
 20
0
  0
VERTEX
  8
0
 10
16.628
 20
43.1708
  0
VERTEX
  8
0
 10
16.628
 20
43.2504
  0
VERTEX
  8
0
 10
16.6033
 20
43.219
  0
VERTEX
  8
0
 10
16.5742
 20
43.1946
  0
VERTEX
  8
0
 10
16.5408
 20
43.1771
  0
VERTEX
  8
0
 10
16.5031
 20
43.1665
  0
VERTEX
  8
0
 10
16.461
 20
43.1628
  0
VERTEX
  8
0
 10
16.3907
 20
43.1728
  0
VERTEX
  8
0
 10
16.3271
 20
43.2038
  0
VERTEX
  8
0
 10
16.2749
 20
43.2509
  0
VERTEX
  8
0
 10
16.2363
 20
43.3123
  0
VERTEX
  8
0
 10
16.2123
 20
43.3871
  0
VERTEX
  8
0
 10
16.204
 20
43.4742
  0
VERTEX
  8
0
 10
16.2056
 20
43.521
  0
VERTEX
  8
0
 10
16.211
 20
43.5643
  0
VERTEX
  8
0
 10
16.2203
 20
43.6039
  0
VERTEX
  8
0
 10
16.2334
 20
43.6399
  0
VERTEX
  8
0
 10
16.2503
 20
43.6723
  0
VERTEX
  8
0
 10
16.271
 20
43.7011
  0
VERTEX
  8
0
 10
16.2956
 20
43.7264
  0
VERTEX
  8
0
 10
16.324
 20
43.748
  0
VERTEX
  8
0
 10
16.3872
 20
43.7771
  0
VERTEX
  8
0
 10
16.4581
 20
43.7868
  0
VERTEX
  8
0
 10
16.5082
 20
43.7817
  0
VERTEX
  8
0
 10
16.5525
 20
43.7664
  0
VERTEX
  8
0
 10
16.5911
 20
43.7409
  0
VERTEX
  8
0
 10
16.624
 20
43.7052
  0
VERTEX
  8
0
 10
16.624
 20
44.0028
  0
VERTEX
  8
0
 10
16.724
 20
44.0028
  0
VERTEX
  8
0
 10
16.724
 20
43.1708
  0
VERTEX
  8
0
 10
16.628
 20
43.1708
  0
SEQEND
  0
POLYLINE
  8
0
 66
     1
 10
0
 20
0
  0
VERTEX
  8
0
 10
16.308
 20
43.4745
  0
VERTEX
  8
0
 10
16.3169
 20
43.3914
  0
VERTEX
  8
0
 10
16.3435
 20
43.3225
  0
VERTEX
  8
0
 10
16.3678
 20
43.2896
  0
VERTEX
  8
0
 10
16.3972
 20
43.266
  0
VERTEX
  8
0
 10
16.4317
 20
43.2517
  0
VERTEX
  8
0
 10
16.4712
 20
43.2468
  0
VERTEX
  8
0
 10
16.5102
 20
43.2511
  0
VERTEX
  8
0
 10
16.5441
 20
43.2645
  0
VERTEX
  8
0
 10
16.5729
 20
43.287
  0
VERTEX
  8
0
 10
16.5967
 20
43.3186
  0
VERTEX
  8
0
 10
16.6225
 20
43.3852
  0
VERTEX
  8
0
 10
16.6311
 20
43.4661
  0
VERTEX
  8
0
 10
16.6228
 20
43.5534
  0
VERTEX
  8
0
 10
16.5978
 20
43.6237
  0
VERTEX
  8
0
 10
16.5735
 20
43.6583
  0
VERTEX
  8
0
 10
16.5435
 20
43.683
  0
VERTEX
  8
0
 10
16.508
 20
43.6978
  0
VERTEX
  8
0
 10
16.4667
 20
43.7028
  0
VERTEX
  8
0
 10
16.4266
 20
43.6981
  0
VERTEX
  8
0
 10
16.3921
 20
43.6838
  0
VERTEX
  8
0
 10
16.3633
 20
43.6602
  0
VERTEX
  8
0
 10
16.3402
 20
43.627
  0
VERTEX
  8
0
 10
16.316
 20
43.5592
  0
VERTEX
  8
0
 10
16.308
 20
43.4745
  0
VERTEX
  8
0
 10
16.308
 20
43.4745
  0
SEQEND
  0
POLYLINE
  8
0
 66
     1
 10
0
 20
0
  0
VERTEX
  8
0
 10
16.88
 20
43.8868
  0
VERTEX
  8
0
 10
16.88
 20
44.0028
  0
VERTEX
  8
0
 10
16.98
 20
44.0028
  0
VERTEX
  8
0
 10
16.98
 20
43.8868
  0
VERTEX
  8
0
 10
16.88
 20
43.8868
  0
SEQEND
  0
POLYLINE
  8
0
 66
     1
 10
0
 20
0
  0
VERTEX
  8
0
 10
16.88
 20
43.1708
  0
VERTEX
  8
0
 10
16.88
 20
43.774
  0
VERTEX
  8
0
 10
16.98
 20
43.774
  0
VERTEX
  8
0
 10
16.98
 20
43.1708
  0
VERTEX
  8
0
 10
16.88
 20
43.1708
  0
SEQEND
  0
POLYLINE
  8
0
 66
     1
 10
0
 20
0
  0
VERTEX
  8
0
 10
17.528
 20
43.1708
  0
VERTEX
  8
0
 10
17.528
 20
43.2628
  0
VERTEX
  8
0
 10
17.4984
 20
43.2268
  0
VERTEX
  8
0
 10
17.4647
 20
43.1988
  0
VERTEX
  8
0
 10
17.427
 20
43.1788
  0
VERTEX
  8
0
 10
17.3851
 20
43.1668
  0
VERTEX
  8
0
 10
17.3392
 20
43.1628
  0
VERTEX
  8
0
 10
17.2929
 20
43.1672
  0
VERTEX
  8
0
 10
17.248
 20
43.1803
  0
VERTEX
  8
0
 10
17.2043
 20
43.2032
  0
VERTEX
  8
0
 10
17.1729
 20
43.2338
  0
VERTEX
  8
0
 10
17.1546
 20
43.2673
  0
VERTEX
  8
0
 10
17.1422
 20
43.3093
  0
VERTEX
  8
0
 10
17.1375
 20
43.3482
  0
VERTEX
  8
0
 10
17.136
 20
43.404
  0
VERTEX
  8
0
 10
17.136
 20
43.7748
  0
VERTEX
  8
0
 10
17.236
 20
43.7748
  0
VERTEX
  8
0
 10
17.236
 20
43.4433
  0
VERTEX
  8
0
 10
17.2375
 20
43.376
  0
VERTEX
  8
0
 10
17.2422
 20
43.3363
  0
VERTEX
  8
0
 10
17.2535
 20
43.3059
  0
VERTEX
  8
0
 10
17.2709
 20
43.2821
  0
VERTEX
  8
0
 10
17.2944
 20
43.265
  0
VERTEX
  8
0
 10
17.3242
 20
43.2546
  0
VERTEX
  8
0
 10
17.3601
 20
43.2508
  0
VERTEX
  8
0
 10
17.4045
 20
43.2562
  0
VERTEX
  8
0
 10
17.446
 20
43.2736
  0
VERTEX
  8
0
 10
17.4802
 20
43.3012
  0
VERTEX
  8
0
 10
17.503
 20
43.3374
  0
VERTEX
  8
0
 10
17.5157
 20
43.387
  0
VERTEX
  8
0
 10
17.52
 20
43.4545
  0
VERTEX
  8
0
 10
17.52
 20
43.7748
  0
VERTEX
  8
0
 10
17.62
 20
43.7748
  0
VERTEX
  8
0
 10
17.62
 20
43.1708
  0
VERTEX
  8
0
 10
17.528
 20
43.1708
  0
SEQEND
  0
POLYLINE
  8
0
 66
     1
 10
0
 20
0
  0
VERTEX
  8
0
 10
17.74
 20
43.3537
  0
VERTEX
  8
0
 10
17.8401
 20
43.3694
  0
VERTEX
  8
0
 10
17.8463
 20
43.3407
  0
VERTEX
  8
0
 10
17.8563
 20
43.3158
  0
VERTEX
  8
0
 10
17.87
 20
43.2947
  0
VERTEX
  8
0
 10
17.8875
 20
43.2774
  0
VERTEX
  8
0
 10
17.9087
 20
43.264
  0
VERTEX
  8
0
 10
17.9336
 20
43.2545
  0
VERTEX
  8
0
 10
17.9623
 20
43.2487
  0
VERTEX
  8
0
 10
17.9947
 20
43.2468
  0
VERTEX
  8
0
 10
18.0445
 20
43.2518
  0
VERTEX
  8
0
 10
18.0858
 20
43.267
  0
VERTEX
  8
0
 10
18.1204
 20
43.298
  0
VERTEX
  8
0
 10
18.132
 20
43.3417
  0
VERTEX
  8
0
 10
18.1245
 20
43.3723
  0
VERTEX
  8
0
 10
18.1021
 20
43.3955
  0
VERTEX
  8
0
 10
18.0815
 20
43.4053
  0
VERTEX
  8
0
 10
18.047
 20
43.4168
  0
VERTEX
  8
0
 10
17.9983
 20
43.4298
  0
VERTEX
  8
0
 10
17.9425
 20
43.444
  0
VERTEX
  8
0
 10
17.9022
 20
43.4552
  0
VERTEX
  8
0
 10
17.8772
 20
43.4635
  0
VERTEX
  8
0
 10
17.8166
 20
43.4948
  0
VERTEX
  8
0
 10
17.778
 20
43.5347
  0
VERTEX
  8
0
 10
17.7615
 20
43.5725
  0
VERTEX
  8
0
 10
17.756
 20
43.615
  0
VERTEX
  8
0
 10
17.7636
 20
43.6654
  0
VERTEX
  8
0
 10
17.7864
 20
43.7088
  0
VERTEX
  8
0
 10
17.8244
 20
43.7452
  0
VERTEX
  8
0
 10
17.8908
 20
43.7761
  0
VERTEX
  8
0
 10
17.977
 20
43.7868
  0
VERTEX
  8
0
 10
18.0425
 20
43.782
  0
VERTEX
  8
0
 10
18.1008
 20
43.7665
  0
VERTEX
  8
0
 10
18.1473
 20
43.7424
  0
VERTEX
  8
0
 10
18.1805
 20
43.7103
  0
VERTEX
  8
0
 10
18.2013
 20
43.6713
  0
VERTEX
  8
0
 10
18.215
 20
43.6193
  0
VERTEX
  8
0
 10
18.1149
 20
43.6058
  0
VERTEX
  8
0
 10
18.1086
 20
43.6314
  0
VERTEX
  8
0
 10
18.0981
 20
43.6531
  0
VERTEX
  8
0
 10
18.0834
 20
43.6709
  0
VERTEX
  8
0
 10
18.0645
 20
43.6847
  0
VERTEX
  8
0
 10
18.0415
 20
43.6946
  0
VERTEX
  8
0
 10
18.0143
 20
43.7007
  0
VERTEX
  8
0
 10
17.9828
 20
43.7028
  0
VERTEX
  8
0
 10
17.9484
 20
43.7014
  0
VERTEX
  8
0
 10
17.9192
 20
43.6967
  0
VERTEX
  8
0
 10
17.8953
 20
43.6889
  0
VERTEX
  8
0
 10
17.8766
 20
43.678
  0
VERTEX
  8
0
 10
17.8631
 20
43.6638
  0
VERTEX
  8
0
 10
17.8549
 20
43.6464
  0
VERTEX
  8
0
 10
17.852
 20
43.6259
  0
VERTEX
  8
0
 10
17.8548
 20
43.6077
  0
VERTEX
  8
0
 10
17.8644
 20
43.5902
  0
VERTEX
  8
0
 10
17.8807
 20
43.575
  0
VERTEX
  8
0
 10
17.9035
 20
43.5636
  0
VERTEX
  8
0
 10
17.9191
 20
43.5585
  0
VERTEX
  8
0
 10
17.9491
 20
43.5499
  0
VERTEX
  8
0
 10
17.9935
 20
43.5378
  0
VERTEX
  8
0
 10
18.0589
 20
43.5193
  0
VERTEX
  8
0
 10
18.1091
 20
43.5036
  0
VERTEX
  8
0
 10
18.1442
 20
43.4906
  0
VERTEX
  8
0
 10
18.1771
 20
43.4728
  0
VERTEX
  8
0
 10
18.2027
 20
43.45
  0
VERTEX
  8
0
 10
18.221
 20
43.4222
  0
VERTEX
  8
0
 10
18.2321
 20
43.3893
  0
VERTEX
  8
0
 10
18.236
 20
43.3514
  0
VERTEX
  8
0
 10
18.2288
 20
43.3026
  0
VERTEX
  8
0
 10
18.2062
 20
43.256
  0
VERTEX
  8
0
 10
18.1833
 20
43.2277
  0
VERTEX
  8
0
 10
18.1555
 20
43.2045
  0
VERTEX
  8
0
 10
18.1228
 20
43.1864
  0
VERTEX
  8
0
 10
18.0852
 20
43.1734
  0
VERTEX
  8
0
 10
18.0427
 20
43.1655
  0
VERTEX
  8
0
 10
17.9953
 20
43.1628
  0
VERTEX
  8
0
 10
17.9624
 20
43.1638
  0
VERTEX
  8
0
 10
17.9317
 20
43.167
  0
VERTEX
  8
0
 10
17.9032
 20
43.1726
  0
VERTEX
  8
0
 10
17.877
 20
43.1804
  0
VERTEX
  8
0
 10
17.8529
 20
43.1905
  0
VERTEX
  8
0
 10
17.831
 20
43.2029
  0
VERTEX
  8
0
 10
17.8114
 20
43.2176
  0
VERTEX
  8
0
 10
17.794
 20
43.2346
  0
VERTEX
  8
0
 10
17.7788
 20
43.2538
  0
VERTEX
  8
0
 10
17.7657
 20
43.2754
  0
VERTEX
  8
0
 10
17.7549
 20
43.2992
  0
VERTEX
  8
0
 10
17.7464
 20
43.3253
  0
VERTEX
  8
0
 10
17.74
 20
43.3537
  0
VERTEX
  8
0
 10
17.74
 20
43.3537
  0
SEQEND
  0
POLYLINE
  8
0
 66
     1
 10
0
 20
0
  0
VERTEX
  8
0
 10
18.388
 20
43.6588
  0
VERTEX
  8
0
 10
18.388
 20
43.7748
  0
VERTEX
  8
0
 10
18.504
 20
43.7748
  0
VERTEX
  8
0
 10
18.504
 20
43.6588
  0
VERTEX
  8
0
 10
18.388
 20
43.6588
  0
SEQEND
  0
POLYLINE
  8
0
 66
     1
 10
0
 20
0
  0
VERTEX
  8
0
 10
18.388
 20
43.1708
  0
VERTEX
  8
0
 10
18.388
 20
43.2868
  0
VERTEX
  8
0
 10
18.504
 20
43.2868
  0
VERTEX
  8
0
 10
18.504
 20
43.1725
  0
VERTEX
  8
0
 10
18.5013
 20
43.1345
  0
VERTEX
  8
0
 10
18.4934
 20
43.101
  0
VERTEX
  8
0
 10
18.4801
 20
43.0718
  0
VERTEX
  8
0
 10
18.4616
 20
43.0471
  0
VERTEX
  8
0
 10
18.4377
 20
43.0267
  0
VERTEX
  8
0
 10
18.4085
 20
43.0108
  0
VERTEX
  8
0
 10
18.38
 20
43.0533
  0
VERTEX
  8
0
 10
18.4071
 20
43.0701
  0
VERTEX
  8
0
 10
18.4268
 20
43.0953
  0
VERTEX
  8
0
 10
18.4392
 20
43.1289
  0
VERTEX
  8
0
 10
18.4443
 20
43.1708
  0
VERTEX
  8
0
 10
18.388
 20
43.1708
  0
SEQEND
  0
ARC
  8
0
 10
12
 20
62
 40
10
 50
180
 51
270
  0
ARC
  8
0
 10
12
 20
62
 40
10
 50
270
 51
360
  0
ARC
  8
0
 10
12
 20
62
 40
10
 50
0
 51
90
  0
ARC
  8
0
 10
12
 20
62
 40
10
 50
90
 51
180
  0
POLYLINE
  8
0
 66
     1
 10
0
 20
0
  0
VERTEX
  8
0
 10
7.668
 20
53.3748
  0
VERTEX
  8
0
 10
8.092
 20
53.3748
  0
VERTEX
  8
0
 10
8.092
 20
54.7894
  0
VERTEX
  8
0
 10
8.5031
 20
54.7894
  0
VERTEX
  8
0
 10
8.9052
 20
53.3748
  0
VERTEX
  8
0
 10
9.3463
 20
53.3708
  0
VERTEX
  8
0
 10
8.9148
 20
54.8498
  0
VERTEX
  8
0
 10
8.972
 20
54.8737
  0
VERTEX
  8
0
 10
9.0256
 20
54.9024
  0
VERTEX
  8
0
 10
9.0755
 20
54.9361
  0
VERTEX
  8
0
 10
9.1218
 20
54.9747
  0
VERTEX
  8
0
 10
9.1643
 20
55.0182
  0
VERTEX
  8
0
 10
9.2032
 20
55.0665
  0
VERTEX
  8
0
 10
9.2385
 20
55.1198
  0
VERTEX
  8
0
 10
9.2773
 20
55.1938
  0
VERTEX
  8
0
 10
9.3075
 20
55.2719
  0
VERTEX
  8
0
 10
9.3291
 20
55.3541
  0
VERTEX
  8
0
 10
9.342
 20
55.4404
  0
VERTEX
  8
0
 10
9.3463
 20
55.5308
  0
VERTEX
  8
0
 10
9.3449
 20
55.5932
  0
VERTEX
  8
0
 10
9.3408
 20
55.6535
  0
VERTEX
  8
0
 10
9.3338
 20
55.7115
  0
VERTEX
  8
0
 10
9.324
 20
55.7675
  0
VERTEX
  8
0
 10
9.3115
 20
55.8212
  0
VERTEX
  8
0
 10
9.2961
 20
55.8728
  0
VERTEX
  8
0
 10
9.278
 20
55.9222
  0
VERTEX
  8
0
 10
9.2571
 20
55.9695
  0
VERTEX
  8
0
 10
9.2334
 20
56.0145
  0
VERTEX
  8
0
 10
9.2069
 20
56.0575
  0
VERTEX
  8
0
 10
9.1776
 20
56.0982
  0
VERTEX
  8
0
 10
9.1455
 20
56.1368
  0
VERTEX
  8
0
 10
9.1147
 20
56.169
  0
VERTEX
  8
0
 10
9.0822
 20
56.1989
  0
VERTEX
  8
0
 10
9.0479
 20
56.2263
  0
VERTEX
  8
0
 10
9.0119
 20
56.2514
  0
VERTEX
  8
0
 10
8.9743
 20
56.2741
  0
VERTEX
  8
0
 10
8.9349
 20
56.2944
  0
VERTEX
  8
0
 10
8.8938
 20
56.3123
  0
VERTEX
  8
0
 10
8.851
 20
56.3278
  0
VERTEX
  8
0
 10
8.8064
 20
56.3409
  0
VERTEX
  8
0
 10
8.7602
 20
56.3517
  0
VERTEX
  8
0
 10
8.7122
 20
56.36
  0
VERTEX
  8
0
 10
8.6626
 20
56.366
  0
VERTEX
  8
0
 10
8.6112
 20
56.3696
  0
VERTEX
  8
0
 10
8.5581
 20
56.3708
  0
VERTEX
  8
0
 10
7.668
 20
56.3708
  0
VERTEX
  8
0
 10
7.668
 20
53.3748
  0
SEQEND
  0
POLYLINE
  8
0
 66
     1
 10
0
 20
0
  0
VERTEX
  8
0
 10
8.092
 20
55.1988
  0
VERTEX
  8
0
 10
8.092
 20
55.9508
  0
VERTEX
  8
0
 10
8.5365
 20
55.9508
  0
VERTEX
  8
0
 10
8.5927
 20
55.948
  0
VERTEX
  8
0
 10
8.6451
 20
55.9395
  0
VERTEX
  8
0
 10
8.6938
 20
55.9253
  0
VERTEX
  8
0
 10
8.7388
 20
55.9055
  0
VERTEX
  8
0
 10
8.7799
 20
55.88
  0
VERTEX
  8
0
 10
8.8173
 20
55.8489
  0
VERTEX
  8
0
 10
8.8499
 20
55.813
  0
VERTEX
  8
0
 10
8.8766
 20
55.773
  0
VERTEX
  8
0
 10
8.8973
 20
55.7291
  0
VERTEX
  8
0
 10
8.9121
 20
55.6811
  0
VERTEX
  8
0
 10
8.921
 20
55.6292
  0
VERTEX
  8
0
 10
8.924
 20
55.5733
  0
VERTEX
  8
0
 10
8.9234
 20
55.545
  0
VERTEX
  8
0
 10
8.9218
 20
55.5179
  0
VERTEX
  8
0
 10
8.919
 20
55.4919
  0
VERTEX
  8
0
 10
8.9152
 20
55.4669
  0
VERTEX
  8
0
 10
8.9102
 20
55.4431
  0
VERTEX
  8
0
 10
8.9041
 20
55.4204
  0
VERTEX
  8
0
 10
8.897
 20
55.3988
  0
VERTEX
  8
0
 10
8.8887
 20
55.3783
  0
VERTEX
  8
0
 10
8.8793
 20
55.3589
  0
VERTEX
  8
0
 10
8.8689
 20
55.3406
  0
VERTEX
  8
0
 10
8.8573
 20
55.3234
  0
VERTEX
  8
0
 10
8.8446
 20
55.3074
  0
VERTEX
  8
0
 10
8.8309
 20
55.2924
  0
VERTEX
  8
0
 10
8.816
 20
55.2786
  0
VERTEX
  8
0
 10
8.8
 20
55.2658
  0
VERTEX
  8
0
 10
8.7829
 20
55.2542
  0
VERTEX
  8
0
 10
8.7647
 20
55.2437
  0
VERTEX
  8
0
 10
8.7455
 20
55.2342
  0
VERTEX
  8
0
 10
8.7251
 20
55.2259
  0
VERTEX
  8
0
 10
8.7036
 20
55.2187
  0
VERTEX
  8
0
 10
8.681
 20
55.2126
  0
VERTEX
  8
0
 10
8.6573
 20
55.2077
  0
VERTEX
  8
0
 10
8.6325
 20
55.2038
  0
VERTEX
  8
0
 10
8.6066
 20
55.201
  0
VERTEX
  8
0
 10
8.5796
 20
55.1993
  0
VERTEX
  8
0
 10
8.5515
 20
55.1988
  0
VERTEX
  8
0
 10
8.092
 20
55.1988
  0
SEQEND
  0
POLYLINE
  8
0
 66
     1
 10
0
 20
0
  0
VERTEX
  8
0
 10
11.2283
 20
54.8793
  0
VERTEX
  8
0
 10
11.2282
 20
54.9143
  0
VERTEX
  8
0
 10
11.2278
 20
54.9488
  0
VERTEX
  8
0
 10
11.2273
 20
54.983
  0
VERTEX
  8
0
 10
11.2265
 20
55.0168
  0
VERTEX
  8
0
 10
11.2254
 20
55.0501
  0
VERTEX
  8
0
 10
11.2242
 20
55.0831
  0
VERTEX
  8
0
 10
11.2227
 20
55.1157
  0
VERTEX
  8
0
 10
11.221
 20
55.1479
  0
VERTEX
  8
0
 10
11.2191
 20
55.1796
  0
VERTEX
  8
0
 10
11.2169
 20
55.211
  0
VERTEX
  8
0
 10
11.2146
 20
55.242
  0
VERTEX
  8
0
 10
11.212
 20
55.2726
  0
VERTEX
  8
0
 10
11.2091
 20
55.3027
  0
VERTEX
  8
0
 10
11.2061
 20
55.3325
  0
VERTEX
  8
0
 10
11.2028
 20
55.3619
  0
VERTEX
  8
0
 10
11.1993
 20
55.3909
  0
VERTEX
  8
0
 10
11.1955
 20
55.4194
  0
VERTEX
  8
0
 10
11.1915
 20
55.4476
  0
VERTEX
  8
0
 10
11.1873
 20
55.4754
  0
VERTEX
  8
0
 10
11.1829
 20
55.5028
  0
VERTEX
  8
0
 10
11.1783
 20
55.5297
  0
VERTEX
  8
0
 10
11.1734
 20
55.5563
  0
VERTEX
  8
0
 10
11.1683
 20
55.5825
  0
VERTEX
  8
0
 10
11.163
 20
55.6083
  0
VERTEX
  8
0
 10
11.1574
 20
55.6337
  0
VERTEX
  8
0
 10
11.1516
 20
55.6586
  0
VERTEX
  8
0
 10
11.1456
 20
55.6832
  0
VERTEX
  8
0
 10
11.1394
 20
55.7074
  0
VERTEX
  8
0
 10
11.1329
 20
55.7312
  0
VERTEX
  8
0
 10
11.1262
 20
55.7546
  0
VERTEX
  8
0
 10
11.1193
 20
55.7775
  0
VERTEX
  8
0
 10
11.1122
 20
55.8001
  0
VERTEX
  8
0
 10
11.1048
 20
55.8223
  0
VERTEX
  8
0
 10
11.0972
 20
55.8441
  0
VERTEX
  8
0
 10
11.0894
 20
55.8655
  0
VERTEX
  8
0
 10
11.0813
 20
55.8864
  0
VERTEX
  8
0
 10
11.073
 20
55.907
  0
VERTEX
  8
0
 10
11.0645
 20
55.9272
  0
VERTEX
  8
0
 10
11.0558
 20
55.947
  0
VERTEX
  8
0
 10
11.0468
 20
55.9664
  0
VERTEX
  8
0
 10
11.0377
 20
55.9854
  0
VERTEX
  8
0
 10
11.0282
 20
56.0039
  0
VERTEX
  8
0
 10
11.0186
 20
56.0221
  0
VERTEX
  8
0
 10
11.0087
 20
56.0399
  0
VERTEX
  8
0
 10
10.9986
 20
56.0573
  0
VERTEX
  8
0
 10
10.9883
 20
56.0743
  0
VERTEX
  8
0
 10
10.9778
 20
56.0909
  0
VERTEX
  8
0
 10
10.967
 20
56.1071
  0
VERTEX
  8
0
 10
10.956
 20
56.1228
  0
VERTEX
  8
0
 10
10.9448
 20
56.1382
  0
VERTEX
  8
0
 10
10.9333
 20
56.1532
  0
VERTEX
  8
0
 10
10.9216
 20
56.1678
  0
VERTEX
  8
0
 10
10.9097
 20
56.182
  0
VERTEX
  8
0
 10
10.8976
 20
56.1958
  0
VERTEX
  8
0
 10
10.8852
 20
56.2092
  0
VERTEX
  8
0
 10
10.8727
 20
56.2222
  0
VERTEX
  8
0
 10
10.8598
 20
56.2347
  0
VERTEX
  8
0
 10
10.8468
 20
56.2469
  0
VERTEX
  8
0
 10
10.8335
 20
56.2587
  0
VERTEX
  8
0
 10
10.82
 20
56.2701
  0
VERTEX
  8
0
 10
10.8063
 20
56.2811
  0
VERTEX
  8
0
 10
10.7924
 20
56.2917
  0
VERTEX
  8
0
 10
10.7782
 20
56.3019
  0
VERTEX
  8
0
 10
10.7638
 20
56.3117
  0
VERTEX
  8
0
 10
10.7492
 20
56.3211
  0
VERTEX
  8
0
 10
10.7343
 20
56.3301
  0
VERTEX
  8
0
 10
10.7192
 20
56.3387
  0
VERTEX
  8
0
 10
10.7039
 20
56.3469
  0
VERTEX
  8
0
 10
10.6884
 20
56.3546
  0
VERTEX
  8
0
 10
10.6726
 20
56.362
  0
VERTEX
  8
0
 10
10.6566
 20
56.369
  0
VERTEX
  8
0
 10
10.6404
 20
56.3756
  0
VERTEX
  8
0
 10
10.624
 20
56.3818
  0
VERTEX
  8
0
 10
10.6073
 20
56.3876
  0
VERTEX
  8
0
 10
10.5904
 20
56.393
  0
VERTEX
  8
0
 10
10.5733
 20
56.398
  0
VERTEX
  8
0
 10
10.5559
 20
56.4026
  0
VERTEX
  8
0
 10
10.5383
 20
56.4068
  0
VERTEX
  8
0
 10
10.5205
 20
56.4106
  0
VERTEX
  8
0
 10
10.5025
 20
56.414
  0
VERTEX
  8
0
 10
10.4842
 20
56.417
  0
VERTEX
  8
0
 10
10.4658
 20
56.4196
  0
VERTEX
  8
0
 10
10.4471
 20
56.4218
  0
VERTEX
  8
0
 10
10.4281
 20
56.4236
  0
VERTEX
  8
0
 10
10.409
 20
56.425
  0
VERTEX
  8
0
 10
10.3896
 20
56.426
  0
VERTEX
  8
0
 10
10.3699
 20
56.4266
  0
VERTEX
  8
0
 10
10.3501
 20
56.4268
  0
VERTEX
  8
0
 10
10.3302
 20
56.4266
  0
VERTEX
  8
0
 10
10.3105
 20
56.426
  0
VERTEX
  8
0
 10
10.2911
 20
56.425
  0
VERTEX
  8
0
 10
10.2719
 20
56.4237
  0
VERTEX
  8
0
 10
10.2529
 20
56.4219
  0
VERTEX
  8
0
 10
10.2341
 20
56.4198
  0
VERTEX
  8
0
 10
10.2156
 20
56.4172
  0
VERTEX
  8
0
 10
10.1973
 20
56.4143
  0
VERTEX
  8
0
 10
10.1792
 20
56.411
  0
VERTEX
  8
0
 10
10.1613
 20
56.4073
  0
VERTEX
  8
0
 10
10.1437
 20
56.4031
  0
VERTEX
  8
0
 10
10.1262
 20
56.3987
  0
VERTEX
  8
0
 10
10.109
 20
56.3938
  0
VERTEX
  8
0
 10
10.0921
 20
56.3885
  0
VERTEX
  8
0
 10
10.0753
 20
56.3828
  0
VERTEX
  8
0
 10
10.0588
 20
56.3768
  0
VERTEX
  8
0
 10
10.0425
 20
56.3703
  0
VERTEX
  8
0
 10
10.0265
 20
56.3635
  0
VERTEX
  8
0
 10
10.0106
 20
56.3563
  0
VERTEX
  8
0
 10
9.995
 20
56.3486
  0
VERTEX
  8
0
 10
9.9796
 20
56.3406
  0
VERTEX
  8
0
 10
9.9644
 20
56.3322
  0
VERTEX
  8
0
 10
9.9495
 20
56.3234
  0
VERTEX
  8
0
 10
9.9348
 20
56.3143
  0
VERTEX
  8
0
 10
9.9203
 20
56.3047
  0
VERTEX
  8
0
 10
9.906
 20
56.2947
  0
VERTEX
  8
0
 10
9.8919
 20
56.2844
  0
VERTEX
  8
0
 10
9.8781
 20
56.2736
  0
VERTEX
  8
0
 10
9.8645
 20
56.2625
  0
VERTEX
  8
0
 10
9.8511
 20
56.251
  0
VERTEX
  8
0
 10
9.838
 20
56.239
  0
VERTEX
  8
0
 10
9.8251
 20
56.2267
  0
VERTEX
  8
0
 10
9.8124
 20
56.214
  0
VERTEX
  8
0
 10
9.7999
 20
56.2009
  0
VERTEX
  8
0
 10
9.7877
 20
56.1875
  0
VERTEX
  8
0
 10
9.7756
 20
56.1736
  0
VERTEX
  8
0
 10
9.7638
 20
56.1593
  0
VERTEX
  8
0
 10
9.7523
 20
56.1447
  0
VERTEX
  8
0
 10
9.7409
 20
56.1296
  0
VERTEX
  8
0
 10
9.7298
 20
56.1142
  0
VERTEX
  8
0
 10
9.7189
 20
56.0984
  0
VERTEX
  8
0
 10
9.7082
 20
56.0822
  0
VERTEX
  8
0
 10
9.6978
 20
56.0656
  0
VERTEX
  8
0
 10
9.6875
 20
56.0486
  0
VERTEX
  8
0
 10
9.6775
 20
56.0312
  0
VERTEX
  8
0
 10
9.6678
 20
56.0134
  0
VERTEX
  8
0
 10
9.6582
 20
55.9952
  0
VERTEX
  8
0
 10
9.6489
 20
55.9767
  0
VERTEX
  8
0
 10
9.6398
 20
55.9577
  0
VERTEX
  8
0
 10
9.6309
 20
55.9384
  0
VERTEX
  8
0
 10
9.6222
 20
55.9186
  0
VERTEX
  8
0
 10
9.6138
 20
55.8985
  0
VERTEX
  8
0
 10
9.6056
 20
55.878
  0
VERTEX
  8
0
 10
9.5976
 20
55.8571
  0
VERTEX
  8
0
 10
9.5899
 20
55.8358
  0
VERTEX
  8
0
 10
9.5823
 20
55.8141
  0
VERTEX
  8
0
 10
9.575
 20
55.792
  0
VERTEX
  8
0
 10
9.568
 20
55.7696
  0
VERTEX
  8
0
 10
9.5611
 20
55.7467
  0
VERTEX
  8
0
 10
9.5545
 20
55.7235
  0
VERTEX
  8
0
 10
9.5481
 20
55.6998
  0
VERTEX
  8
0
 10
9.5419
 20
55.6758
  0
VERTEX
  8
0
 10
9.5359
 20
55.6514
  0
VERTEX
  8
0
 10
9.5302
 20
55.6266
  0
VERTEX
  8
0
 10
9.5247
 20
55.6014
  0
VERTEX
  8
0
 10
9.5194
 20
55.5758
  0
VERTEX
  8
0
 10
9.5144
 20
55.5498
  0
VERTEX
  8
0
 10
9.5095
 20
55.5234
  0
VERTEX
  8
0
 10
9.5049
 20
55.4966
  0
VERTEX
  8
0
 10
9.5005
 20
55.4695
  0
VERTEX
  8
0
 10
9.4964
 20
55.4419
  0
VERTEX
  8
0
 10
9.4924
 20
55.414
  0
VERTEX
  8
0
 10
9.4887
 20
55.3857
  0
VERTEX
  8
0
 10
9.4853
 20
55.357
  0
VERTEX
  8
0
 10
9.482
 20
55.3278
  0
VERTEX
  8
0
 10
9.479
 20
55.2983
  0
VERTEX
  8
0
 10
9.4762
 20
55.2685
  0
VERTEX
  8
0
 10
9.4736
 20
55.2382
  0
VERTEX
  8
0
 10
9.4712
 20
55.2075
  0
VERTEX
  8
0
 10
9.4691
 20
55.1764
  0
VERTEX
  8
0
 10
9.4672
 20
55.145
  0
VERTEX
  8
0
 10
9.4655
 20
55.1131
  0
VERTEX
  8
0
 10
9.464
 20
55.0809
  0
VERTEX
  8
0
 10
9.4628
 20
55.0483
  0
VERTEX
  8
0
 10
9.4618
 20
55.0153
  0
VERTEX
  8
0
 10
9.461
 20
54.9819
  0
VERTEX
  8
0
 10
9.4604
 20
54.9481
  0
VERTEX
  8
0
 10
9.4601
 20
54.9139
  0
VERTEX
  8
0
 10
9.46
 20
54.8793
  0
VERTEX
  8
0
 10
9.4601
 20
54.8445
  0
VERTEX
  8
0
 10
9.4604
 20
54.8101
  0
VERTEX
  8
0
 10
9.461
 20
54.7761
  0
VERTEX
  8
0
 10
9.4617
 20
54.7425
  0
VERTEX
  8
0
 10
9.4627
 20
54.7093
  0
VERTEX
  8
0
 10
9.4639
 20
54.6765
  0
VERTEX
  8
0
 10
9.4654
 20
54.6441
  0
VERTEX
  8
0
 10
9.467
 20
54.612
  0
VERTEX
  8
0
 10
9.4689
 20
54.5804
  0
VERTEX
  8
0
 10
9.471
 20
54.5492
  0
VERTEX
  8
0
 10
9.4733
 20
54.5183
  0
VERTEX
  8
0
 10
9.4758
 20
54.4879
  0
VERTEX
  8
0
 10
9.4786
 20
54.4578
  0
VERTEX
  8
0
 10
9.4816
 20
54.4281
  0
VERTEX
  8
0
 10
9.4847
 20
54.3988
  0
VERTEX
  8
0
 10
9.4882
 20
54.37
  0
VERTEX
  8
0
 10
9.4918
 20
54.3415
  0
VERTEX
  8
0
 10
9.4956
 20
54.3134
  0
VERTEX
  8
0
 10
9.4997
 20
54.2857
  0
VERTEX
  8
0
 10
9.504
 20
54.2583
  0
VERTEX
  8
0
 10
9.5085
 20
54.2314
  0
VERTEX
  8
0
 10
9.5133
 20
54.2049
  0
VERTEX
  8
0
 10
9.5182
 20
54.1788
  0
VERTEX
  8
0
 10
9.5234
 20
54.153
  0
VERTEX
  8
0
 10
9.5288
 20
54.1277
  0
VERTEX
  8
0
 10
9.5344
 20
54.1027
  0
VERTEX
  8
0
 10
9.5402
 20
54.0781
  0
VERTEX
  8
0
 10
9.5463
 20
54.054
  0
VERTEX
  8
0
 10
9.5526
 20
54.0302
  0
VERTEX
  8
0
 10
9.5591
 20
54.0068
  0
VERTEX
  8
0
 10
9.5658
 20
53.9838
  0
VERTEX
  8
0
 10
9.5727
 20
53.9612
  0
VERTEX
  8
0
 10
9.5799
 20
53.939
  0
VERTEX
  8
0
 10
9.5873
 20
53.9172
  0
VERTEX
  8
0
 10
9.5949
 20
53.8958
  0
VERTEX
  8
0
 10
9.6027
 20
53.8748
  0
VERTEX
  8
0
 10
9.6107
 20
53.8541
  0
VERTEX
  8
0
 10
9.619
 20
53.8339
  0
VERTEX
  8
0
 10
9.6274
 20
53.814
  0
VERTEX
  8
0
 10
9.6361
 20
53.7946
  0
VERTEX
  8
0
 10
9.6451
 20
53.7755
  0
VERTEX
  8
0
 10
9.6542
 20
53.7569
  0
VERTEX
  8
0
 10
9.6636
 20
53.7386
  0
VERTEX
  8
0
 10
9.6731
 20
53.7207
  0
VERTEX
  8
0
 10
9.6829
 20
53.7032
  0
VERTEX
  8
0
 10
9.693
 20
53.6861
  0
VERTEX
  8
0
 10
9.7032
 20
53.6694
  0
VERTEX
  8
0
 10
9.7137
 20
53.6531
  0
VERTEX
  8
0
 10
9.7243
 20
53.6372
  0
VERTEX
  8
0
 10
9.7352
 20
53.6217
  0
VERTEX
  8
0
 10
9.7464
 20
53.6065
  0
VERTEX
  8
0
 10
9.7577
 20
53.5918
  0
VERTEX
  8
0
 10
9.7693
 20
53.5775
  0
VERTEX
  8
0
 10
9.7811
 20
53.5635
  0
VERTEX
  8
0
 10
9.7931
 20
53.5499
  0
VERTEX
  8
0
 10
9.8053
 20
53.5368
  0
VERTEX
  8
0
 10
9.8177
 20
53.524
  0
VERTEX
  8
0
 10
9.8304
 20
53.5116
  0
VERTEX
  8
0
 10
9.8433
 20
53.4996
  0
VERTEX
  8
0
 10
9.8564
 20
53.488
  0
VERTEX
  8
0
 10
9.8697
 20
53.4768
  0
VERTEX
  8
0
 10
9.8832
 20
53.466
  0
VERTEX
  8
0
 10
9.897
 20
53.4556
  0
VERTEX
  8
0
 10
9.911
 20
53.4456
  0
VERTEX
  8
0
 10
9.9252
 20
53.436
  0
VERTEX
  8
0
 10
9.9396
 20
53.4267
  0
VERTEX
  8
0
 10
9.9543
 20
53.4179
  0
VERTEX
  8
0
 10
9.9691
 20
53.4094
  0
VERTEX
  8
0
 10
9.9842
 20
53.4014
  0
VERTEX
  8
0
 10
9.9995
 20
53.3937
  0
VERTEX
  8
0
 10
10.015
 20
53.3865
  0
VERTEX
  8
0
 10
10.0308
 20
53.3796
  0
VERTEX
  8
0
 10
10.0467
 20
53.3731
  0
VERTEX
  8
0
 10
10.0629
 20
53.367
  0
VERTEX
  8
0
 10
10.0793
 20
53.3613
  0
VERTEX
  8
0
 10
10.096
 20
53.356
  0
VERTEX
  8
0
 10
10.1128
 20
53.3511
  0
VERTEX
  8
0
 10
10.1299
 20
53.3466
  0
VERTEX
  8
0
 10
10.1472
 20
53.3424
  0
VERTEX
  8
0
 10
10.1647
 20
53.3387
  0
VERTEX
  8
0
 10
10.1824
 20
53.3354
  0
VERTEX
  8
0
 10
10.2004
 20
53.3324
  0
VERTEX
  8
0
 10
10.2185
 20
53.3299
  0
VERTEX
  8
0
 10
10.2369
 20
53.3277
  0
VERTEX
  8
0
 10
10.2555
 20
53.3259
  0
VERTEX
  8
0
 10
10.2743
 20
53.3246
  0
VERTEX
  8
0
 10
10.2934
 20
53.3236
  0
VERTEX
  8
0
 10
10.3127
 20
53.323
  0
VERTEX
  8
0
 10
10.3322
 20
53.3228
  0
VERTEX
  8
0
 10
10.3522
 20
53.323
  0
VERTEX
  8
0
 10
10.372
 20
53.3236
  0
VERTEX
  8
0
 10
10.3916
 20
53.3246
  0
VERTEX
  8
0
 10
10.4109
 20
53.3259
  0
VERTEX
  8
0
 10
10.43
 20
53.3277
  0
VERTEX
  8
0
 10
10.4489
 20
53.3299
  0
VERTEX
  8
0
 10
10.4676
 20
53.3324
  0
VERTEX
  8
0
 10
10.486
 20
53.3354
  0
VERTEX
  8
0
 10
10.5042
 20
53.3387
  0
VERTEX
  8
0
 10
10.5222
 20
53.3424
  0
VERTEX
  8
0
 10
10.54
 20
53.3466
  0
VERTEX
  8
0
 10
10.5575
 20
53.3511
  0
VERTEX
  8
0
 10
10.5748
 20
53.356
  0
VERTEX
  8
0
 10
10.5919
 20
53.3613
  0
VERTEX
  8
0
 10
10.6088
 20
53.367
  0
VERTEX
  8
0
 10
10.6254
 20
53.3731
  0
VERTEX
  8
0
 10
10.6418
 20
53.3796
  0
VERTEX
  8
0
 10
10.658
 20
53.3865
  0
VERTEX
  8
0
 10
10.6739
 20
53.3937
  0
VERTEX
  8
0
 10
10.6897
 20
53.4014
  0
VERTEX
  8
0
 10
10.7052
 20
53.4094
  0
VERTEX
  8
0
 10
10.7204
 20
53.4179
  0
VERTEX
  8
0
 10
10.7355
 20
53.4267
  0
VERTEX
  8
0
 10
10.7503
 20
53.436
  0
VERTEX
  8
0
 10
10.7649
 20
53.4456
  0
VERTEX
  8
0
 10
10.7793
 20
53.4556
  0
VERTEX
  8
0
 10
10.7934
 20
53.466
  0
VERTEX
  8
0
 10
10.8073
 20
53.4768
  0
VERTEX
  8
0
 10
10.821
 20
53.488
  0
VERTEX
  8
0
 10
10.8345
 20
53.4996
  0
VERTEX
  8
0
 10
10.8477
 20
53.5116
  0
VERTEX
  8
0
 10
10.8607
 20
53.524
  0
VERTEX
  8
0
 10
10.8735
 20
53.5368
  0
VERTEX
  8
0
 10
10.8861
 20
53.5499
  0
VERTEX
  8
0
 10
10.8984
 20
53.5635
  0
VERTEX
  8
0
 10
10.9105
 20
53.5775
  0
VERTEX
  8
0
 10
10.9224
 20
53.5918
  0
VERTEX
  8
0
 10
10.934
 20
53.6065
  0
VERTEX
  8
0
 10
10.9454
 20
53.6217
  0
VERTEX
  8
0
 10
10.9566
 20
53.6372
  0
VERTEX
  8
0
 10
10.9676
 20
53.6531
  0
VERTEX
  8
0
 10
10.9784
 20
53.6694
  0
VERTEX
  8
0
 10
10.9889
 20
53.6861
  0
VERTEX
  8
0
 10
10.9992
 20
53.7032
  0
VERTEX
  8
0
 10
11.0093
 20
53.7207
  0
VERTEX
  8
0
 10
11.0191
 20
53.7386
  0
VERTEX
  8
0
 10
11.0287
 20
53.7569
  0
VERTEX
  8
0
 10
11.0381
 20
53.7755
  0
VERTEX
  8
0
 10
11.0473
 20
53.7946
  0
VERTEX
  8
0
 10
11.0562
 20
53.814
  0
VERTEX
  8
0
 10
11.0649
 20
53.8339
  0
VERTEX
  8
0
 10
11.0734
 20
53.8541
  0
VERTEX
  8
0
 10
11.0817
 20
53.8748
  0
VERTEX
  8
0
 10
11.0897
 20
53.8958
  0
VERTEX
  8
0
 10
11.0975
 20
53.9172
  0
VERTEX
  8
0
 10
11.1051
 20
53.939
  0
VERTEX
  8
0
 10
11.1124
 20
53.9612
  0
VERTEX
  8
0
 10
11.1196
 20
53.9838
  0
VERTEX
  8
0
 10
11.1265
 20
54.0068
  0
VERTEX
  8
0
 10
11.1331
 20
54.0302
  0
VERTEX
  8
0
 10
11.1396
 20
54.054
  0
VERTEX
  8
0
 10
11.1458
 20
54.0781
  0
VERTEX
  8
0
 10
11.1518
 20
54.1027
  0
VERTEX
  8
0
 10
11.1576
 20
54.1277
  0
VERTEX
  8
0
 10
11.1631
 20
54.153
  0
VERTEX
  8
0
 10
11.1684
 20
54.1788
  0
VERTEX
  8
0
 10
11.1735
 20
54.2049
  0
VERTEX
  8
0
 10
11.1784
 20
54.2314
  0
VERTEX
  8
0
 10
11.183
 20
54.2583
  0
VERTEX
  8
0
 10
11.1874
 20
54.2857
  0
VERTEX
  8
0
 10
11.1916
 20
54.3134
  0
VERTEX
  8
0
 10
11.1956
 20
54.3415
  0
VERTEX
  8
0
 10
11.1993
 20
54.37
  0
VERTEX
  8
0
 10
11.2028
 20
54.3988
  0
VERTEX
  8
0
 10
11.2061
 20
54.4281
  0
VERTEX
  8
0
 10
11.2092
 20
54.4578
  0
VERTEX
  8
0
 10
11.212
 20
54.4879
  0
VERTEX
  8
0
 10
11.2146
 20
54.5183
  0
VERTEX
  8
0
 10
11.217
 20
54.5492
  0
VERTEX
  8
0
 10
11.2191
 20
54.5804
  0
VERTEX
  8
0
 10
11.221
 20
54.612
  0
VERTEX
  8
0
 10
11.2227
 20
54.6441
  0
VERTEX
  8
0
 10
11.2242
 20
54.6765
  0
VERTEX
  8
0
 10
11.2255
 20
54.7093
  0
VERTEX
  8
0
 10
11.2265
 20
54.7425
  0
VERTEX
  8
0
 10
11.2273
 20
54.7761
  0
VERTEX
  8
0
 10
11.2278
 20
54.8101
  0
VERTEX
  8
0
 10
11.2282
 20
54.8445
  0
VERTEX
  8
0
 10
11.2283
 20
54.8793
  0
VERTEX
  8
0
 10
11.2283
 20
54.8793
  0
SEQEND
  0
POLYLINE
  8
0
 66
     1
 10
0
 20
0
  0
VERTEX
  8
0
 10
10.816
 20
54.8794
  0
VERTEX
  8
0
 10
10.8158
 20
54.8426
  0
VERTEX
  8
0
 10
10.8155
 20
54.8065
  0
VERTEX
  8
0
 10
10.8148
 20
54.7709
  0
VERTEX
  8
0
 10
10.814
 20
54.736
  0
VERTEX
  8
0
 10
10.8128
 20
54.7017
  0
VERTEX
  8
0
 10
10.8115
 20
54.668
  0
VERTEX
  8
0
 10
10.8098
 20
54.6349
  0
VERTEX
  8
0
 10
10.8079
 20
54.6024
  0
VERTEX
  8
0
 10
10.8058
 20
54.5705
  0
VERTEX
  8
0
 10
10.8034
 20
54.5392
  0
VERTEX
  8
0
 10
10.8008
 20
54.5086
  0
VERTEX
  8
0
 10
10.7979
 20
54.4785
  0
VERTEX
  8
0
 10
10.7948
 20
54.4491
  0
VERTEX
  8
0
 10
10.7914
 20
54.4202
  0
VERTEX
  8
0
 10
10.7877
 20
54.392
  0
VERTEX
  8
0
 10
10.7838
 20
54.3643
  0
VERTEX
  8
0
 10
10.7797
 20
54.3373
  0
VERTEX
  8
0
 10
10.7753
 20
54.3109
  0
VERTEX
  8
0
 10
10.7707
 20
54.2851
  0
VERTEX
  8
0
 10
10.7658
 20
54.2599
  0
VERTEX
  8
0
 10
10.7606
 20
54.2353
  0
VERTEX
  8
0
 10
10.7552
 20
54.2113
  0
VERTEX
  8
0
 10
10.7496
 20
54.1879
  0
VERTEX
  8
0
 10
10.7437
 20
54.1651
  0
VERTEX
  8
0
 10
10.7375
 20
54.143
  0
VERTEX
  8
0
 10
10.7311
 20
54.1214
  0
VERTEX
  8
0
 10
10.7245
 20
54.1004
  0
VERTEX
  8
0
 10
10.7176
 20
54.0801
  0
VERTEX
  8
0
 10
10.7104
 20
54.0604
  0
VERTEX
  8
0
 10
10.703
 20
54.0412
  0
VERTEX
  8
0
 10
10.6954
 20
54.0227
  0
VERTEX
  8
0
 10
10.6875
 20
54.0048
  0
VERTEX
  8
0
 10
10.6793
 20
53.9875
  0
VERTEX
  8
0
 10
10.6709
 20
53.9708
  0
VERTEX
  8
0
 10
10.6622
 20
53.9547
  0
VERTEX
  8
0
 10
10.6533
 20
53.9392
  0
VERTEX
  8
0
 10
10.6442
 20
53.9243
  0
VERTEX
  8
0
 10
10.6347
 20
53.9101
  0
VERTEX
  8
0
 10
10.6251
 20
53.8964
  0
VERTEX
  8
0
 10
10.6152
 20
53.8833
  0
VERTEX
  8
0
 10
10.605
 20
53.8709
  0
VERTEX
  8
0
 10
10.5946
 20
53.859
  0
VERTEX
  8
0
 10
10.5839
 20
53.8478
  0
VERTEX
  8
0
 10
10.573
 20
53.8372
  0
VERTEX
  8
0
 10
10.5618
 20
53.8272
  0
VERTEX
  8
0
 10
10.5504
 20
53.8177
  0
VERTEX
  8
0
 10
10.5387
 20
53.8089
  0
VERTEX
  8
0
 10
10.5268
 20
53.8007
  0
VERTEX
  8
0
 10
10.5146
 20
53.7931
  0
VERTEX
  8
0
 10
10.5022
 20
53.7862
  0
VERTEX
  8
0
 10
10.4895
 20
53.7798
  0
VERTEX
  8
0
 10
10.4766
 20
53.774
  0
VERTEX
  8
0
 10
10.4634
 20
53.7688
  0
VERTEX
  8
0
 10
10.45
 20
53.7643
  0
VERTEX
  8
0
 10
10.4363
 20
53.7603
  0
VERTEX
  8
0
 10
10.4224
 20
53.757
  0
VERTEX
  8
0
 10
10.4082
 20
53.7543
  0
VERTEX
  8
0
 10
10.3938
 20
53.7521
  0
VERTEX
  8
0
 10
10.3791
 20
53.7506
  0
VERTEX
  8
0
 10
10.3642
 20
53.7497
  0
VERTEX
  8
0
 10
10.349
 20
53.7494
  0
VERTEX
  8
0
 10
10.3343
 20
53.7497
  0
VERTEX
  8
0
 10
10.3199
 20
53.7506
  0
VERTEX
  8
0
 10
10.3057
 20
53.7521
  0
VERTEX
  8
0
 10
10.2917
 20
53.7541
  0
VERTEX
  8
0
 10
10.2779
 20
53.7568
  0
VERTEX
  8
0
 10
10.2644
 20
53.76
  0
VERTEX
  8
0
 10
10.2512
 20
53.7638
  0
VERTEX
  8
0
 10
10.2381
 20
53.7682
  0
VERTEX
  8
0
 10
10.2253
 20
53.7732
  0
VERTEX
  8
0
 10
10.2127
 20
53.7788
  0
VERTEX
  8
0
 10
10.2003
 20
53.785
  0
VERTEX
  8
0
 10
10.1882
 20
53.7918
  0
VERTEX
  8
0
 10
10.1763
 20
53.7991
  0
VERTEX
  8
0
 10
10.1647
 20
53.8071
  0
VERTEX
  8
0
 10
10.1532
 20
53.8156
  0
VERTEX
  8
0
 10
10.142
 20
53.8247
  0
VERTEX
  8
0
 10
10.1311
 20
53.8344
  0
VERTEX
  8
0
 10
10.1203
 20
53.8447
  0
VERTEX
  8
0
 10
10.1098
 20
53.8556
  0
VERTEX
  8
0
 10
10.0995
 20
53.8671
  0
VERTEX
  8
0
 10
10.0895
 20
53.8791
  0
VERTEX
  8
0
 10
10.0797
 20
53.8918
  0
VERTEX
  8
0
 10
10.0701
 20
53.905
  0
VERTEX
  8
0
 10
10.0607
 20
53.9188
  0
VERTEX
  8
0
 10
10.0516
 20
53.9333
  0
VERTEX
  8
0
 10
10.0427
 20
53.9483
  0
VERTEX
  8
0
 10
10.0341
 20
53.9639
  0
VERTEX
  8
0
 10
10.0256
 20
53.98
  0
VERTEX
  8
0
 10
10.0174
 20
53.9968
  0
VERTEX
  8
0
 10
10.0095
 20
54.0142
  0
VERTEX
  8
0
 10
10.0017
 20
54.0321
  0
VERTEX
  8
0
 10
9.9942
 20
54.0506
  0
VERTEX
  8
0
 10
9.9869
 20
54.0698
  0
VERTEX
  8
0
 10
9.9799
 20
54.0895
  0
VERTEX
  8
0
 10
9.9731
 20
54.1098
  0
VERTEX
  8
0
 10
9.9665
 20
54.1306
  0
VERTEX
  8
0
 10
9.9602
 20
54.1521
  0
VERTEX
  8
0
 10
9.954
 20
54.1742
  0
VERTEX
  8
0
 10
9.9481
 20
54.1968
  0
VERTEX
  8
0
 10
9.9425
 20
54.2201
  0
VERTEX
  8
0
 10
9.9371
 20
54.2439
  0
VERTEX
  8
0
 10
9.9319
 20
54.2683
  0
VERTEX
  8
0
 10
9.9269
 20
54.2933
  0
VERTEX
  8
0
 10
9.9222
 20
54.3189
  0
VERTEX
  8
0
 10
9.9177
 20
54.3451
  0
VERTEX
  8
0
 10
9.9134
 20
54.3719
  0
VERTEX
  8
0
 10
9.9093
 20
54.3992
  0
VERTEX
  8
0
 10
9.9055
 20
54.4272
  0
VERTEX
  8
0
 10
9.902
 20
54.4557
  0
VERTEX
  8
0
 10
9.8986
 20
54.4848
  0
VERTEX
  8
0
 10
9.8955
 20
54.5145
  0
VERTEX
  8
0
 10
9.8926
 20
54.5448
  0
VERTEX
  8
0
 10
9.8899
 20
54.5757
  0
VERTEX
  8
0
 10
9.8875
 20
54.6072
  0
VERTEX
  8
0
 10
9.8853
 20
54.6392
  0
VERTEX
  8
0
 10
9.8834
 20
54.6719
  0
VERTEX
  8
0
 10
9.8816
 20
54.7051
  0
VERTEX
  8
0
 10
9.8801
 20
54.739
  0
VERTEX
  8
0
 10
9.8789
 20
54.7734
  0
VERTEX
  8
0
 10
9.8778
 20
54.8084
  0
VERTEX
  8
0
 10
9.877
 20
54.844
  0
VERTEX
  8
0
 10
9.8764
 20
54.8802
  0
VERTEX
  8
0
 10
9.8761
 20
54.9169
  0
VERTEX
  8
0
 10
9.876
 20
54.9543
  0
VERTEX
  8
0
 10
9.8775
 20
55.0606
  0
VERTEX
  8
0
 10
9.8821
 20
55.162
  0
VERTEX
  8
0
 10
9.8897
 20
55.2585
  0
VERTEX
  8
0
 10
9.9004
 20
55.3501
  0
VERTEX
  8
0
 10
9.9141
 20
55.4369
  0
VERTEX
  8
0
 10
9.9309
 20
55.5187
  0
VERTEX
  8
0
 10
9.9508
 20
55.5957
  0
VERTEX
  8
0
 10
9.9617
 20
55.6321
  0
VERTEX
  8
0
 10
9.9734
 20
55.6669
  0
VERTEX
  8
0
 10
9.9857
 20
55.7
  0
VERTEX
  8
0
 10
9.9987
 20
55.7314
  0
VERTEX
  8
0
 10
10.0124
 20
55.7611
  0
VERTEX
  8
0
 10
10.0267
 20
55.7891
  0
VERTEX
  8
0
 10
10.0418
 20
55.8154
  0
VERTEX
  8
0
 10
10.0575
 20
55.84
  0
VERTEX
  8
0
 10
10.0739
 20
55.8629
  0
VERTEX
  8
0
 10
10.0909
 20
55.8841
  0
VERTEX
  8
0
 10
10.1087
 20
55.9036
  0
VERTEX
  8
0
 10
10.1271
 20
55.9214
  0
VERTEX
  8
0
 10
10.1463
 20
55.9376
  0
VERTEX
  8
0
 10
10.1661
 20
55.952
  0
VERTEX
  8
0
 10
10.1865
 20
55.9647
  0
VERTEX
  8
0
 10
10.2077
 20
55.9757
  0
VERTEX
  8
0
 10
10.2295
 20
55.9851
  0
VERTEX
  8
0
 10
10.2521
 20
55.9927
  0
VERTEX
  8
0
 10
10.2753
 20
55.9987
  0
VERTEX
  8
0
 10
10.2992
 20
56.0029
  0
VERTEX
  8
0
 10
10.3237
 20
56.0054
  0
VERTEX
  8
0
 10
10.349
 20
56.0063
  0
VERTEX
  8
0
 10
10.3729
 20
56.0054
  0
VERTEX
  8
0
 10
10.3962
 20
56.0029
  0
VERTEX
  8
0
 10
10.4188
 20
55.9986
  0
VERTEX
  8
0
 10
10.4409
 20
55.9927
  0
VERTEX
  8
0
 10
10.4624
 20
55.985
  0
VERTEX
  8
0
 10
10.4832
 20
55.9757
  0
VERTEX
  8
0
 10
10.5034
 20
55.9646
  0
VERTEX
  8
0
 10
10.5231
 20
55.9519
  0
VERTEX
  8
0
 10
10.5421
 20
55.9375
  0
VERTEX
  8
0
 10
10.5605
 20
55.9213
  0
VERTEX
  8
0
 10
10.5783
 20
55.9035
  0
VERTEX
  8
0
 10
10.5955
 20
55.8839
  0
VERTEX
  8
0
 10
10.612
 20
55.8627
  0
VERTEX
  8
0
 10
10.628
 20
55.8397
  0
VERTEX
  8
0
 10
10.6433
 20
55.8151
  0
VERTEX
  8
0
 10
10.6581
 20
55.7887
  0
VERTEX
  8
0
 10
10.6722
 20
55.7607
  0
VERTEX
  8
0
 10
10.6857
 20
55.7309
  0
VERTEX
  8
0
 10
10.6986
 20
55.6995
  0
VERTEX
  8
0
 10
10.7109
 20
55.6664
  0
VERTEX
  8
0
 10
10.7226
 20
55.6315
  0
VERTEX
  8
0
 10
10.7336
 20
55.595
  0
VERTEX
  8
0
 10
10.7441
 20
55.5567
  0
VERTEX
  8
0
 10
10.7661
 20
55.4605
  0
VERTEX
  8
0
 10
10.784
 20
55.3576
  0
VERTEX
  8
0
 10
10.798
 20
55.248
  0
VERTEX
  8
0
 10
10.808
 20
55.1318
  0
VERTEX
  8
0
 10
10.814
 20
55.0089
  0
VERTEX
  8
0
 10
10.816
 20
54.8794
  0
VERTEX
  8
0
 10
10.816
 20
54.8794
  0
SEQEND
  0
POLYLINE
  8
0
 66
     1
 10
0
 20
0
  0
VERTEX
  8
0
 10
11.38
 20
56.3708
  0
VERTEX
  8
0
 10
11.38
 20
54.2069
  0
VERTEX
  8
0
 10
11.3826
 20
54.1472
  0
VERTEX
  8
0
 10
11.3885
 20
54.0889
  0
VERTEX
  8
0
 10
11.3978
 20
54.032
  0
VERTEX
  8
0
 10
11.4103
 20
53.9765
  0
VERTEX
  8
0
 10
11.4261
 20
53.9224
  0
VERTEX
  8
0
 10
11.4452
 20
53.8698
  0
VERTEX
  8
0
 10
11.4675
 20
53.8185
  0
VERTEX
  8
0
 10
11.4932
 20
53.7687
  0
VERTEX
  8
0
 10
11.5221
 20
53.7203
  0
VERTEX
  8
0
 10
11.5544
 20
53.6733
  0
VERTEX
  8
0
 10
11.5899
 20
53.6277
  0
VERTEX
  8
0
 10
11.6287
 20
53.5835
  0
VERTEX
  8
0
 10
11.664
 20
53.5476
  0
VERTEX
  8
0
 10
11.7005
 20
53.5144
  0
VERTEX
  8
0
 10
11.7381
 20
53.4838
  0
VERTEX
  8
0
 10
11.777
 20
53.4558
  0
VERTEX
  8
0
 10
11.817
 20
53.4305
  0
VERTEX
  8
0
 10
11.8583
 20
53.4079
  0
VERTEX
  8
0
 10
11.9007
 20
53.388
  0
VERTEX
  8
0
 10
11.9443
 20
53.3707
  0
VERTEX
  8
0
 10
11.9892
 20
53.356
  0
VERTEX
  8
0
 10
12.0352
 20
53.3441
  0
VERTEX
  8
0
 10
12.0824
 20
53.3348
  0
VERTEX
  8
0
 10
12.1308
 20
53.3281
  0
VERTEX
  8
0
 10
12.1804
 20
53.3241
  0
VERTEX
  8
0
 10
12.2312
 20
53.3228
  0
VERTEX
  8
0
 10
12.2807
 20
53.3242
  0
VERTEX
  8
0
 10
12.3291
 20
53.3284
  0
VERTEX
  8
0
 10
12.3765
 20
53.3353
  0
VERTEX
  8
0
 10
12.4227
 20
53.3451
  0
VERTEX
  8
0
 10
12.4679
 20
53.3576
  0
VERTEX
  8
0
 10
12.5119
 20
53.3729
  0
VERTEX
  8
0
 10
12.5548
 20
53.391
  0
VERTEX
  8
0
 10
12.5967
 20
53.4118
  0
VERTEX
  8
0
 10
12.6374
 20
53.4355
  0
VERTEX
  8
0
 10
12.677
 20
53.4619
  0
VERTEX
  8
0
 10
12.7156
 20
53.4912
  0
VERTEX
  8
0
 10
12.753
 20
53.5232
  0
VERTEX
  8
0
 10
12.7894
 20
53.558
  0
VERTEX
  8
0
 10
12.8246
 20
53.5955
  0
VERTEX
  8
0
 10
12.8619
 20
53.6401
  0
VERTEX
  8
0
 10
12.896
 20
53.686
  0
VERTEX
  8
0
 10
12.9269
 20
53.7332
  0
VERTEX
  8
0
 10
12.9545
 20
53.7817
  0
VERTEX
  8
0
 10
12.9788
 20
53.8315
  0
VERTEX
  8
0
 10
12.9999
 20
53.8825
  0
VERTEX
  8
0
 10
13.0178
 20
53.9348
  0
VERTEX
  8
0
 10
13.0324
 20
53.9885
  0
VERTEX
  8
0
 10
13.0437
 20
54.0434
  0
VERTEX
  8
0
 10
13.0519
 20
54.0996
  0
VERTEX
  8
0
 10
13.0567
 20
54.1571
  0
VERTEX
  8
0
 10
13.0583
 20
54.2159
  0
VERTEX
  8
0
 10
13.0583
 20
56.3708
  0
VERTEX
  8
0
 10
12.628
 20
56.3708
  0
VERTEX
  8
0
 10
12.628
 20
54.2257
  0
VERTEX
  8
0
 10
12.6251
 20
54.159
  0
VERTEX
  8
0
 10
12.6163
 20
54.0966
  0
VERTEX
  8
0
 10
12.6018
 20
54.0385
  0
VERTEX
  8
0
 10
12.5814
 20
53.9848
  0
VERTEX
  8
0
 10
12.5552
 20
53.9353
  0
VERTEX
  8
0
 10
12.5232
 20
53.8902
  0
VERTEX
  8
0
 10
12.4934
 20
53.8565
  0
VERTEX
  8
0
 10
12.4609
 20
53.8273
  0
VERTEX
  8
0
 10
12.4257
 20
53.8026
  0
VERTEX
  8
0
 10
12.3878
 20
53.7824
  0
VERTEX
  8
0
 10
12.3472
 20
53.7666
  0
VERTEX
  8
0
 10
12.3038
 20
53.7554
  0
VERTEX
  8
0
 10
12.2578
 20
53.7487
  0
VERTEX
  8
0
 10
12.209
 20
53.7464
  0
VERTEX
  8
0
 10
12.1631
 20
53.7488
  0
VERTEX
  8
0
 10
12.1196
 20
53.7558
  0
VERTEX
  8
0
 10
12.0785
 20
53.7675
  0
VERTEX
  8
0
 10
12.0399
 20
53.7839
  0
VERTEX
  8
0
 10
12.0037
 20
53.8049
  0
VERTEX
  8
0
 10
11.97
 20
53.8307
  0
VERTEX
  8
0
 10
11.9386
 20
53.8611
  0
VERTEX
  8
0
 10
11.9097
 20
53.8962
  0
VERTEX
  8
0
 10
11.8731
 20
53.9525
  0
VERTEX
  8
0
 10
11.8446
 20
54.0137
  0
VERTEX
  8
0
 10
11.8242
 20
54.0796
  0
VERTEX
  8
0
 10
11.812
 20
54.1502
  0
VERTEX
  8
0
 10
11.808
 20
54.2257
  0
VERTEX
  8
0
 10
11.808
 20
56.3708
  0
VERTEX
  8
0
 10
11.38
 20
56.3708
  0
SEQEND
  0
POLYLINE
  8
0
 66
     1
 10
0
 20
0
  0
VERTEX
  8
0
 10
13.7105
 20
53.3748
  0
VERTEX
  8
0
 10
14.142
 20
53.3748
  0
VERTEX
  8
0
 10
14.142
 20
55.9733
  0
VERTEX
  8
0
 10
14.6965
 20
55.9733
  0
VERTEX
  8
0
 10
14.6965
 20
56.3708
  0
VERTEX
  8
0
 10
13.168
 20
56.3708
  0
VERTEX
  8
0
 10
13.168
 20
55.9733
  0
VERTEX
  8
0
 10
13.7105
 20
55.9733
  0
VERTEX
  8
0
 10
13.7105
 20
53.3748
  0
SEQEND
  0
POLYLINE
  8
0
 66
     1
 10
0
 20
0
  0
VERTEX
  8
0
 10
16.3285
 20
53.7988
  0
VERTEX
  8
0
 10
15.2345
 20
53.7988
  0
VERTEX
  8
0
 10
15.2345
 20
54.7868
  0
VERTEX
  8
0
 10
15.855
 20
54.7868
  0
VERTEX
  8
0
 10
15.855
 20
55.1948
  0
VERTEX
  8
0
 10
15.2345
 20
55.1948
  0
VERTEX
  8
0
 10
15.2345
 20
55.9508
  0
VERTEX
  8
0
 10
16.2146
 20
55.9508
  0
VERTEX
  8
0
 10
16.2146
 20
56.3708
  0
VERTEX
  8
0
 10
14.8
 20
56.3708
  0
VERTEX
  8
0
 10
14.8
 20
53.3748
  0
VERTEX
  8
0
 10
16.3285
 20
53.3748
  0
VERTEX
  8
0
 10
16.3285
 20
53.7988
  0
SEQEND
  0
ARC
  8
0
 10
9.6875
 20
66.3175
 40
0.375
 50
149.5742
 51
286.9437
  0
ARC
  8
0
 10
14.3125
 20
66.3175
 40
0.375
 50
253.0564
 51
390.4258
  0
POLYLINE
  8
0
 66
     1
 10
0
 20
0
  0
VERTEX
  8
0
 10
12
 20
70.63
  0
VERTEX
  8
0
 10
9.3641
 20
66.5074
  0
SEQEND
  0
POLYLINE
  8
0
 66
     1
 10
0
 20
0
  0
VERTEX
  8
0
 10
9.7968
 20
65.9588
  0
VERTEX
  8
0
 10
11
 20
66.3253
  0
SEQEND
  0
POLYLINE
  8
0
 66
     1
 10
0
 20
0
  0
VERTEX
  8
0
 10
13
 20
66.3253
  0
VERTEX
  8
0
 10
14.2032
 20
65.9588
  0
SEQEND
  0
POLYLINE
  8
0
 66
     1
 10
0
 20
0
  0
VERTEX
  8
0
 10
14.6359
 20
66.5074
  0
VERTEX
  8
0
 10
12
 20
70.63
  0
SEQEND
  0
POLYLINE
  8
0
 66
     1
 10
0
 20
0
  0
VERTEX
  8
0
 10
13
 20
62.63
  0
VERTEX
  8
0
 10
11
 20
62.63
  0
VERTEX
  8
0
 10
11
 20
66.3253
  0
SEQEND
  0
POLYLINE
  8
0
 66
     1
 10
0
 20
0
  0
VERTEX
  8
0
 10
13
 20
66.3253
  0
VERTEX
  8
0
 10
13
 20
62.63
  0
SEQEND
  0
POLYLINE
  8
0
 66
     1
 10
0
 20
0
  0
VERTEX
  8
0
 10
5.0805
 20
58.4268
  0
VERTEX
  8
0
 10
3.9865
 20
58.4268
  0
VERTEX
  8
0
 10
3.9865
 20
59.4148
  0
VERTEX
  8
0
 10
4.607
 20
59.4148
  0
VERTEX
  8
0
 10
4.607
 20
59.8228
  0
VERTEX
  8
0
 10
3.9865
 20
59.8228
  0
VERTEX
  8
0
 10
3.9865
 20
60.5788
  0
VERTEX
  8
0
 10
4.9666
 20
60.5788
  0
VERTEX
  8
0
 10
4.9666
 20
60.9988
  0
VERTEX
  8
0
 10
3.552
 20
60.9988
  0
VERTEX
  8
0
 10
3.552
 20
58.0028
  0
VERTEX
  8
0
 10
5.0805
 20
58.0028
  0
VERTEX
  8
0
 10
5.0805
 20
58.4268
  0
SEQEND
  0
POLYLINE
  8
0
 66
     1
 10
0
 20
0
  0
VERTEX
  8
0
 10
6.5717
 20
60.9988
  0
VERTEX
  8
0
 10
6.0771
 20
59.0548
  0
VERTEX
  8
0
 10
5.5825
 20
60.9988
  0
VERTEX
  8
0
 10
5.148
 20
61.0028
  0
VERTEX
  8
0
 10
5.9093
 20
58.0028
  0
VERTEX
  8
0
 10
6.236
 20
58.0028
  0
VERTEX
  8
0
 10
7.0062
 20
61.0028
  0
VERTEX
  8
0
 10
6.5717
 20
60.9988
  0
SEQEND
  0
POLYLINE
  8
0
 66
     1
 10
0
 20
0
  0
VERTEX
  8
0
 10
7.052
 20
57.9988
  0
VERTEX
  8
0
 10
7.4835
 20
58.0028
  0
VERTEX
  8
0
 10
7.6843
 20
58.821
  0
VERTEX
  8
0
 10
8.3258
 20
58.821
  0
VERTEX
  8
0
 10
8.5356
 20
58.0028
  0
VERTEX
  8
0
 10
8.9702
 20
57.9988
  0
VERTEX
  8
0
 10
8.2208
 20
60.9988
  0
VERTEX
  8
0
 10
7.8013
 20
60.9988
  0
VERTEX
  8
0
 10
7.052
 20
57.9988
  0
SEQEND
  0
POLYLINE
  8
0
 66
     1
 10
0
 20
0
  0
VERTEX
  8
0
 10
7.7893
 20
59.2436
  0
VERTEX
  8
0
 10
7.9991
 20
60.1068
  0
VERTEX
  8
0
 10
8.2208
 20
59.2436
  0
VERTEX
  8
0
 10
7.7893
 20
59.2436
  0
SEQEND
  0
POLYLINE
  8
0
 66
     1
 10
0
 20
0
  0
VERTEX
  8
0
 10
10.7423
 20
60.2027
  0
VERTEX
  8
0
 10
10.7355
 20
60.2696
  0
VERTEX
  8
0
 10
10.7259
 20
60.3342
  0
VERTEX
  8
0
 10
10.7135
 20
60.3963
  0
VERTEX
  8
0
 10
10.6983
 20
60.456
  0
VERTEX
  8
0
 10
10.6804
 20
60.5132
  0
VERTEX
  8
0
 10
10.6597
 20
60.5681
  0
VERTEX
  8
0
 10
10.6362
 20
60.6205
  0
VERTEX
  8
0
 10
10.61
 20
60.6704
  0
VERTEX
  8
0
 10
10.581
 20
60.718
  0
VERTEX
  8
0
 10
10.5492
 20
60.7631
  0
VERTEX
  8
0
 10
10.5146
 20
60.8057
  0
VERTEX
  8
0
 10
10.4826
 20
60.84
  0
VERTEX
  8
0
 10
10.4491
 20
60.8718
  0
VERTEX
  8
0
 10
10.4142
 20
60.901
  0
VERTEX
  8
0
 10
10.3778
 20
60.9277
  0
VERTEX
  8
0
 10
10.34
 20
60.9519
  0
VERTEX
  8
0
 10
10.3006
 20
60.9735
  0
VERTEX
  8
0
 10
10.2598
 20
60.9925
  0
VERTEX
  8
0
 10
10.2176
 20
61.009
  0
VERTEX
  8
0
 10
10.1738
 20
61.023
  0
VERTEX
  8
0
 10
10.1286
 20
61.0345
  0
VERTEX
  8
0
 10
10.082
 20
61.0434
  0
VERTEX
  8
0
 10
10.0338
 20
61.0497
  0
VERTEX
  8
0
 10
9.9842
 20
61.0535
  0
VERTEX
  8
0
 10
9.9332
 20
61.0548
  0
VERTEX
  8
0
 10
9.9135
 20
61.0546
  0
VERTEX
  8
0
 10
9.8941
 20
61.054
  0
VERTEX
  8
0
 10
9.8749
 20
61.053
  0
VERTEX
  8
0
 10
9.8559
 20
61.0516
  0
VERTEX
  8
0
 10
9.8372
 20
61.0498
  0
VERTEX
  8
0
 10
9.8187
 20
61.0476
  0
VERTEX
  8
0
 10
9.8004
 20
61.045
  0
VERTEX
  8
0
 10
9.7823
 20
61.042
  0
VERTEX
  8
0
 10
9.7645
 20
61.0386
  0
VERTEX
  8
0
 10
9.7468
 20
61.0348
  0
VERTEX
  8
0
 10
9.7294
 20
61.0307
  0
VERTEX
  8
0
 10
9.7123
 20
61.0261
  0
VERTEX
  8
0
 10
9.6953
 20
61.0211
  0
VERTEX
  8
0
 10
9.6786
 20
61.0157
  0
VERTEX
  8
0
 10
9.6621
 20
61.0099
  0
VERTEX
  8
0
 10
9.6458
 20
61.0037
  0
VERTEX
  8
0
 10
9.6298
 20
60.9971
  0
VERTEX
  8
0
 10
9.6139
 20
60.9902
  0
VERTEX
  8
0
 10
9.5983
 20
60.9828
  0
VERTEX
  8
0
 10
9.583
 20
60.975
  0
VERTEX
  8
0
 10
9.5678
 20
60.9668
  0
VERTEX
  8
0
 10
9.5529
 20
60.9583
  0
VERTEX
  8
0
 10
9.5382
 20
60.9493
  0
VERTEX
  8
0
 10
9.5237
 20
60.9399
  0
VERTEX
  8
0
 10
9.5095
 20
60.9301
  0
VERTEX
  8
0
 10
9.4954
 20
60.92
  0
VERTEX
  8
0
 10
9.4816
 20
60.9094
  0
VERTEX
  8
0
 10
9.468
 20
60.8984
  0
VERTEX
  8
0
 10
9.4547
 20
60.8871
  0
VERTEX
  8
0
 10
9.4415
 20
60.8753
  0
VERTEX
  8
0
 10
9.4286
 20
60.8631
  0
VERTEX
  8
0
 10
9.416
 20
60.8506
  0
VERTEX
  8
0
 10
9.4035
 20
60.8376
  0
VERTEX
  8
0
 10
9.3913
 20
60.8242
  0
VERTEX
  8
0
 10
9.3793
 20
60.8105
  0
VERTEX
  8
0
 10
9.3675
 20
60.7963
  0
VERTEX
  8
0
 10
9.3559
 20
60.7817
  0
VERTEX
  8
0
 10
9.3446
 20
60.7668
  0
VERTEX
  8
0
 10
9.3335
 20
60.7514
  0
VERTEX
  8
0
 10
9.3226
 20
60.7357
  0
VERTEX
  8
0
 10
9.3119
 20
60.7195
  0
VERTEX
  8
0
 10
9.3015
 20
60.703
  0
VERTEX
  8
0
 10
9.2913
 20
60.686
  0
VERTEX
  8
0
 10
9.2813
 20
60.6687
  0
VERTEX
  8
0
 10
9.2715
 20
60.6509
  0
VERTEX
  8
0
 10
9.262
 20
60.6328
  0
VERTEX
  8
0
 10
9.2526
 20
60.6142
  0
VERTEX
  8
0
 10
9.2436
 20
60.5953
  0
VERTEX
  8
0
 10
9.2347
 20
60.5759
  0
VERTEX
  8
0
 10
9.226
 20
60.5562
  0
VERTEX
  8
0
 10
9.2176
 20
60.536
  0
VERTEX
  8
0
 10
9.2094
 20
60.5155
  0
VERTEX
  8
0
 10
9.2015
 20
60.4945
  0
VERTEX
  8
0
 10
9.1937
 20
60.4732
  0
VERTEX
  8
0
 10
9.1862
 20
60.4515
  0
VERTEX
  8
0
 10
9.1789
 20
60.4293
  0
VERTEX
  8
0
 10
9.1718
 20
60.4068
  0
VERTEX
  8
0
 10
9.165
 20
60.3839
  0
VERTEX
  8
0
 10
9.1584
 20
60.3605
  0
VERTEX
  8
0
 10
9.152
 20
60.3368
  0
VERTEX
  8
0
 10
9.1458
 20
60.3127
  0
VERTEX
  8
0
 10
9.1398
 20
60.2881
  0
VERTEX
  8
0
 10
9.1341
 20
60.2632
  0
VERTEX
  8
0
 10
9.1286
 20
60.2379
  0
VERTEX
  8
0
 10
9.1233
 20
60.2121
  0
VERTEX
  8
0
 10
9.1183
 20
60.186
  0
VERTEX
  8
0
 10
9.1135
 20
60.1595
  0
VERTEX
  8
0
 10
9.1089
 20
60.1326
  0
VERTEX
  8
0
 10
9.1045
 20
60.1052
  0
VERTEX
  8
0
 10
9.1003
 20
60.0775
  0
VERTEX
  8
0
 10
9.0964
 20
60.0494
  0
VERTEX
  8
0
 10
9.0927
 20
60.0209
  0
VERTEX
  8
0
 10
9.0892
 20
59.9919
  0
VERTEX
  8
0
 10
9.086
 20
59.9626
  0
VERTEX
  8
0
 10
9.0829
 20
59.9329
  0
VERTEX
  8
0
 10
9.0801
 20
59.9028
  0
VERTEX
  8
0
 10
9.0776
 20
59.8723
  0
VERTEX
  8
0
 10
9.0752
 20
59.8414
  0
VERTEX
  8
0
 10
9.0731
 20
59.8101
  0
VERTEX
  8
0
 10
9.0712
 20
59.7783
  0
VERTEX
  8
0
 10
9.0695
 20
59.7462
  0
VERTEX
  8
0
 10
9.068
 20
59.7137
  0
VERTEX
  8
0
 10
9.0668
 20
59.6808
  0
VERTEX
  8
0
 10
9.0658
 20
59.6475
  0
VERTEX
  8
0
 10
9.065
 20
59.6138
  0
VERTEX
  8
0
 10
9.0644
 20
59.5797
  0
VERTEX
  8
0
 10
9.0641
 20
59.5452
  0
VERTEX
  8
0
 10
9.064
 20
59.5103
  0
VERTEX
  8
0
 10
9.0641
 20
59.4758
  0
VERTEX
  8
0
 10
9.0644
 20
59.4417
  0
VERTEX
  8
0
 10
9.065
 20
59.4081
  0
VERTEX
  8
0
 10
9.0657
 20
59.3747
  0
VERTEX
  8
0
 10
9.0667
 20
59.3418
  0
VERTEX
  8
0
 10
9.068
 20
59.3093
  0
VERTEX
  8
0
 10
9.0694
 20
59.2771
  0
VERTEX
  8
0
 10
9.0711
 20
59.2454
  0
VERTEX
  8
0
 10
9.073
 20
59.214
  0
VERTEX
  8
0
 10
9.0751
 20
59.183
  0
VERTEX
  8
0
 10
9.0774
 20
59.1524
  0
VERTEX
  8
0
 10
9.08
 20
59.1221
  0
VERTEX
  8
0
 10
9.0827
 20
59.0923
  0
VERTEX
  8
0
 10
9.0857
 20
59.0628
  0
VERTEX
  8
0
 10
9.0889
 20
59.0338
  0
VERTEX
  8
0
 10
9.0924
 20
59.0051
  0
VERTEX
  8
0
 10
9.096
 20
58.9768
  0
VERTEX
  8
0
 10
9.0999
 20
58.9489
  0
VERTEX
  8
0
 10
9.104
 20
58.9213
  0
VERTEX
  8
0
 10
9.1084
 20
58.8942
  0
VERTEX
  8
0
 10
9.1129
 20
58.8674
  0
VERTEX
  8
0
 10
9.1177
 20
58.8411
  0
VERTEX
  8
0
 10
9.1227
 20
58.8151
  0
VERTEX
  8
0
 10
9.1279
 20
58.7895
  0
VERTEX
  8
0
 10
9.1333
 20
58.7642
  0
VERTEX
  8
0
 10
9.139
 20
58.7394
  0
VERTEX
  8
0
 10
9.1449
 20
58.7149
  0
VERTEX
  8
0
 10
9.151
 20
58.6909
  0
VERTEX
  8
0
 10
9.1573
 20
58.6672
  0
VERTEX
  8
0
 10
9.1639
 20
58.6439
  0
VERTEX
  8
0
 10
9.1706
 20
58.621
  0
VERTEX
  8
0
 10
9.1776
 20
58.5985
  0
VERTEX
  8
0
 10
9.1849
 20
58.5763
  0
VERTEX
  8
0
 10
9.1923
 20
58.5546
  0
VERTEX
  8
0
 10
9.1999
 20
58.5332
  0
VERTEX
  8
0
 10
9.2078
 20
58.5122
  0
VERTEX
  8
0
 10
9.2159
 20
58.4916
  0
VERTEX
  8
0
 10
9.2243
 20
58.4714
  0
VERTEX
  8
0
 10
9.2328
 20
58.4516
  0
VERTEX
  8
0
 10
9.2416
 20
58.4321
  0
VERTEX
  8
0
 10
9.2506
 20
58.4131
  0
VERTEX
  8
0
 10
9.2598
 20
58.3944
  0
VERTEX
  8
0
 10
9.2692
 20
58.3761
  0
VERTEX
  8
0
 10
9.2789
 20
58.3582
  0
VERTEX
  8
0
 10
9.2888
 20
58.3407
  0
VERTEX
  8
0
 10
9.2989
 20
58.3235
  0
VERTEX
  8
0
 10
9.3092
 20
58.3068
  0
VERTEX
  8
0
 10
9.3197
 20
58.2904
  0
VERTEX
  8
0
 10
9.3305
 20
58.2744
  0
VERTEX
  8
0
 10
9.3415
 20
58.2588
  0
VERTEX
  8
0
 10
9.3527
 20
58.2436
  0
VERTEX
  8
0
 10
9.3641
 20
58.2288
  0
VERTEX
  8
0
 10
9.3758
 20
58.2144
  0
VERTEX
  8
0
 10
9.3877
 20
58.2003
  0
VERTEX
  8
0
 10
9.3998
 20
58.1866
  0
VERTEX
  8
0
 10
9.4121
 20
58.1734
  0
VERTEX
  8
0
 10
9.4246
 20
58.1605
  0
VERTEX
  8
0
 10
9.4374
 20
58.1479
  0
VERTEX
  8
0
 10
9.4504
 20
58.1358
  0
VERTEX
  8
0
 10
9.4636
 20
58.1241
  0
VERTEX
  8
0
 10
9.477
 20
58.1127
  0
VERTEX
  8
0
 10
9.4907
 20
58.1017
  0
VERTEX
  8
0
 10
9.5045
 20
58.0911
  0
VERTEX
  8
0
 10
9.5186
 20
58.0809
  0
VERTEX
  8
0
 10
9.533
 20
58.0711
  0
VERTEX
  8
0
 10
9.5475
 20
58.0617
  0
VERTEX
  8
0
 10
9.5623
 20
58.0526
  0
VERTEX
  8
0
 10
9.5772
 20
58.044
  0
VERTEX
  8
0
 10
9.5925
 20
58.0357
  0
VERTEX
  8
0
 10
9.6079
 20
58.0278
  0
VERTEX
  8
0
 10
9.6235
 20
58.0203
  0
VERTEX
  8
0
 10
9.6394
 20
58.0132
  0
VERTEX
  8
0
 10
9.6555
 20
58.0064
  0
VERTEX
  8
0
 10
9.6718
 20
58.0001
  0
VERTEX
  8
0
 10
9.6884
 20
57.9941
  0
VERTEX
  8
0
 10
9.7051
 20
57.9885
  0
VERTEX
  8
0
 10
9.7221
 20
57.9833
  0
VERTEX
  8
0
 10
9.7393
 20
57.9785
  0
VERTEX
  8
0
 10
9.7567
 20
57.9741
  0
VERTEX
  8
0
 10
9.7744
 20
57.97
  0
VERTEX
  8
0
 10
9.7923
 20
57.9664
  0
VERTEX
  8
0
 10
9.8104
 20
57.9631
  0
VERTEX
  8
0
 10
9.8287
 20
57.9602
  0
VERTEX
  8
0
 10
9.8472
 20
57.9577
  0
VERTEX
  8
0
 10
9.866
 20
57.9556
  0
VERTEX
  8
0
 10
9.8849
 20
57.9539
  0
VERTEX
  8
0
 10
9.9042
 20
57.9525
  0
VERTEX
  8
0
 10
9.9236
 20
57.9516
  0
VERTEX
  8
0
 10
9.9432
 20
57.951
  0
VERTEX
  8
0
 10
9.9631
 20
57.9508
  0
VERTEX
  8
0
 10
10.0145
 20
57.9521
  0
VERTEX
  8
0
 10
10.0643
 20
57.9559
  0
VERTEX
  8
0
 10
10.1124
 20
57.9624
  0
VERTEX
  8
0
 10
10.1588
 20
57.9714
  0
VERTEX
  8
0
 10
10.2036
 20
57.9829
  0
VERTEX
  8
0
 10
10.2468
 20
57.9971
  0
VERTEX
  8
0
 10
10.2883
 20
58.0138
  0
VERTEX
  8
0
 10
10.3281
 20
58.0331
  0
VERTEX
  8
0
 10
10.3663
 20
58.055
  0
VERTEX
  8
0
 10
10.4029
 20
58.0794
  0
VERTEX
  8
0
 10
10.4378
 20
58.1064
  0
VERTEX
  8
0
 10
10.471
 20
58.136
  0
VERTEX
  8
0
 10
10.5026
 20
58.1681
  0
VERTEX
  8
0
 10
10.5325
 20
58.2029
  0
VERTEX
  8
0
 10
10.565
 20
58.2456
  0
VERTEX
  8
0
 10
10.5948
 20
58.2907
  0
VERTEX
  8
0
 10
10.6218
 20
58.3384
  0
VERTEX
  8
0
 10
10.6463
 20
58.3886
  0
VERTEX
  8
0
 10
10.668
 20
58.4412
  0
VERTEX
  8
0
 10
10.6871
 20
58.4963
  0
VERTEX
  8
0
 10
10.7035
 20
58.5539
  0
VERTEX
  8
0
 10
10.7172
 20
58.6139
  0
VERTEX
  8
0
 10
10.7283
 20
58.6765
  0
VERTEX
  8
0
 10
10.7366
 20
58.7415
  0
VERTEX
  8
0
 10
10.7423
 20
58.809
  0
VERTEX
  8
0
 10
10.3078
 20
58.809
  0
VERTEX
  8
0
 10
10.3108
 20
58.7611
  0
VERTEX
  8
0
 10
10.3095
 20
58.6943
  0
VERTEX
  8
0
 10
10.301
 20
58.633
  0
VERTEX
  8
0
 10
10.2851
 20
58.5773
  0
VERTEX
  8
0
 10
10.2619
 20
58.527
  0
VERTEX
  8
0
 10
10.2314
 20
58.4823
  0
VERTEX
  8
0
 10
10.2005
 20
58.4503
  0
VERTEX
  8
0
 10
10.1649
 20
58.424
  0
VERTEX
  8
0
 10
10.1246
 20
58.4036
  0
VERTEX
  8
0
 10
10.0795
 20
58.3891
  0
VERTEX
  8
0
 10
10.0297
 20
58.3803
  0
VERTEX
  8
0
 10
9.9751
 20
58.3774
  0
VERTEX
  8
0
 10
9.9493
 20
58.3782
  0
VERTEX
  8
0
 10
9.9242
 20
58.3804
  0
VERTEX
  8
0
 10
9.8998
 20
58.3842
  0
VERTEX
  8
0
 10
9.8761
 20
58.3895
  0
VERTEX
  8
0
 10
9.8531
 20
58.3962
  0
VERTEX
  8
0
 10
9.8307
 20
58.4045
  0
VERTEX
  8
0
 10
9.8091
 20
58.4143
  0
VERTEX
  8
0
 10
9.7881
 20
58.4256
  0
VERTEX
  8
0
 10
9.7678
 20
58.4384
  0
VERTEX
  8
0
 10
9.7483
 20
58.4527
  0
VERTEX
  8
0
 10
9.7294
 20
58.4685
  0
VERTEX
  8
0
 10
9.7112
 20
58.4858
  0
VERTEX
  8
0
 10
9.6937
 20
58.5047
  0
VERTEX
  8
0
 10
9.6769
 20
58.525
  0
VERTEX
  8
0
 10
9.6608
 20
58.5468
  0
VERTEX
  8
0
 10
9.6453
 20
58.5702
  0
VERTEX
  8
0
 10
9.6306
 20
58.595
  0
VERTEX
  8
0
 10
9.6165
 20
58.6214
  0
VERTEX
  8
0
 10
9.6032
 20
58.6492
  0
VERTEX
  8
0
 10
9.5905
 20
58.6786
  0
VERTEX
  8
0
 10
9.5785
 20
58.7094
  0
VERTEX
  8
0
 10
9.5672
 20
58.7418
  0
VERTEX
  8
0
 10
9.5567
 20
58.7757
  0
VERTEX
  8
0
 10
9.5467
 20
58.8111
  0
VERTEX
  8
0
 10
9.5375
 20
58.848
  0
VERTEX
  8
0
 10
9.5284
 20
58.8901
  0
VERTEX
  8
0
 10
9.5201
 20
58.9357
  0
VERTEX
  8
0
 10
9.5126
 20
58.9847
  0
VERTEX
  8
0
 10
9.5059
 20
59.0371
  0
VERTEX
  8
0
 10
9.5
 20
59.0929
  0
VERTEX
  8
0
 10
9.4948
 20
59.1522
  0
VERTEX
  8
0
 10
9.4905
 20
59.2148
  0
VERTEX
  8
0
 10
9.4869
 20
59.2809
  0
VERTEX
  8
0
 10
9.4842
 20
59.3504
  0
VERTEX
  8
0
 10
9.4822
 20
59.4233
  0
VERTEX
  8
0
 10
9.481
 20
59.4996
  0
VERTEX
  8
0
 10
9.4806
 20
59.5793
  0
VERTEX
  8
0
 10
9.4809
 20
59.6511
  0
VERTEX
  8
0
 10
9.4819
 20
59.7196
  0
VERTEX
  8
0
 10
9.4836
 20
59.7848
  0
VERTEX
  8
0
 10
9.4859
 20
59.8467
  0
VERTEX
  8
0
 10
9.4889
 20
59.9053
  0
VERTEX
  8
0
 10
9.4926
 20
59.9607
  0
VERTEX
  8
0
 10
9.4969
 20
60.0127
  0
VERTEX
  8
0
 10
9.5019
 20
60.0615
  0
VERTEX
  8
0
 10
9.5076
 20
60.107
  0
VERTEX
  8
0
 10
9.5139
 20
60.1491
  0
VERTEX
  8
0
 10
9.5209
 20
60.1881
  0
VERTEX
  8
0
 10
9.5285
 20
60.2237
  0
VERTEX
  8
0
 10
9.5377
 20
60.2599
  0
VERTEX
  8
0
 10
9.5476
 20
60.2944
  0
VERTEX
  8
0
 10
9.5584
 20
60.3273
  0
VERTEX
  8
0
 10
9.5701
 20
60.3584
  0
VERTEX
  8
0
 10
9.5825
 20
60.3879
  0
VERTEX
  8
0
 10
9.5958
 20
60.4157
  0
VERTEX
  8
0
 10
9.6099
 20
60.4418
  0
VERTEX
  8
0
 10
9.6248
 20
60.4662
  0
VERTEX
  8
0
 10
9.6406
 20
60.489
  0
VERTEX
  8
0
 10
9.6572
 20
60.51
  0
VERTEX
  8
0
 10
9.6747
 20
60.5294
  0
VERTEX
  8
0
 10
9.6929
 20
60.5471
  0
VERTEX
  8
0
 10
9.712
 20
60.5631
  0
VERTEX
  8
0
 10
9.7319
 20
60.5774
  0
VERTEX
  8
0
 10
9.7527
 20
60.59
  0
VERTEX
  8
0
 10
9.7743
 20
60.601
  0
VERTEX
  8
0
 10
9.7967
 20
60.6102
  0
VERTEX
  8
0
 10
9.8199
 20
60.6178
  0
VERTEX
  8
0
 10
9.844
 20
60.6237
  0
VERTEX
  8
0
 10
9.8689
 20
60.6279
  0
VERTEX
  8
0
 10
9.8946
 20
60.6304
  0
VERTEX
  8
0
 10
9.9212
 20
60.6313
  0
VERTEX
  8
0
 10
9.9473
 20
60.6306
  0
VERTEX
  8
0
 10
9.9726
 20
60.6285
  0
VERTEX
  8
0
 10
9.997
 20
60.6251
  0
VERTEX
  8
0
 10
10.0205
 20
60.6203
  0
VERTEX
  8
0
 10
10.0431
 20
60.6141
  0
VERTEX
  8
0
 10
10.0648
 20
60.6066
  0
VERTEX
  8
0
 10
10.0856
 20
60.5977
  0
VERTEX
  8
0
 10
10.1055
 20
60.5874
  0
VERTEX
  8
0
 10
10.1246
 20
60.5757
  0
VERTEX
  8
0
 10
10.1427
 20
60.5627
  0
VERTEX
  8
0
 10
10.16
 20
60.5483
  0
VERTEX
  8
0
 10
10.1763
 20
60.5325
  0
VERTEX
  8
0
 10
10.1918
 20
60.5154
  0
VERTEX
  8
0
 10
10.2064
 20
60.4969
  0
VERTEX
  8
0
 10
10.22
 20
60.477
  0
VERTEX
  8
0
 10
10.2328
 20
60.4557
  0
VERTEX
  8
0
 10
10.2447
 20
60.4331
  0
VERTEX
  8
0
 10
10.2557
 20
60.4091
  0
VERTEX
  8
0
 10
10.2658
 20
60.3837
  0
VERTEX
  8
0
 10
10.2751
 20
60.357
  0
VERTEX
  8
0
 10
10.2834
 20
60.3289
  0
VERTEX
  8
0
 10
10.2908
 20
60.2994
  0
VERTEX
  8
0
 10
10.2974
 20
60.2685
  0
VERTEX
  8
0
 10
10.303
 20
60.2363
  0
VERTEX
  8
0
 10
10.3078
 20
60.2027
  0
VERTEX
  8
0
 10
10.7423
 20
60.2027
  0
SEQEND
  0
POLYLINE
  8
0
 66
     1
 10
0
 20
0
  0
VERTEX
  8
0
 10
10.892
 20
60.9988
  0
VERTEX
  8
0
 10
10.892
 20
58.8349
  0
VERTEX
  8
0
 10
10.8946
 20
58.7752
  0
VERTEX
  8
0
 10
10.9005
 20
58.7169
  0
VERTEX
  8
0
 10
10.9098
 20
58.66
  0
VERTEX
  8
0
 10
10.9223
 20
58.6045
  0
VERTEX
  8
0
 10
10.9381
 20
58.5504
  0
VERTEX
  8
0
 10
10.9572
 20
58.4978
  0
VERTEX
  8
0
 10
10.9795
 20
58.4465
  0
VERTEX
  8
0
 10
11.0052
 20
58.3967
  0
VERTEX
  8
0
 10
11.0341
 20
58.3483
  0
VERTEX
  8
0
 10
11.0664
 20
58.3013
  0
VERTEX
  8
0
 10
11.1019
 20
58.2557
  0
VERTEX
  8
0
 10
11.1407
 20
58.2115
  0
VERTEX
  8
0
 10
11.176
 20
58.1756
  0
VERTEX
  8
0
 10
11.2125
 20
58.1424
  0
VERTEX
  8
0
 10
11.2501
 20
58.1118
  0
VERTEX
  8
0
 10
11.289
 20
58.0838
  0
VERTEX
  8
0
 10
11.329
 20
58.0585
  0
VERTEX
  8
0
 10
11.3703
 20
58.0359
  0
VERTEX
  8
0
 10
11.4127
 20
58.016
  0
VERTEX
  8
0
 10
11.4563
 20
57.9987
  0
VERTEX
  8
0
 10
11.5012
 20
57.984
  0
VERTEX
  8
0
 10
11.5472
 20
57.9721
  0
VERTEX
  8
0
 10
11.5944
 20
57.9628
  0
VERTEX
  8
0
 10
11.6428
 20
57.9561
  0
VERTEX
  8
0
 10
11.6924
 20
57.9521
  0
VERTEX
  8
0
 10
11.7432
 20
57.9508
  0
VERTEX
  8
0
 10
11.7927
 20
57.9522
  0
VERTEX
  8
0
 10
11.8411
 20
57.9564
  0
VERTEX
  8
0
 10
11.8885
 20
57.9633
  0
VERTEX
  8
0
 10
11.9347
 20
57.9731
  0
VERTEX
  8
0
 10
11.9799
 20
57.9856
  0
VERTEX
  8
0
 10
12.0239
 20
58.0009
  0
VERTEX
  8
0
 10
12.0668
 20
58.019
  0
VERTEX
  8
0
 10
12.1087
 20
58.0398
  0
VERTEX
  8
0
 10
12.1494
 20
58.0635
  0
VERTEX
  8
0
 10
12.189
 20
58.0899
  0
VERTEX
  8
0
 10
12.2276
 20
58.1192
  0
VERTEX
  8
0
 10
12.265
 20
58.1512
  0
VERTEX
  8
0
 10
12.3014
 20
58.186
  0
VERTEX
  8
0
 10
12.3366
 20
58.2235
  0
VERTEX
  8
0
 10
12.3739
 20
58.2681
  0
VERTEX
  8
0
 10
12.408
 20
58.314
  0
VERTEX
  8
0
 10
12.4389
 20
58.3612
  0
VERTEX
  8
0
 10
12.4665
 20
58.4097
  0
VERTEX
  8
0
 10
12.4908
 20
58.4595
  0
VERTEX
  8
0
 10
12.5119
 20
58.5105
  0
VERTEX
  8
0
 10
12.5298
 20
58.5628
  0
VERTEX
  8
0
 10
12.5444
 20
58.6165
  0
VERTEX
  8
0
 10
12.5557
 20
58.6714
  0
VERTEX
  8
0
 10
12.5639
 20
58.7276
  0
VERTEX
  8
0
 10
12.5687
 20
58.7851
  0
VERTEX
  8
0
 10
12.5703
 20
58.8439
  0
VERTEX
  8
0
 10
12.5703
 20
60.9988
  0
VERTEX
  8
0
 10
12.14
 20
60.9988
  0
VERTEX
  8
0
 10
12.14
 20
58.8537
  0
VERTEX
  8
0
 10
12.1371
 20
58.787
  0
VERTEX
  8
0
 10
12.1283
 20
58.7246
  0
VERTEX
  8
0
 10
12.1138
 20
58.6665
  0
VERTEX
  8
0
 10
12.0934
 20
58.6128
  0
VERTEX
  8
0
 10
12.0672
 20
58.5633
  0
VERTEX
  8
0
 10
12.0352
 20
58.5182
  0
VERTEX
  8
0
 10
12.0054
 20
58.4845
  0
VERTEX
  8
0
 10
11.9729
 20
58.4553
  0
VERTEX
  8
0
 10
11.9377
 20
58.4306
  0
VERTEX
  8
0
 10
11.8998
 20
58.4104
  0
VERTEX
  8
0
 10
11.8592
 20
58.3946
  0
VERTEX
  8
0
 10
11.8158
 20
58.3834
  0
VERTEX
  8
0
 10
11.7698
 20
58.3767
  0
VERTEX
  8
0
 10
11.721
 20
58.3744
  0
VERTEX
  8
0
 10
11.6751
 20
58.3768
  0
VERTEX
  8
0
 10
11.6316
 20
58.3838
  0
VERTEX
  8
0
 10
11.5905
 20
58.3955
  0
VERTEX
  8
0
 10
11.5519
 20
58.4119
  0
VERTEX
  8
0
 10
11.5157
 20
58.4329
  0
VERTEX
  8
0
 10
11.482
 20
58.4587
  0
VERTEX
  8
0
 10
11.4506
 20
58.4891
  0
VERTEX
  8
0
 10
11.4217
 20
58.5242
  0
VERTEX
  8
0
 10
11.3851
 20
58.5805
  0
VERTEX
  8
0
 10
11.3566
 20
58.6417
  0
VERTEX
  8
0
 10
11.3362
 20
58.7076
  0
VERTEX
  8
0
 10
11.324
 20
58.7782
  0
VERTEX
  8
0
 10
11.32
 20
58.8537
  0
VERTEX
  8
0
 10
11.32
 20
60.9988
  0
VERTEX
  8
0
 10
10.892
 20
60.9988
  0
SEQEND
  0
POLYLINE
  8
0
 66
     1
 10
0
 20
0
  0
VERTEX
  8
0
 10
12.68
 20
57.9988
  0
VERTEX
  8
0
 10
13.1115
 20
58.0028
  0
VERTEX
  8
0
 10
13.3123
 20
58.821
  0
VERTEX
  8
0
 10
13.9538
 20
58.821
  0
VERTEX
  8
0
 10
14.1636
 20
58.0028
  0
VERTEX
  8
0
 10
14.5982
 20
57.9988
  0
VERTEX
  8
0
 10
13.8488
 20
60.9988
  0
VERTEX
  8
0
 10
13.4293
 20
60.9988
  0
VERTEX
  8
0
 10
12.68
 20
57.9988
  0
SEQEND
  0
POLYLINE
  8
0
 66
     1
 10
0
 20
0
  0
VERTEX
  8
0
 10
13.4173
 20
59.2436
  0
VERTEX
  8
0
 10
13.6271
 20
60.1068
  0
VERTEX
  8
0
 10
13.8488
 20
59.2436
  0
VERTEX
  8
0
 10
13.4173
 20
59.2436
  0
SEQEND
  0
POLYLINE
  8
0
 66
     1
 10
0
 20
0
  0
VERTEX
  8
0
 10
15.1865
 20
58.0028
  0
VERTEX
  8
0
 10
15.618
 20
58.0028
  0
VERTEX
  8
0
 10
15.618
 20
60.6013
  0
VERTEX
  8
0
 10
16.1725
 20
60.6013
  0
VERTEX
  8
0
 10
16.1725
 20
60.9988
  0
VERTEX
  8
0
 10
14.644
 20
60.9988
  0
VERTEX
  8
0
 10
14.644
 20
60.6013
  0
VERTEX
  8
0
 10
15.1865
 20
60.6013
  0
VERTEX
  8
0
 10
15.1865
 20
58.0028
  0
SEQEND
  0
POLYLINE
  8
0
 66
     1
 10
0
 20
0
  0
VERTEX
  8
0
 10
16.28
 20
58.0028
  0
VERTEX
  8
0
 10
16.6996
 20
58.0028
  0
VERTEX
  8
0
 10
16.6996
 20
60.9988
  0
VERTEX
  8
0
 10
16.28
 20
60.9988
  0
VERTEX
  8
0
 10
16.28
 20
58.0028
  0
SEQEND
  0
POLYLINE
  8
0
 66
     1
 10
0
 20
0
  0
VERTEX
  8
0
 10
18.6163
 20
59.5073
  0
VERTEX
  8
0
 10
18.6162
 20
59.5423
  0
VERTEX
  8
0
 10
18.6158
 20
59.5768
  0
VERTEX
  8
0
 10
18.6153
 20
59.611
  0
VERTEX
  8
0
 10
18.6145
 20
59.6448
  0
VERTEX
  8
0
 10
18.6134
 20
59.6781
  0
VERTEX
  8
0
 10
18.6122
 20
59.7111
  0
VERTEX
  8
0
 10
18.6107
 20
59.7437
  0
VERTEX
  8
0
 10
18.609
 20
59.7759
  0
VERTEX
  8
0
 10
18.6071
 20
59.8076
  0
VERTEX
  8
0
 10
18.6049
 20
59.839
  0
VERTEX
  8
0
 10
18.6026
 20
59.87
  0
VERTEX
  8
0
 10
18.6
 20
59.9006
  0
VERTEX
  8
0
 10
18.5971
 20
59.9307
  0
VERTEX
  8
0
 10
18.5941
 20
59.9605
  0
VERTEX
  8
0
 10
18.5908
 20
59.9899
  0
VERTEX
  8
0
 10
18.5873
 20
60.0189
  0
VERTEX
  8
0
 10
18.5835
 20
60.0474
  0
VERTEX
  8
0
 10
18.5795
 20
60.0756
  0
VERTEX
  8
0
 10
18.5753
 20
60.1034
  0
VERTEX
  8
0
 10
18.5709
 20
60.1308
  0
VERTEX
  8
0
 10
18.5663
 20
60.1577
  0
VERTEX
  8
0
 10
18.5614
 20
60.1843
  0
VERTEX
  8
0
 10
18.5563
 20
60.2105
  0
VERTEX
  8
0
 10
18.551
 20
60.2363
  0
VERTEX
  8
0
 10
18.5454
 20
60.2617
  0
VERTEX
  8
0
 10
18.5396
 20
60.2866
  0
VERTEX
  8
0
 10
18.5336
 20
60.3112
  0
VERTEX
  8
0
 10
18.5274
 20
60.3354
  0
VERTEX
  8
0
 10
18.5209
 20
60.3592
  0
VERTEX
  8
0
 10
18.5142
 20
60.3826
  0
VERTEX
  8
0
 10
18.5073
 20
60.4055
  0
VERTEX
  8
0
 10
18.5002
 20
60.4281
  0
VERTEX
  8
0
 10
18.4928
 20
60.4503
  0
VERTEX
  8
0
 10
18.4852
 20
60.4721
  0
VERTEX
  8
0
 10
18.4774
 20
60.4935
  0
VERTEX
  8
0
 10
18.4693
 20
60.5144
  0
VERTEX
  8
0
 10
18.461
 20
60.535
  0
VERTEX
  8
0
 10
18.4525
 20
60.5552
  0
VERTEX
  8
0
 10
18.4438
 20
60.575
  0
VERTEX
  8
0
 10
18.4348
 20
60.5944
  0
VERTEX
  8
0
 10
18.4257
 20
60.6134
  0
VERTEX
  8
0
 10
18.4162
 20
60.6319
  0
VERTEX
  8
0
 10
18.4066
 20
60.6501
  0
VERTEX
  8
0
 10
18.3967
 20
60.6679
  0
VERTEX
  8
0
 10
18.3866
 20
60.6853
  0
VERTEX
  8
0
 10
18.3763
 20
60.7023
  0
VERTEX
  8
0
 10
18.3658
 20
60.7189
  0
VERTEX
  8
0
 10
18.355
 20
60.7351
  0
VERTEX
  8
0
 10
18.344
 20
60.7508
  0
VERTEX
  8
0
 10
18.3328
 20
60.7662
  0
VERTEX
  8
0
 10
18.3213
 20
60.7812
  0
VERTEX
  8
0
 10
18.3096
 20
60.7958
  0
VERTEX
  8
0
 10
18.2977
 20
60.81
  0
VERTEX
  8
0
 10
18.2856
 20
60.8238
  0
VERTEX
  8
0
 10
18.2732
 20
60.8372
  0
VERTEX
  8
0
 10
18.2607
 20
60.8502
  0
VERTEX
  8
0
 10
18.2478
 20
60.8627
  0
VERTEX
  8
0
 10
18.2348
 20
60.8749
  0
VERTEX
  8
0
 10
18.2215
 20
60.8867
  0
VERTEX
  8
0
 10
18.208
 20
60.8981
  0
VERTEX
  8
0
 10
18.1943
 20
60.9091
  0
VERTEX
  8
0
 10
18.1804
 20
60.9197
  0
VERTEX
  8
0
 10
18.1662
 20
60.9299
  0
VERTEX
  8
0
 10
18.1518
 20
60.9397
  0
VERTEX
  8
0
 10
18.1372
 20
60.9491
  0
VERTEX
  8
0
 10
18.1223
 20
60.9581
  0
VERTEX
  8
0
 10
18.1072
 20
60.9667
  0
VERTEX
  8
0
 10
18.0919
 20
60.9749
  0
VERTEX
  8
0
 10
18.0764
 20
60.9826
  0
VERTEX
  8
0
 10
18.0606
 20
60.99
  0
VERTEX
  8
0
 10
18.0446
 20
60.997
  0
VERTEX
  8
0
 10
18.0284
 20
61.0036
  0
VERTEX
  8
0
 10
18.012
 20
61.0098
  0
VERTEX
  8
0
 10
17.9953
 20
61.0156
  0
VERTEX
  8
0
 10
17.9784
 20
61.021
  0
VERTEX
  8
0
 10
17.9613
 20
61.026
  0
VERTEX
  8
0
 10
17.9439
 20
61.0306
  0
VERTEX
  8
0
 10
17.9263
 20
61.0348
  0
VERTEX
  8
0
 10
17.9085
 20
61.0386
  0
VERTEX
  8
0
 10
17.8905
 20
61.042
  0
VERTEX
  8
0
 10
17.8722
 20
61.045
  0
VERTEX
  8
0
 10
17.8538
 20
61.0476
  0
VERTEX
  8
0
 10
17.8351
 20
61.0498
  0
VERTEX
  8
0
 10
17.8161
 20
61.0516
  0
VERTEX
  8
0
 10
17.797
 20
61.053
  0
VERTEX
  8
0
 10
17.7776
 20
61.054
  0
VERTEX
  8
0
 10
17.7579
 20
61.0546
  0
VERTEX
  8
0
 10
17.7381
 20
61.0548
  0
VERTEX
  8
0
 10
17.7182
 20
61.0546
  0
VERTEX
  8
0
 10
17.6985
 20
61.054
  0
VERTEX
  8
0
 10
17.6791
 20
61.053
  0
VERTEX
  8
0
 10
17.6599
 20
61.0517
  0
VERTEX
  8
0
 10
17.6409
 20
61.0499
  0
VERTEX
  8
0
 10
17.6221
 20
61.0478
  0
VERTEX
  8
0
 10
17.6036
 20
61.0452
  0
VERTEX
  8
0
 10
17.5853
 20
61.0423
  0
VERTEX
  8
0
 10
17.5672
 20
61.039
  0
VERTEX
  8
0
 10
17.5493
 20
61.0353
  0
VERTEX
  8
0
 10
17.5317
 20
61.0311
  0
VERTEX
  8
0
 10
17.5142
 20
61.0267
  0
VERTEX
  8
0
 10
17.497
 20
61.0218
  0
VERTEX
  8
0
 10
17.4801
 20
61.0165
  0
VERTEX
  8
0
 10
17.4633
 20
61.0108
  0
VERTEX
  8
0
 10
17.4468
 20
61.0048
  0
VERTEX
  8
0
 10
17.4305
 20
60.9983
  0
VERTEX
  8
0
 10
17.4145
 20
60.9915
  0
VERTEX
  8
0
 10
17.3986
 20
60.9843
  0
VERTEX
  8
0
 10
17.383
 20
60.9766
  0
VERTEX
  8
0
 10
17.3676
 20
60.9686
  0
VERTEX
  8
0
 10
17.3524
 20
60.9602
  0
VERTEX
  8
0
 10
17.3375
 20
60.9514
  0
VERTEX
  8
0
 10
17.3228
 20
60.9423
  0
VERTEX
  8
0
 10
17.3083
 20
60.9327
  0
VERTEX
  8
0
 10
17.294
 20
60.9227
  0
VERTEX
  8
0
 10
17.2799
 20
60.9124
  0
VERTEX
  8
0
 10
17.2661
 20
60.9016
  0
VERTEX
  8
0
 10
17.2525
 20
60.8905
  0
VERTEX
  8
0
 10
17.2391
 20
60.879
  0
VERTEX
  8
0
 10
17.226
 20
60.867
  0
VERTEX
  8
0
 10
17.2131
 20
60.8547
  0
VERTEX
  8
0
 10
17.2004
 20
60.842
  0
VERTEX
  8
0
 10
17.1879
 20
60.8289
  0
VERTEX
  8
0
 10
17.1757
 20
60.8155
  0
VERTEX
  8
0
 10
17.1636
 20
60.8016
  0
VERTEX
  8
0
 10
17.1518
 20
60.7873
  0
VERTEX
  8
0
 10
17.1403
 20
60.7727
  0
VERTEX
  8
0
 10
17.1289
 20
60.7576
  0
VERTEX
  8
0
 10
17.1178
 20
60.7422
  0
VERTEX
  8
0
 10
17.1069
 20
60.7264
  0
VERTEX
  8
0
 10
17.0962
 20
60.7102
  0
VERTEX
  8
0
 10
17.0858
 20
60.6936
  0
VERTEX
  8
0
 10
17.0755
 20
60.6766
  0
VERTEX
  8
0
 10
17.0655
 20
60.6592
  0
VERTEX
  8
0
 10
17.0558
 20
60.6414
  0
VERTEX
  8
0
 10
17.0462
 20
60.6232
  0
VERTEX
  8
0
 10
17.0369
 20
60.6047
  0
VERTEX
  8
0
 10
17.0278
 20
60.5857
  0
VERTEX
  8
0
 10
17.0189
 20
60.5664
  0
VERTEX
  8
0
 10
17.0102
 20
60.5466
  0
VERTEX
  8
0
 10
17.0018
 20
60.5265
  0
VERTEX
  8
0
 10
16.9936
 20
60.506
  0
VERTEX
  8
0
 10
16.9856
 20
60.4851
  0
VERTEX
  8
0
 10
16.9779
 20
60.4638
  0
VERTEX
  8
0
 10
16.9703
 20
60.4421
  0
VERTEX
  8
0
 10
16.963
 20
60.42
  0
VERTEX
  8
0
 10
16.956
 20
60.3976
  0
VERTEX
  8
0
 10
16.9491
 20
60.3747
  0
VERTEX
  8
0
 10
16.9425
 20
60.3515
  0
VERTEX
  8
0
 10
16.9361
 20
60.3278
  0
VERTEX
  8
0
 10
16.9299
 20
60.3038
  0
VERTEX
  8
0
 10
16.9239
 20
60.2794
  0
VERTEX
  8
0
 10
16.9182
 20
60.2546
  0
VERTEX
  8
0
 10
16.9127
 20
60.2294
  0
VERTEX
  8
0
 10
16.9074
 20
60.2038
  0
VERTEX
  8
0
 10
16.9024
 20
60.1778
  0
VERTEX
  8
0
 10
16.8975
 20
60.1514
  0
VERTEX
  8
0
 10
16.8929
 20
60.1246
  0
VERTEX
  8
0
 10
16.8885
 20
60.0975
  0
VERTEX
  8
0
 10
16.8844
 20
60.0699
  0
VERTEX
  8
0
 10
16.8804
 20
60.042
  0
VERTEX
  8
0
 10
16.8767
 20
60.0137
  0
VERTEX
  8
0
 10
16.8733
 20
59.985
  0
VERTEX
  8
0
 10
16.87
 20
59.9559
  0
VERTEX
  8
0
 10
16.867
 20
59.9263
  0
VERTEX
  8
0
 10
16.8642
 20
59.8965
  0
VERTEX
  8
0
 10
16.8616
 20
59.8662
  0
VERTEX
  8
0
 10
16.8592
 20
59.8355
  0
VERTEX
  8
0
 10
16.8571
 20
59.8044
  0
VERTEX
  8
0
 10
16.8552
 20
59.773
  0
VERTEX
  8
0
 10
16.8535
 20
59.7411
  0
VERTEX
  8
0
 10
16.852
 20
59.7089
  0
VERTEX
  8
0
 10
16.8508
 20
59.6763
  0
VERTEX
  8
0
 10
16.8498
 20
59.6433
  0
VERTEX
  8
0
 10
16.849
 20
59.6099
  0
VERTEX
  8
0
 10
16.8484
 20
59.5761
  0
VERTEX
  8
0
 10
16.8481
 20
59.5419
  0
VERTEX
  8
0
 10
16.848
 20
59.5073
  0
VERTEX
  8
0
 10
16.8481
 20
59.4725
  0
VERTEX
  8
0
 10
16.8484
 20
59.4381
  0
VERTEX
  8
0
 10
16.849
 20
59.4041
  0
VERTEX
  8
0
 10
16.8497
 20
59.3705
  0
VERTEX
  8
0
 10
16.8507
 20
59.3373
  0
VERTEX
  8
0
 10
16.8519
 20
59.3045
  0
VERTEX
  8
0
 10
16.8534
 20
59.2721
  0
VERTEX
  8
0
 10
16.855
 20
59.24
  0
VERTEX
  8
0
 10
16.8569
 20
59.2084
  0
VERTEX
  8
0
 10
16.859
 20
59.1772
  0
VERTEX
  8
0
 10
16.8613
 20
59.1463
  0
VERTEX
  8
0
 10
16.8638
 20
59.1159
  0
VERTEX
  8
0
 10
16.8666
 20
59.0858
  0
VERTEX
  8
0
 10
16.8696
 20
59.0561
  0
VERTEX
  8
0
 10
16.8727
 20
59.0268
  0
VERTEX
  8
0
 10
16.8762
 20
58.998
  0
VERTEX
  8
0
 10
16.8798
 20
58.9695
  0
VERTEX
  8
0
 10
16.8836
 20
58.9414
  0
VERTEX
  8
0
 10
16.8877
 20
58.9137
  0
VERTEX
  8
0
 10
16.892
 20
58.8863
  0
VERTEX
  8
0
 10
16.8965
 20
58.8594
  0
VERTEX
  8
0
 10
16.9013
 20
58.8329
  0
VERTEX
  8
0
 10
16.9062
 20
58.8068
  0
VERTEX
  8
0
 10
16.9114
 20
58.781
  0
VERTEX
  8
0
 10
16.9168
 20
58.7557
  0
VERTEX
  8
0
 10
16.9224
 20
58.7307
  0
VERTEX
  8
0
 10
16.9282
 20
58.7061
  0
VERTEX
  8
0
 10
16.9343
 20
58.682
  0
VERTEX
  8
0
 10
16.9406
 20
58.6582
  0
VERTEX
  8
0
 10
16.9471
 20
58.6348
  0
VERTEX
  8
0
 10
16.9538
 20
58.6118
  0
VERTEX
  8
0
 10
16.9607
 20
58.5892
  0
VERTEX
  8
0
 10
16.9679
 20
58.567
  0
VERTEX
  8
0
 10
16.9753
 20
58.5452
  0
VERTEX
  8
0
 10
16.9829
 20
58.5238
  0
VERTEX
  8
0
 10
16.9907
 20
58.5028
  0
VERTEX
  8
0
 10
16.9987
 20
58.4821
  0
VERTEX
  8
0
 10
17.007
 20
58.4619
  0
VERTEX
  8
0
 10
17.0154
 20
58.442
  0
VERTEX
  8
0
 10
17.0241
 20
58.4226
  0
VERTEX
  8
0
 10
17.0331
 20
58.4035
  0
VERTEX
  8
0
 10
17.0422
 20
58.3849
  0
VERTEX
  8
0
 10
17.0516
 20
58.3666
  0
VERTEX
  8
0
 10
17.0611
 20
58.3487
  0
VERTEX
  8
0
 10
17.0709
 20
58.3312
  0
VERTEX
  8
0
 10
17.081
 20
58.3141
  0
VERTEX
  8
0
 10
17.0912
 20
58.2974
  0
VERTEX
  8
0
 10
17.1017
 20
58.2811
  0
VERTEX
  8
0
 10
17.1123
 20
58.2652
  0
VERTEX
  8
0
 10
17.1232
 20
58.2497
  0
VERTEX
  8
0
 10
17.1344
 20
58.2345
  0
VERTEX
  8
0
 10
17.1457
 20
58.2198
  0
VERTEX
  8
0
 10
17.1573
 20
58.2055
  0
VERTEX
  8
0
 10
17.1691
 20
58.1915
  0
VERTEX
  8
0
 10
17.1811
 20
58.1779
  0
VERTEX
  8
0
 10
17.1933
 20
58.1648
  0
VERTEX
  8
0
 10
17.2057
 20
58.152
  0
VERTEX
  8
0
 10
17.2184
 20
58.1396
  0
VERTEX
  8
0
 10
17.2313
 20
58.1276
  0
VERTEX
  8
0
 10
17.2444
 20
58.116
  0
VERTEX
  8
0
 10
17.2577
 20
58.1048
  0
VERTEX
  8
0
 10
17.2712
 20
58.094
  0
VERTEX
  8
0
 10
17.285
 20
58.0836
  0
VERTEX
  8
0
 10
17.299
 20
58.0736
  0
VERTEX
  8
0
 10
17.3132
 20
58.064
  0
VERTEX
  8
0
 10
17.3276
 20
58.0547
  0
VERTEX
  8
0
 10
17.3423
 20
58.0459
  0
VERTEX
  8
0
 10
17.3571
 20
58.0374
  0
VERTEX
  8
0
 10
17.3722
 20
58.0294
  0
VERTEX
  8
0
 10
17.3875
 20
58.0217
  0
VERTEX
  8
0
 10
17.403
 20
58.0145
  0
VERTEX
  8
0
 10
17.4188
 20
58.0076
  0
VERTEX
  8
0
 10
17.4347
 20
58.0011
  0
VERTEX
  8
0
 10
17.4509
 20
57.995
  0
VERTEX
  8
0
 10
17.4673
 20
57.9893
  0
VERTEX
  8
0
 10
17.484
 20
57.984
  0
VERTEX
  8
0
 10
17.5008
 20
57.9791
  0
VERTEX
  8
0
 10
17.5179
 20
57.9746
  0
VERTEX
  8
0
 10
17.5352
 20
57.9704
  0
VERTEX
  8
0
 10
17.5527
 20
57.9667
  0
VERTEX
  8
0
 10
17.5704
 20
57.9634
  0
VERTEX
  8
0
 10
17.5884
 20
57.9604
  0
VERTEX
  8
0
 10
17.6065
 20
57.9579
  0
VERTEX
  8
0
 10
17.6249
 20
57.9557
  0
VERTEX
  8
0
 10
17.6435
 20
57.9539
  0
VERTEX
  8
0
 10
17.6623
 20
57.9526
  0
VERTEX
  8
0
 10
17.6814
 20
57.9516
  0
VERTEX
  8
0
 10
17.7007
 20
57.951
  0
VERTEX
  8
0
 10
17.7202
 20
57.9508
  0
VERTEX
  8
0
 10
17.7402
 20
57.951
  0
VERTEX
  8
0
 10
17.76
 20
57.9516
  0
VERTEX
  8
0
 10
17.7796
 20
57.9526
  0
VERTEX
  8
0
 10
17.7989
 20
57.9539
  0
VERTEX
  8
0
 10
17.818
 20
57.9557
  0
VERTEX
  8
0
 10
17.8369
 20
57.9579
  0
VERTEX
  8
0
 10
17.8556
 20
57.9604
  0
VERTEX
  8
0
 10
17.874
 20
57.9634
  0
VERTEX
  8
0
 10
17.8922
 20
57.9667
  0
VERTEX
  8
0
 10
17.9102
 20
57.9704
  0
VERTEX
  8
0
 10
17.928
 20
57.9746
  0
VERTEX
  8
0
 10
17.9455
 20
57.9791
  0
VERTEX
  8
0
 10
17.9628
 20
57.984
  0
VERTEX
  8
0
 10
17.9799
 20
57.9893
  0
VERTEX
  8
0
 10
17.9968
 20
57.995
  0
VERTEX
  8
0
 10
18.0134
 20
58.0011
  0
VERTEX
  8
0
 10
18.0298
 20
58.0076
  0
VERTEX
  8
0
 10
18.046
 20
58.0145
  0
VERTEX
  8
0
 10
18.0619
 20
58.0217
  0
VERTEX
  8
0
 10
18.0777
 20
58.0294
  0
VERTEX
  8
0
 10
18.0932
 20
58.0374
  0
VERTEX
  8
0
 10
18.1084
 20
58.0459
  0
VERTEX
  8
0
 10
18.1235
 20
58.0547
  0
VERTEX
  8
0
 10
18.1383
 20
58.064
  0
VERTEX
  8
0
 10
18.1529
 20
58.0736
  0
VERTEX
  8
0
 10
18.1673
 20
58.0836
  0
VERTEX
  8
0
 10
18.1814
 20
58.094
  0
VERTEX
  8
0
 10
18.1953
 20
58.1048
  0
VERTEX
  8
0
 10
18.209
 20
58.116
  0
VERTEX
  8
0
 10
18.2225
 20
58.1276
  0
VERTEX
  8
0
 10
18.2357
 20
58.1396
  0
VERTEX
  8
0
 10
18.2487
 20
58.152
  0
VERTEX
  8
0
 10
18.2615
 20
58.1648
  0
VERTEX
  8
0
 10
18.2741
 20
58.1779
  0
VERTEX
  8
0
 10
18.2864
 20
58.1915
  0
VERTEX
  8
0
 10
18.2985
 20
58.2055
  0
VERTEX
  8
0
 10
18.3104
 20
58.2198
  0
VERTEX
  8
0
 10
18.322
 20
58.2345
  0
VERTEX
  8
0
 10
18.3335
 20
58.2497
  0
VERTEX
  8
0
 10
18.3447
 20
58.2652
  0
VERTEX
  8
0
 10
18.3556
 20
58.2811
  0
VERTEX
  8
0
 10
18.3664
 20
58.2974
  0
VERTEX
  8
0
 10
18.3769
 20
58.3141
  0
VERTEX
  8
0
 10
18.3872
 20
58.3312
  0
VERTEX
  8
0
 10
18.3973
 20
58.3487
  0
VERTEX
  8
0
 10
18.4071
 20
58.3666
  0
VERTEX
  8
0
 10
18.4167
 20
58.3849
  0
VERTEX
  8
0
 10
18.4261
 20
58.4035
  0
VERTEX
  8
0
 10
18.4353
 20
58.4226
  0
VERTEX
  8
0
 10
18.4442
 20
58.442
  0
VERTEX
  8
0
 10
18.4529
 20
58.4619
  0
VERTEX
  8
0
 10
18.4614
 20
58.4821
  0
VERTEX
  8
0
 10
18.4697
 20
58.5028
  0
VERTEX
  8
0
 10
18.4777
 20
58.5238
  0
VERTEX
  8
0
 10
18.4855
 20
58.5452
  0
VERTEX
  8
0
 10
18.4931
 20
58.567
  0
VERTEX
  8
0
 10
18.5004
 20
58.5892
  0
VERTEX
  8
0
 10
18.5076
 20
58.6118
  0
VERTEX
  8
0
 10
18.5145
 20
58.6348
  0
VERTEX
  8
0
 10
18.5211
 20
58.6582
  0
VERTEX
  8
0
 10
18.5276
 20
58.682
  0
VERTEX
  8
0
 10
18.5338
 20
58.7061
  0
VERTEX
  8
0
 10
18.5398
 20
58.7307
  0
VERTEX
  8
0
 10
18.5456
 20
58.7557
  0
VERTEX
  8
0
 10
18.5511
 20
58.781
  0
VERTEX
  8
0
 10
18.5564
 20
58.8068
  0
VERTEX
  8
0
 10
18.5615
 20
58.8329
  0
VERTEX
  8
0
 10
18.5664
 20
58.8594
  0
VERTEX
  8
0
 10
18.571
 20
58.8863
  0
VERTEX
  8
0
 10
18.5754
 20
58.9137
  0
VERTEX
  8
0
 10
18.5796
 20
58.9414
  0
VERTEX
  8
0
 10
18.5836
 20
58.9695
  0
VERTEX
  8
0
 10
18.5873
 20
58.998
  0
VERTEX
  8
0
 10
18.5908
 20
59.0268
  0
VERTEX
  8
0
 10
18.5941
 20
59.0561
  0
VERTEX
  8
0
 10
18.5972
 20
59.0858
  0
VERTEX
  8
0
 10
18.6
 20
59.1159
  0
VERTEX
  8
0
 10
18.6026
 20
59.1463
  0
VERTEX
  8
0
 10
18.605
 20
59.1772
  0
VERTEX
  8
0
 10
18.6071
 20
59.2084
  0
VERTEX
  8
0
 10
18.609
 20
59.24
  0
VERTEX
  8
0
 10
18.6107
 20
59.2721
  0
VERTEX
  8
0
 10
18.6122
 20
59.3045
  0
VERTEX
  8
0
 10
18.6135
 20
59.3373
  0
VERTEX
  8
0
 10
18.6145
 20
59.3705
  0
VERTEX
  8
0
 10
18.6153
 20
59.4041
  0
VERTEX
  8
0
 10
18.6158
 20
59.4381
  0
VERTEX
  8
0
 10
18.6162
 20
59.4725
  0
VERTEX
  8
0
 10
18.6163
 20
59.5073
  0
VERTEX
  8
0
 10
18.6163
 20
59.5073
  0
SEQEND
  0
POLYLINE
  8
0
 66
     1
 10
0
 20
0
  0
VERTEX
  8
0
 10
18.204
 20
59.5074
  0
VERTEX
  8
0
 10
18.2038
 20
59.4706
  0
VERTEX
  8
0
 10
18.2035
 20
59.4345
  0
VERTEX
  8
0
 10
18.2028
 20
59.3989
  0
VERTEX
  8
0
 10
18.202
 20
59.364
  0
VERTEX
  8
0
 10
18.2008
 20
59.3297
  0
VERTEX
  8
0
 10
18.1995
 20
59.296
  0
VERTEX
  8
0
 10
18.1978
 20
59.2629
  0
VERTEX
  8
0
 10
18.1959
 20
59.2304
  0
VERTEX
  8
0
 10
18.1938
 20
59.1985
  0
VERTEX
  8
0
 10
18.1914
 20
59.1672
  0
VERTEX
  8
0
 10
18.1888
 20
59.1366
  0
VERTEX
  8
0
 10
18.1859
 20
59.1065
  0
VERTEX
  8
0
 10
18.1828
 20
59.0771
  0
VERTEX
  8
0
 10
18.1794
 20
59.0482
  0
VERTEX
  8
0
 10
18.1757
 20
59.02
  0
VERTEX
  8
0
 10
18.1718
 20
58.9923
  0
VERTEX
  8
0
 10
18.1677
 20
58.9653
  0
VERTEX
  8
0
 10
18.1633
 20
58.9389
  0
VERTEX
  8
0
 10
18.1587
 20
58.9131
  0
VERTEX
  8
0
 10
18.1538
 20
58.8879
  0
VERTEX
  8
0
 10
18.1486
 20
58.8633
  0
VERTEX
  8
0
 10
18.1432
 20
58.8393
  0
VERTEX
  8
0
 10
18.1376
 20
58.8159
  0
VERTEX
  8
0
 10
18.1317
 20
58.7931
  0
VERTEX
  8
0
 10
18.1255
 20
58.771
  0
VERTEX
  8
0
 10
18.1191
 20
58.7494
  0
VERTEX
  8
0
 10
18.1125
 20
58.7284
  0
VERTEX
  8
0
 10
18.1056
 20
58.7081
  0
VERTEX
  8
0
 10
18.0984
 20
58.6884
  0
VERTEX
  8
0
 10
18.091
 20
58.6692
  0
VERTEX
  8
0
 10
18.0834
 20
58.6507
  0
VERTEX
  8
0
 10
18.0755
 20
58.6328
  0
VERTEX
  8
0
 10
18.0673
 20
58.6155
  0
VERTEX
  8
0
 10
18.0589
 20
58.5988
  0
VERTEX
  8
0
 10
18.0502
 20
58.5827
  0
VERTEX
  8
0
 10
18.0413
 20
58.5672
  0
VERTEX
  8
0
 10
18.0322
 20
58.5523
  0
VERTEX
  8
0
 10
18.0227
 20
58.5381
  0
VERTEX
  8
0
 10
18.0131
 20
58.5244
  0
VERTEX
  8
0
 10
18.0032
 20
58.5113
  0
VERTEX
  8
0
 10
17.993
 20
58.4989
  0
VERTEX
  8
0
 10
17.9826
 20
58.487
  0
VERTEX
  8
0
 10
17.9719
 20
58.4758
  0
VERTEX
  8
0
 10
17.961
 20
58.4652
  0
VERTEX
  8
0
 10
17.9498
 20
58.4552
  0
VERTEX
  8
0
 10
17.9384
 20
58.4457
  0
VERTEX
  8
0
 10
17.9267
 20
58.4369
  0
VERTEX
  8
0
 10
17.9148
 20
58.4287
  0
VERTEX
  8
0
 10
17.9026
 20
58.4211
  0
VERTEX
  8
0
 10
17.8902
 20
58.4142
  0
VERTEX
  8
0
 10
17.8775
 20
58.4078
  0
VERTEX
  8
0
 10
17.8646
 20
58.402
  0
VERTEX
  8
0
 10
17.8514
 20
58.3968
  0
VERTEX
  8
0
 10
17.838
 20
58.3923
  0
VERTEX
  8
0
 10
17.8243
 20
58.3883
  0
VERTEX
  8
0
 10
17.8104
 20
58.385
  0
VERTEX
  8
0
 10
17.7962
 20
58.3823
  0
VERTEX
  8
0
 10
17.7818
 20
58.3801
  0
VERTEX
  8
0
 10
17.7671
 20
58.3786
  0
VERTEX
  8
0
 10
17.7522
 20
58.3777
  0
VERTEX
  8
0
 10
17.737
 20
58.3774
  0
VERTEX
  8
0
 10
17.7223
 20
58.3777
  0
VERTEX
  8
0
 10
17.7079
 20
58.3786
  0
VERTEX
  8
0
 10
17.6937
 20
58.3801
  0
VERTEX
  8
0
 10
17.6797
 20
58.3821
  0
VERTEX
  8
0
 10
17.666
 20
58.3848
  0
VERTEX
  8
0
 10
17.6524
 20
58.388
  0
VERTEX
  8
0
 10
17.6392
 20
58.3918
  0
VERTEX
  8
0
 10
17.6261
 20
58.3962
  0
VERTEX
  8
0
 10
17.6133
 20
58.4012
  0
VERTEX
  8
0
 10
17.6007
 20
58.4068
  0
VERTEX
  8
0
 10
17.5883
 20
58.413
  0
VERTEX
  8
0
 10
17.5762
 20
58.4198
  0
VERTEX
  8
0
 10
17.5643
 20
58.4271
  0
VERTEX
  8
0
 10
17.5527
 20
58.4351
  0
VERTEX
  8
0
 10
17.5412
 20
58.4436
  0
VERTEX
  8
0
 10
17.53
 20
58.4527
  0
VERTEX
  8
0
 10
17.5191
 20
58.4624
  0
VERTEX
  8
0
 10
17.5083
 20
58.4727
  0
VERTEX
  8
0
 10
17.4978
 20
58.4836
  0
VERTEX
  8
0
 10
17.4875
 20
58.4951
  0
VERTEX
  8
0
 10
17.4775
 20
58.5071
  0
VERTEX
  8
0
 10
17.4677
 20
58.5198
  0
VERTEX
  8
0
 10
17.4581
 20
58.533
  0
VERTEX
  8
0
 10
17.4487
 20
58.5468
  0
VERTEX
  8
0
 10
17.4396
 20
58.5613
  0
VERTEX
  8
0
 10
17.4307
 20
58.5763
  0
VERTEX
  8
0
 10
17.4221
 20
58.5919
  0
VERTEX
  8
0
 10
17.4136
 20
58.608
  0
VERTEX
  8
0
 10
17.4054
 20
58.6248
  0
VERTEX
  8
0
 10
17.3975
 20
58.6422
  0
VERTEX
  8
0
 10
17.3897
 20
58.6601
  0
VERTEX
  8
0
 10
17.3822
 20
58.6786
  0
VERTEX
  8
0
 10
17.3749
 20
58.6978
  0
VERTEX
  8
0
 10
17.3679
 20
58.7175
  0
VERTEX
  8
0
 10
17.3611
 20
58.7378
  0
VERTEX
  8
0
 10
17.3545
 20
58.7586
  0
VERTEX
  8
0
 10
17.3482
 20
58.7801
  0
VERTEX
  8
0
 10
17.342
 20
58.8022
  0
VERTEX
  8
0
 10
17.3361
 20
58.8248
  0
VERTEX
  8
0
 10
17.3305
 20
58.8481
  0
VERTEX
  8
0
 10
17.3251
 20
58.8719
  0
VERTEX
  8
0
 10
17.3199
 20
58.8963
  0
VERTEX
  8
0
 10
17.3149
 20
58.9213
  0
VERTEX
  8
0
 10
17.3102
 20
58.9469
  0
VERTEX
  8
0
 10
17.3057
 20
58.9731
  0
VERTEX
  8
0
 10
17.3014
 20
58.9999
  0
VERTEX
  8
0
 10
17.2973
 20
59.0272
  0
VERTEX
  8
0
 10
17.2935
 20
59.0552
  0
VERTEX
  8
0
 10
17.29
 20
59.0837
  0
VERTEX
  8
0
 10
17.2866
 20
59.1128
  0
VERTEX
  8
0
 10
17.2835
 20
59.1425
  0
VERTEX
  8
0
 10
17.2806
 20
59.1728
  0
VERTEX
  8
0
 10
17.2779
 20
59.2037
  0
VERTEX
  8
0
 10
17.2755
 20
59.2352
  0
VERTEX
  8
0
 10
17.2733
 20
59.2672
  0
VERTEX
  8
0
 10
17.2714
 20
59.2999
  0
VERTEX
  8
0
 10
17.2696
 20
59.3331
  0
VERTEX
  8
0
 10
17.2681
 20
59.367
  0
VERTEX
  8
0
 10
17.2669
 20
59.4014
  0
VERTEX
  8
0
 10
17.2658
 20
59.4364
  0
VERTEX
  8
0
 10
17.265
 20
59.472
  0
VERTEX
  8
0
 10
17.2644
 20
59.5082
  0
VERTEX
  8
0
 10
17.2641
 20
59.5449
  0
VERTEX
  8
0
 10
17.264
 20
59.5823
  0
VERTEX
  8
0
 10
17.2655
 20
59.6886
  0
VERTEX
  8
0
 10
17.2701
 20
59.79
  0
VERTEX
  8
0
 10
17.2777
 20
59.8865
  0
VERTEX
  8
0
 10
17.2884
 20
59.9781
  0
VERTEX
  8
0
 10
17.3021
 20
60.0649
  0
VERTEX
  8
0
 10
17.3189
 20
60.1467
  0
VERTEX
  8
0
 10
17.3388
 20
60.2237
  0
VERTEX
  8
0
 10
17.3497
 20
60.2601
  0
VERTEX
  8
0
 10
17.3614
 20
60.2949
  0
VERTEX
  8
0
 10
17.3737
 20
60.328
  0
VERTEX
  8
0
 10
17.3867
 20
60.3594
  0
VERTEX
  8
0
 10
17.4004
 20
60.3891
  0
VERTEX
  8
0
 10
17.4147
 20
60.4171
  0
VERTEX
  8
0
 10
17.4298
 20
60.4434
  0
VERTEX
  8
0
 10
17.4455
 20
60.468
  0
VERTEX
  8
0
 10
17.4619
 20
60.4909
  0
VERTEX
  8
0
 10
17.4789
 20
60.5121
  0
VERTEX
  8
0
 10
17.4967
 20
60.5316
  0
VERTEX
  8
0
 10
17.5151
 20
60.5494
  0
VERTEX
  8
0
 10
17.5343
 20
60.5656
  0
VERTEX
  8
0
 10
17.5541
 20
60.58
  0
VERTEX
  8
0
 10
17.5745
 20
60.5927
  0
VERTEX
  8
0
 10
17.5957
 20
60.6037
  0
VERTEX
  8
0
 10
17.6175
 20
60.6131
  0
VERTEX
  8
0
 10
17.6401
 20
60.6207
  0
VERTEX
  8
0
 10
17.6633
 20
60.6267
  0
VERTEX
  8
0
 10
17.6872
 20
60.6309
  0
VERTEX
  8
0
 10
17.7117
 20
60.6334
  0
VERTEX
  8
0
 10
17.737
 20
60.6343
  0
VERTEX
  8
0
 10
17.7609
 20
60.6334
  0
VERTEX
  8
0
 10
17.7842
 20
60.6309
  0
VERTEX
  8
0
 10
17.8068
 20
60.6266
  0
VERTEX
  8
0
 10
17.8289
 20
60.6207
  0
VERTEX
  8
0
 10
17.8504
 20
60.613
  0
VERTEX
  8
0
 10
17.8712
 20
60.6037
  0
VERTEX
  8
0
 10
17.8914
 20
60.5926
  0
VERTEX
  8
0
 10
17.9111
 20
60.5799
  0
VERTEX
  8
0
 10
17.9301
 20
60.5655
  0
VERTEX
  8
0
 10
17.9485
 20
60.5493
  0
VERTEX
  8
0
 10
17.9663
 20
60.5315
  0
VERTEX
  8
0
 10
17.9835
 20
60.5119
  0
VERTEX
  8
0
 10
18
 20
60.4907
  0
VERTEX
  8
0
 10
18.016
 20
60.4677
  0
VERTEX
  8
0
 10
18.0313
 20
60.4431
  0
VERTEX
  8
0
 10
18.0461
 20
60.4167
  0
VERTEX
  8
0
 10
18.0602
 20
60.3887
  0
VERTEX
  8
0
 10
18.0737
 20
60.3589
  0
VERTEX
  8
0
 10
18.0866
 20
60.3275
  0
VERTEX
  8
0
 10
18.0989
 20
60.2944
  0
VERTEX
  8
0
 10
18.1106
 20
60.2595
  0
VERTEX
  8
0
 10
18.1216
 20
60.223
  0
VERTEX
  8
0
 10
18.1321
 20
60.1847
  0
VERTEX
  8
0
 10
18.1541
 20
60.0885
  0
VERTEX
  8
0
 10
18.172
 20
59.9856
  0
VERTEX
  8
0
 10
18.186
 20
59.876
  0
VERTEX
  8
0
 10
18.196
 20
59.7598
  0
VERTEX
  8
0
 10
18.202
 20
59.6369
  0
VERTEX
  8
0
 10
18.204
 20
59.5074
  0
VERTEX
  8
0
 10
18.204
 20
59.5074
  0
SEQEND
  0
POLYLINE
  8
0
 66
     1
 10
0
 20
0
  0
VERTEX
  8
0
 10
18.768
 20
58.0028
  0
VERTEX
  8
0
 10
19.196
 20
58.0028
  0
VERTEX
  8
0
 10
19.196
 20
60.0109
  0
VERTEX
  8
0
 10
20.1195
 20
58.0028
  0
VERTEX
  8
0
 10
20.4463
 20
58.0028
  0
VERTEX
  8
0
 10
20.4463
 20
60.9988
  0
VERTEX
  8
0
 10
20.016
 20
60.9988
  0
VERTEX
  8
0
 10
20.016
 20
59.2017
  0
VERTEX
  8
0
 10
19.196
 20
60.9988
  0
VERTEX
  8
0
 10
18.768
 20
60.9988
  0
VERTEX
  8
0
 10
18.768
 20
58.0028
  0
SEQEND
  0
ENDSEC
  0
EOF