  0
SECTION
  2
HEADER
  9
$ACADVER
  1
AC1009
  0
ENDSEC
  0
SECTION
  2
TABLES
  0
TABLE
  2
STYLE
 70
   5
  0
STYLE
  2
STANDARD
 70
    64
 40
0.0
 41
1.0
 50
0.0
 71
     0
 42
1.0
  3
txt
  4

  0
STYLE
  2
HIGHWAYEMOD2K
 70
    64
 40
0.0
 41
1.0
 50
0.0
 71
     0
 42
1.0
  3
Highway E Mod 2K
  4

  0
STYLE
  2
HIGHWAYSIGNCADPLUS
 70
    64
 40
0.0
 41
1.0
 50
0.0
 71
     0
 42
1.0
  3
Highway SignCAD Plus
  4

  0
STYLE
  2
HIGHWAYC2K
 70
    64
 40
0.0
 41
1.0
 50
0.0
 71
     0
 42
1.0
  3
Highway C 2K
  4

  0
STYLE
  2
HIGHWAYD2K
 70
    64
 40
0.0
 41
1.0
 50
0.0
 71
     0
 42
1.0
  3
Highway D 2K
  4

  0
ENDTAB
  0
ENDSEC
  0
SECTION
  2
ENTITIES
  0
ARC
  8
0
 10
1.5
 20
86.5
 40
1.5
 50
180
 51
270
  0
ARC
  8
0
 10
22.5
 20
86.5
 40
1.5
 50
270
 51
360
  0
ARC
  8
0
 10
22.5
 20
107.5
 40
1.5
 50
0
 51
90
  0
ARC
  8
0
 10
1.5
 20
107.5
 40
1.5
 50
90
 51
180
  0
POLYLINE
  8
0
 66
     1
 10
0
 20
0
  0
VERTEX
  8
0
 10
1.5
 20
85
  0
VERTEX
  8
0
 10
22.5
 20
85
  0
SEQEND
  0
POLYLINE
  8
0
 66
     1
 10
0
 20
0
  0
VERTEX
  8
0
 10
24
 20
86.5
  0
VERTEX
  8
0
 10
24
 20
107.5
  0
SEQEND
  0
POLYLINE
  8
0
 66
     1
 10
0
 20
0
  0
VERTEX
  8
0
 10
22.5
 20
109
  0
VERTEX
  8
0
 10
1.5
 20
109
  0
SEQEND
  0
POLYLINE
  8
0
 66
     1
 10
0
 20
0
  0
VERTEX
  8
0
 10
0
 20
107.5
  0
VERTEX
  8
0
 10
0
 20
86.5
  0
SEQEND
  0
ARC
  8
0
 10
1.5
 20
86.5
 40
1
 50
180
 51
270
  0
ARC
  8
0
 10
1.5
 20
86.5
 40
0.5
 50
180
 51
270
  0
ARC
  8
0
 10
22.5
 20
86.5
 40
1
 50
270
 51
360
  0
ARC
  8
0
 10
22.5
 20
86.5
 40
0.5
 50
270
 51
360
  0
ARC
  8
0
 10
22.5
 20
107.5
 40
1
 50
0
 51
90
  0
ARC
  8
0
 10
22.5
 20
107.5
 40
0.5
 50
0
 51
90
  0
ARC
  8
0
 10
1.5
 20
107.5
 40
1
 50
90
 51
180
  0
ARC
  8
0
 10
1.5
 20
107.5
 40
0.5
 50
90
 51
180
  0
POLYLINE
  8
0
 66
     1
 10
0
 20
0
  0
VERTEX
  8
0
 10
1.5
 20
86
  0
VERTEX
  8
0
 10
22.5
 20
86
  0
SEQEND
  0
POLYLINE
  8
0
 66
     1
 10
0
 20
0
  0
VERTEX
  8
0
 10
22.5
 20
85.5
  0
VERTEX
  8
0
 10
1.5
 20
85.5
  0
SEQEND
  0
POLYLINE
  8
0
 66
     1
 10
0
 20
0
  0
VERTEX
  8
0
 10
23
 20
86.5
  0
VERTEX
  8
0
 10
23
 20
107.5
  0
SEQEND
  0
POLYLINE
  8
0
 66
     1
 10
0
 20
0
  0
VERTEX
  8
0
 10
23.5
 20
107.5
  0
VERTEX
  8
0
 10
23.5
 20
86.5
  0
SEQEND
  0
POLYLINE
  8
0
 66
     1
 10
0
 20
0
  0
VERTEX
  8
0
 10
22.5
 20
108
  0
VERTEX
  8
0
 10
1.5
 20
108
  0
SEQEND
  0
POLYLINE
  8
0
 66
     1
 10
0
 20
0
  0
VERTEX
  8
0
 10
1.5
 20
108.5
  0
VERTEX
  8
0
 10
22.5
 20
108.5
  0
SEQEND
  0
POLYLINE
  8
0
 66
     1
 10
0
 20
0
  0
VERTEX
  8
0
 10
1
 20
107.5
  0
VERTEX
  8
0
 10
1
 20
86.5
  0
SEQEND
  0
POLYLINE
  8
0
 66
     1
 10
0
 20
0
  0
VERTEX
  8
0
 10
0.5
 20
86.5
  0
VERTEX
  8
0
 10
0.5
 20
107.5
  0
SEQEND
  0
TEXT
  8
0
 10
25.9
 20
107.7257
 40
0.8
  1
2
 50
90
  7
HIGHWAYSIGNCADPLUS
 72
1
 11
25.9
 21
108
  0
LINE
  8
0
 10
25.5
 20
108.4743
 11
25.5
 21
109
  0
LINE
  8
0
 10
25.6789
 20
108.6422
 11
25.5
 21
109
  0
LINE
  8
0
 10
25.3211
 20
108.6422
 11
25.5
 21
109
  0
LINE
  8
0
 10
25.7
 20
109
 11
24.5
 21
109
  0
LINE
  8
0
 10
25.5
 20
107.5257
 11
25.5
 21
107
  0
LINE
  8
0
 10
25.3211
 20
107.3578
 11
25.5
 21
107
  0
LINE
  8
0
 10
25.6789
 20
107.3578
 11
25.5
 21
107
  0
LINE
  8
0
 10
25.7
 20
107
 11
24.5
 21
107
  0
TEXT
  8
0
 10
25.9
 20
96.401
 40
0.8
  1
20
 50
90
  7
HIGHWAYSIGNCADPLUS
 72
1
 11
25.9
 21
97
  0
LINE
  8
0
 10
25.5
 20
97.799
 11
25.5
 21
107
  0
LINE
  8
0
 10
25.6789
 20
106.6422
 11
25.5
 21
107
  0
LINE
  8
0
 10
25.3211
 20
106.6422
 11
25.5
 21
107
  0
LINE
  8
0
 10
25.5
 20
96.201
 11
25.5
 21
87
  0
LINE
  8
0
 10
25.3211
 20
87.3578
 11
25.5
 21
87
  0
LINE
  8
0
 10
25.6789
 20
87.3578
 11
25.5
 21
87
  0
LINE
  8
0
 10
25.7
 20
87
 11
24.5
 21
87
  0
TEXT
  8
0
 10
0.7257
 20
83.1
 40
0.8
  1
2
  7
HIGHWAYSIGNCADPLUS
 72
1
 11
1
 21
83.1
  0
LINE
  8
0
 10
1.4743
 20
83.5
 11
2
 21
83.5
  0
LINE
  8
0
 10
1.6422
 20
83.3211
 11
2
 21
83.5
  0
LINE
  8
0
 10
1.6422
 20
83.6789
 11
2
 21
83.5
  0
LINE
  8
0
 10
2
 20
83.3
 11
2
 21
84.5
  0
LINE
  8
0
 10
0.5257
 20
83.5
 11
0
 21
83.5
  0
LINE
  8
0
 10
0.3578
 20
83.6789
 11
0
 21
83.5
  0
LINE
  8
0
 10
0.3578
 20
83.3211
 11
0
 21
83.5
  0
LINE
  8
0
 10
0
 20
83.3
 11
0
 21
84.5
  0
TEXT
  8
0
 10
11.401
 20
83.1
 40
0.8
  1
20
  7
HIGHWAYSIGNCADPLUS
 72
1
 11
12
 21
83.1
  0
LINE
  8
0
 10
12.799
 20
83.5
 11
22
 21
83.5
  0
LINE
  8
0
 10
21.6422
 20
83.3211
 11
22
 21
83.5
  0
LINE
  8
0
 10
21.6422
 20
83.6789
 11
22
 21
83.5
  0
LINE
  8
0
 10
22
 20
83.3
 11
22
 21
84.5
  0
LINE
  8
0
 10
11.201
 20
83.5
 11
2
 21
83.5
  0
LINE
  8
0
 10
2.3578
 20
83.6789
 11
2
 21
83.5
  0
LINE
  8
0
 10
2.3578
 20
83.3211
 11
2
 21
83.5
  0
TEXT
  8
0
 10
22.7257
 20
83.1
 40
0.8
  1
2
  7
HIGHWAYSIGNCADPLUS
 72
1
 11
23
 21
83.1
  0
LINE
  8
0
 10
23.4743
 20
83.5
 11
24
 21
83.5
  0
LINE
  8
0
 10
23.6422
 20
83.3211
 11
24
 21
83.5
  0
LINE
  8
0
 10
23.6422
 20
83.6789
 11
24
 21
83.5
  0
LINE
  8
0
 10
24
 20
83.3
 11
24
 21
84.5
  0
LINE
  8
0
 10
22.5257
 20
83.5
 11
22
 21
83.5
  0
LINE
  8
0
 10
22.3578
 20
83.6789
 11
22
 21
83.5
  0
LINE
  8
0
 10
22.3578
 20
83.3211
 11
22
 21
83.5
  0
LINE
  8
0
 10
22
 20
83.3
 11
22
 21
84.5
  0
TEXT
  8
0
 10
25.9
 20
85.7257
 40
0.8
  1
2
 50
90
  7
HIGHWAYSIGNCADPLUS
 72
1
 11
25.9
 21
86
  0
LINE
  8
0
 10
25.5
 20
86.4743
 11
25.5
 21
87
  0
LINE
  8
0
 10
25.6789
 20
86.6422
 11
25.5
 21
87
  0
LINE
  8
0
 10
25.3211
 20
86.6422
 11
25.5
 21
87
  0
LINE
  8
0
 10
25.7
 20
87
 11
24.5
 21
87
  0
LINE
  8
0
 10
25.5
 20
85.5257
 11
25.5
 21
85
  0
LINE
  8
0
 10
25.3211
 20
85.3578
 11
25.5
 21
85
  0
LINE
  8
0
 10
25.6789
 20
85.3578
 11
25.5
 21
85
  0
LINE
  8
0
 10
25.7
 20
85
 11
24.5
 21
85
  0
TEXT
  8
0
 10
27.9
 20
96.401
 40
0.8
  1
24
 50
90
  7
HIGHWAYSIGNCADPLUS
 72
1
 11
27.9
 21
97
  0
LINE
  8
0
 10
27.5
 20
97.799
 11
27.5
 21
109
  0
LINE
  8
0
 10
27.6789
 20
108.6422
 11
27.5
 21
109
  0
LINE
  8
0
 10
27.3211
 20
108.6422
 11
27.5
 21
109
  0
LINE
  8
0
 10
27.7
 20
109
 11
24.2
 21
109
  0
LINE
  8
0
 10
27.5
 20
96.201
 11
27.5
 21
85
  0
LINE
  8
0
 10
27.3211
 20
85.3578
 11
27.5
 21
85
  0
LINE
  8
0
 10
27.6789
 20
85.3578
 11
27.5
 21
85
  0
LINE
  8
0
 10
27.7
 20
85
 11
24.2
 21
85
  0
TEXT
  8
0
 10
11.401
 20
81.1
 40
0.8
  1
24
  7
HIGHWAYSIGNCADPLUS
 72
1
 11
12
 21
81.1
  0
LINE
  8
0
 10
12.799
 20
81.5
 11
24
 21
81.5
  0
LINE
  8
0
 10
23.6422
 20
81.3211
 11
24
 21
81.5
  0
LINE
  8
0
 10
23.6422
 20
81.6789
 11
24
 21
81.5
  0
LINE
  8
0
 10
24
 20
81.3
 11
24
 21
84.8
  0
LINE
  8
0
 10
11.201
 20
81.5
 11
0
 21
81.5
  0
LINE
  8
0
 10
0.3578
 20
81.6789
 11
0
 21
81.5
  0
LINE
  8
0
 10
0.3578
 20
81.3211
 11
0
 21
81.5
  0
LINE
  8
0
 10
0
 20
81.3
 11
0
 21
84.8
  0
TEXT
  8
0
 10
0
 20
79.9
 40
0.8
  1
1.50" Radius, 0.50" Border, 0.50" Indent, Blue on White; 
  7
HIGHWAYSIGNCADPLUS
 73
1
 11
0
 21
79.5
  0
TEXT
  8
0
 10
0
 20
78.3
 40
0.8
  1
Rounded Rectangle 10.00" Radius; 
  7
HIGHWAYSIGNCADPLUS
 73
1
 11
0
 21
77.9
  0
ARC
  8
0
 10
12
 20
97
 40
10
 50
180
 51
270
  0
ARC
  8
0
 10
12
 20
97
 40
10
 50
270
 51
360
  0
ARC
  8
0
 10
12
 20
97
 40
10
 50
0
 51
90
  0
ARC
  8
0
 10
12
 20
97
 40
10
 50
90
 51
180
  0
ARC
  8
0
 10
11.6875
 20
104.1275
 40
0.375
 50
59.5742
 51
196.9437
  0
ARC
  8
0
 10
11.6875
 20
99.5025
 40
0.375
 50
163.0563
 51
300.4258
  0
POLYLINE
  8
0
 66
     1
 10
0
 20
0
  0
VERTEX
  8
0
 10
16
 20
101.815
  0
VERTEX
  8
0
 10
11.8774
 20
104.4509
  0
SEQEND
  0
POLYLINE
  8
0
 66
     1
 10
0
 20
0
  0
VERTEX
  8
0
 10
11.3288
 20
104.0182
  0
VERTEX
  8
0
 10
11.6953
 20
102.815
  0
SEQEND
  0
POLYLINE
  8
0
 66
     1
 10
0
 20
0
  0
VERTEX
  8
0
 10
11.6953
 20
100.815
  0
VERTEX
  8
0
 10
11.3288
 20
99.6118
  0
SEQEND
  0
POLYLINE
  8
0
 66
     1
 10
0
 20
0
  0
VERTEX
  8
0
 10
11.8774
 20
99.1791
  0
VERTEX
  8
0
 10
16
 20
101.815
  0
SEQEND
  0
POLYLINE
  8
0
 66
     1
 10
0
 20
0
  0
VERTEX
  8
0
 10
8
 20
100.815
  0
VERTEX
  8
0
 10
8
 20
102.815
  0
VERTEX
  8
0
 10
11.6953
 20
102.815
  0
SEQEND
  0
POLYLINE
  8
0
 66
     1
 10
0
 20
0
  0
VERTEX
  8
0
 10
11.6953
 20
100.815
  0
VERTEX
  8
0
 10
8
 20
100.815
  0
SEQEND
  0
TEXT
  8
0
 10
3.5513
 20
94.1275
 40
3
  1
E
  7
HIGHWAYC2K
  0
TEXT
  8
0
 10
5.1488
 20
94.1275
 40
3
  1
V
  7
HIGHWAYC2K
  0
TEXT
  8
0
 10
7.0538
 20
94.1275
 40
3
  1
A
  7
HIGHWAYC2K
  0
TEXT
  8
0
 10
9.0638
 20
94.1275
 40
3
  1
C
  7
HIGHWAYC2K
  0
TEXT
  8
0
 10
10.8938
 20
94.1275
 40
3
  1
U
  7
HIGHWAYC2K
  0
TEXT
  8
0
 10
12.6787
 20
94.1275
 40
3
  1
A
  7
HIGHWAYC2K
  0
TEXT
  8
0
 10
14.6437
 20
94.1275
 40
3
  1
T
  7
HIGHWAYC2K
  0
TEXT
  8
0
 10
16.2787
 20
94.1275
 40
3
  1
I
  7
HIGHWAYC2K
  0
TEXT
  8
0
 10
16.8488
 20
94.1275
 40
3
  1
O
  7
HIGHWAYC2K
  0
TEXT
  8
0
 10
18.7687
 20
94.1275
 40
3
  1
N
  7
HIGHWAYC2K
  0
TEXT
  8
0
 10
7.6687
 20
89.4975
 40
3
  1
R
  7
HIGHWAYC2K
  0
TEXT
  8
0
 10
9.4612
 20
89.4975
 40
3
  1
O
  7
HIGHWAYC2K
  0
TEXT
  8
0
 10
11.3812
 20
89.4975
 40
3
  1
U
  7
HIGHWAYC2K
  0
TEXT
  8
0
 10
13.1662
 20
89.4975
 40
3
  1
T
  7
HIGHWAYC2K
  0
TEXT
  8
0
 10
14.8013
 20
89.4975
 40
3
  1
E
  7
HIGHWAYC2K
  0
ENDSEC
  0
EOF