  0
SECTION
  2
HEADER
  9
$ACADVER
  1
AC1009
  0
ENDSEC
  0
SECTION
  2
TABLES
  0
TABLE
  2
STYLE
 70
   5
  0
STYLE
  2
STANDARD
 70
    64
 40
0.0
 41
1.0
 50
0.0
 71
     0
 42
1.0
  3
txt
  4

  0
STYLE
  2
HIGHWAYEMOD2K
 70
    64
 40
0.0
 41
1.0
 50
0.0
 71
     0
 42
1.0
  3
Highway E Mod 2K
  4

  0
STYLE
  2
HIGHWAYSIGNCADPLUS
 70
    64
 40
0.0
 41
1.0
 50
0.0
 71
     0
 42
1.0
  3
Highway SignCAD Plus
  4

  0
STYLE
  2
HIGHWAYC2K
 70
    64
 40
0.0
 41
1.0
 50
0.0
 71
     0
 42
1.0
  3
Highway C 2K
  4

  0
STYLE
  2
HIGHWAYD2K
 70
    64
 40
0.0
 41
1.0
 50
0.0
 71
     0
 42
1.0
  3
Highway D 2K
  4

  0
ENDTAB
  0
ENDSEC
  0
SECTION
  2
ENTITIES
  0
ARC
  8
0
 10
1.5
 20
123.7368
 40
1.5
 50
180
 51
270
  0
ARC
  8
0
 10
22.5
 20
123.7368
 40
1.5
 50
270
 51
360
  0
ARC
  8
0
 10
22.5
 20
144.7368
 40
1.5
 50
0
 51
90
  0
ARC
  8
0
 10
1.5
 20
144.7368
 40
1.5
 50
90
 51
180
  0
POLYLINE
  8
0
 66
     1
 10
0
 20
0
  0
VERTEX
  8
0
 10
1.5
 20
122.2368
  0
VERTEX
  8
0
 10
22.5
 20
122.2368
  0
SEQEND
  0
POLYLINE
  8
0
 66
     1
 10
0
 20
0
  0
VERTEX
  8
0
 10
24
 20
123.7368
  0
VERTEX
  8
0
 10
24
 20
144.7368
  0
SEQEND
  0
POLYLINE
  8
0
 66
     1
 10
0
 20
0
  0
VERTEX
  8
0
 10
22.5
 20
146.2368
  0
VERTEX
  8
0
 10
1.5
 20
146.2368
  0
SEQEND
  0
POLYLINE
  8
0
 66
     1
 10
0
 20
0
  0
VERTEX
  8
0
 10
0
 20
144.7368
  0
VERTEX
  8
0
 10
0
 20
123.7368
  0
SEQEND
  0
ARC
  8
0
 10
1.5
 20
123.7368
 40
1
 50
180
 51
270
  0
ARC
  8
0
 10
1.5
 20
123.7368
 40
0.5
 50
180
 51
270
  0
ARC
  8
0
 10
22.5
 20
123.7368
 40
1
 50
270
 51
360
  0
ARC
  8
0
 10
22.5
 20
123.7368
 40
0.5
 50
270
 51
360
  0
ARC
  8
0
 10
22.5
 20
144.7368
 40
1
 50
0
 51
90
  0
ARC
  8
0
 10
22.5
 20
144.7368
 40
0.5
 50
0
 51
90
  0
ARC
  8
0
 10
1.5
 20
144.7368
 40
1
 50
90
 51
180
  0
ARC
  8
0
 10
1.5
 20
144.7368
 40
0.5
 50
90
 51
180
  0
POLYLINE
  8
0
 66
     1
 10
0
 20
0
  0
VERTEX
  8
0
 10
1.5
 20
123.2368
  0
VERTEX
  8
0
 10
22.5
 20
123.2368
  0
SEQEND
  0
POLYLINE
  8
0
 66
     1
 10
0
 20
0
  0
VERTEX
  8
0
 10
22.5
 20
122.7368
  0
VERTEX
  8
0
 10
1.5
 20
122.7368
  0
SEQEND
  0
POLYLINE
  8
0
 66
     1
 10
0
 20
0
  0
VERTEX
  8
0
 10
23
 20
123.7368
  0
VERTEX
  8
0
 10
23
 20
144.7368
  0
SEQEND
  0
POLYLINE
  8
0
 66
     1
 10
0
 20
0
  0
VERTEX
  8
0
 10
23.5
 20
144.7368
  0
VERTEX
  8
0
 10
23.5
 20
123.7368
  0
SEQEND
  0
POLYLINE
  8
0
 66
     1
 10
0
 20
0
  0
VERTEX
  8
0
 10
22.5
 20
145.2368
  0
VERTEX
  8
0
 10
1.5
 20
145.2368
  0
SEQEND
  0
POLYLINE
  8
0
 66
     1
 10
0
 20
0
  0
VERTEX
  8
0
 10
1.5
 20
145.7368
  0
VERTEX
  8
0
 10
22.5
 20
145.7368
  0
SEQEND
  0
POLYLINE
  8
0
 66
     1
 10
0
 20
0
  0
VERTEX
  8
0
 10
1
 20
144.7368
  0
VERTEX
  8
0
 10
1
 20
123.7368
  0
SEQEND
  0
POLYLINE
  8
0
 66
     1
 10
0
 20
0
  0
VERTEX
  8
0
 10
0.5
 20
123.7368
  0
VERTEX
  8
0
 10
0.5
 20
144.7368
  0
SEQEND
  0
TEXT
  8
0
 10
25.9
 20
144.9625
 40
0.8
  1
2
 50
90
  7
HIGHWAYSIGNCADPLUS
 72
1
 11
25.9
 21
145.2368
  0
LINE
  8
0
 10
25.5
 20
145.7111
 11
25.5
 21
146.2368
  0
LINE
  8
0
 10
25.6789
 20
145.879
 11
25.5
 21
146.2368
  0
LINE
  8
0
 10
25.3211
 20
145.879
 11
25.5
 21
146.2368
  0
LINE
  8
0
 10
25.7
 20
146.2368
 11
24.5
 21
146.2368
  0
LINE
  8
0
 10
25.5
 20
144.7625
 11
25.5
 21
144.2368
  0
LINE
  8
0
 10
25.3211
 20
144.5946
 11
25.5
 21
144.2368
  0
LINE
  8
0
 10
25.6789
 20
144.5946
 11
25.5
 21
144.2368
  0
LINE
  8
0
 10
25.7
 20
144.2368
 11
24.5
 21
144.2368
  0
TEXT
  8
0
 10
25.9
 20
133.6378
 40
0.8
  1
20
 50
90
  7
HIGHWAYSIGNCADPLUS
 72
1
 11
25.9
 21
134.2368
  0
LINE
  8
0
 10
25.5
 20
135.0358
 11
25.5
 21
144.2368
  0
LINE
  8
0
 10
25.6789
 20
143.879
 11
25.5
 21
144.2368
  0
LINE
  8
0
 10
25.3211
 20
143.879
 11
25.5
 21
144.2368
  0
LINE
  8
0
 10
25.5
 20
133.4378
 11
25.5
 21
124.2368
  0
LINE
  8
0
 10
25.3211
 20
124.5946
 11
25.5
 21
124.2368
  0
LINE
  8
0
 10
25.6789
 20
124.5946
 11
25.5
 21
124.2368
  0
LINE
  8
0
 10
25.7
 20
124.2368
 11
24.5
 21
124.2368
  0
TEXT
  8
0
 10
0.7257
 20
120.3368
 40
0.8
  1
2
  7
HIGHWAYSIGNCADPLUS
 72
1
 11
1
 21
120.3368
  0
LINE
  8
0
 10
1.4743
 20
120.7368
 11
2
 21
120.7368
  0
LINE
  8
0
 10
1.6422
 20
120.5579
 11
2
 21
120.7368
  0
LINE
  8
0
 10
1.6422
 20
120.9157
 11
2
 21
120.7368
  0
LINE
  8
0
 10
2
 20
120.5368
 11
2
 21
121.7368
  0
LINE
  8
0
 10
0.5257
 20
120.7368
 11
0
 21
120.7368
  0
LINE
  8
0
 10
0.3578
 20
120.9157
 11
0
 21
120.7368
  0
LINE
  8
0
 10
0.3578
 20
120.5579
 11
0
 21
120.7368
  0
LINE
  8
0
 10
0
 20
120.5368
 11
0
 21
121.7368
  0
TEXT
  8
0
 10
11.401
 20
120.3368
 40
0.8
  1
20
  7
HIGHWAYSIGNCADPLUS
 72
1
 11
12
 21
120.3368
  0
LINE
  8
0
 10
12.799
 20
120.7368
 11
22
 21
120.7368
  0
LINE
  8
0
 10
21.6422
 20
120.5579
 11
22
 21
120.7368
  0
LINE
  8
0
 10
21.6422
 20
120.9157
 11
22
 21
120.7368
  0
LINE
  8
0
 10
22
 20
120.5368
 11
22
 21
121.7368
  0
LINE
  8
0
 10
11.201
 20
120.7368
 11
2
 21
120.7368
  0
LINE
  8
0
 10
2.3578
 20
120.9157
 11
2
 21
120.7368
  0
LINE
  8
0
 10
2.3578
 20
120.5579
 11
2
 21
120.7368
  0
TEXT
  8
0
 10
22.7257
 20
120.3368
 40
0.8
  1
2
  7
HIGHWAYSIGNCADPLUS
 72
1
 11
23
 21
120.3368
  0
LINE
  8
0
 10
23.4743
 20
120.7368
 11
24
 21
120.7368
  0
LINE
  8
0
 10
23.6422
 20
120.5579
 11
24
 21
120.7368
  0
LINE
  8
0
 10
23.6422
 20
120.9157
 11
24
 21
120.7368
  0
LINE
  8
0
 10
24
 20
120.5368
 11
24
 21
121.7368
  0
LINE
  8
0
 10
22.5257
 20
120.7368
 11
22
 21
120.7368
  0
LINE
  8
0
 10
22.3578
 20
120.9157
 11
22
 21
120.7368
  0
LINE
  8
0
 10
22.3578
 20
120.5579
 11
22
 21
120.7368
  0
LINE
  8
0
 10
22
 20
120.5368
 11
22
 21
121.7368
  0
TEXT
  8
0
 10
25.9
 20
122.9625
 40
0.8
  1
2
 50
90
  7
HIGHWAYSIGNCADPLUS
 72
1
 11
25.9
 21
123.2368
  0
LINE
  8
0
 10
25.5
 20
123.7111
 11
25.5
 21
124.2368
  0
LINE
  8
0
 10
25.6789
 20
123.879
 11
25.5
 21
124.2368
  0
LINE
  8
0
 10
25.3211
 20
123.879
 11
25.5
 21
124.2368
  0
LINE
  8
0
 10
25.7
 20
124.2368
 11
24.5
 21
124.2368
  0
LINE
  8
0
 10
25.5
 20
122.7625
 11
25.5
 21
122.2368
  0
LINE
  8
0
 10
25.3211
 20
122.5946
 11
25.5
 21
122.2368
  0
LINE
  8
0
 10
25.6789
 20
122.5946
 11
25.5
 21
122.2368
  0
LINE
  8
0
 10
25.7
 20
122.2368
 11
24.5
 21
122.2368
  0
TEXT
  8
0
 10
27.9
 20
133.6378
 40
0.8
  1
24
 50
90
  7
HIGHWAYSIGNCADPLUS
 72
1
 11
27.9
 21
134.2368
  0
LINE
  8
0
 10
27.5
 20
135.0358
 11
27.5
 21
146.2368
  0
LINE
  8
0
 10
27.6789
 20
145.879
 11
27.5
 21
146.2368
  0
LINE
  8
0
 10
27.3211
 20
145.879
 11
27.5
 21
146.2368
  0
LINE
  8
0
 10
27.7
 20
146.2368
 11
24.2
 21
146.2368
  0
LINE
  8
0
 10
27.5
 20
133.4378
 11
27.5
 21
122.2368
  0
LINE
  8
0
 10
27.3211
 20
122.5946
 11
27.5
 21
122.2368
  0
LINE
  8
0
 10
27.6789
 20
122.5946
 11
27.5
 21
122.2368
  0
LINE
  8
0
 10
27.7
 20
122.2368
 11
24.2
 21
122.2368
  0
TEXT
  8
0
 10
11.401
 20
118.3368
 40
0.8
  1
24
  7
HIGHWAYSIGNCADPLUS
 72
1
 11
12
 21
118.3368
  0
LINE
  8
0
 10
12.799
 20
118.7368
 11
24
 21
118.7368
  0
LINE
  8
0
 10
23.6422
 20
118.5579
 11
24
 21
118.7368
  0
LINE
  8
0
 10
23.6422
 20
118.9157
 11
24
 21
118.7368
  0
LINE
  8
0
 10
24
 20
118.5368
 11
24
 21
122.0368
  0
LINE
  8
0
 10
11.201
 20
118.7368
 11
0
 21
118.7368
  0
LINE
  8
0
 10
0.3578
 20
118.9157
 11
0
 21
118.7368
  0
LINE
  8
0
 10
0.3578
 20
118.5579
 11
0
 21
118.7368
  0
LINE
  8
0
 10
0
 20
118.5368
 11
0
 21
122.0368
  0
TEXT
  8
0
 10
0
 20
117.1368
 40
0.8
  1
1.50" Radius, 0.50" Border, 0.50" Indent, Blue on White; 
  7
HIGHWAYSIGNCADPLUS
 73
1
 11
0
 21
116.7368
  0
TEXT
  8
0
 10
0
 20
115.5368
 40
0.8
  1
Rounded Rectangle 10.00" Radius; 
  7
HIGHWAYSIGNCADPLUS
 73
1
 11
0
 21
115.1368
  0
ARC
  8
0
 10
12
 20
134.2368
 40
10
 50
180
 51
270
  0
ARC
  8
0
 10
12
 20
134.2368
 40
10
 50
270
 51
360
  0
ARC
  8
0
 10
12
 20
134.2368
 40
10
 50
0
 51
90
  0
ARC
  8
0
 10
12
 20
134.2368
 40
10
 50
90
 51
180
  0
ARC
  8
0
 10
12.3125
 20
136.7393
 40
0.375
 50
239.5743
 51
376.9437
  0
ARC
  8
0
 10
12.3125
 20
141.3643
 40
0.375
 50
343.0564
 51
480.4258
  0
POLYLINE
  8
0
 66
     1
 10
0
 20
0
  0
VERTEX
  8
0
 10
8
 20
139.0518
  0
VERTEX
  8
0
 10
12.1226
 20
136.4159
  0
SEQEND
  0
POLYLINE
  8
0
 66
     1
 10
0
 20
0
  0
VERTEX
  8
0
 10
12.6712
 20
136.8486
  0
VERTEX
  8
0
 10
12.3047
 20
138.0518
  0
SEQEND
  0
POLYLINE
  8
0
 66
     1
 10
0
 20
0
  0
VERTEX
  8
0
 10
12.3047
 20
140.0518
  0
VERTEX
  8
0
 10
12.6712
 20
141.255
  0
SEQEND
  0
POLYLINE
  8
0
 66
     1
 10
0
 20
0
  0
VERTEX
  8
0
 10
12.1226
 20
141.6877
  0
VERTEX
  8
0
 10
8
 20
139.0518
  0
SEQEND
  0
POLYLINE
  8
0
 66
     1
 10
0
 20
0
  0
VERTEX
  8
0
 10
16
 20
140.0518
  0
VERTEX
  8
0
 10
16
 20
138.0518
  0
VERTEX
  8
0
 10
12.3047
 20
138.0518
  0
SEQEND
  0
POLYLINE
  8
0
 66
     1
 10
0
 20
0
  0
VERTEX
  8
0
 10
12.3047
 20
140.0518
  0
VERTEX
  8
0
 10
16
 20
140.0518
  0
SEQEND
  0
TEXT
  8
0
 10
3.5513
 20
131.3643
 40
3
  1
E
  7
HIGHWAYC2K
  0
TEXT
  8
0
 10
5.1488
 20
131.3643
 40
3
  1
V
  7
HIGHWAYC2K
  0
TEXT
  8
0
 10
7.0538
 20
131.3643
 40
3
  1
A
  7
HIGHWAYC2K
  0
TEXT
  8
0
 10
9.0638
 20
131.3643
 40
3
  1
C
  7
HIGHWAYC2K
  0
TEXT
  8
0
 10
10.8938
 20
131.3643
 40
3
  1
U
  7
HIGHWAYC2K
  0
TEXT
  8
0
 10
12.6787
 20
131.3643
 40
3
  1
A
  7
HIGHWAYC2K
  0
TEXT
  8
0
 10
14.6437
 20
131.3643
 40
3
  1
T
  7
HIGHWAYC2K
  0
TEXT
  8
0
 10
16.2787
 20
131.3643
 40
3
  1
I
  7
HIGHWAYC2K
  0
TEXT
  8
0
 10
16.8488
 20
131.3643
 40
3
  1
O
  7
HIGHWAYC2K
  0
TEXT
  8
0
 10
18.7687
 20
131.3643
 40
3
  1
N
  7
HIGHWAYC2K
  0
TEXT
  8
0
 10
7.6687
 20
126.7343
 40
3
  1
R
  7
HIGHWAYC2K
  0
TEXT
  8
0
 10
9.4612
 20
126.7343
 40
3
  1
O
  7
HIGHWAYC2K
  0
TEXT
  8
0
 10
11.3812
 20
126.7343
 40
3
  1
U
  7
HIGHWAYC2K
  0
TEXT
  8
0
 10
13.1662
 20
126.7343
 40
3
  1
T
  7
HIGHWAYC2K
  0
TEXT
  8
0
 10
14.8013
 20
126.7343
 40
3
  1
E
  7
HIGHWAYC2K
  0
ENDSEC
  0
EOF