  0
SECTION
  2
HEADER
  9
$ACADVER
  1
AC1009
  0
ENDSEC
  0
SECTION
  2
TABLES
  0
TABLE
  2
STYLE
 70
   1
  0
STYLE
  2
STANDARD
 70
    64
 40
0.0
 41
1.0
 50
0.0
 71
     0
 42
1.0
  3
txt
  4

  0
ENDTAB
  0
ENDSEC
  0
SECTION
  2
ENTITIES
  0
ARC
  8
0
 10
183.75
 20
80.1413
 40
2.25
 50
0
 51
90
  0
LINE
  8
0
 10
183.75
 20
82.3913
 11
152.25
 21
82.3913
  0
ARC
  8
0
 10
152.25
 20
80.1413
 40
2.25
 50
90
 51
180
  0
LINE
  8
0
 10
150
 20
80.1413
 11
150
 21
48.6413
  0
ARC
  8
0
 10
152.25
 20
48.6413
 40
2.25
 50
180
 51
270
  0
LINE
  8
0
 10
152.25
 20
46.3913
 11
183.75
 21
46.3913
  0
ARC
  8
0
 10
183.75
 20
48.6413
 40
2.25
 50
270
 51
360
  0
LINE
  8
0
 10
186
 20
48.6413
 11
186
 21
80.1413
  0
ARC
  8
0
 10
183.75
 20
80.1413
 40
1.75
 50
0
 51
90
  0
ARC
  8
0
 10
183.75
 20
80.1413
 40
1
 50
0
 51
90
  0
ARC
  8
0
 10
152.25
 20
80.1413
 40
1.75
 50
90
 51
180
  0
ARC
  8
0
 10
152.25
 20
80.1413
 40
1
 50
90
 51
180
  0
ARC
  8
0
 10
152.25
 20
48.6413
 40
1.75
 50
180
 51
270
  0
ARC
  8
0
 10
152.25
 20
48.6413
 40
1
 50
180
 51
270
  0
ARC
  8
0
 10
183.75
 20
48.6413
 40
1.75
 50
270
 51
360
  0
ARC
  8
0
 10
183.75
 20
48.6413
 40
1
 50
270
 51
360
  0
POLYLINE
  8
0
 66
     1
 10
0
 20
0
  0
VERTEX
  8
0
 10
183.75
 20
81.8913
  0
VERTEX
  8
0
 10
152.25
 20
81.8913
  0
SEQEND
  0
POLYLINE
  8
0
 66
     1
 10
0
 20
0
  0
VERTEX
  8
0
 10
152.25
 20
81.1413
  0
VERTEX
  8
0
 10
183.75
 20
81.1413
  0
SEQEND
  0
POLYLINE
  8
0
 66
     1
 10
0
 20
0
  0
VERTEX
  8
0
 10
150.5
 20
80.1413
  0
VERTEX
  8
0
 10
150.5
 20
48.6413
  0
SEQEND
  0
POLYLINE
  8
0
 66
     1
 10
0
 20
0
  0
VERTEX
  8
0
 10
151.25
 20
48.6413
  0
VERTEX
  8
0
 10
151.25
 20
80.1413
  0
SEQEND
  0
POLYLINE
  8
0
 66
     1
 10
0
 20
0
  0
VERTEX
  8
0
 10
152.25
 20
46.8913
  0
VERTEX
  8
0
 10
183.75
 20
46.8913
  0
SEQEND
  0
POLYLINE
  8
0
 66
     1
 10
0
 20
0
  0
VERTEX
  8
0
 10
183.75
 20
47.6413
  0
VERTEX
  8
0
 10
152.25
 20
47.6413
  0
SEQEND
  0
POLYLINE
  8
0
 66
     1
 10
0
 20
0
  0
VERTEX
  8
0
 10
185.5
 20
48.6413
  0
VERTEX
  8
0
 10
185.5
 20
80.1413
  0
SEQEND
  0
POLYLINE
  8
0
 66
     1
 10
0
 20
0
  0
VERTEX
  8
0
 10
184.75
 20
80.1413
  0
VERTEX
  8
0
 10
184.75
 20
48.6413
  0
SEQEND
  0
POLYLINE
  8
0
 66
     1
 10
0
 20
0
  0
VERTEX
  8
0
 10
187.6827
 20
80.6248
  0
VERTEX
  8
0
 10
187.669
 20
80.7259
  0
VERTEX
  8
0
 10
187.7033
 20
80.7341
  0
VERTEX
  8
0
 10
187.7336
 20
80.7447
  0
VERTEX
  8
0
 10
187.7598
 20
80.7578
  0
VERTEX
  8
0
 10
187.7821
 20
80.7733
  0
VERTEX
  8
0
 10
187.8003
 20
80.7912
  0
VERTEX
  8
0
 10
187.8145
 20
80.8116
  0
VERTEX
  8
0
 10
187.8246
 20
80.8343
  0
VERTEX
  8
0
 10
187.8308
 20
80.8595
  0
VERTEX
  8
0
 10
187.8329
 20
80.8872
  0
VERTEX
  8
0
 10
187.8207
 20
80.9536
  0
VERTEX
  8
0
 10
187.7829
 20
81.0079
  0
VERTEX
  8
0
 10
187.7266
 20
81.0443
  0
VERTEX
  8
0
 10
187.6589
 20
81.0568
  0
VERTEX
  8
0
 10
187.5947
 20
81.0457
  0
VERTEX
  8
0
 10
187.5427
 20
81.0114
  0
VERTEX
  8
0
 10
187.5084
 20
80.9597
  0
VERTEX
  8
0
 10
187.4969
 20
80.8962
  0
VERTEX
  8
0
 10
187.5
 20
80.8633
  0
VERTEX
  8
0
 10
187.5094
 20
80.8251
  0
VERTEX
  8
0
 10
187.4209
 20
80.8364
  0
VERTEX
  8
0
 10
187.4209
 20
80.8432
  0
VERTEX
  8
0
 10
187.4209
 20
80.8527
  0
VERTEX
  8
0
 10
187.4126
 20
80.9168
  0
VERTEX
  8
0
 10
187.3875
 20
80.9685
  0
VERTEX
  8
0
 10
187.3426
 20
81.0074
  0
VERTEX
  8
0
 10
187.2824
 20
81.0208
  0
VERTEX
  8
0
 10
187.2303
 20
81.0116
  0
VERTEX
  8
0
 10
187.1891
 20
80.9828
  0
VERTEX
  8
0
 10
187.1623
 20
80.9392
  0
VERTEX
  8
0
 10
187.1529
 20
80.8856
  0
VERTEX
  8
0
 10
187.1546
 20
80.859
  0
VERTEX
  8
0
 10
187.1599
 20
80.8348
  0
VERTEX
  8
0
 10
187.1691
 20
80.8132
  0
VERTEX
  8
0
 10
187.182
 20
80.7941
  0
VERTEX
  8
0
 10
187.1986
 20
80.7775
  0
VERTEX
  8
0
 10
187.2191
 20
80.7635
  0
VERTEX
  8
0
 10
187.2432
 20
80.7519
  0
VERTEX
  8
0
 10
187.2712
 20
80.7429
  0
VERTEX
  8
0
 10
187.3029
 20
80.7364
  0
VERTEX
  8
0
 10
187.2847
 20
80.635
  0
VERTEX
  8
0
 10
187.2225
 20
80.6522
  0
VERTEX
  8
0
 10
187.1699
 20
80.6799
  0
VERTEX
  8
0
 10
187.1268
 20
80.718
  0
VERTEX
  8
0
 10
187.0949
 20
80.7653
  0
VERTEX
  8
0
 10
187.0756
 20
80.8204
  0
VERTEX
  8
0
 10
187.0689
 20
80.8833
  0
VERTEX
  8
0
 10
187.0754
 20
80.9453
  0
VERTEX
  8
0
 10
187.0961
 20
81.0032
  0
VERTEX
  8
0
 10
187.1309
 20
81.0558
  0
VERTEX
  8
0
 10
187.1776
 20
81.0944
  0
VERTEX
  8
0
 10
187.2295
 20
81.1172
  0
VERTEX
  8
0
 10
187.2846
 20
81.1248
  0
VERTEX
  8
0
 10
187.3214
 20
81.1217
  0
VERTEX
  8
0
 10
187.3546
 20
81.1122
  0
VERTEX
  8
0
 10
187.3844
 20
81.0966
  0
VERTEX
  8
0
 10
187.4107
 20
81.0746
  0
VERTEX
  8
0
 10
187.4334
 20
81.0464
  0
VERTEX
  8
0
 10
187.4527
 20
81.0119
  0
VERTEX
  8
0
 10
187.4796
 20
81.0776
  0
VERTEX
  8
0
 10
187.5252
 20
81.1263
  0
VERTEX
  8
0
 10
187.5848
 20
81.1552
  0
VERTEX
  8
0
 10
187.6571
 20
81.1648
  0
VERTEX
  8
0
 10
187.7096
 20
81.1599
  0
VERTEX
  8
0
 10
187.7578
 20
81.1452
  0
VERTEX
  8
0
 10
187.8017
 20
81.1207
  0
VERTEX
  8
0
 10
187.8414
 20
81.0863
  0
VERTEX
  8
0
 10
187.8742
 20
81.0444
  0
VERTEX
  8
0
 10
187.8978
 20
80.9972
  0
VERTEX
  8
0
 10
187.912
 20
80.9447
  0
VERTEX
  8
0
 10
187.9169
 20
80.8869
  0
VERTEX
  8
0
 10
187.9099
 20
80.8193
  0
VERTEX
  8
0
 10
187.8887
 20
80.7595
  0
VERTEX
  8
0
 10
187.8534
 20
80.7078
  0
VERTEX
  8
0
 10
187.8062
 20
80.6667
  0
VERTEX
  8
0
 10
187.7493
 20
80.639
  0
VERTEX
  8
0
 10
187.6827
 20
80.6248
  0
VERTEX
  8
0
 10
187.6827
 20
80.6248
  0
SEQEND
  0
LINE
  8
0
 10
187.5
 20
81.3615
 11
187.5
 21
82.3913
  0
LINE
  8
0
 10
187.6789
 20
82.0335
 11
187.5
 21
82.3913
  0
LINE
  8
0
 10
187.3211
 20
82.0335
 11
187.5
 21
82.3913
  0
LINE
  8
0
 10
187.7
 20
82.3913
 11
186.5
 21
82.3913
  0
LINE
  8
0
 10
187.5
 20
80.4211
 11
187.5
 21
79.3913
  0
LINE
  8
0
 10
187.3211
 20
79.7491
 11
187.5
 21
79.3913
  0
LINE
  8
0
 10
187.6789
 20
79.7491
 11
187.5
 21
79.3913
  0
LINE
  8
0
 10
187.7
 20
79.3913
 11
186.5
 21
79.3913
  0
POLYLINE
  8
0
 66
     1
 10
0
 20
0
  0
VERTEX
  8
0
 10
187.6827
 20
63.8048
  0
VERTEX
  8
0
 10
187.669
 20
63.9059
  0
VERTEX
  8
0
 10
187.7033
 20
63.9141
  0
VERTEX
  8
0
 10
187.7336
 20
63.9247
  0
VERTEX
  8
0
 10
187.7598
 20
63.9378
  0
VERTEX
  8
0
 10
187.7821
 20
63.9533
  0
VERTEX
  8
0
 10
187.8003
 20
63.9712
  0
VERTEX
  8
0
 10
187.8145
 20
63.9916
  0
VERTEX
  8
0
 10
187.8246
 20
64.0143
  0
VERTEX
  8
0
 10
187.8308
 20
64.0395
  0
VERTEX
  8
0
 10
187.8329
 20
64.0672
  0
VERTEX
  8
0
 10
187.8207
 20
64.1336
  0
VERTEX
  8
0
 10
187.7829
 20
64.1879
  0
VERTEX
  8
0
 10
187.7266
 20
64.2243
  0
VERTEX
  8
0
 10
187.6589
 20
64.2368
  0
VERTEX
  8
0
 10
187.5947
 20
64.2257
  0
VERTEX
  8
0
 10
187.5427
 20
64.1914
  0
VERTEX
  8
0
 10
187.5084
 20
64.1397
  0
VERTEX
  8
0
 10
187.4969
 20
64.0762
  0
VERTEX
  8
0
 10
187.5
 20
64.0433
  0
VERTEX
  8
0
 10
187.5094
 20
64.0051
  0
VERTEX
  8
0
 10
187.4209
 20
64.0164
  0
VERTEX
  8
0
 10
187.4209
 20
64.0232
  0
VERTEX
  8
0
 10
187.4209
 20
64.0327
  0
VERTEX
  8
0
 10
187.4126
 20
64.0968
  0
VERTEX
  8
0
 10
187.3875
 20
64.1485
  0
VERTEX
  8
0
 10
187.3426
 20
64.1874
  0
VERTEX
  8
0
 10
187.2824
 20
64.2008
  0
VERTEX
  8
0
 10
187.2303
 20
64.1916
  0
VERTEX
  8
0
 10
187.1891
 20
64.1628
  0
VERTEX
  8
0
 10
187.1623
 20
64.1192
  0
VERTEX
  8
0
 10
187.1529
 20
64.0656
  0
VERTEX
  8
0
 10
187.1546
 20
64.039
  0
VERTEX
  8
0
 10
187.1599
 20
64.0148
  0
VERTEX
  8
0
 10
187.1691
 20
63.9932
  0
VERTEX
  8
0
 10
187.182
 20
63.9741
  0
VERTEX
  8
0
 10
187.1986
 20
63.9575
  0
VERTEX
  8
0
 10
187.2191
 20
63.9435
  0
VERTEX
  8
0
 10
187.2432
 20
63.9319
  0
VERTEX
  8
0
 10
187.2712
 20
63.9229
  0
VERTEX
  8
0
 10
187.3029
 20
63.9164
  0
VERTEX
  8
0
 10
187.2847
 20
63.815
  0
VERTEX
  8
0
 10
187.2225
 20
63.8322
  0
VERTEX
  8
0
 10
187.1699
 20
63.8599
  0
VERTEX
  8
0
 10
187.1268
 20
63.898
  0
VERTEX
  8
0
 10
187.0949
 20
63.9453
  0
VERTEX
  8
0
 10
187.0756
 20
64.0004
  0
VERTEX
  8
0
 10
187.0689
 20
64.0633
  0
VERTEX
  8
0
 10
187.0754
 20
64.1253
  0
VERTEX
  8
0
 10
187.0961
 20
64.1832
  0
VERTEX
  8
0
 10
187.1309
 20
64.2358
  0
VERTEX
  8
0
 10
187.1776
 20
64.2744
  0
VERTEX
  8
0
 10
187.2295
 20
64.2972
  0
VERTEX
  8
0
 10
187.2846
 20
64.3048
  0
VERTEX
  8
0
 10
187.3214
 20
64.3017
  0
VERTEX
  8
0
 10
187.3546
 20
64.2922
  0
VERTEX
  8
0
 10
187.3844
 20
64.2766
  0
VERTEX
  8
0
 10
187.4107
 20
64.2546
  0
VERTEX
  8
0
 10
187.4334
 20
64.2264
  0
VERTEX
  8
0
 10
187.4527
 20
64.1919
  0
VERTEX
  8
0
 10
187.4796
 20
64.2576
  0
VERTEX
  8
0
 10
187.5252
 20
64.3063
  0
VERTEX
  8
0
 10
187.5848
 20
64.3352
  0
VERTEX
  8
0
 10
187.6571
 20
64.3448
  0
VERTEX
  8
0
 10
187.7096
 20
64.3399
  0
VERTEX
  8
0
 10
187.7578
 20
64.3252
  0
VERTEX
  8
0
 10
187.8017
 20
64.3007
  0
VERTEX
  8
0
 10
187.8414
 20
64.2663
  0
VERTEX
  8
0
 10
187.8742
 20
64.2244
  0
VERTEX
  8
0
 10
187.8978
 20
64.1772
  0
VERTEX
  8
0
 10
187.912
 20
64.1247
  0
VERTEX
  8
0
 10
187.9169
 20
64.0669
  0
VERTEX
  8
0
 10
187.9099
 20
63.9993
  0
VERTEX
  8
0
 10
187.8887
 20
63.9395
  0
VERTEX
  8
0
 10
187.8534
 20
63.8878
  0
VERTEX
  8
0
 10
187.8062
 20
63.8467
  0
VERTEX
  8
0
 10
187.7493
 20
63.819
  0
VERTEX
  8
0
 10
187.6827
 20
63.8048
  0
VERTEX
  8
0
 10
187.6827
 20
63.8048
  0
SEQEND
  0
POLYLINE
  8
0
 66
     1
 10
0
 20
0
  0
VERTEX
  8
0
 10
187.4932
 20
64.4448
  0
VERTEX
  8
0
 10
187.4396
 20
64.446
  0
VERTEX
  8
0
 10
187.3896
 20
64.4496
  0
VERTEX
  8
0
 10
187.3431
 20
64.4556
  0
VERTEX
  8
0
 10
187.3001
 20
64.464
  0
VERTEX
  8
0
 10
187.2608
 20
64.4747
  0
VERTEX
  8
0
 10
187.225
 20
64.4879
  0
VERTEX
  8
0
 10
187.1928
 20
64.5035
  0
VERTEX
  8
0
 10
187.1642
 20
64.5214
  0
VERTEX
  8
0
 10
187.1391
 20
64.5418
  0
VERTEX
  8
0
 10
187.1176
 20
64.5645
  0
VERTEX
  8
0
 10
187.0814
 20
64.6315
  0
VERTEX
  8
0
 10
187.0689
 20
64.7148
  0
VERTEX
  8
0
 10
187.0754
 20
64.7765
  0
VERTEX
  8
0
 10
187.0961
 20
64.8317
  0
VERTEX
  8
0
 10
187.1203
 20
64.8675
  0
VERTEX
  8
0
 10
187.1525
 20
64.8988
  0
VERTEX
  8
0
 10
187.1927
 20
64.9257
  0
VERTEX
  8
0
 10
187.241
 20
64.9481
  0
VERTEX
  8
0
 10
187.2972
 20
64.9662
  0
VERTEX
  8
0
 10
187.3819
 20
64.9801
  0
VERTEX
  8
0
 10
187.4932
 20
64.9848
  0
VERTEX
  8
0
 10
187.5467
 20
64.9836
  0
VERTEX
  8
0
 10
187.5967
 20
64.98
  0
VERTEX
  8
0
 10
187.6431
 20
64.974
  0
VERTEX
  8
0
 10
187.6859
 20
64.9656
  0
VERTEX
  8
0
 10
187.7252
 20
64.9549
  0
VERTEX
  8
0
 10
187.7609
 20
64.9417
  0
VERTEX
  8
0
 10
187.7931
 20
64.9261
  0
VERTEX
  8
0
 10
187.8217
 20
64.9082
  0
VERTEX
  8
0
 10
187.8467
 20
64.8878
  0
VERTEX
  8
0
 10
187.8682
 20
64.865
  0
VERTEX
  8
0
 10
187.9045
 20
64.7981
  0
VERTEX
  8
0
 10
187.9169
 20
64.7148
  0
VERTEX
  8
0
 10
187.9163
 20
64.6937
  0
VERTEX
  8
0
 10
187.9144
 20
64.6734
  0
VERTEX
  8
0
 10
187.9111
 20
64.654
  0
VERTEX
  8
0
 10
187.9064
 20
64.6355
  0
VERTEX
  8
0
 10
187.9003
 20
64.6178
  0
VERTEX
  8
0
 10
187.8929
 20
64.601
  0
VERTEX
  8
0
 10
187.8842
 20
64.585
  0
VERTEX
  8
0
 10
187.874
 20
64.5699
  0
VERTEX
  8
0
 10
187.8625
 20
64.5556
  0
VERTEX
  8
0
 10
187.8497
 20
64.5423
  0
VERTEX
  8
0
 10
187.8355
 20
64.5297
  0
VERTEX
  8
0
 10
187.8199
 20
64.5181
  0
VERTEX
  8
0
 10
187.8029
 20
64.5073
  0
VERTEX
  8
0
 10
187.7846
 20
64.4973
  0
VERTEX
  8
0
 10
187.7649
 20
64.4883
  0
VERTEX
  8
0
 10
187.7439
 20
64.48
  0
VERTEX
  8
0
 10
187.7215
 20
64.4727
  0
VERTEX
  8
0
 10
187.6977
 20
64.4662
  0
VERTEX
  8
0
 10
187.6726
 20
64.4606
  0
VERTEX
  8
0
 10
187.6461
 20
64.4558
  0
VERTEX
  8
0
 10
187.6183
 20
64.4519
  0
VERTEX
  8
0
 10
187.5891
 20
64.4488
  0
VERTEX
  8
0
 10
187.5585
 20
64.4466
  0
VERTEX
  8
0
 10
187.5265
 20
64.4453
  0
VERTEX
  8
0
 10
187.4932
 20
64.4448
  0
VERTEX
  8
0
 10
187.4932
 20
64.4448
  0
SEQEND
  0
POLYLINE
  8
0
 66
     1
 10
0
 20
0
  0
VERTEX
  8
0
 10
187.4929
 20
64.5488
  0
VERTEX
  8
0
 10
187.5782
 20
64.5513
  0
VERTEX
  8
0
 10
187.6488
 20
64.5586
  0
VERTEX
  8
0
 10
187.7049
 20
64.5709
  0
VERTEX
  8
0
 10
187.7387
 20
64.5831
  0
VERTEX
  8
0
 10
187.7674
 20
64.5981
  0
VERTEX
  8
0
 10
187.7908
 20
64.6159
  0
VERTEX
  8
0
 10
187.8091
 20
64.6365
  0
VERTEX
  8
0
 10
187.8222
 20
64.6598
  0
VERTEX
  8
0
 10
187.8302
 20
64.6859
  0
VERTEX
  8
0
 10
187.8329
 20
64.7148
  0
VERTEX
  8
0
 10
187.8321
 20
64.7318
  0
VERTEX
  8
0
 10
187.8294
 20
64.7479
  0
VERTEX
  8
0
 10
187.8247
 20
64.7631
  0
VERTEX
  8
0
 10
187.8182
 20
64.7773
  0
VERTEX
  8
0
 10
187.8098
 20
64.7907
  0
VERTEX
  8
0
 10
187.7995
 20
64.8031
  0
VERTEX
  8
0
 10
187.7873
 20
64.8146
  0
VERTEX
  8
0
 10
187.7732
 20
64.8252
  0
VERTEX
  8
0
 10
187.7572
 20
64.8348
  0
VERTEX
  8
0
 10
187.7393
 20
64.8435
  0
VERTEX
  8
0
 10
187.7195
 20
64.8514
  0
VERTEX
  8
0
 10
187.6978
 20
64.8583
  0
VERTEX
  8
0
 10
187.6742
 20
64.8642
  0
VERTEX
  8
0
 10
187.6488
 20
64.8693
  0
VERTEX
  8
0
 10
187.6214
 20
64.8734
  0
VERTEX
  8
0
 10
187.5921
 20
64.8767
  0
VERTEX
  8
0
 10
187.5609
 20
64.879
  0
VERTEX
  8
0
 10
187.5279
 20
64.8803
  0
VERTEX
  8
0
 10
187.4929
 20
64.8808
  0
VERTEX
  8
0
 10
187.4077
 20
64.8783
  0
VERTEX
  8
0
 10
187.337
 20
64.871
  0
VERTEX
  8
0
 10
187.281
 20
64.8587
  0
VERTEX
  8
0
 10
187.2471
 20
64.8463
  0
VERTEX
  8
0
 10
187.2185
 20
64.8311
  0
VERTEX
  8
0
 10
187.195
 20
64.8132
  0
VERTEX
  8
0
 10
187.1767
 20
64.7925
  0
VERTEX
  8
0
 10
187.1636
 20
64.769
  0
VERTEX
  8
0
 10
187.1557
 20
64.7427
  0
VERTEX
  8
0
 10
187.1529
 20
64.7137
  0
VERTEX
  8
0
 10
187.1593
 20
64.67
  0
VERTEX
  8
0
 10
187.1791
 20
64.6326
  0
VERTEX
  8
0
 10
187.2124
 20
64.6015
  0
VERTEX
  8
0
 10
187.2365
 20
64.5875
  0
VERTEX
  8
0
 10
187.2659
 20
64.5757
  0
VERTEX
  8
0
 10
187.3006
 20
64.566
  0
VERTEX
  8
0
 10
187.3407
 20
64.5585
  0
VERTEX
  8
0
 10
187.3861
 20
64.5531
  0
VERTEX
  8
0
 10
187.4368
 20
64.5499
  0
VERTEX
  8
0
 10
187.4929
 20
64.5488
  0
VERTEX
  8
0
 10
187.4929
 20
64.5488
  0
SEQEND
  0
LINE
  8
0
 10
187.5
 20
65.1819
 11
187.5
 21
79.3913
  0
LINE
  8
0
 10
187.6789
 20
79.0335
 11
187.5
 21
79.3913
  0
LINE
  8
0
 10
187.3211
 20
79.0335
 11
187.5
 21
79.3913
  0
LINE
  8
0
 10
187.5
 20
63.6007
 11
187.5
 21
49.3913
  0
LINE
  8
0
 10
187.3211
 20
49.7491
 11
187.5
 21
49.3913
  0
LINE
  8
0
 10
187.6789
 20
49.7491
 11
187.5
 21
49.3913
  0
LINE
  8
0
 10
187.7
 20
49.3913
 11
186.5
 21
49.3913
  0
POLYLINE
  8
0
 66
     1
 10
0
 20
0
  0
VERTEX
  8
0
 10
151.2289
 20
44.715
  0
VERTEX
  8
0
 10
151.33
 20
44.7287
  0
VERTEX
  8
0
 10
151.3383
 20
44.6944
  0
VERTEX
  8
0
 10
151.3489
 20
44.6641
  0
VERTEX
  8
0
 10
151.3619
 20
44.6379
  0
VERTEX
  8
0
 10
151.3774
 20
44.6157
  0
VERTEX
  8
0
 10
151.3953
 20
44.5974
  0
VERTEX
  8
0
 10
151.4157
 20
44.5833
  0
VERTEX
  8
0
 10
151.4385
 20
44.5731
  0
VERTEX
  8
0
 10
151.4637
 20
44.5669
  0
VERTEX
  8
0
 10
151.4913
 20
44.5648
  0
VERTEX
  8
0
 10
151.5577
 20
44.577
  0
VERTEX
  8
0
 10
151.612
 20
44.6148
  0
VERTEX
  8
0
 10
151.6484
 20
44.6711
  0
VERTEX
  8
0
 10
151.6609
 20
44.7388
  0
VERTEX
  8
0
 10
151.6499
 20
44.8031
  0
VERTEX
  8
0
 10
151.6156
 20
44.855
  0
VERTEX
  8
0
 10
151.5638
 20
44.8893
  0
VERTEX
  8
0
 10
151.5003
 20
44.9008
  0
VERTEX
  8
0
 10
151.4674
 20
44.8977
  0
VERTEX
  8
0
 10
151.4292
 20
44.8884
  0
VERTEX
  8
0
 10
151.4405
 20
44.9768
  0
VERTEX
  8
0
 10
151.4474
 20
44.9768
  0
VERTEX
  8
0
 10
151.4568
 20
44.9768
  0
VERTEX
  8
0
 10
151.5209
 20
44.9851
  0
VERTEX
  8
0
 10
151.5726
 20
45.0102
  0
VERTEX
  8
0
 10
151.6116
 20
45.0551
  0
VERTEX
  8
0
 10
151.6249
 20
45.1153
  0
VERTEX
  8
0
 10
151.6157
 20
45.1675
  0
VERTEX
  8
0
 10
151.5869
 20
45.2086
  0
VERTEX
  8
0
 10
151.5433
 20
45.2355
  0
VERTEX
  8
0
 10
151.4897
 20
45.2448
  0
VERTEX
  8
0
 10
151.4631
 20
45.2432
  0
VERTEX
  8
0
 10
151.439
 20
45.2378
  0
VERTEX
  8
0
 10
151.4173
 20
45.2286
  0
VERTEX
  8
0
 10
151.3982
 20
45.2157
  0
VERTEX
  8
0
 10
151.3817
 20
45.1991
  0
VERTEX
  8
0
 10
151.3676
 20
45.1787
  0
VERTEX
  8
0
 10
151.356
 20
45.1545
  0
VERTEX
  8
0
 10
151.347
 20
45.1265
  0
VERTEX
  8
0
 10
151.3405
 20
45.0949
  0
VERTEX
  8
0
 10
151.2391
 20
45.113
  0
VERTEX
  8
0
 10
151.2563
 20
45.1752
  0
VERTEX
  8
0
 10
151.284
 20
45.2279
  0
VERTEX
  8
0
 10
151.3221
 20
45.2709
  0
VERTEX
  8
0
 10
151.3694
 20
45.3028
  0
VERTEX
  8
0
 10
151.4245
 20
45.3221
  0
VERTEX
  8
0
 10
151.4874
 20
45.3288
  0
VERTEX
  8
0
 10
151.5495
 20
45.3223
  0
VERTEX
  8
0
 10
151.6073
 20
45.3016
  0
VERTEX
  8
0
 10
151.66
 20
45.2668
  0
VERTEX
  8
0
 10
151.6985
 20
45.2201
  0
VERTEX
  8
0
 10
151.7213
 20
45.1682
  0
VERTEX
  8
0
 10
151.7289
 20
45.1131
  0
VERTEX
  8
0
 10
151.7258
 20
45.0764
  0
VERTEX
  8
0
 10
151.7164
 20
45.0431
  0
VERTEX
  8
0
 10
151.7007
 20
45.0133
  0
VERTEX
  8
0
 10
151.6787
 20
44.9871
  0
VERTEX
  8
0
 10
151.6505
 20
44.9643
  0
VERTEX
  8
0
 10
151.616
 20
44.945
  0
VERTEX
  8
0
 10
151.6817
 20
44.9181
  0
VERTEX
  8
0
 10
151.7304
 20
44.8725
  0
VERTEX
  8
0
 10
151.7593
 20
44.8129
  0
VERTEX
  8
0
 10
151.7689
 20
44.7406
  0
VERTEX
  8
0
 10
151.764
 20
44.6881
  0
VERTEX
  8
0
 10
151.7493
 20
44.6399
  0
VERTEX
  8
0
 10
151.7248
 20
44.596
  0
VERTEX
  8
0
 10
151.6905
 20
44.5564
  0
VERTEX
  8
0
 10
151.6486
 20
44.5235
  0
VERTEX
  8
0
 10
151.6014
 20
44.5
  0
VERTEX
  8
0
 10
151.5489
 20
44.4857
  0
VERTEX
  8
0
 10
151.491
 20
44.4808
  0
VERTEX
  8
0
 10
151.4234
 20
44.4879
  0
VERTEX
  8
0
 10
151.3637
 20
44.509
  0
VERTEX
  8
0
 10
151.3119
 20
44.5443
  0
VERTEX
  8
0
 10
151.2708
 20
44.5915
  0
VERTEX
  8
0
 10
151.2431
 20
44.6484
  0
VERTEX
  8
0
 10
151.2289
 20
44.715
  0
VERTEX
  8
0
 10
151.2289
 20
44.715
  0
SEQEND
  0
LINE
  8
0
 10
151.9702
 20
44.8913
 11
153
 21
44.8913
  0
LINE
  8
0
 10
152.6422
 20
44.7124
 11
153
 21
44.8913
  0
LINE
  8
0
 10
152.6422
 20
45.0702
 11
153
 21
44.8913
  0
LINE
  8
0
 10
153
 20
44.6913
 11
153
 21
45.8913
  0
LINE
  8
0
 10
151.0298
 20
44.8913
 11
150
 21
44.8913
  0
LINE
  8
0
 10
150.3578
 20
45.0702
 11
150
 21
44.8913
  0
LINE
  8
0
 10
150.3578
 20
44.7124
 11
150
 21
44.8913
  0
LINE
  8
0
 10
150
 20
44.6913
 11
150
 21
45.8913
  0
POLYLINE
  8
0
 66
     1
 10
0
 20
0
  0
VERTEX
  8
0
 10
167.4089
 20
44.715
  0
VERTEX
  8
0
 10
167.51
 20
44.7287
  0
VERTEX
  8
0
 10
167.5182
 20
44.6944
  0
VERTEX
  8
0
 10
167.5289
 20
44.6641
  0
VERTEX
  8
0
 10
167.5419
 20
44.6379
  0
VERTEX
  8
0
 10
167.5574
 20
44.6157
  0
VERTEX
  8
0
 10
167.5753
 20
44.5974
  0
VERTEX
  8
0
 10
167.5957
 20
44.5833
  0
VERTEX
  8
0
 10
167.6185
 20
44.5731
  0
VERTEX
  8
0
 10
167.6437
 20
44.5669
  0
VERTEX
  8
0
 10
167.6713
 20
44.5648
  0
VERTEX
  8
0
 10
167.7377
 20
44.577
  0
VERTEX
  8
0
 10
167.792
 20
44.6148
  0
VERTEX
  8
0
 10
167.8284
 20
44.6711
  0
VERTEX
  8
0
 10
167.8409
 20
44.7388
  0
VERTEX
  8
0
 10
167.8299
 20
44.8031
  0
VERTEX
  8
0
 10
167.7956
 20
44.855
  0
VERTEX
  8
0
 10
167.7438
 20
44.8893
  0
VERTEX
  8
0
 10
167.6803
 20
44.9008
  0
VERTEX
  8
0
 10
167.6474
 20
44.8977
  0
VERTEX
  8
0
 10
167.6092
 20
44.8884
  0
VERTEX
  8
0
 10
167.6205
 20
44.9768
  0
VERTEX
  8
0
 10
167.6274
 20
44.9768
  0
VERTEX
  8
0
 10
167.6368
 20
44.9768
  0
VERTEX
  8
0
 10
167.7009
 20
44.9851
  0
VERTEX
  8
0
 10
167.7526
 20
45.0102
  0
VERTEX
  8
0
 10
167.7916
 20
45.0551
  0
VERTEX
  8
0
 10
167.8049
 20
45.1153
  0
VERTEX
  8
0
 10
167.7957
 20
45.1675
  0
VERTEX
  8
0
 10
167.7669
 20
45.2086
  0
VERTEX
  8
0
 10
167.7233
 20
45.2355
  0
VERTEX
  8
0
 10
167.6697
 20
45.2448
  0
VERTEX
  8
0
 10
167.6431
 20
45.2432
  0
VERTEX
  8
0
 10
167.619
 20
45.2378
  0
VERTEX
  8
0
 10
167.5973
 20
45.2286
  0
VERTEX
  8
0
 10
167.5782
 20
45.2157
  0
VERTEX
  8
0
 10
167.5617
 20
45.1991
  0
VERTEX
  8
0
 10
167.5476
 20
45.1787
  0
VERTEX
  8
0
 10
167.536
 20
45.1545
  0
VERTEX
  8
0
 10
167.527
 20
45.1265
  0
VERTEX
  8
0
 10
167.5205
 20
45.0949
  0
VERTEX
  8
0
 10
167.4191
 20
45.113
  0
VERTEX
  8
0
 10
167.4363
 20
45.1752
  0
VERTEX
  8
0
 10
167.464
 20
45.2279
  0
VERTEX
  8
0
 10
167.5021
 20
45.2709
  0
VERTEX
  8
0
 10
167.5494
 20
45.3028
  0
VERTEX
  8
0
 10
167.6045
 20
45.3221
  0
VERTEX
  8
0
 10
167.6674
 20
45.3288
  0
VERTEX
  8
0
 10
167.7295
 20
45.3223
  0
VERTEX
  8
0
 10
167.7873
 20
45.3016
  0
VERTEX
  8
0
 10
167.84
 20
45.2668
  0
VERTEX
  8
0
 10
167.8785
 20
45.2201
  0
VERTEX
  8
0
 10
167.9013
 20
45.1682
  0
VERTEX
  8
0
 10
167.9089
 20
45.1131
  0
VERTEX
  8
0
 10
167.9058
 20
45.0764
  0
VERTEX
  8
0
 10
167.8964
 20
45.0431
  0
VERTEX
  8
0
 10
167.8807
 20
45.0133
  0
VERTEX
  8
0
 10
167.8587
 20
44.9871
  0
VERTEX
  8
0
 10
167.8305
 20
44.9643
  0
VERTEX
  8
0
 10
167.796
 20
44.945
  0
VERTEX
  8
0
 10
167.8617
 20
44.9181
  0
VERTEX
  8
0
 10
167.9104
 20
44.8725
  0
VERTEX
  8
0
 10
167.9393
 20
44.8129
  0
VERTEX
  8
0
 10
167.9489
 20
44.7406
  0
VERTEX
  8
0
 10
167.944
 20
44.6881
  0
VERTEX
  8
0
 10
167.9293
 20
44.6399
  0
VERTEX
  8
0
 10
167.9048
 20
44.596
  0
VERTEX
  8
0
 10
167.8705
 20
44.5564
  0
VERTEX
  8
0
 10
167.8286
 20
44.5235
  0
VERTEX
  8
0
 10
167.7814
 20
44.5
  0
VERTEX
  8
0
 10
167.7289
 20
44.4857
  0
VERTEX
  8
0
 10
167.671
 20
44.4808
  0
VERTEX
  8
0
 10
167.6034
 20
44.4879
  0
VERTEX
  8
0
 10
167.5437
 20
44.509
  0
VERTEX
  8
0
 10
167.4919
 20
44.5443
  0
VERTEX
  8
0
 10
167.4508
 20
44.5915
  0
VERTEX
  8
0
 10
167.4231
 20
44.6484
  0
VERTEX
  8
0
 10
167.4089
 20
44.715
  0
VERTEX
  8
0
 10
167.4089
 20
44.715
  0
SEQEND
  0
POLYLINE
  8
0
 66
     1
 10
0
 20
0
  0
VERTEX
  8
0
 10
168.0489
 20
44.9045
  0
VERTEX
  8
0
 10
168.0501
 20
44.9581
  0
VERTEX
  8
0
 10
168.0537
 20
45.0082
  0
VERTEX
  8
0
 10
168.0597
 20
45.0547
  0
VERTEX
  8
0
 10
168.0681
 20
45.0976
  0
VERTEX
  8
0
 10
168.0789
 20
45.1369
  0
VERTEX
  8
0
 10
168.092
 20
45.1727
  0
VERTEX
  8
0
 10
168.1076
 20
45.2049
  0
VERTEX
  8
0
 10
168.1256
 20
45.2335
  0
VERTEX
  8
0
 10
168.1459
 20
45.2586
  0
VERTEX
  8
0
 10
168.1687
 20
45.2801
  0
VERTEX
  8
0
 10
168.2356
 20
45.3163
  0
VERTEX
  8
0
 10
168.3189
 20
45.3288
  0
VERTEX
  8
0
 10
168.3806
 20
45.3223
  0
VERTEX
  8
0
 10
168.4359
 20
45.3016
  0
VERTEX
  8
0
 10
168.4716
 20
45.2774
  0
VERTEX
  8
0
 10
168.5029
 20
45.2452
  0
VERTEX
  8
0
 10
168.5298
 20
45.205
  0
VERTEX
  8
0
 10
168.5523
 20
45.1567
  0
VERTEX
  8
0
 10
168.5703
 20
45.1005
  0
VERTEX
  8
0
 10
168.5843
 20
45.0158
  0
VERTEX
  8
0
 10
168.5889
 20
44.9045
  0
VERTEX
  8
0
 10
168.5877
 20
44.851
  0
VERTEX
  8
0
 10
168.5841
 20
44.801
  0
VERTEX
  8
0
 10
168.5781
 20
44.7546
  0
VERTEX
  8
0
 10
168.5698
 20
44.7118
  0
VERTEX
  8
0
 10
168.559
 20
44.6725
  0
VERTEX
  8
0
 10
168.5458
 20
44.6368
  0
VERTEX
  8
0
 10
168.5302
 20
44.6046
  0
VERTEX
  8
0
 10
168.5123
 20
44.576
  0
VERTEX
  8
0
 10
168.4919
 20
44.551
  0
VERTEX
  8
0
 10
168.4692
 20
44.5295
  0
VERTEX
  8
0
 10
168.4022
 20
44.4932
  0
VERTEX
  8
0
 10
168.3189
 20
44.4808
  0
VERTEX
  8
0
 10
168.2978
 20
44.4814
  0
VERTEX
  8
0
 10
168.2775
 20
44.4833
  0
VERTEX
  8
0
 10
168.2581
 20
44.4867
  0
VERTEX
  8
0
 10
168.2396
 20
44.4913
  0
VERTEX
  8
0
 10
168.2219
 20
44.4974
  0
VERTEX
  8
0
 10
168.2051
 20
44.5048
  0
VERTEX
  8
0
 10
168.1891
 20
44.5136
  0
VERTEX
  8
0
 10
168.174
 20
44.5237
  0
VERTEX
  8
0
 10
168.1598
 20
44.5352
  0
VERTEX
  8
0
 10
168.1464
 20
44.548
  0
VERTEX
  8
0
 10
168.1339
 20
44.5623
  0
VERTEX
  8
0
 10
168.1222
 20
44.5778
  0
VERTEX
  8
0
 10
168.1114
 20
44.5948
  0
VERTEX
  8
0
 10
168.1015
 20
44.6131
  0
VERTEX
  8
0
 10
168.0924
 20
44.6328
  0
VERTEX
  8
0
 10
168.0842
 20
44.6538
  0
VERTEX
  8
0
 10
168.0768
 20
44.6762
  0
VERTEX
  8
0
 10
168.0703
 20
44.7
  0
VERTEX
  8
0
 10
168.0647
 20
44.7251
  0
VERTEX
  8
0
 10
168.0599
 20
44.7516
  0
VERTEX
  8
0
 10
168.056
 20
44.7794
  0
VERTEX
  8
0
 10
168.0529
 20
44.8087
  0
VERTEX
  8
0
 10
168.0507
 20
44.8392
  0
VERTEX
  8
0
 10
168.0494
 20
44.8712
  0
VERTEX
  8
0
 10
168.0489
 20
44.9045
  0
VERTEX
  8
0
 10
168.0489
 20
44.9045
  0
SEQEND
  0
POLYLINE
  8
0
 66
     1
 10
0
 20
0
  0
VERTEX
  8
0
 10
168.1529
 20
44.9048
  0
VERTEX
  8
0
 10
168.1554
 20
44.8196
  0
VERTEX
  8
0
 10
168.1628
 20
44.7489
  0
VERTEX
  8
0
 10
168.175
 20
44.6929
  0
VERTEX
  8
0
 10
168.1873
 20
44.659
  0
VERTEX
  8
0
 10
168.2023
 20
44.6304
  0
VERTEX
  8
0
 10
168.2201
 20
44.6069
  0
VERTEX
  8
0
 10
168.2406
 20
44.5886
  0
VERTEX
  8
0
 10
168.2639
 20
44.5755
  0
VERTEX
  8
0
 10
168.29
 20
44.5675
  0
VERTEX
  8
0
 10
168.3189
 20
44.5648
  0
VERTEX
  8
0
 10
168.3359
 20
44.5656
  0
VERTEX
  8
0
 10
168.352
 20
44.5683
  0
VERTEX
  8
0
 10
168.3672
 20
44.573
  0
VERTEX
  8
0
 10
168.3815
 20
44.5795
  0
VERTEX
  8
0
 10
168.3948
 20
44.5879
  0
VERTEX
  8
0
 10
168.4072
 20
44.5982
  0
VERTEX
  8
0
 10
168.4187
 20
44.6104
  0
VERTEX
  8
0
 10
168.4293
 20
44.6245
  0
VERTEX
  8
0
 10
168.4389
 20
44.6405
  0
VERTEX
  8
0
 10
168.4477
 20
44.6584
  0
VERTEX
  8
0
 10
168.4555
 20
44.6782
  0
VERTEX
  8
0
 10
168.4624
 20
44.6999
  0
VERTEX
  8
0
 10
168.4684
 20
44.7235
  0
VERTEX
  8
0
 10
168.4734
 20
44.749
  0
VERTEX
  8
0
 10
168.4776
 20
44.7763
  0
VERTEX
  8
0
 10
168.4808
 20
44.8056
  0
VERTEX
  8
0
 10
168.4831
 20
44.8368
  0
VERTEX
  8
0
 10
168.4845
 20
44.8698
  0
VERTEX
  8
0
 10
168.4849
 20
44.9048
  0
VERTEX
  8
0
 10
168.4825
 20
44.99
  0
VERTEX
  8
0
 10
168.4751
 20
45.0607
  0
VERTEX
  8
0
 10
168.4628
 20
45.1167
  0
VERTEX
  8
0
 10
168.4504
 20
45.1506
  0
VERTEX
  8
0
 10
168.4352
 20
45.1792
  0
VERTEX
  8
0
 10
168.4173
 20
45.2027
  0
VERTEX
  8
0
 10
168.3966
 20
45.221
  0
VERTEX
  8
0
 10
168.3731
 20
45.2341
  0
VERTEX
  8
0
 10
168.3468
 20
45.242
  0
VERTEX
  8
0
 10
168.3178
 20
45.2448
  0
VERTEX
  8
0
 10
168.2741
 20
45.2384
  0
VERTEX
  8
0
 10
168.2367
 20
45.2186
  0
VERTEX
  8
0
 10
168.2056
 20
45.1853
  0
VERTEX
  8
0
 10
168.1916
 20
45.1612
  0
VERTEX
  8
0
 10
168.1798
 20
45.1319
  0
VERTEX
  8
0
 10
168.1701
 20
45.0971
  0
VERTEX
  8
0
 10
168.1626
 20
45.0571
  0
VERTEX
  8
0
 10
168.1572
 20
45.0116
  0
VERTEX
  8
0
 10
168.154
 20
44.9609
  0
VERTEX
  8
0
 10
168.1529
 20
44.9048
  0
VERTEX
  8
0
 10
168.1529
 20
44.9048
  0
SEQEND
  0
LINE
  8
0
 10
168.7906
 20
44.8913
 11
183
 21
44.8913
  0
LINE
  8
0
 10
182.6422
 20
44.7124
 11
183
 21
44.8913
  0
LINE
  8
0
 10
182.6422
 20
45.0702
 11
183
 21
44.8913
  0
LINE
  8
0
 10
183
 20
44.6913
 11
183
 21
45.8913
  0
LINE
  8
0
 10
167.2094
 20
44.8913
 11
153
 21
44.8913
  0
LINE
  8
0
 10
153.3578
 20
45.0702
 11
153
 21
44.8913
  0
LINE
  8
0
 10
153.3578
 20
44.7124
 11
153
 21
44.8913
  0
POLYLINE
  8
0
 66
     1
 10
0
 20
0
  0
VERTEX
  8
0
 10
184.2289
 20
44.715
  0
VERTEX
  8
0
 10
184.33
 20
44.7287
  0
VERTEX
  8
0
 10
184.3382
 20
44.6944
  0
VERTEX
  8
0
 10
184.3489
 20
44.6641
  0
VERTEX
  8
0
 10
184.3619
 20
44.6379
  0
VERTEX
  8
0
 10
184.3774
 20
44.6157
  0
VERTEX
  8
0
 10
184.3953
 20
44.5974
  0
VERTEX
  8
0
 10
184.4157
 20
44.5833
  0
VERTEX
  8
0
 10
184.4385
 20
44.5731
  0
VERTEX
  8
0
 10
184.4637
 20
44.5669
  0
VERTEX
  8
0
 10
184.4913
 20
44.5648
  0
VERTEX
  8
0
 10
184.5577
 20
44.577
  0
VERTEX
  8
0
 10
184.612
 20
44.6148
  0
VERTEX
  8
0
 10
184.6484
 20
44.6711
  0
VERTEX
  8
0
 10
184.6609
 20
44.7388
  0
VERTEX
  8
0
 10
184.6499
 20
44.8031
  0
VERTEX
  8
0
 10
184.6156
 20
44.855
  0
VERTEX
  8
0
 10
184.5638
 20
44.8893
  0
VERTEX
  8
0
 10
184.5003
 20
44.9008
  0
VERTEX
  8
0
 10
184.4674
 20
44.8977
  0
VERTEX
  8
0
 10
184.4292
 20
44.8884
  0
VERTEX
  8
0
 10
184.4405
 20
44.9768
  0
VERTEX
  8
0
 10
184.4474
 20
44.9768
  0
VERTEX
  8
0
 10
184.4568
 20
44.9768
  0
VERTEX
  8
0
 10
184.5209
 20
44.9851
  0
VERTEX
  8
0
 10
184.5726
 20
45.0102
  0
VERTEX
  8
0
 10
184.6116
 20
45.0551
  0
VERTEX
  8
0
 10
184.6249
 20
45.1153
  0
VERTEX
  8
0
 10
184.6157
 20
45.1675
  0
VERTEX
  8
0
 10
184.5869
 20
45.2086
  0
VERTEX
  8
0
 10
184.5433
 20
45.2355
  0
VERTEX
  8
0
 10
184.4897
 20
45.2448
  0
VERTEX
  8
0
 10
184.4631
 20
45.2432
  0
VERTEX
  8
0
 10
184.439
 20
45.2378
  0
VERTEX
  8
0
 10
184.4173
 20
45.2286
  0
VERTEX
  8
0
 10
184.3982
 20
45.2157
  0
VERTEX
  8
0
 10
184.3817
 20
45.1991
  0
VERTEX
  8
0
 10
184.3676
 20
45.1787
  0
VERTEX
  8
0
 10
184.356
 20
45.1545
  0
VERTEX
  8
0
 10
184.347
 20
45.1265
  0
VERTEX
  8
0
 10
184.3405
 20
45.0949
  0
VERTEX
  8
0
 10
184.2391
 20
45.113
  0
VERTEX
  8
0
 10
184.2563
 20
45.1752
  0
VERTEX
  8
0
 10
184.284
 20
45.2279
  0
VERTEX
  8
0
 10
184.3221
 20
45.2709
  0
VERTEX
  8
0
 10
184.3694
 20
45.3028
  0
VERTEX
  8
0
 10
184.4245
 20
45.3221
  0
VERTEX
  8
0
 10
184.4874
 20
45.3288
  0
VERTEX
  8
0
 10
184.5495
 20
45.3223
  0
VERTEX
  8
0
 10
184.6073
 20
45.3016
  0
VERTEX
  8
0
 10
184.66
 20
45.2668
  0
VERTEX
  8
0
 10
184.6985
 20
45.2201
  0
VERTEX
  8
0
 10
184.7213
 20
45.1682
  0
VERTEX
  8
0
 10
184.7289
 20
45.1131
  0
VERTEX
  8
0
 10
184.7258
 20
45.0764
  0
VERTEX
  8
0
 10
184.7164
 20
45.0431
  0
VERTEX
  8
0
 10
184.7007
 20
45.0133
  0
VERTEX
  8
0
 10
184.6787
 20
44.9871
  0
VERTEX
  8
0
 10
184.6505
 20
44.9643
  0
VERTEX
  8
0
 10
184.616
 20
44.945
  0
VERTEX
  8
0
 10
184.6817
 20
44.9181
  0
VERTEX
  8
0
 10
184.7304
 20
44.8725
  0
VERTEX
  8
0
 10
184.7593
 20
44.8129
  0
VERTEX
  8
0
 10
184.7689
 20
44.7406
  0
VERTEX
  8
0
 10
184.764
 20
44.6881
  0
VERTEX
  8
0
 10
184.7493
 20
44.6399
  0
VERTEX
  8
0
 10
184.7248
 20
44.596
  0
VERTEX
  8
0
 10
184.6905
 20
44.5564
  0
VERTEX
  8
0
 10
184.6486
 20
44.5235
  0
VERTEX
  8
0
 10
184.6014
 20
44.5
  0
VERTEX
  8
0
 10
184.5489
 20
44.4857
  0
VERTEX
  8
0
 10
184.491
 20
44.4808
  0
VERTEX
  8
0
 10
184.4234
 20
44.4879
  0
VERTEX
  8
0
 10
184.3637
 20
44.509
  0
VERTEX
  8
0
 10
184.3119
 20
44.5443
  0
VERTEX
  8
0
 10
184.2708
 20
44.5915
  0
VERTEX
  8
0
 10
184.2431
 20
44.6484
  0
VERTEX
  8
0
 10
184.2289
 20
44.715
  0
VERTEX
  8
0
 10
184.2289
 20
44.715
  0
SEQEND
  0
LINE
  8
0
 10
184.9702
 20
44.8913
 11
186
 21
44.8913
  0
LINE
  8
0
 10
185.6422
 20
44.7124
 11
186
 21
44.8913
  0
LINE
  8
0
 10
185.6422
 20
45.0702
 11
186
 21
44.8913
  0
LINE
  8
0
 10
186
 20
44.6913
 11
186
 21
45.8913
  0
LINE
  8
0
 10
184.0298
 20
44.8913
 11
183
 21
44.8913
  0
LINE
  8
0
 10
183.3578
 20
45.0702
 11
183
 21
44.8913
  0
LINE
  8
0
 10
183.3578
 20
44.7124
 11
183
 21
44.8913
  0
LINE
  8
0
 10
183
 20
44.6913
 11
183
 21
45.8913
  0
POLYLINE
  8
0
 66
     1
 10
0
 20
0
  0
VERTEX
  8
0
 10
187.6827
 20
47.6248
  0
VERTEX
  8
0
 10
187.669
 20
47.7259
  0
VERTEX
  8
0
 10
187.7033
 20
47.7341
  0
VERTEX
  8
0
 10
187.7336
 20
47.7447
  0
VERTEX
  8
0
 10
187.7598
 20
47.7578
  0
VERTEX
  8
0
 10
187.7821
 20
47.7733
  0
VERTEX
  8
0
 10
187.8003
 20
47.7912
  0
VERTEX
  8
0
 10
187.8145
 20
47.8116
  0
VERTEX
  8
0
 10
187.8246
 20
47.8343
  0
VERTEX
  8
0
 10
187.8308
 20
47.8595
  0
VERTEX
  8
0
 10
187.8329
 20
47.8872
  0
VERTEX
  8
0
 10
187.8207
 20
47.9536
  0
VERTEX
  8
0
 10
187.7829
 20
48.0079
  0
VERTEX
  8
0
 10
187.7266
 20
48.0443
  0
VERTEX
  8
0
 10
187.6589
 20
48.0568
  0
VERTEX
  8
0
 10
187.5947
 20
48.0457
  0
VERTEX
  8
0
 10
187.5427
 20
48.0115
  0
VERTEX
  8
0
 10
187.5084
 20
47.9597
  0
VERTEX
  8
0
 10
187.4969
 20
47.8962
  0
VERTEX
  8
0
 10
187.5
 20
47.8633
  0
VERTEX
  8
0
 10
187.5094
 20
47.8251
  0
VERTEX
  8
0
 10
187.4209
 20
47.8364
  0
VERTEX
  8
0
 10
187.4209
 20
47.8432
  0
VERTEX
  8
0
 10
187.4209
 20
47.8527
  0
VERTEX
  8
0
 10
187.4126
 20
47.9168
  0
VERTEX
  8
0
 10
187.3875
 20
47.9685
  0
VERTEX
  8
0
 10
187.3426
 20
48.0074
  0
VERTEX
  8
0
 10
187.2824
 20
48.0208
  0
VERTEX
  8
0
 10
187.2303
 20
48.0116
  0
VERTEX
  8
0
 10
187.1891
 20
47.9828
  0
VERTEX
  8
0
 10
187.1623
 20
47.9392
  0
VERTEX
  8
0
 10
187.1529
 20
47.8856
  0
VERTEX
  8
0
 10
187.1546
 20
47.859
  0
VERTEX
  8
0
 10
187.1599
 20
47.8348
  0
VERTEX
  8
0
 10
187.1691
 20
47.8132
  0
VERTEX
  8
0
 10
187.182
 20
47.7941
  0
VERTEX
  8
0
 10
187.1986
 20
47.7775
  0
VERTEX
  8
0
 10
187.2191
 20
47.7635
  0
VERTEX
  8
0
 10
187.2432
 20
47.7519
  0
VERTEX
  8
0
 10
187.2712
 20
47.7429
  0
VERTEX
  8
0
 10
187.3029
 20
47.7364
  0
VERTEX
  8
0
 10
187.2847
 20
47.635
  0
VERTEX
  8
0
 10
187.2225
 20
47.6522
  0
VERTEX
  8
0
 10
187.1699
 20
47.6799
  0
VERTEX
  8
0
 10
187.1268
 20
47.718
  0
VERTEX
  8
0
 10
187.0949
 20
47.7653
  0
VERTEX
  8
0
 10
187.0756
 20
47.8204
  0
VERTEX
  8
0
 10
187.0689
 20
47.8833
  0
VERTEX
  8
0
 10
187.0754
 20
47.9453
  0
VERTEX
  8
0
 10
187.0961
 20
48.0032
  0
VERTEX
  8
0
 10
187.1309
 20
48.0558
  0
VERTEX
  8
0
 10
187.1776
 20
48.0944
  0
VERTEX
  8
0
 10
187.2295
 20
48.1172
  0
VERTEX
  8
0
 10
187.2846
 20
48.1248
  0
VERTEX
  8
0
 10
187.3214
 20
48.1217
  0
VERTEX
  8
0
 10
187.3546
 20
48.1122
  0
VERTEX
  8
0
 10
187.3844
 20
48.0966
  0
VERTEX
  8
0
 10
187.4107
 20
48.0746
  0
VERTEX
  8
0
 10
187.4334
 20
48.0464
  0
VERTEX
  8
0
 10
187.4527
 20
48.0119
  0
VERTEX
  8
0
 10
187.4796
 20
48.0776
  0
VERTEX
  8
0
 10
187.5252
 20
48.1263
  0
VERTEX
  8
0
 10
187.5848
 20
48.1552
  0
VERTEX
  8
0
 10
187.6571
 20
48.1648
  0
VERTEX
  8
0
 10
187.7096
 20
48.1599
  0
VERTEX
  8
0
 10
187.7578
 20
48.1452
  0
VERTEX
  8
0
 10
187.8017
 20
48.1207
  0
VERTEX
  8
0
 10
187.8414
 20
48.0863
  0
VERTEX
  8
0
 10
187.8742
 20
48.0444
  0
VERTEX
  8
0
 10
187.8978
 20
47.9972
  0
VERTEX
  8
0
 10
187.912
 20
47.9447
  0
VERTEX
  8
0
 10
187.9169
 20
47.8869
  0
VERTEX
  8
0
 10
187.9099
 20
47.8193
  0
VERTEX
  8
0
 10
187.8887
 20
47.7595
  0
VERTEX
  8
0
 10
187.8534
 20
47.7078
  0
VERTEX
  8
0
 10
187.8062
 20
47.6667
  0
VERTEX
  8
0
 10
187.7493
 20
47.639
  0
VERTEX
  8
0
 10
187.6827
 20
47.6248
  0
VERTEX
  8
0
 10
187.6827
 20
47.6248
  0
SEQEND
  0
LINE
  8
0
 10
187.5
 20
48.3615
 11
187.5
 21
49.3913
  0
LINE
  8
0
 10
187.6789
 20
49.0335
 11
187.5
 21
49.3913
  0
LINE
  8
0
 10
187.3211
 20
49.0335
 11
187.5
 21
49.3913
  0
LINE
  8
0
 10
187.7
 20
49.3913
 11
186.5
 21
49.3913
  0
LINE
  8
0
 10
187.5
 20
47.4211
 11
187.5
 21
46.3913
  0
LINE
  8
0
 10
187.3211
 20
46.7491
 11
187.5
 21
46.3913
  0
LINE
  8
0
 10
187.6789
 20
46.7491
 11
187.5
 21
46.3913
  0
LINE
  8
0
 10
187.7
 20
46.3913
 11
186.5
 21
46.3913
  0
POLYLINE
  8
0
 66
     1
 10
0
 20
0
  0
VERTEX
  8
0
 10
189.6827
 20
63.7968
  0
VERTEX
  8
0
 10
189.669
 20
63.8979
  0
VERTEX
  8
0
 10
189.7033
 20
63.9061
  0
VERTEX
  8
0
 10
189.7336
 20
63.9167
  0
VERTEX
  8
0
 10
189.7598
 20
63.9298
  0
VERTEX
  8
0
 10
189.7821
 20
63.9453
  0
VERTEX
  8
0
 10
189.8003
 20
63.9632
  0
VERTEX
  8
0
 10
189.8145
 20
63.9836
  0
VERTEX
  8
0
 10
189.8246
 20
64.0063
  0
VERTEX
  8
0
 10
189.8308
 20
64.0315
  0
VERTEX
  8
0
 10
189.8329
 20
64.0592
  0
VERTEX
  8
0
 10
189.8207
 20
64.1256
  0
VERTEX
  8
0
 10
189.7829
 20
64.1799
  0
VERTEX
  8
0
 10
189.7266
 20
64.2163
  0
VERTEX
  8
0
 10
189.6589
 20
64.2288
  0
VERTEX
  8
0
 10
189.5947
 20
64.2177
  0
VERTEX
  8
0
 10
189.5427
 20
64.1834
  0
VERTEX
  8
0
 10
189.5084
 20
64.1317
  0
VERTEX
  8
0
 10
189.4969
 20
64.0682
  0
VERTEX
  8
0
 10
189.5
 20
64.0353
  0
VERTEX
  8
0
 10
189.5094
 20
63.9971
  0
VERTEX
  8
0
 10
189.4209
 20
64.0084
  0
VERTEX
  8
0
 10
189.4209
 20
64.0152
  0
VERTEX
  8
0
 10
189.4209
 20
64.0247
  0
VERTEX
  8
0
 10
189.4126
 20
64.0888
  0
VERTEX
  8
0
 10
189.3875
 20
64.1405
  0
VERTEX
  8
0
 10
189.3426
 20
64.1794
  0
VERTEX
  8
0
 10
189.2824
 20
64.1928
  0
VERTEX
  8
0
 10
189.2303
 20
64.1836
  0
VERTEX
  8
0
 10
189.1891
 20
64.1548
  0
VERTEX
  8
0
 10
189.1623
 20
64.1112
  0
VERTEX
  8
0
 10
189.1529
 20
64.0576
  0
VERTEX
  8
0
 10
189.1546
 20
64.031
  0
VERTEX
  8
0
 10
189.1599
 20
64.0068
  0
VERTEX
  8
0
 10
189.1691
 20
63.9852
  0
VERTEX
  8
0
 10
189.182
 20
63.9661
  0
VERTEX
  8
0
 10
189.1986
 20
63.9495
  0
VERTEX
  8
0
 10
189.2191
 20
63.9355
  0
VERTEX
  8
0
 10
189.2432
 20
63.9239
  0
VERTEX
  8
0
 10
189.2712
 20
63.9149
  0
VERTEX
  8
0
 10
189.3029
 20
63.9084
  0
VERTEX
  8
0
 10
189.2847
 20
63.807
  0
VERTEX
  8
0
 10
189.2225
 20
63.8242
  0
VERTEX
  8
0
 10
189.1699
 20
63.8519
  0
VERTEX
  8
0
 10
189.1268
 20
63.89
  0
VERTEX
  8
0
 10
189.0949
 20
63.9373
  0
VERTEX
  8
0
 10
189.0756
 20
63.9924
  0
VERTEX
  8
0
 10
189.0689
 20
64.0553
  0
VERTEX
  8
0
 10
189.0754
 20
64.1173
  0
VERTEX
  8
0
 10
189.0961
 20
64.1752
  0
VERTEX
  8
0
 10
189.1309
 20
64.2278
  0
VERTEX
  8
0
 10
189.1776
 20
64.2664
  0
VERTEX
  8
0
 10
189.2295
 20
64.2892
  0
VERTEX
  8
0
 10
189.2846
 20
64.2968
  0
VERTEX
  8
0
 10
189.3214
 20
64.2937
  0
VERTEX
  8
0
 10
189.3546
 20
64.2842
  0
VERTEX
  8
0
 10
189.3844
 20
64.2686
  0
VERTEX
  8
0
 10
189.4107
 20
64.2466
  0
VERTEX
  8
0
 10
189.4334
 20
64.2184
  0
VERTEX
  8
0
 10
189.4527
 20
64.1839
  0
VERTEX
  8
0
 10
189.4796
 20
64.2496
  0
VERTEX
  8
0
 10
189.5252
 20
64.2983
  0
VERTEX
  8
0
 10
189.5848
 20
64.3272
  0
VERTEX
  8
0
 10
189.6571
 20
64.3368
  0
VERTEX
  8
0
 10
189.7096
 20
64.3319
  0
VERTEX
  8
0
 10
189.7578
 20
64.3172
  0
VERTEX
  8
0
 10
189.8017
 20
64.2927
  0
VERTEX
  8
0
 10
189.8414
 20
64.2583
  0
VERTEX
  8
0
 10
189.8742
 20
64.2164
  0
VERTEX
  8
0
 10
189.8978
 20
64.1692
  0
VERTEX
  8
0
 10
189.912
 20
64.1167
  0
VERTEX
  8
0
 10
189.9169
 20
64.0589
  0
VERTEX
  8
0
 10
189.9099
 20
63.9913
  0
VERTEX
  8
0
 10
189.8887
 20
63.9315
  0
VERTEX
  8
0
 10
189.8534
 20
63.8798
  0
VERTEX
  8
0
 10
189.8062
 20
63.8387
  0
VERTEX
  8
0
 10
189.7493
 20
63.811
  0
VERTEX
  8
0
 10
189.6827
 20
63.7968
  0
VERTEX
  8
0
 10
189.6827
 20
63.7968
  0
SEQEND
  0
POLYLINE
  8
0
 66
     1
 10
0
 20
0
  0
VERTEX
  8
0
 10
189.2492
 20
64.9908
  0
VERTEX
  8
0
 10
189.2572
 20
64.8898
  0
VERTEX
  8
0
 10
189.2186
 20
64.8754
  0
VERTEX
  8
0
 10
189.1882
 20
64.8492
  0
VERTEX
  8
0
 10
189.162
 20
64.8005
  0
VERTEX
  8
0
 10
189.1529
 20
64.7392
  0
VERTEX
  8
0
 10
189.1594
 20
64.6823
  0
VERTEX
  8
0
 10
189.1801
 20
64.6382
  0
VERTEX
  8
0
 10
189.2009
 20
64.6143
  0
VERTEX
  8
0
 10
189.2263
 20
64.5936
  0
VERTEX
  8
0
 10
189.2562
 20
64.5759
  0
VERTEX
  8
0
 10
189.2907
 20
64.5613
  0
VERTEX
  8
0
 10
189.3298
 20
64.5498
  0
VERTEX
  8
0
 10
189.3734
 20
64.5414
  0
VERTEX
  8
0
 10
189.4216
 20
64.536
  0
VERTEX
  8
0
 10
189.4744
 20
64.5338
  0
VERTEX
  8
0
 10
189.4409
 20
64.5594
  0
VERTEX
  8
0
 10
189.4136
 20
64.5882
  0
VERTEX
  8
0
 10
189.3923
 20
64.6202
  0
VERTEX
  8
0
 10
189.3771
 20
64.6554
  0
VERTEX
  8
0
 10
189.368
 20
64.6938
  0
VERTEX
  8
0
 10
189.3649
 20
64.7355
  0
VERTEX
  8
0
 10
189.37
 20
64.7877
  0
VERTEX
  8
0
 10
189.3851
 20
64.8349
  0
VERTEX
  8
0
 10
189.4104
 20
64.8772
  0
VERTEX
  8
0
 10
189.4458
 20
64.9145
  0
VERTEX
  8
0
 10
189.5009
 20
64.9511
  0
VERTEX
  8
0
 10
189.5634
 20
64.9732
  0
VERTEX
  8
0
 10
189.6335
 20
64.9808
  0
VERTEX
  8
0
 10
189.7064
 20
64.9732
  0
VERTEX
  8
0
 10
189.7744
 20
64.9491
  0
VERTEX
  8
0
 10
189.8359
 20
64.9087
  0
VERTEX
  8
0
 10
189.8813
 20
64.8545
  0
VERTEX
  8
0
 10
189.908
 20
64.792
  0
VERTEX
  8
0
 10
189.9169
 20
64.7209
  0
VERTEX
  8
0
 10
189.9162
 20
64.6975
  0
VERTEX
  8
0
 10
189.9141
 20
64.675
  0
VERTEX
  8
0
 10
189.9106
 20
64.6535
  0
VERTEX
  8
0
 10
189.9057
 20
64.633
  0
VERTEX
  8
0
 10
189.8994
 20
64.6136
  0
VERTEX
  8
0
 10
189.8918
 20
64.5951
  0
VERTEX
  8
0
 10
189.8827
 20
64.5776
  0
VERTEX
  8
0
 10
189.8722
 20
64.5611
  0
VERTEX
  8
0
 10
189.8603
 20
64.5456
  0
VERTEX
  8
0
 10
189.847
 20
64.5311
  0
VERTEX
  8
0
 10
189.8323
 20
64.5176
  0
VERTEX
  8
0
 10
189.8162
 20
64.5051
  0
VERTEX
  8
0
 10
189.7988
 20
64.4936
  0
VERTEX
  8
0
 10
189.7799
 20
64.4831
  0
VERTEX
  8
0
 10
189.7596
 20
64.4736
  0
VERTEX
  8
0
 10
189.7379
 20
64.4651
  0
VERTEX
  8
0
 10
189.7148
 20
64.4575
  0
VERTEX
  8
0
 10
189.6904
 20
64.451
  0
VERTEX
  8
0
 10
189.6645
 20
64.4455
  0
VERTEX
  8
0
 10
189.6372
 20
64.441
  0
VERTEX
  8
0
 10
189.6086
 20
64.4374
  0
VERTEX
  8
0
 10
189.5785
 20
64.4349
  0
VERTEX
  8
0
 10
189.547
 20
64.4333
  0
VERTEX
  8
0
 10
189.5142
 20
64.4328
  0
VERTEX
  8
0
 10
189.4481
 20
64.4346
  0
VERTEX
  8
0
 10
189.3873
 20
64.44
  0
VERTEX
  8
0
 10
189.332
 20
64.4491
  0
VERTEX
  8
0
 10
189.2819
 20
64.4617
  0
VERTEX
  8
0
 10
189.2373
 20
64.478
  0
VERTEX
  8
0
 10
189.198
 20
64.4979
  0
VERTEX
  8
0
 10
189.1641
 20
64.5214
  0
VERTEX
  8
0
 10
189.1298
 20
64.5551
  0
VERTEX
  8
0
 10
189.1032
 20
64.5943
  0
VERTEX
  8
0
 10
189.0842
 20
64.6391
  0
VERTEX
  8
0
 10
189.0727
 20
64.6895
  0
VERTEX
  8
0
 10
189.0689
 20
64.7454
  0
VERTEX
  8
0
 10
189.0806
 20
64.8328
  0
VERTEX
  8
0
 10
189.1155
 20
64.9067
  0
VERTEX
  8
0
 10
189.1534
 20
64.9489
  0
VERTEX
  8
0
 10
189.198
 20
64.977
  0
VERTEX
  8
0
 10
189.2492
 20
64.9908
  0
VERTEX
  8
0
 10
189.2492
 20
64.9908
  0
SEQEND
  0
POLYLINE
  8
0
 66
     1
 10
0
 20
0
  0
VERTEX
  8
0
 10
189.633
 20
64.5488
  0
VERTEX
  8
0
 10
189.6838
 20
64.5538
  0
VERTEX
  8
0
 10
189.7318
 20
64.5699
  0
VERTEX
  8
0
 10
189.7758
 20
64.5972
  0
VERTEX
  8
0
 10
189.8079
 20
64.634
  0
VERTEX
  8
0
 10
189.8264
 20
64.6749
  0
VERTEX
  8
0
 10
189.8329
 20
64.7188
  0
VERTEX
  8
0
 10
189.8264
 20
64.7653
  0
VERTEX
  8
0
 10
189.8059
 20
64.8049
  0
VERTEX
  8
0
 10
189.7715
 20
64.8375
  0
VERTEX
  8
0
 10
189.7108
 20
64.8667
  0
VERTEX
  8
0
 10
189.6387
 20
64.8768
  0
VERTEX
  8
0
 10
189.567
 20
64.8668
  0
VERTEX
  8
0
 10
189.5086
 20
64.8359
  0
VERTEX
  8
0
 10
189.4779
 20
64.8027
  0
VERTEX
  8
0
 10
189.4594
 20
64.7624
  0
VERTEX
  8
0
 10
189.4529
 20
64.7148
  0
VERTEX
  8
0
 10
189.4586
 20
64.6682
  0
VERTEX
  8
0
 10
189.4764
 20
64.6279
  0
VERTEX
  8
0
 10
189.5063
 20
64.5937
  0
VERTEX
  8
0
 10
189.5635
 20
64.5603
  0
VERTEX
  8
0
 10
189.633
 20
64.5488
  0
VERTEX
  8
0
 10
189.633
 20
64.5488
  0
SEQEND
  0
LINE
  8
0
 10
189.5
 20
65.1882
 11
189.5
 21
82.3913
  0
LINE
  8
0
 10
189.6789
 20
82.0335
 11
189.5
 21
82.3913
  0
LINE
  8
0
 10
189.3211
 20
82.0335
 11
189.5
 21
82.3913
  0
LINE
  8
0
 10
189.7
 20
82.3913
 11
186.2
 21
82.3913
  0
LINE
  8
0
 10
189.5
 20
63.5944
 11
189.5
 21
46.3913
  0
LINE
  8
0
 10
189.3211
 20
46.7491
 11
189.5
 21
46.3913
  0
LINE
  8
0
 10
189.6789
 20
46.7491
 11
189.5
 21
46.3913
  0
LINE
  8
0
 10
189.7
 20
46.3913
 11
186.2
 21
46.3913
  0
POLYLINE
  8
0
 66
     1
 10
0
 20
0
  0
VERTEX
  8
0
 10
167.4049
 20
42.715
  0
VERTEX
  8
0
 10
167.506
 20
42.7287
  0
VERTEX
  8
0
 10
167.5142
 20
42.6944
  0
VERTEX
  8
0
 10
167.5249
 20
42.6641
  0
VERTEX
  8
0
 10
167.5379
 20
42.6379
  0
VERTEX
  8
0
 10
167.5534
 20
42.6157
  0
VERTEX
  8
0
 10
167.5713
 20
42.5974
  0
VERTEX
  8
0
 10
167.5917
 20
42.5833
  0
VERTEX
  8
0
 10
167.6145
 20
42.5731
  0
VERTEX
  8
0
 10
167.6397
 20
42.5669
  0
VERTEX
  8
0
 10
167.6673
 20
42.5648
  0
VERTEX
  8
0
 10
167.7337
 20
42.577
  0
VERTEX
  8
0
 10
167.788
 20
42.6148
  0
VERTEX
  8
0
 10
167.8244
 20
42.6711
  0
VERTEX
  8
0
 10
167.8369
 20
42.7388
  0
VERTEX
  8
0
 10
167.8259
 20
42.8031
  0
VERTEX
  8
0
 10
167.7916
 20
42.855
  0
VERTEX
  8
0
 10
167.7398
 20
42.8893
  0
VERTEX
  8
0
 10
167.6763
 20
42.9008
  0
VERTEX
  8
0
 10
167.6434
 20
42.8977
  0
VERTEX
  8
0
 10
167.6052
 20
42.8884
  0
VERTEX
  8
0
 10
167.6165
 20
42.9768
  0
VERTEX
  8
0
 10
167.6234
 20
42.9768
  0
VERTEX
  8
0
 10
167.6328
 20
42.9768
  0
VERTEX
  8
0
 10
167.6969
 20
42.9851
  0
VERTEX
  8
0
 10
167.7486
 20
43.0102
  0
VERTEX
  8
0
 10
167.7876
 20
43.0551
  0
VERTEX
  8
0
 10
167.8009
 20
43.1153
  0
VERTEX
  8
0
 10
167.7917
 20
43.1675
  0
VERTEX
  8
0
 10
167.7629
 20
43.2086
  0
VERTEX
  8
0
 10
167.7193
 20
43.2355
  0
VERTEX
  8
0
 10
167.6657
 20
43.2448
  0
VERTEX
  8
0
 10
167.6391
 20
43.2432
  0
VERTEX
  8
0
 10
167.615
 20
43.2378
  0
VERTEX
  8
0
 10
167.5933
 20
43.2286
  0
VERTEX
  8
0
 10
167.5742
 20
43.2157
  0
VERTEX
  8
0
 10
167.5577
 20
43.1991
  0
VERTEX
  8
0
 10
167.5436
 20
43.1787
  0
VERTEX
  8
0
 10
167.532
 20
43.1545
  0
VERTEX
  8
0
 10
167.523
 20
43.1265
  0
VERTEX
  8
0
 10
167.5165
 20
43.0949
  0
VERTEX
  8
0
 10
167.4151
 20
43.113
  0
VERTEX
  8
0
 10
167.4323
 20
43.1752
  0
VERTEX
  8
0
 10
167.46
 20
43.2279
  0
VERTEX
  8
0
 10
167.4981
 20
43.2709
  0
VERTEX
  8
0
 10
167.5454
 20
43.3028
  0
VERTEX
  8
0
 10
167.6005
 20
43.3221
  0
VERTEX
  8
0
 10
167.6634
 20
43.3288
  0
VERTEX
  8
0
 10
167.7255
 20
43.3223
  0
VERTEX
  8
0
 10
167.7833
 20
43.3016
  0
VERTEX
  8
0
 10
167.836
 20
43.2668
  0
VERTEX
  8
0
 10
167.8745
 20
43.2201
  0
VERTEX
  8
0
 10
167.8973
 20
43.1682
  0
VERTEX
  8
0
 10
167.9049
 20
43.1131
  0
VERTEX
  8
0
 10
167.9018
 20
43.0764
  0
VERTEX
  8
0
 10
167.8924
 20
43.0431
  0
VERTEX
  8
0
 10
167.8767
 20
43.0133
  0
VERTEX
  8
0
 10
167.8547
 20
42.9871
  0
VERTEX
  8
0
 10
167.8265
 20
42.9643
  0
VERTEX
  8
0
 10
167.792
 20
42.945
  0
VERTEX
  8
0
 10
167.8577
 20
42.9181
  0
VERTEX
  8
0
 10
167.9064
 20
42.8725
  0
VERTEX
  8
0
 10
167.9353
 20
42.8129
  0
VERTEX
  8
0
 10
167.9449
 20
42.7406
  0
VERTEX
  8
0
 10
167.94
 20
42.6881
  0
VERTEX
  8
0
 10
167.9253
 20
42.6399
  0
VERTEX
  8
0
 10
167.9008
 20
42.596
  0
VERTEX
  8
0
 10
167.8665
 20
42.5564
  0
VERTEX
  8
0
 10
167.8246
 20
42.5235
  0
VERTEX
  8
0
 10
167.7774
 20
42.5
  0
VERTEX
  8
0
 10
167.7249
 20
42.4857
  0
VERTEX
  8
0
 10
167.667
 20
42.4808
  0
VERTEX
  8
0
 10
167.5994
 20
42.4879
  0
VERTEX
  8
0
 10
167.5397
 20
42.509
  0
VERTEX
  8
0
 10
167.4879
 20
42.5443
  0
VERTEX
  8
0
 10
167.4468
 20
42.5915
  0
VERTEX
  8
0
 10
167.4191
 20
42.6484
  0
VERTEX
  8
0
 10
167.4049
 20
42.715
  0
VERTEX
  8
0
 10
167.4049
 20
42.715
  0
SEQEND
  0
POLYLINE
  8
0
 66
     1
 10
0
 20
0
  0
VERTEX
  8
0
 10
168.5949
 20
43.1485
  0
VERTEX
  8
0
 10
168.4939
 20
43.1405
  0
VERTEX
  8
0
 10
168.4795
 20
43.1792
  0
VERTEX
  8
0
 10
168.4533
 20
43.2095
  0
VERTEX
  8
0
 10
168.4046
 20
43.2357
  0
VERTEX
  8
0
 10
168.3433
 20
43.2448
  0
VERTEX
  8
0
 10
168.2865
 20
43.2383
  0
VERTEX
  8
0
 10
168.2423
 20
43.2176
  0
VERTEX
  8
0
 10
168.2185
 20
43.1968
  0
VERTEX
  8
0
 10
168.1977
 20
43.1714
  0
VERTEX
  8
0
 10
168.18
 20
43.1415
  0
VERTEX
  8
0
 10
168.1654
 20
43.107
  0
VERTEX
  8
0
 10
168.1539
 20
43.0679
  0
VERTEX
  8
0
 10
168.1455
 20
43.0243
  0
VERTEX
  8
0
 10
168.1402
 20
42.9761
  0
VERTEX
  8
0
 10
168.1379
 20
42.9234
  0
VERTEX
  8
0
 10
168.1635
 20
42.9568
  0
VERTEX
  8
0
 10
168.1923
 20
42.9842
  0
VERTEX
  8
0
 10
168.2243
 20
43.0054
  0
VERTEX
  8
0
 10
168.2595
 20
43.0206
  0
VERTEX
  8
0
 10
168.298
 20
43.0298
  0
VERTEX
  8
0
 10
168.3396
 20
43.0328
  0
VERTEX
  8
0
 10
168.3918
 20
43.0277
  0
VERTEX
  8
0
 10
168.439
 20
43.0126
  0
VERTEX
  8
0
 10
168.4813
 20
42.9873
  0
VERTEX
  8
0
 10
168.5186
 20
42.9519
  0
VERTEX
  8
0
 10
168.5552
 20
42.8969
  0
VERTEX
  8
0
 10
168.5773
 20
42.8343
  0
VERTEX
  8
0
 10
168.5849
 20
42.7642
  0
VERTEX
  8
0
 10
168.5773
 20
42.6913
  0
VERTEX
  8
0
 10
168.5532
 20
42.6233
  0
VERTEX
  8
0
 10
168.5129
 20
42.5618
  0
VERTEX
  8
0
 10
168.4587
 20
42.5164
  0
VERTEX
  8
0
 10
168.3961
 20
42.4897
  0
VERTEX
  8
0
 10
168.325
 20
42.4808
  0
VERTEX
  8
0
 10
168.3016
 20
42.4815
  0
VERTEX
  8
0
 10
168.2791
 20
42.4836
  0
VERTEX
  8
0
 10
168.2576
 20
42.4871
  0
VERTEX
  8
0
 10
168.2372
 20
42.492
  0
VERTEX
  8
0
 10
168.2177
 20
42.4983
  0
VERTEX
  8
0
 10
168.1992
 20
42.506
  0
VERTEX
  8
0
 10
168.1817
 20
42.5151
  0
VERTEX
  8
0
 10
168.1652
 20
42.5255
  0
VERTEX
  8
0
 10
168.1497
 20
42.5374
  0
VERTEX
  8
0
 10
168.1352
 20
42.5507
  0
VERTEX
  8
0
 10
168.1217
 20
42.5654
  0
VERTEX
  8
0
 10
168.1092
 20
42.5815
  0
VERTEX
  8
0
 10
168.0977
 20
42.599
  0
VERTEX
  8
0
 10
168.0872
 20
42.6178
  0
VERTEX
  8
0
 10
168.0777
 20
42.6381
  0
VERTEX
  8
0
 10
168.0692
 20
42.6598
  0
VERTEX
  8
0
 10
168.0617
 20
42.6829
  0
VERTEX
  8
0
 10
168.0551
 20
42.7073
  0
VERTEX
  8
0
 10
168.0496
 20
42.7332
  0
VERTEX
  8
0
 10
168.0451
 20
42.7605
  0
VERTEX
  8
0
 10
168.0415
 20
42.7891
  0
VERTEX
  8
0
 10
168.039
 20
42.8192
  0
VERTEX
  8
0
 10
168.0375
 20
42.8507
  0
VERTEX
  8
0
 10
168.0369
 20
42.8835
  0
VERTEX
  8
0
 10
168.0387
 20
42.9496
  0
VERTEX
  8
0
 10
168.0442
 20
43.0104
  0
VERTEX
  8
0
 10
168.0532
 20
43.0658
  0
VERTEX
  8
0
 10
168.0658
 20
43.1158
  0
VERTEX
  8
0
 10
168.0821
 20
43.1604
  0
VERTEX
  8
0
 10
168.102
 20
43.1997
  0
VERTEX
  8
0
 10
168.1255
 20
43.2336
  0
VERTEX
  8
0
 10
168.1592
 20
43.2679
  0
VERTEX
  8
0
 10
168.1984
 20
43.2945
  0
VERTEX
  8
0
 10
168.2432
 20
43.3136
  0
VERTEX
  8
0
 10
168.2936
 20
43.325
  0
VERTEX
  8
0
 10
168.3495
 20
43.3288
  0
VERTEX
  8
0
 10
168.437
 20
43.3171
  0
VERTEX
  8
0
 10
168.5109
 20
43.2822
  0
VERTEX
  8
0
 10
168.5531
 20
43.2443
  0
VERTEX
  8
0
 10
168.5811
 20
43.1998
  0
VERTEX
  8
0
 10
168.5949
 20
43.1485
  0
VERTEX
  8
0
 10
168.5949
 20
43.1485
  0
SEQEND
  0
POLYLINE
  8
0
 66
     1
 10
0
 20
0
  0
VERTEX
  8
0
 10
168.1529
 20
42.7647
  0
VERTEX
  8
0
 10
168.1579
 20
42.7139
  0
VERTEX
  8
0
 10
168.174
 20
42.6659
  0
VERTEX
  8
0
 10
168.2014
 20
42.6219
  0
VERTEX
  8
0
 10
168.2382
 20
42.5898
  0
VERTEX
  8
0
 10
168.279
 20
42.5713
  0
VERTEX
  8
0
 10
168.3229
 20
42.5648
  0
VERTEX
  8
0
 10
168.3695
 20
42.5714
  0
VERTEX
  8
0
 10
168.409
 20
42.5918
  0
VERTEX
  8
0
 10
168.4417
 20
42.6262
  0
VERTEX
  8
0
 10
168.4708
 20
42.6869
  0
VERTEX
  8
0
 10
168.4809
 20
42.759
  0
VERTEX
  8
0
 10
168.471
 20
42.8307
  0
VERTEX
  8
0
 10
168.44
 20
42.8891
  0
VERTEX
  8
0
 10
168.4068
 20
42.9198
  0
VERTEX
  8
0
 10
168.3665
 20
42.9384
  0
VERTEX
  8
0
 10
168.3189
 20
42.9448
  0
VERTEX
  8
0
 10
168.2724
 20
42.9391
  0
VERTEX
  8
0
 10
168.232
 20
42.9213
  0
VERTEX
  8
0
 10
168.1979
 20
42.8914
  0
VERTEX
  8
0
 10
168.1644
 20
42.8342
  0
VERTEX
  8
0
 10
168.1529
 20
42.7647
  0
VERTEX
  8
0
 10
168.1529
 20
42.7647
  0
SEQEND
  0
LINE
  8
0
 10
168.7969
 20
42.8913
 11
186
 21
42.8913
  0
LINE
  8
0
 10
185.6422
 20
42.7124
 11
186
 21
42.8913
  0
LINE
  8
0
 10
185.6422
 20
43.0702
 11
186
 21
42.8913
  0
LINE
  8
0
 10
186
 20
42.6913
 11
186
 21
46.1913
  0
LINE
  8
0
 10
167.2031
 20
42.8913
 11
150
 21
42.8913
  0
LINE
  8
0
 10
150.3578
 20
43.0702
 11
150
 21
42.8913
  0
LINE
  8
0
 10
150.3578
 20
42.7124
 11
150
 21
42.8913
  0
LINE
  8
0
 10
150
 20
42.6913
 11
150
 21
46.1913
  0
POLYLINE
  8
0
 66
     1
 10
0
 20
0
  0
VERTEX
  8
0
 10
150.0009
 20
41.1648
  0
VERTEX
  8
0
 10
150.0009
 20
41.9968
  0
VERTEX
  8
0
 10
150.599
 20
41.9968
  0
VERTEX
  8
0
 10
150.599
 20
41.9008
  0
VERTEX
  8
0
 10
150.1089
 20
41.9008
  0
VERTEX
  8
0
 10
150.1089
 20
41.6448
  0
VERTEX
  8
0
 10
150.568
 20
41.6448
  0
VERTEX
  8
0
 10
150.568
 20
41.5488
  0
VERTEX
  8
0
 10
150.1089
 20
41.5488
  0
VERTEX
  8
0
 10
150.1089
 20
41.2608
  0
VERTEX
  8
0
 10
150.6182
 20
41.2608
  0
VERTEX
  8
0
 10
150.6182
 20
41.1648
  0
VERTEX
  8
0
 10
150.0009
 20
41.1648
  0
SEQEND
  0
POLYLINE
  8
0
 66
     1
 10
0
 20
0
  0
VERTEX
  8
0
 10
150.7609
 20
41.1648
  0
VERTEX
  8
0
 10
150.7609
 20
41.9968
  0
VERTEX
  8
0
 10
150.9242
 20
41.9968
  0
VERTEX
  8
0
 10
151.1234
 20
41.411
  0
VERTEX
  8
0
 10
151.1438
 20
41.345
  0
VERTEX
  8
0
 10
151.1605
 20
41.2895
  0
VERTEX
  8
0
 10
151.1769
 20
41.3413
  0
VERTEX
  8
0
 10
151.204
 20
41.4208
  0
VERTEX
  8
0
 10
151.4029
 20
41.9968
  0
VERTEX
  8
0
 10
151.5489
 20
41.9968
  0
VERTEX
  8
0
 10
151.5489
 20
41.1648
  0
VERTEX
  8
0
 10
151.4449
 20
41.1648
  0
VERTEX
  8
0
 10
151.4449
 20
41.8611
  0
VERTEX
  8
0
 10
151.2044
 20
41.1648
  0
VERTEX
  8
0
 10
151.1057
 20
41.1648
  0
VERTEX
  8
0
 10
150.8649
 20
41.8729
  0
VERTEX
  8
0
 10
150.8649
 20
41.1648
  0
VERTEX
  8
0
 10
150.7609
 20
41.1648
  0
SEQEND
  0
POLYLINE
  8
0
 66
     1
 10
0
 20
0
  0
VERTEX
  8
0
 10
151.6809
 20
41.4168
  0
VERTEX
  8
0
 10
151.6809
 20
41.5208
  0
VERTEX
  8
0
 10
151.9929
 20
41.5208
  0
VERTEX
  8
0
 10
151.9929
 20
41.4168
  0
VERTEX
  8
0
 10
151.6809
 20
41.4168
  0
SEQEND
  0
POLYLINE
  8
0
 66
     1
 10
0
 20
0
  0
VERTEX
  8
0
 10
152.4609
 20
41.1648
  0
VERTEX
  8
0
 10
152.3609
 20
41.1648
  0
VERTEX
  8
0
 10
152.3609
 20
41.8159
  0
VERTEX
  8
0
 10
152.2697
 20
41.7472
  0
VERTEX
  8
0
 10
152.1569
 20
41.6935
  0
VERTEX
  8
0
 10
152.1569
 20
41.7922
  0
VERTEX
  8
0
 10
152.2127
 20
41.8211
  0
VERTEX
  8
0
 10
152.262
 20
41.8524
  0
VERTEX
  8
0
 10
152.305
 20
41.886
  0
VERTEX
  8
0
 10
152.3416
 20
41.9219
  0
VERTEX
  8
0
 10
152.3718
 20
41.9602
  0
VERTEX
  8
0
 10
152.3956
 20
42.0008
  0
VERTEX
  8
0
 10
152.4609
 20
42.0008
  0
VERTEX
  8
0
 10
152.4609
 20
41.1648
  0
SEQEND
  0
POLYLINE
  8
0
 66
     1
 10
0
 20
0
  0
VERTEX
  8
0
 10
152.7769
 20
41.6528
  0
VERTEX
  8
0
 10
152.7769
 20
41.7688
  0
VERTEX
  8
0
 10
152.8929
 20
41.7688
  0
VERTEX
  8
0
 10
152.8929
 20
41.6528
  0
VERTEX
  8
0
 10
152.7769
 20
41.6528
  0
SEQEND
  0
POLYLINE
  8
0
 66
     1
 10
0
 20
0
  0
VERTEX
  8
0
 10
152.7769
 20
41.1648
  0
VERTEX
  8
0
 10
152.7769
 20
41.2808
  0
VERTEX
  8
0
 10
152.8929
 20
41.2808
  0
VERTEX
  8
0
 10
152.8929
 20
41.1665
  0
VERTEX
  8
0
 10
152.8903
 20
41.1285
  0
VERTEX
  8
0
 10
152.8823
 20
41.095
  0
VERTEX
  8
0
 10
152.8691
 20
41.0658
  0
VERTEX
  8
0
 10
152.8505
 20
41.0411
  0
VERTEX
  8
0
 10
152.8266
 20
41.0207
  0
VERTEX
  8
0
 10
152.7975
 20
41.0048
  0
VERTEX
  8
0
 10
152.7689
 20
41.0473
  0
VERTEX
  8
0
 10
152.796
 20
41.0642
  0
VERTEX
  8
0
 10
152.8158
 20
41.0894
  0
VERTEX
  8
0
 10
152.8282
 20
41.1229
  0
VERTEX
  8
0
 10
152.8332
 20
41.1648
  0
VERTEX
  8
0
 10
152.7769
 20
41.1648
  0
SEQEND
  0
POLYLINE
  8
0
 66
     1
 10
0
 20
0
  0
VERTEX
  8
0
 10
154.1089
 20
41.2608
  0
VERTEX
  8
0
 10
154.1089
 20
41.1648
  0
VERTEX
  8
0
 10
153.5649
 20
41.1648
  0
VERTEX
  8
0
 10
153.569
 20
41.2088
  0
VERTEX
  8
0
 10
153.5833
 20
41.2537
  0
VERTEX
  8
0
 10
153.6081
 20
41.2997
  0
VERTEX
  8
0
 10
153.6431
 20
41.3467
  0
VERTEX
  8
0
 10
153.6997
 20
41.4061
  0
VERTEX
  8
0
 10
153.7759
 20
41.4729
  0
VERTEX
  8
0
 10
153.8367
 20
41.5243
  0
VERTEX
  8
0
 10
153.8847
 20
41.5679
  0
VERTEX
  8
0
 10
153.92
 20
41.6036
  0
VERTEX
  8
0
 10
153.9571
 20
41.6491
  0
VERTEX
  8
0
 10
153.9837
 20
41.6924
  0
VERTEX
  8
0
 10
153.9996
 20
41.7335
  0
VERTEX
  8
0
 10
154.0049
 20
41.7724
  0
VERTEX
  8
0
 10
153.9934
 20
41.8311
  0
VERTEX
  8
0
 10
153.9588
 20
41.8775
  0
VERTEX
  8
0
 10
153.9096
 20
41.9067
  0
VERTEX
  8
0
 10
153.8497
 20
41.9168
  0
VERTEX
  8
0
 10
153.7824
 20
41.9058
  0
VERTEX
  8
0
 10
153.7315
 20
41.8718
  0
VERTEX
  8
0
 10
153.6993
 20
41.8184
  0
VERTEX
  8
0
 10
153.6882
 20
41.7494
  0
VERTEX
  8
0
 10
153.5841
 20
41.7602
  0
VERTEX
  8
0
 10
153.5929
 20
41.8152
  0
VERTEX
  8
0
 10
153.6093
 20
41.8633
  0
VERTEX
  8
0
 10
153.6332
 20
41.9045
  0
VERTEX
  8
0
 10
153.6645
 20
41.9389
  0
VERTEX
  8
0
 10
153.7166
 20
41.9733
  0
VERTEX
  8
0
 10
153.779
 20
41.9939
  0
VERTEX
  8
0
 10
153.8519
 20
42.0008
  0
VERTEX
  8
0
 10
153.9204
 20
41.9941
  0
VERTEX
  8
0
 10
153.9806
 20
41.9742
  0
VERTEX
  8
0
 10
154.0324
 20
41.941
  0
VERTEX
  8
0
 10
154.0659
 20
41.9063
  0
VERTEX
  8
0
 10
154.0898
 20
41.8661
  0
VERTEX
  8
0
 10
154.1041
 20
41.8203
  0
VERTEX
  8
0
 10
154.1089
 20
41.7689
  0
VERTEX
  8
0
 10
154.1034
 20
41.719
  0
VERTEX
  8
0
 10
154.087
 20
41.669
  0
VERTEX
  8
0
 10
154.0596
 20
41.6188
  0
VERTEX
  8
0
 10
154.0212
 20
41.5684
  0
VERTEX
  8
0
 10
153.9825
 20
41.5275
  0
VERTEX
  8
0
 10
153.9306
 20
41.4785
  0
VERTEX
  8
0
 10
153.8656
 20
41.4214
  0
VERTEX
  8
0
 10
153.8236
 20
41.3855
  0
VERTEX
  8
0
 10
153.7949
 20
41.3607
  0
VERTEX
  8
0
 10
153.7796
 20
41.3468
  0
VERTEX
  8
0
 10
153.7376
 20
41.3031
  0
VERTEX
  8
0
 10
153.706
 20
41.2608
  0
VERTEX
  8
0
 10
154.1089
 20
41.2608
  0
SEQEND
  0
POLYLINE
  8
0
 66
     1
 10
0
 20
0
  0
VERTEX
  8
0
 10
154.2729
 20
41.1648
  0
VERTEX
  8
0
 10
154.2729
 20
41.2848
  0
VERTEX
  8
0
 10
154.3889
 20
41.2848
  0
VERTEX
  8
0
 10
154.3889
 20
41.1648
  0
VERTEX
  8
0
 10
154.2729
 20
41.1648
  0
SEQEND
  0
POLYLINE
  8
0
 66
     1
 10
0
 20
0
  0
VERTEX
  8
0
 10
155.0729
 20
41.2608
  0
VERTEX
  8
0
 10
155.0729
 20
41.1648
  0
VERTEX
  8
0
 10
154.5289
 20
41.1648
  0
VERTEX
  8
0
 10
154.533
 20
41.2088
  0
VERTEX
  8
0
 10
154.5473
 20
41.2537
  0
VERTEX
  8
0
 10
154.5721
 20
41.2997
  0
VERTEX
  8
0
 10
154.6071
 20
41.3467
  0
VERTEX
  8
0
 10
154.6637
 20
41.4061
  0
VERTEX
  8
0
 10
154.7399
 20
41.4729
  0
VERTEX
  8
0
 10
154.8007
 20
41.5243
  0
VERTEX
  8
0
 10
154.8487
 20
41.5679
  0
VERTEX
  8
0
 10
154.884
 20
41.6036
  0
VERTEX
  8
0
 10
154.9211
 20
41.6491
  0
VERTEX
  8
0
 10
154.9477
 20
41.6924
  0
VERTEX
  8
0
 10
154.9636
 20
41.7335
  0
VERTEX
  8
0
 10
154.9689
 20
41.7724
  0
VERTEX
  8
0
 10
154.9574
 20
41.8311
  0
VERTEX
  8
0
 10
154.9228
 20
41.8775
  0
VERTEX
  8
0
 10
154.8736
 20
41.9067
  0
VERTEX
  8
0
 10
154.8137
 20
41.9168
  0
VERTEX
  8
0
 10
154.7464
 20
41.9058
  0
VERTEX
  8
0
 10
154.6955
 20
41.8718
  0
VERTEX
  8
0
 10
154.6633
 20
41.8184
  0
VERTEX
  8
0
 10
154.6522
 20
41.7494
  0
VERTEX
  8
0
 10
154.5481
 20
41.7602
  0
VERTEX
  8
0
 10
154.5569
 20
41.8152
  0
VERTEX
  8
0
 10
154.5733
 20
41.8633
  0
VERTEX
  8
0
 10
154.5972
 20
41.9045
  0
VERTEX
  8
0
 10
154.6285
 20
41.9389
  0
VERTEX
  8
0
 10
154.6806
 20
41.9733
  0
VERTEX
  8
0
 10
154.743
 20
41.9939
  0
VERTEX
  8
0
 10
154.8159
 20
42.0008
  0
VERTEX
  8
0
 10
154.8844
 20
41.9941
  0
VERTEX
  8
0
 10
154.9446
 20
41.9742
  0
VERTEX
  8
0
 10
154.9964
 20
41.941
  0
VERTEX
  8
0
 10
155.0299
 20
41.9063
  0
VERTEX
  8
0
 10
155.0538
 20
41.8661
  0
VERTEX
  8
0
 10
155.0681
 20
41.8203
  0
VERTEX
  8
0
 10
155.0729
 20
41.7689
  0
VERTEX
  8
0
 10
155.0674
 20
41.719
  0
VERTEX
  8
0
 10
155.051
 20
41.669
  0
VERTEX
  8
0
 10
155.0236
 20
41.6188
  0
VERTEX
  8
0
 10
154.9852
 20
41.5684
  0
VERTEX
  8
0
 10
154.9465
 20
41.5275
  0
VERTEX
  8
0
 10
154.8946
 20
41.4785
  0
VERTEX
  8
0
 10
154.8296
 20
41.4214
  0
VERTEX
  8
0
 10
154.7876
 20
41.3855
  0
VERTEX
  8
0
 10
154.7589
 20
41.3607
  0
VERTEX
  8
0
 10
154.7436
 20
41.3468
  0
VERTEX
  8
0
 10
154.7016
 20
41.3031
  0
VERTEX
  8
0
 10
154.67
 20
41.2608
  0
VERTEX
  8
0
 10
155.0729
 20
41.2608
  0
SEQEND
  0
POLYLINE
  8
0
 66
     1
 10
0
 20
0
  0
VERTEX
  8
0
 10
155.1769
 20
41.3854
  0
VERTEX
  8
0
 10
155.2834
 20
41.3945
  0
VERTEX
  8
0
 10
155.2901
 20
41.3614
  0
VERTEX
  8
0
 10
155.2994
 20
41.3322
  0
VERTEX
  8
0
 10
155.3116
 20
41.3069
  0
VERTEX
  8
0
 10
155.3265
 20
41.2855
  0
VERTEX
  8
0
 10
155.3441
 20
41.2679
  0
VERTEX
  8
0
 10
155.3645
 20
41.2543
  0
VERTEX
  8
0
 10
155.3877
 20
41.2446
  0
VERTEX
  8
0
 10
155.4136
 20
41.2387
  0
VERTEX
  8
0
 10
155.4423
 20
41.2368
  0
VERTEX
  8
0
 10
155.4928
 20
41.2437
  0
VERTEX
  8
0
 10
155.5359
 20
41.2646
  0
VERTEX
  8
0
 10
155.5719
 20
41.2993
  0
VERTEX
  8
0
 10
155.6057
 20
41.3629
  0
VERTEX
  8
0
 10
155.6169
 20
41.4402
  0
VERTEX
  8
0
 10
155.6052
 20
41.5162
  0
VERTEX
  8
0
 10
155.5702
 20
41.5762
  0
VERTEX
  8
0
 10
155.535
 20
41.6052
  0
VERTEX
  8
0
 10
155.4918
 20
41.6227
  0
VERTEX
  8
0
 10
155.4406
 20
41.6288
  0
VERTEX
  8
0
 10
155.3949
 20
41.6239
  0
VERTEX
  8
0
 10
155.3546
 20
41.6087
  0
VERTEX
  8
0
 10
155.3197
 20
41.5832
  0
VERTEX
  8
0
 10
155.2902
 20
41.5474
  0
VERTEX
  8
0
 10
155.195
 20
41.5598
  0
VERTEX
  8
0
 10
155.2751
 20
41.9848
  0
VERTEX
  8
0
 10
155.6864
 20
41.9848
  0
VERTEX
  8
0
 10
155.6864
 20
41.8888
  0
VERTEX
  8
0
 10
155.3588
 20
41.8888
  0
VERTEX
  8
0
 10
155.3125
 20
41.6652
  0
VERTEX
  8
0
 10
155.3886
 20
41.7036
  0
VERTEX
  8
0
 10
155.4684
 20
41.7168
  0
VERTEX
  8
0
 10
155.5222
 20
41.7121
  0
VERTEX
  8
0
 10
155.5711
 20
41.6976
  0
VERTEX
  8
0
 10
155.615
 20
41.6731
  0
VERTEX
  8
0
 10
155.654
 20
41.6387
  0
VERTEX
  8
0
 10
155.6851
 20
41.5982
  0
VERTEX
  8
0
 10
155.7072
 20
41.5529
  0
VERTEX
  8
0
 10
155.7205
 20
41.5029
  0
VERTEX
  8
0
 10
155.7249
 20
41.4481
  0
VERTEX
  8
0
 10
155.7177
 20
41.3767
  0
VERTEX
  8
0
 10
155.6959
 20
41.3118
  0
VERTEX
  8
0
 10
155.6595
 20
41.2535
  0
VERTEX
  8
0
 10
155.6254
 20
41.2174
  0
VERTEX
  8
0
 10
155.5867
 20
41.1893
  0
VERTEX
  8
0
 10
155.5432
 20
41.1692
  0
VERTEX
  8
0
 10
155.4952
 20
41.157
  0
VERTEX
  8
0
 10
155.4425
 20
41.1528
  0
VERTEX
  8
0
 10
155.3735
 20
41.1596
  0
VERTEX
  8
0
 10
155.3129
 20
41.1798
  0
VERTEX
  8
0
 10
155.2609
 20
41.2137
  0
VERTEX
  8
0
 10
155.219
 20
41.2605
  0
VERTEX
  8
0
 10
155.191
 20
41.3178
  0
VERTEX
  8
0
 10
155.1769
 20
41.3854
  0
VERTEX
  8
0
 10
155.1769
 20
41.3854
  0
SEQEND
  0
POLYLINE
  8
0
 66
     1
 10
0
 20
0
  0
VERTEX
  8
0
 10
155.8532
 20
41.7048
  0
VERTEX
  8
0
 10
155.8249
 20
41.8618
  0
VERTEX
  8
0
 10
155.8249
 20
41.9968
  0
VERTEX
  8
0
 10
155.9409
 20
41.9968
  0
VERTEX
  8
0
 10
155.9409
 20
41.8618
  0
VERTEX
  8
0
 10
155.9155
 20
41.7048
  0
VERTEX
  8
0
 10
155.8532
 20
41.7048
  0
SEQEND
  0
POLYLINE
  8
0
 66
     1
 10
0
 20
0
  0
VERTEX
  8
0
 10
156.0407
 20
41.7048
  0
VERTEX
  8
0
 10
156.0129
 20
41.8618
  0
VERTEX
  8
0
 10
156.0129
 20
41.9968
  0
VERTEX
  8
0
 10
156.1289
 20
41.9968
  0
VERTEX
  8
0
 10
156.1289
 20
41.8618
  0
VERTEX
  8
0
 10
156.1017
 20
41.7048
  0
VERTEX
  8
0
 10
156.0407
 20
41.7048
  0
SEQEND
  0
POLYLINE
  8
0
 66
     1
 10
0
 20
0
  0
VERTEX
  8
0
 10
156.8049
 20
41.1648
  0
VERTEX
  8
0
 10
156.8049
 20
41.9968
  0
VERTEX
  8
0
 10
157.171
 20
41.9968
  0
VERTEX
  8
0
 10
157.2547
 20
41.993
  0
VERTEX
  8
0
 10
157.3168
 20
41.9815
  0
VERTEX
  8
0
 10
157.383
 20
41.9486
  0
VERTEX
  8
0
 10
157.4305
 20
41.8952
  0
VERTEX
  8
0
 10
157.456
 20
41.8358
  0
VERTEX
  8
0
 10
157.4649
 20
41.7698
  0
VERTEX
  8
0
 10
157.4639
 20
41.743
  0
VERTEX
  8
0
 10
157.4605
 20
41.7179
  0
VERTEX
  8
0
 10
157.4547
 20
41.6944
  0
VERTEX
  8
0
 10
157.4465
 20
41.6725
  0
VERTEX
  8
0
 10
157.4359
 20
41.6523
  0
VERTEX
  8
0
 10
157.4229
 20
41.6337
  0
VERTEX
  8
0
 10
157.4076
 20
41.6167
  0
VERTEX
  8
0
 10
157.3898
 20
41.6013
  0
VERTEX
  8
0
 10
157.3697
 20
41.5876
  0
VERTEX
  8
0
 10
157.3472
 20
41.5755
  0
VERTEX
  8
0
 10
157.3223
 20
41.565
  0
VERTEX
  8
0
 10
157.2949
 20
41.5562
  0
VERTEX
  8
0
 10
157.2653
 20
41.5489
  0
VERTEX
  8
0
 10
157.2332
 20
41.5434
  0
VERTEX
  8
0
 10
157.2717
 20
41.5225
  0
VERTEX
  8
0
 10
157.2992
 20
41.5019
  0
VERTEX
  8
0
 10
157.347
 20
41.4507
  0
VERTEX
  8
0
 10
157.39
 20
41.3912
  0
VERTEX
  8
0
 10
157.534
 20
41.1648
  0
VERTEX
  8
0
 10
157.3969
 20
41.1648
  0
VERTEX
  8
0
 10
157.2865
 20
41.3407
  0
VERTEX
  8
0
 10
157.2522
 20
41.3932
  0
VERTEX
  8
0
 10
157.2254
 20
41.4319
  0
VERTEX
  8
0
 10
157.1853
 20
41.4808
  0
VERTEX
  8
0
 10
157.1512
 20
41.5107
  0
VERTEX
  8
0
 10
157.1263
 20
41.5245
  0
VERTEX
  8
0
 10
157.1014
 20
41.5329
  0
VERTEX
  8
0
 10
157.0774
 20
41.5358
  0
VERTEX
  8
0
 10
157.0403
 20
41.5368
  0
VERTEX
  8
0
 10
156.9129
 20
41.5368
  0
VERTEX
  8
0
 10
156.9129
 20
41.1648
  0
VERTEX
  8
0
 10
156.8049
 20
41.1648
  0
SEQEND
  0
POLYLINE
  8
0
 66
     1
 10
0
 20
0
  0
VERTEX
  8
0
 10
156.9129
 20
41.6328
  0
VERTEX
  8
0
 10
157.1487
 20
41.6328
  0
VERTEX
  8
0
 10
157.2009
 20
41.6354
  0
VERTEX
  8
0
 10
157.2452
 20
41.6431
  0
VERTEX
  8
0
 10
157.2816
 20
41.656
  0
VERTEX
  8
0
 10
157.3102
 20
41.6741
  0
VERTEX
  8
0
 10
157.3309
 20
41.6973
  0
VERTEX
  8
0
 10
157.3474
 20
41.7329
  0
VERTEX
  8
0
 10
157.3529
 20
41.7713
  0
VERTEX
  8
0
 10
157.3467
 20
41.8144
  0
VERTEX
  8
0
 10
157.328
 20
41.8493
  0
VERTEX
  8
0
 10
157.2969
 20
41.8762
  0
VERTEX
  8
0
 10
157.2436
 20
41.8976
  0
VERTEX
  8
0
 10
157.1754
 20
41.9048
  0
VERTEX
  8
0
 10
156.9129
 20
41.9048
  0
VERTEX
  8
0
 10
156.9129
 20
41.6328
  0
SEQEND
  0
POLYLINE
  8
0
 66
     1
 10
0
 20
0
  0
VERTEX
  8
0
 10
158.0184
 20
41.2427
  0
VERTEX
  8
0
 10
157.9663
 20
41.2053
  0
VERTEX
  8
0
 10
157.9121
 20
41.1786
  0
VERTEX
  8
0
 10
157.856
 20
41.1624
  0
VERTEX
  8
0
 10
157.7977
 20
41.1568
  0
VERTEX
  8
0
 10
157.7179
 20
41.1666
  0
VERTEX
  8
0
 10
157.6544
 20
41.1972
  0
VERTEX
  8
0
 10
157.6205
 20
41.232
  0
VERTEX
  8
0
 10
157.6
 20
41.2754
  0
VERTEX
  8
0
 10
157.5929
 20
41.3276
  0
VERTEX
  8
0
 10
157.5972
 20
41.3691
  0
VERTEX
  8
0
 10
157.6106
 20
41.406
  0
VERTEX
  8
0
 10
157.6332
 20
41.4383
  0
VERTEX
  8
0
 10
157.6649
 20
41.4659
  0
VERTEX
  8
0
 10
157.6986
 20
41.4851
  0
VERTEX
  8
0
 10
157.738
 20
41.499
  0
VERTEX
  8
0
 10
157.7748
 20
41.5067
  0
VERTEX
  8
0
 10
157.8279
 20
41.5142
  0
VERTEX
  8
0
 10
157.9039
 20
41.5248
  0
VERTEX
  8
0
 10
157.9641
 20
41.5364
  0
VERTEX
  8
0
 10
158.0084
 20
41.549
  0
VERTEX
  8
0
 10
158.0085
 20
41.5666
  0
VERTEX
  8
0
 10
158.0089
 20
41.5754
  0
VERTEX
  8
0
 10
158.0018
 20
41.6281
  0
VERTEX
  8
0
 10
157.9802
 20
41.6625
  0
VERTEX
  8
0
 10
157.9323
 20
41.688
  0
VERTEX
  8
0
 10
157.865
 20
41.6968
  0
VERTEX
  8
0
 10
157.805
 20
41.6912
  0
VERTEX
  8
0
 10
157.7622
 20
41.6732
  0
VERTEX
  8
0
 10
157.731
 20
41.6382
  0
VERTEX
  8
0
 10
157.7094
 20
41.5835
  0
VERTEX
  8
0
 10
157.6104
 20
41.597
  0
VERTEX
  8
0
 10
157.6243
 20
41.6429
  0
VERTEX
  8
0
 10
157.6447
 20
41.6821
  0
VERTEX
  8
0
 10
157.6715
 20
41.7146
  0
VERTEX
  8
0
 10
157.7049
 20
41.7403
  0
VERTEX
  8
0
 10
157.7448
 20
41.7594
  0
VERTEX
  8
0
 10
157.8073
 20
41.7752
  0
VERTEX
  8
0
 10
157.8809
 20
41.7808
  0
VERTEX
  8
0
 10
157.934
 20
41.7784
  0
VERTEX
  8
0
 10
157.9802
 20
41.7708
  0
VERTEX
  8
0
 10
158.0192
 20
41.758
  0
VERTEX
  8
0
 10
158.0513
 20
41.7399
  0
VERTEX
  8
0
 10
158.0762
 20
41.7167
  0
VERTEX
  8
0
 10
158.0951
 20
41.6861
  0
VERTEX
  8
0
 10
158.1079
 20
41.6475
  0
VERTEX
  8
0
 10
158.1117
 20
41.6126
  0
VERTEX
  8
0
 10
158.1129
 20
41.5534
  0
VERTEX
  8
0
 10
158.1129
 20
41.4172
  0
VERTEX
  8
0
 10
158.1129
 20
41.3728
  0
VERTEX
  8
0
 10
158.113
 20
41.3377
  0
VERTEX
  8
0
 10
158.1131
 20
41.3118
  0
VERTEX
  8
0
 10
158.1133
 20
41.2952
  0
VERTEX
  8
0
 10
158.1135
 20
41.2879
  0
VERTEX
  8
0
 10
158.1235
 20
41.2197
  0
VERTEX
  8
0
 10
158.1447
 20
41.1648
  0
VERTEX
  8
0
 10
158.0387
 20
41.1648
  0
VERTEX
  8
0
 10
158.026
 20
41.2009
  0
VERTEX
  8
0
 10
158.0184
 20
41.2427
  0
VERTEX
  8
0
 10
158.0184
 20
41.2427
  0
SEQEND
  0
POLYLINE
  8
0
 66
     1
 10
0
 20
0
  0
VERTEX
  8
0
 10
158.0089
 20
41.4695
  0
VERTEX
  8
0
 10
157.9399
 20
41.4491
  0
VERTEX
  8
0
 10
157.8434
 20
41.4315
  0
VERTEX
  8
0
 10
157.8
 20
41.4245
  0
VERTEX
  8
0
 10
157.7724
 20
41.418
  0
VERTEX
  8
0
 10
157.7381
 20
41.4017
  0
VERTEX
  8
0
 10
157.715
 20
41.3784
  0
VERTEX
  8
0
 10
157.7047
 20
41.3561
  0
VERTEX
  8
0
 10
157.7009
 20
41.3308
  0
VERTEX
  8
0
 10
157.7101
 20
41.2888
  0
VERTEX
  8
0
 10
157.7387
 20
41.258
  0
VERTEX
  8
0
 10
157.7757
 20
41.2421
  0
VERTEX
  8
0
 10
157.8214
 20
41.2368
  0
VERTEX
  8
0
 10
157.8611
 20
41.2394
  0
VERTEX
  8
0
 10
157.8963
 20
41.2474
  0
VERTEX
  8
0
 10
157.927
 20
41.2606
  0
VERTEX
  8
0
 10
157.9533
 20
41.2791
  0
VERTEX
  8
0
 10
157.9752
 20
41.3029
  0
VERTEX
  8
0
 10
157.9926
 20
41.3319
  0
VERTEX
  8
0
 10
158.0048
 20
41.3742
  0
VERTEX
  8
0
 10
158.0089
 20
41.4326
  0
VERTEX
  8
0
 10
158.0089
 20
41.4695
  0
SEQEND
  0
POLYLINE
  8
0
 66
     1
 10
0
 20
0
  0
VERTEX
  8
0
 10
158.6569
 20
41.1648
  0
VERTEX
  8
0
 10
158.6569
 20
41.2444
  0
VERTEX
  8
0
 10
158.6322
 20
41.2131
  0
VERTEX
  8
0
 10
158.6032
 20
41.1886
  0
VERTEX
  8
0
 10
158.5698
 20
41.1711
  0
VERTEX
  8
0
 10
158.532
 20
41.1605
  0
VERTEX
  8
0
 10
158.4899
 20
41.1568
  0
VERTEX
  8
0
 10
158.4196
 20
41.1668
  0
VERTEX
  8
0
 10
158.356
 20
41.1979
  0
VERTEX
  8
0
 10
158.3039
 20
41.2449
  0
VERTEX
  8
0
 10
158.2653
 20
41.3063
  0
VERTEX
  8
0
 10
158.2413
 20
41.3811
  0
VERTEX
  8
0
 10
158.2329
 20
41.4682
  0
VERTEX
  8
0
 10
158.2346
 20
41.5151
  0
VERTEX
  8
0
 10
158.24
 20
41.5583
  0
VERTEX
  8
0
 10
158.2493
 20
41.5979
  0
VERTEX
  8
0
 10
158.2624
 20
41.6339
  0
VERTEX
  8
0
 10
158.2793
 20
41.6663
  0
VERTEX
  8
0
 10
158.3
 20
41.6952
  0
VERTEX
  8
0
 10
158.3246
 20
41.7204
  0
VERTEX
  8
0
 10
158.3529
 20
41.742
  0
VERTEX
  8
0
 10
158.4162
 20
41.7711
  0
VERTEX
  8
0
 10
158.487
 20
41.7808
  0
VERTEX
  8
0
 10
158.5371
 20
41.7757
  0
VERTEX
  8
0
 10
158.5815
 20
41.7604
  0
VERTEX
  8
0
 10
158.6201
 20
41.7349
  0
VERTEX
  8
0
 10
158.6529
 20
41.6992
  0
VERTEX
  8
0
 10
158.6529
 20
41.9968
  0
VERTEX
  8
0
 10
158.7529
 20
41.9968
  0
VERTEX
  8
0
 10
158.7529
 20
41.1648
  0
VERTEX
  8
0
 10
158.6569
 20
41.1648
  0
SEQEND
  0
POLYLINE
  8
0
 66
     1
 10
0
 20
0
  0
VERTEX
  8
0
 10
158.3369
 20
41.4685
  0
VERTEX
  8
0
 10
158.3458
 20
41.3854
  0
VERTEX
  8
0
 10
158.3725
 20
41.3165
  0
VERTEX
  8
0
 10
158.3968
 20
41.2836
  0
VERTEX
  8
0
 10
158.4262
 20
41.26
  0
VERTEX
  8
0
 10
158.4606
 20
41.2457
  0
VERTEX
  8
0
 10
158.5002
 20
41.2408
  0
VERTEX
  8
0
 10
158.5392
 20
41.2451
  0
VERTEX
  8
0
 10
158.5731
 20
41.2585
  0
VERTEX
  8
0
 10
158.6019
 20
41.281
  0
VERTEX
  8
0
 10
158.6256
 20
41.3126
  0
VERTEX
  8
0
 10
158.6514
 20
41.3792
  0
VERTEX
  8
0
 10
158.66
 20
41.4601
  0
VERTEX
  8
0
 10
158.6517
 20
41.5475
  0
VERTEX
  8
0
 10
158.6267
 20
41.6177
  0
VERTEX
  8
0
 10
158.6024
 20
41.6523
  0
VERTEX
  8
0
 10
158.5725
 20
41.677
  0
VERTEX
  8
0
 10
158.5369
 20
41.6919
  0
VERTEX
  8
0
 10
158.4957
 20
41.6968
  0
VERTEX
  8
0
 10
158.4556
 20
41.6921
  0
VERTEX
  8
0
 10
158.4211
 20
41.6779
  0
VERTEX
  8
0
 10
158.3923
 20
41.6542
  0
VERTEX
  8
0
 10
158.3691
 20
41.621
  0
VERTEX
  8
0
 10
158.345
 20
41.5532
  0
VERTEX
  8
0
 10
158.3369
 20
41.4685
  0
VERTEX
  8
0
 10
158.3369
 20
41.4685
  0
SEQEND
  0
POLYLINE
  8
0
 66
     1
 10
0
 20
0
  0
VERTEX
  8
0
 10
158.9089
 20
41.8808
  0
VERTEX
  8
0
 10
158.9089
 20
41.9968
  0
VERTEX
  8
0
 10
159.0089
 20
41.9968
  0
VERTEX
  8
0
 10
159.0089
 20
41.8808
  0
VERTEX
  8
0
 10
158.9089
 20
41.8808
  0
SEQEND
  0
POLYLINE
  8
0
 66
     1
 10
0
 20
0
  0
VERTEX
  8
0
 10
158.9089
 20
41.1648
  0
VERTEX
  8
0
 10
158.9089
 20
41.768
  0
VERTEX
  8
0
 10
159.0089
 20
41.768
  0
VERTEX
  8
0
 10
159.0089
 20
41.1648
  0
VERTEX
  8
0
 10
158.9089
 20
41.1648
  0
SEQEND
  0
POLYLINE
  8
0
 66
     1
 10
0
 20
0
  0
VERTEX
  8
0
 10
159.5569
 20
41.1648
  0
VERTEX
  8
0
 10
159.5569
 20
41.2568
  0
VERTEX
  8
0
 10
159.5273
 20
41.2208
  0
VERTEX
  8
0
 10
159.4937
 20
41.1928
  0
VERTEX
  8
0
 10
159.4559
 20
41.1728
  0
VERTEX
  8
0
 10
159.4141
 20
41.1608
  0
VERTEX
  8
0
 10
159.3682
 20
41.1568
  0
VERTEX
  8
0
 10
159.3219
 20
41.1612
  0
VERTEX
  8
0
 10
159.2769
 20
41.1743
  0
VERTEX
  8
0
 10
159.2333
 20
41.1972
  0
VERTEX
  8
0
 10
159.2019
 20
41.2278
  0
VERTEX
  8
0
 10
159.1835
 20
41.2613
  0
VERTEX
  8
0
 10
159.1711
 20
41.3033
  0
VERTEX
  8
0
 10
159.1665
 20
41.3422
  0
VERTEX
  8
0
 10
159.1649
 20
41.398
  0
VERTEX
  8
0
 10
159.1649
 20
41.7688
  0
VERTEX
  8
0
 10
159.2649
 20
41.7688
  0
VERTEX
  8
0
 10
159.2649
 20
41.4373
  0
VERTEX
  8
0
 10
159.2665
 20
41.37
  0
VERTEX
  8
0
 10
159.2712
 20
41.3304
  0
VERTEX
  8
0
 10
159.2824
 20
41.2999
  0
VERTEX
  8
0
 10
159.2998
 20
41.2761
  0
VERTEX
  8
0
 10
159.3234
 20
41.259
  0
VERTEX
  8
0
 10
159.3531
 20
41.2486
  0
VERTEX
  8
0
 10
159.389
 20
41.2448
  0
VERTEX
  8
0
 10
159.4335
 20
41.2502
  0
VERTEX
  8
0
 10
159.475
 20
41.2676
  0
VERTEX
  8
0
 10
159.5092
 20
41.2952
  0
VERTEX
  8
0
 10
159.5319
 20
41.3315
  0
VERTEX
  8
0
 10
159.5447
 20
41.381
  0
VERTEX
  8
0
 10
159.5489
 20
41.4485
  0
VERTEX
  8
0
 10
159.5489
 20
41.7688
  0
VERTEX
  8
0
 10
159.6489
 20
41.7688
  0
VERTEX
  8
0
 10
159.6489
 20
41.1648
  0
VERTEX
  8
0
 10
159.5569
 20
41.1648
  0
SEQEND
  0
POLYLINE
  8
0
 66
     1
 10
0
 20
0
  0
VERTEX
  8
0
 10
159.7689
 20
41.3477
  0
VERTEX
  8
0
 10
159.869
 20
41.3634
  0
VERTEX
  8
0
 10
159.8753
 20
41.3347
  0
VERTEX
  8
0
 10
159.8853
 20
41.3098
  0
VERTEX
  8
0
 10
159.899
 20
41.2887
  0
VERTEX
  8
0
 10
159.9164
 20
41.2715
  0
VERTEX
  8
0
 10
159.9376
 20
41.258
  0
VERTEX
  8
0
 10
159.9626
 20
41.2485
  0
VERTEX
  8
0
 10
159.9912
 20
41.2427
  0
VERTEX
  8
0
 10
160.0237
 20
41.2408
  0
VERTEX
  8
0
 10
160.0735
 20
41.2458
  0
VERTEX
  8
0
 10
160.1148
 20
41.261
  0
VERTEX
  8
0
 10
160.1494
 20
41.292
  0
VERTEX
  8
0
 10
160.1609
 20
41.3357
  0
VERTEX
  8
0
 10
160.1535
 20
41.3663
  0
VERTEX
  8
0
 10
160.131
 20
41.3895
  0
VERTEX
  8
0
 10
160.1105
 20
41.3993
  0
VERTEX
  8
0
 10
160.0759
 20
41.4108
  0
VERTEX
  8
0
 10
160.0273
 20
41.4238
  0
VERTEX
  8
0
 10
159.9715
 20
41.438
  0
VERTEX
  8
0
 10
159.9311
 20
41.4492
  0
VERTEX
  8
0
 10
159.9061
 20
41.4575
  0
VERTEX
  8
0
 10
159.8455
 20
41.4888
  0
VERTEX
  8
0
 10
159.8069
 20
41.5287
  0
VERTEX
  8
0
 10
159.7904
 20
41.5665
  0
VERTEX
  8
0
 10
159.7849
 20
41.609
  0
VERTEX
  8
0
 10
159.7925
 20
41.6594
  0
VERTEX
  8
0
 10
159.8153
 20
41.7028
  0
VERTEX
  8
0
 10
159.8534
 20
41.7392
  0
VERTEX
  8
0
 10
159.9198
 20
41.7701
  0
VERTEX
  8
0
 10
160.006
 20
41.7808
  0
VERTEX
  8
0
 10
160.0714
 20
41.776
  0
VERTEX
  8
0
 10
160.1298
 20
41.7605
  0
VERTEX
  8
0
 10
160.1763
 20
41.7364
  0
VERTEX
  8
0
 10
160.2095
 20
41.7044
  0
VERTEX
  8
0
 10
160.2303
 20
41.6653
  0
VERTEX
  8
0
 10
160.244
 20
41.6134
  0
VERTEX
  8
0
 10
160.1439
 20
41.5999
  0
VERTEX
  8
0
 10
160.1375
 20
41.6254
  0
VERTEX
  8
0
 10
160.127
 20
41.6471
  0
VERTEX
  8
0
 10
160.1124
 20
41.6649
  0
VERTEX
  8
0
 10
160.0935
 20
41.6787
  0
VERTEX
  8
0
 10
160.0704
 20
41.6887
  0
VERTEX
  8
0
 10
160.0432
 20
41.6947
  0
VERTEX
  8
0
 10
160.0118
 20
41.6968
  0
VERTEX
  8
0
 10
159.9774
 20
41.6954
  0
VERTEX
  8
0
 10
159.9482
 20
41.6907
  0
VERTEX
  8
0
 10
159.9242
 20
41.6829
  0
VERTEX
  8
0
 10
159.9055
 20
41.672
  0
VERTEX
  8
0
 10
159.8921
 20
41.6578
  0
VERTEX
  8
0
 10
159.8839
 20
41.6405
  0
VERTEX
  8
0
 10
159.8809
 20
41.6199
  0
VERTEX
  8
0
 10
159.8838
 20
41.6017
  0
VERTEX
  8
0
 10
159.8934
 20
41.5842
  0
VERTEX
  8
0
 10
159.9097
 20
41.569
  0
VERTEX
  8
0
 10
159.9325
 20
41.5576
  0
VERTEX
  8
0
 10
159.948
 20
41.5525
  0
VERTEX
  8
0
 10
159.978
 20
41.5439
  0
VERTEX
  8
0
 10
160.0225
 20
41.5318
  0
VERTEX
  8
0
 10
160.0878
 20
41.5133
  0
VERTEX
  8
0
 10
160.138
 20
41.4976
  0
VERTEX
  8
0
 10
160.1732
 20
41.4846
  0
VERTEX
  8
0
 10
160.206
 20
41.4668
  0
VERTEX
  8
0
 10
160.2316
 20
41.444
  0
VERTEX
  8
0
 10
160.25
 20
41.4162
  0
VERTEX
  8
0
 10
160.2611
 20
41.3833
  0
VERTEX
  8
0
 10
160.2649
 20
41.3454
  0
VERTEX
  8
0
 10
160.2578
 20
41.2966
  0
VERTEX
  8
0
 10
160.2351
 20
41.25
  0
VERTEX
  8
0
 10
160.2122
 20
41.2217
  0
VERTEX
  8
0
 10
160.1844
 20
41.1985
  0
VERTEX
  8
0
 10
160.1517
 20
41.1804
  0
VERTEX
  8
0
 10
160.1141
 20
41.1674
  0
VERTEX
  8
0
 10
160.0716
 20
41.1595
  0
VERTEX
  8
0
 10
160.0242
 20
41.1568
  0
VERTEX
  8
0
 10
159.9913
 20
41.1578
  0
VERTEX
  8
0
 10
159.9607
 20
41.161
  0
VERTEX
  8
0
 10
159.9322
 20
41.1666
  0
VERTEX
  8
0
 10
159.9059
 20
41.1744
  0
VERTEX
  8
0
 10
159.8819
 20
41.1845
  0
VERTEX
  8
0
 10
159.86
 20
41.1969
  0
VERTEX
  8
0
 10
159.8404
 20
41.2116
  0
VERTEX
  8
0
 10
159.8229
 20
41.2286
  0
VERTEX
  8
0
 10
159.8077
 20
41.2478
  0
VERTEX
  8
0
 10
159.7947
 20
41.2694
  0
VERTEX
  8
0
 10
159.7839
 20
41.2932
  0
VERTEX
  8
0
 10
159.7753
 20
41.3193
  0
VERTEX
  8
0
 10
159.7689
 20
41.3477
  0
VERTEX
  8
0
 10
159.7689
 20
41.3477
  0
SEQEND
  0
POLYLINE
  8
0
 66
     1
 10
0
 20
0
  0
VERTEX
  8
0
 10
160.4169
 20
41.1648
  0
VERTEX
  8
0
 10
160.4169
 20
41.2848
  0
VERTEX
  8
0
 10
160.5329
 20
41.2848
  0
VERTEX
  8
0
 10
160.5329
 20
41.1689
  0
VERTEX
  8
0
 10
160.5303
 20
41.1304
  0
VERTEX
  8
0
 10
160.5223
 20
41.0963
  0
VERTEX
  8
0
 10
160.5091
 20
41.0667
  0
VERTEX
  8
0
 10
160.4905
 20
41.0416
  0
VERTEX
  8
0
 10
160.4666
 20
41.021
  0
VERTEX
  8
0
 10
160.4375
 20
41.0048
  0
VERTEX
  8
0
 10
160.4089
 20
41.0473
  0
VERTEX
  8
0
 10
160.436
 20
41.0642
  0
VERTEX
  8
0
 10
160.4558
 20
41.0894
  0
VERTEX
  8
0
 10
160.4682
 20
41.1229
  0
VERTEX
  8
0
 10
160.4732
 20
41.1648
  0
VERTEX
  8
0
 10
160.4169
 20
41.1648
  0
SEQEND
  0
POLYLINE
  8
0
 66
     1
 10
0
 20
0
  0
VERTEX
  8
0
 10
161.2169
 20
41.5765
  0
VERTEX
  8
0
 10
161.2181
 20
41.6301
  0
VERTEX
  8
0
 10
161.2217
 20
41.6802
  0
VERTEX
  8
0
 10
161.2277
 20
41.7267
  0
VERTEX
  8
0
 10
161.2361
 20
41.7696
  0
VERTEX
  8
0
 10
161.2469
 20
41.8089
  0
VERTEX
  8
0
 10
161.26
 20
41.8447
  0
VERTEX
  8
0
 10
161.2756
 20
41.8769
  0
VERTEX
  8
0
 10
161.2936
 20
41.9055
  0
VERTEX
  8
0
 10
161.3139
 20
41.9306
  0
VERTEX
  8
0
 10
161.3367
 20
41.9521
  0
VERTEX
  8
0
 10
161.4036
 20
41.9883
  0
VERTEX
  8
0
 10
161.4869
 20
42.0008
  0
VERTEX
  8
0
 10
161.5486
 20
41.9943
  0
VERTEX
  8
0
 10
161.6039
 20
41.9736
  0
VERTEX
  8
0
 10
161.6396
 20
41.9494
  0
VERTEX
  8
0
 10
161.6709
 20
41.9172
  0
VERTEX
  8
0
 10
161.6978
 20
41.877
  0
VERTEX
  8
0
 10
161.7203
 20
41.8287
  0
VERTEX
  8
0
 10
161.7383
 20
41.7725
  0
VERTEX
  8
0
 10
161.7523
 20
41.6878
  0
VERTEX
  8
0
 10
161.7569
 20
41.5765
  0
VERTEX
  8
0
 10
161.7557
 20
41.523
  0
VERTEX
  8
0
 10
161.7521
 20
41.473
  0
VERTEX
  8
0
 10
161.7461
 20
41.4266
  0
VERTEX
  8
0
 10
161.7378
 20
41.3838
  0
VERTEX
  8
0
 10
161.727
 20
41.3445
  0
VERTEX
  8
0
 10
161.7138
 20
41.3088
  0
VERTEX
  8
0
 10
161.6982
 20
41.2766
  0
VERTEX
  8
0
 10
161.6803
 20
41.248
  0
VERTEX
  8
0
 10
161.6599
 20
41.223
  0
VERTEX
  8
0
 10
161.6372
 20
41.2015
  0
VERTEX
  8
0
 10
161.5702
 20
41.1652
  0
VERTEX
  8
0
 10
161.4869
 20
41.1528
  0
VERTEX
  8
0
 10
161.4658
 20
41.1534
  0
VERTEX
  8
0
 10
161.4455
 20
41.1553
  0
VERTEX
  8
0
 10
161.4261
 20
41.1587
  0
VERTEX
  8
0
 10
161.4076
 20
41.1633
  0
VERTEX
  8
0
 10
161.3899
 20
41.1694
  0
VERTEX
  8
0
 10
161.3731
 20
41.1768
  0
VERTEX
  8
0
 10
161.3571
 20
41.1856
  0
VERTEX
  8
0
 10
161.342
 20
41.1957
  0
VERTEX
  8
0
 10
161.3278
 20
41.2072
  0
VERTEX
  8
0
 10
161.3144
 20
41.22
  0
VERTEX
  8
0
 10
161.3019
 20
41.2343
  0
VERTEX
  8
0
 10
161.2902
 20
41.2498
  0
VERTEX
  8
0
 10
161.2794
 20
41.2668
  0
VERTEX
  8
0
 10
161.2695
 20
41.2851
  0
VERTEX
  8
0
 10
161.2604
 20
41.3048
  0
VERTEX
  8
0
 10
161.2522
 20
41.3258
  0
VERTEX
  8
0
 10
161.2448
 20
41.3482
  0
VERTEX
  8
0
 10
161.2383
 20
41.372
  0
VERTEX
  8
0
 10
161.2327
 20
41.3971
  0
VERTEX
  8
0
 10
161.2279
 20
41.4236
  0
VERTEX
  8
0
 10
161.224
 20
41.4514
  0
VERTEX
  8
0
 10
161.2209
 20
41.4807
  0
VERTEX
  8
0
 10
161.2187
 20
41.5112
  0
VERTEX
  8
0
 10
161.2174
 20
41.5432
  0
VERTEX
  8
0
 10
161.2169
 20
41.5765
  0
VERTEX
  8
0
 10
161.2169
 20
41.5765
  0
SEQEND
  0
POLYLINE
  8
0
 66
     1
 10
0
 20
0
  0
VERTEX
  8
0
 10
161.3209
 20
41.5768
  0
VERTEX
  8
0
 10
161.3234
 20
41.4916
  0
VERTEX
  8
0
 10
161.3308
 20
41.4209
  0
VERTEX
  8
0
 10
161.343
 20
41.3649
  0
VERTEX
  8
0
 10
161.3553
 20
41.331
  0
VERTEX
  8
0
 10
161.3703
 20
41.3024
  0
VERTEX
  8
0
 10
161.3881
 20
41.2789
  0
VERTEX
  8
0
 10
161.4086
 20
41.2606
  0
VERTEX
  8
0
 10
161.4319
 20
41.2475
  0
VERTEX
  8
0
 10
161.458
 20
41.2395
  0
VERTEX
  8
0
 10
161.4869
 20
41.2368
  0
VERTEX
  8
0
 10
161.5039
 20
41.2376
  0
VERTEX
  8
0
 10
161.52
 20
41.2403
  0
VERTEX
  8
0
 10
161.5352
 20
41.245
  0
VERTEX
  8
0
 10
161.5495
 20
41.2515
  0
VERTEX
  8
0
 10
161.5628
 20
41.2599
  0
VERTEX
  8
0
 10
161.5752
 20
41.2702
  0
VERTEX
  8
0
 10
161.5867
 20
41.2824
  0
VERTEX
  8
0
 10
161.5973
 20
41.2965
  0
VERTEX
  8
0
 10
161.6069
 20
41.3125
  0
VERTEX
  8
0
 10
161.6157
 20
41.3304
  0
VERTEX
  8
0
 10
161.6235
 20
41.3502
  0
VERTEX
  8
0
 10
161.6304
 20
41.3719
  0
VERTEX
  8
0
 10
161.6364
 20
41.3955
  0
VERTEX
  8
0
 10
161.6414
 20
41.421
  0
VERTEX
  8
0
 10
161.6456
 20
41.4483
  0
VERTEX
  8
0
 10
161.6488
 20
41.4776
  0
VERTEX
  8
0
 10
161.6511
 20
41.5088
  0
VERTEX
  8
0
 10
161.6525
 20
41.5418
  0
VERTEX
  8
0
 10
161.6529
 20
41.5768
  0
VERTEX
  8
0
 10
161.6505
 20
41.662
  0
VERTEX
  8
0
 10
161.6431
 20
41.7327
  0
VERTEX
  8
0
 10
161.6308
 20
41.7887
  0
VERTEX
  8
0
 10
161.6184
 20
41.8226
  0
VERTEX
  8
0
 10
161.6032
 20
41.8512
  0
VERTEX
  8
0
 10
161.5853
 20
41.8747
  0
VERTEX
  8
0
 10
161.5646
 20
41.893
  0
VERTEX
  8
0
 10
161.5411
 20
41.9061
  0
VERTEX
  8
0
 10
161.5148
 20
41.914
  0
VERTEX
  8
0
 10
161.4858
 20
41.9168
  0
VERTEX
  8
0
 10
161.4421
 20
41.9104
  0
VERTEX
  8
0
 10
161.4047
 20
41.8906
  0
VERTEX
  8
0
 10
161.3736
 20
41.8573
  0
VERTEX
  8
0
 10
161.3596
 20
41.8332
  0
VERTEX
  8
0
 10
161.3478
 20
41.8039
  0
VERTEX
  8
0
 10
161.3381
 20
41.7691
  0
VERTEX
  8
0
 10
161.3306
 20
41.7291
  0
VERTEX
  8
0
 10
161.3252
 20
41.6836
  0
VERTEX
  8
0
 10
161.322
 20
41.6329
  0
VERTEX
  8
0
 10
161.3209
 20
41.5768
  0
VERTEX
  8
0
 10
161.3209
 20
41.5768
  0
SEQEND
  0
POLYLINE
  8
0
 66
     1
 10
0
 20
0
  0
VERTEX
  8
0
 10
161.9129
 20
41.1648
  0
VERTEX
  8
0
 10
161.9129
 20
41.2848
  0
VERTEX
  8
0
 10
162.0289
 20
41.2848
  0
VERTEX
  8
0
 10
162.0289
 20
41.1648
  0
VERTEX
  8
0
 10
161.9129
 20
41.1648
  0
SEQEND
  0
POLYLINE
  8
0
 66
     1
 10
0
 20
0
  0
VERTEX
  8
0
 10
162.1849
 20
41.8888
  0
VERTEX
  8
0
 10
162.1849
 20
41.9848
  0
VERTEX
  8
0
 10
162.7204
 20
41.9848
  0
VERTEX
  8
0
 10
162.7204
 20
41.9055
  0
VERTEX
  8
0
 10
162.6416
 20
41.8072
  0
VERTEX
  8
0
 10
162.5635
 20
41.681
  0
VERTEX
  8
0
 10
162.496
 20
41.5419
  0
VERTEX
  8
0
 10
162.4439
 20
41.3932
  0
VERTEX
  8
0
 10
162.4189
 20
41.2837
  0
VERTEX
  8
0
 10
162.4049
 20
41.1648
  0
VERTEX
  8
0
 10
162.3005
 20
41.1648
  0
VERTEX
  8
0
 10
162.3128
 20
41.2884
  0
VERTEX
  8
0
 10
162.3451
 20
41.425
  0
VERTEX
  8
0
 10
162.389
 20
41.5524
  0
VERTEX
  8
0
 10
162.4439
 20
41.6705
  0
VERTEX
  8
0
 10
162.5148
 20
41.7902
  0
VERTEX
  8
0
 10
162.59
 20
41.8888
  0
VERTEX
  8
0
 10
162.1849
 20
41.8888
  0
SEQEND
  0
POLYLINE
  8
0
 66
     1
 10
0
 20
0
  0
VERTEX
  8
0
 10
162.8169
 20
41.3854
  0
VERTEX
  8
0
 10
162.9234
 20
41.3945
  0
VERTEX
  8
0
 10
162.9301
 20
41.3614
  0
VERTEX
  8
0
 10
162.9394
 20
41.3322
  0
VERTEX
  8
0
 10
162.9516
 20
41.3069
  0
VERTEX
  8
0
 10
162.9665
 20
41.2855
  0
VERTEX
  8
0
 10
162.9841
 20
41.2679
  0
VERTEX
  8
0
 10
163.0045
 20
41.2543
  0
VERTEX
  8
0
 10
163.0277
 20
41.2446
  0
VERTEX
  8
0
 10
163.0536
 20
41.2387
  0
VERTEX
  8
0
 10
163.0823
 20
41.2368
  0
VERTEX
  8
0
 10
163.1328
 20
41.2437
  0
VERTEX
  8
0
 10
163.1759
 20
41.2646
  0
VERTEX
  8
0
 10
163.2119
 20
41.2993
  0
VERTEX
  8
0
 10
163.2457
 20
41.3629
  0
VERTEX
  8
0
 10
163.2569
 20
41.4402
  0
VERTEX
  8
0
 10
163.2452
 20
41.5162
  0
VERTEX
  8
0
 10
163.2102
 20
41.5762
  0
VERTEX
  8
0
 10
163.175
 20
41.6052
  0
VERTEX
  8
0
 10
163.1318
 20
41.6227
  0
VERTEX
  8
0
 10
163.0806
 20
41.6288
  0
VERTEX
  8
0
 10
163.0349
 20
41.6239
  0
VERTEX
  8
0
 10
162.9946
 20
41.6087
  0
VERTEX
  8
0
 10
162.9597
 20
41.5832
  0
VERTEX
  8
0
 10
162.9302
 20
41.5474
  0
VERTEX
  8
0
 10
162.835
 20
41.5598
  0
VERTEX
  8
0
 10
162.9151
 20
41.9848
  0
VERTEX
  8
0
 10
163.3264
 20
41.9848
  0
VERTEX
  8
0
 10
163.3264
 20
41.8888
  0
VERTEX
  8
0
 10
162.9988
 20
41.8888
  0
VERTEX
  8
0
 10
162.9525
 20
41.6652
  0
VERTEX
  8
0
 10
163.0286
 20
41.7036
  0
VERTEX
  8
0
 10
163.1084
 20
41.7168
  0
VERTEX
  8
0
 10
163.1622
 20
41.7121
  0
VERTEX
  8
0
 10
163.2111
 20
41.6976
  0
VERTEX
  8
0
 10
163.255
 20
41.6731
  0
VERTEX
  8
0
 10
163.294
 20
41.6387
  0
VERTEX
  8
0
 10
163.3251
 20
41.5982
  0
VERTEX
  8
0
 10
163.3472
 20
41.5529
  0
VERTEX
  8
0
 10
163.3605
 20
41.5029
  0
VERTEX
  8
0
 10
163.3649
 20
41.4481
  0
VERTEX
  8
0
 10
163.3577
 20
41.3767
  0
VERTEX
  8
0
 10
163.3359
 20
41.3118
  0
VERTEX
  8
0
 10
163.2995
 20
41.2535
  0
VERTEX
  8
0
 10
163.2654
 20
41.2174
  0
VERTEX
  8
0
 10
163.2267
 20
41.1893
  0
VERTEX
  8
0
 10
163.1832
 20
41.1692
  0
VERTEX
  8
0
 10
163.1352
 20
41.157
  0
VERTEX
  8
0
 10
163.0825
 20
41.1528
  0
VERTEX
  8
0
 10
163.0135
 20
41.1596
  0
VERTEX
  8
0
 10
162.9529
 20
41.1798
  0
VERTEX
  8
0
 10
162.9009
 20
41.2137
  0
VERTEX
  8
0
 10
162.859
 20
41.2605
  0
VERTEX
  8
0
 10
162.831
 20
41.3178
  0
VERTEX
  8
0
 10
162.8169
 20
41.3854
  0
VERTEX
  8
0
 10
162.8169
 20
41.3854
  0
SEQEND
  0
POLYLINE
  8
0
 66
     1
 10
0
 20
0
  0
VERTEX
  8
0
 10
163.4932
 20
41.7048
  0
VERTEX
  8
0
 10
163.4649
 20
41.8618
  0
VERTEX
  8
0
 10
163.4649
 20
41.9968
  0
VERTEX
  8
0
 10
163.5809
 20
41.9968
  0
VERTEX
  8
0
 10
163.5809
 20
41.8618
  0
VERTEX
  8
0
 10
163.5555
 20
41.7048
  0
VERTEX
  8
0
 10
163.4932
 20
41.7048
  0
SEQEND
  0
POLYLINE
  8
0
 66
     1
 10
0
 20
0
  0
VERTEX
  8
0
 10
163.6807
 20
41.7048
  0
VERTEX
  8
0
 10
163.6529
 20
41.8618
  0
VERTEX
  8
0
 10
163.6529
 20
41.9968
  0
VERTEX
  8
0
 10
163.7689
 20
41.9968
  0
VERTEX
  8
0
 10
163.7689
 20
41.8618
  0
VERTEX
  8
0
 10
163.7417
 20
41.7048
  0
VERTEX
  8
0
 10
163.6807
 20
41.7048
  0
SEQEND
  0
POLYLINE
  8
0
 66
     1
 10
0
 20
0
  0
VERTEX
  8
0
 10
164.4409
 20
41.1648
  0
VERTEX
  8
0
 10
164.4409
 20
41.9968
  0
VERTEX
  8
0
 10
164.751
 20
41.9968
  0
VERTEX
  8
0
 10
164.8354
 20
41.9904
  0
VERTEX
  8
0
 10
164.9026
 20
41.9712
  0
VERTEX
  8
0
 10
164.952
 20
41.9405
  0
VERTEX
  8
0
 10
164.9908
 20
41.8958
  0
VERTEX
  8
0
 10
165.0161
 20
41.842
  0
VERTEX
  8
0
 10
165.0249
 20
41.784
  0
VERTEX
  8
0
 10
165.0221
 20
41.7466
  0
VERTEX
  8
0
 10
165.0127
 20
41.7124
  0
VERTEX
  8
0
 10
164.9967
 20
41.6814
  0
VERTEX
  8
0
 10
164.9743
 20
41.6536
  0
VERTEX
  8
0
 10
164.9453
 20
41.6289
  0
VERTEX
  8
0
 10
164.9098
 20
41.6075
  0
VERTEX
  8
0
 10
164.9743
 20
41.5784
  0
VERTEX
  8
0
 10
165.0228
 20
41.5342
  0
VERTEX
  8
0
 10
165.0544
 20
41.4755
  0
VERTEX
  8
0
 10
165.0649
 20
41.406
  0
VERTEX
  8
0
 10
165.0594
 20
41.3537
  0
VERTEX
  8
0
 10
165.0429
 20
41.3033
  0
VERTEX
  8
0
 10
165.0156
 20
41.256
  0
VERTEX
  8
0
 10
164.9798
 20
41.2199
  0
VERTEX
  8
0
 10
164.9388
 20
41.1958
  0
VERTEX
  8
0
 10
164.8878
 20
41.1786
  0
VERTEX
  8
0
 10
164.8269
 20
41.1682
  0
VERTEX
  8
0
 10
164.756
 20
41.1648
  0
VERTEX
  8
0
 10
164.4409
 20
41.1648
  0
SEQEND
  0
POLYLINE
  8
0
 66
     1
 10
0
 20
0
  0
VERTEX
  8
0
 10
164.5489
 20
41.6488
  0
VERTEX
  8
0
 10
164.7281
 20
41.6488
  0
VERTEX
  8
0
 10
164.7904
 20
41.6512
  0
VERTEX
  8
0
 10
164.8327
 20
41.6585
  0
VERTEX
  8
0
 10
164.8626
 20
41.6711
  0
VERTEX
  8
0
 10
164.8861
 20
41.6888
  0
VERTEX
  8
0
 10
164.9029
 20
41.7116
  0
VERTEX
  8
0
 10
164.9132
 20
41.7396
  0
VERTEX
  8
0
 10
164.9169
 20
41.7728
  0
VERTEX
  8
0
 10
164.9142
 20
41.8066
  0
VERTEX
  8
0
 10
164.9053
 20
41.835
  0
VERTEX
  8
0
 10
164.89
 20
41.8583
  0
VERTEX
  8
0
 10
164.8684
 20
41.8762
  0
VERTEX
  8
0
 10
164.8406
 20
41.8889
  0
VERTEX
  8
0
 10
164.7907
 20
41.8978
  0
VERTEX
  8
0
 10
164.7145
 20
41.9008
  0
VERTEX
  8
0
 10
164.5489
 20
41.9008
  0
VERTEX
  8
0
 10
164.5489
 20
41.6488
  0
SEQEND
  0
POLYLINE
  8
0
 66
     1
 10
0
 20
0
  0
VERTEX
  8
0
 10
164.5489
 20
41.2608
  0
VERTEX
  8
0
 10
164.756
 20
41.2608
  0
VERTEX
  8
0
 10
164.8014
 20
41.2618
  0
VERTEX
  8
0
 10
164.8309
 20
41.2649
  0
VERTEX
  8
0
 10
164.8765
 20
41.2791
  0
VERTEX
  8
0
 10
164.9116
 20
41.3025
  0
VERTEX
  8
0
 10
164.9365
 20
41.335
  0
VERTEX
  8
0
 10
164.9485
 20
41.368
  0
VERTEX
  8
0
 10
164.9529
 20
41.4068
  0
VERTEX
  8
0
 10
164.9497
 20
41.4441
  0
VERTEX
  8
0
 10
164.939
 20
41.476
  0
VERTEX
  8
0
 10
164.921
 20
41.5023
  0
VERTEX
  8
0
 10
164.8955
 20
41.523
  0
VERTEX
  8
0
 10
164.8627
 20
41.5383
  0
VERTEX
  8
0
 10
164.8111
 20
41.5492
  0
VERTEX
  8
0
 10
164.7413
 20
41.5528
  0
VERTEX
  8
0
 10
164.5489
 20
41.5528
  0
VERTEX
  8
0
 10
164.5489
 20
41.2608
  0
SEQEND
  0
POLYLINE
  8
0
 66
     1
 10
0
 20
0
  0
VERTEX
  8
0
 10
165.1649
 20
41.4688
  0
VERTEX
  8
0
 10
165.1675
 20
41.5217
  0
VERTEX
  8
0
 10
165.1752
 20
41.5698
  0
VERTEX
  8
0
 10
165.188
 20
41.6131
  0
VERTEX
  8
0
 10
165.206
 20
41.6517
  0
VERTEX
  8
0
 10
165.229
 20
41.6855
  0
VERTEX
  8
0
 10
165.2572
 20
41.7145
  0
VERTEX
  8
0
 10
165.3122
 20
41.7513
  0
VERTEX
  8
0
 10
165.3748
 20
41.7734
  0
VERTEX
  8
0
 10
165.4452
 20
41.7808
  0
VERTEX
  8
0
 10
165.4957
 20
41.7773
  0
VERTEX
  8
0
 10
165.5417
 20
41.7669
  0
VERTEX
  8
0
 10
165.5832
 20
41.7494
  0
VERTEX
  8
0
 10
165.6203
 20
41.725
  0
VERTEX
  8
0
 10
165.6529
 20
41.6937
  0
VERTEX
  8
0
 10
165.6844
 20
41.6489
  0
VERTEX
  8
0
 10
165.7069
 20
41.598
  0
VERTEX
  8
0
 10
165.7204
 20
41.5407
  0
VERTEX
  8
0
 10
165.7249
 20
41.4772
  0
VERTEX
  8
0
 10
165.7232
 20
41.4324
  0
VERTEX
  8
0
 10
165.7182
 20
41.3909
  0
VERTEX
  8
0
 10
165.7099
 20
41.3527
  0
VERTEX
  8
0
 10
165.6981
 20
41.3179
  0
VERTEX
  8
0
 10
165.6831
 20
41.2863
  0
VERTEX
  8
0
 10
165.6646
 20
41.2581
  0
VERTEX
  8
0
 10
165.6429
 20
41.2332
  0
VERTEX
  8
0
 10
165.6178
 20
41.2116
  0
VERTEX
  8
0
 10
165.5893
 20
41.1934
  0
VERTEX
  8
0
 10
165.5203
 20
41.1662
  0
VERTEX
  8
0
 10
165.4452
 20
41.1568
  0
VERTEX
  8
0
 10
165.393
 20
41.1602
  0
VERTEX
  8
0
 10
165.3458
 20
41.1708
  0
VERTEX
  8
0
 10
165.3036
 20
41.1887
  0
VERTEX
  8
0
 10
165.2664
 20
41.2138
  0
VERTEX
  8
0
 10
165.2342
 20
41.2462
  0
VERTEX
  8
0
 10
165.2039
 20
41.2913
  0
VERTEX
  8
0
 10
165.1822
 20
41.3434
  0
VERTEX
  8
0
 10
165.1693
 20
41.4026
  0
VERTEX
  8
0
 10
165.1649
 20
41.4688
  0
VERTEX
  8
0
 10
165.1649
 20
41.4688
  0
SEQEND
  0
POLYLINE
  8
0
 66
     1
 10
0
 20
0
  0
VERTEX
  8
0
 10
165.2689
 20
41.469
  0
VERTEX
  8
0
 10
165.2786
 20
41.3817
  0
VERTEX
  8
0
 10
165.3078
 20
41.3126
  0
VERTEX
  8
0
 10
165.3337
 20
41.2814
  0
VERTEX
  8
0
 10
165.3653
 20
41.259
  0
VERTEX
  8
0
 10
165.4024
 20
41.2455
  0
VERTEX
  8
0
 10
165.4452
 20
41.2408
  0
VERTEX
  8
0
 10
165.488
 20
41.2452
  0
VERTEX
  8
0
 10
165.5252
 20
41.2589
  0
VERTEX
  8
0
 10
165.5567
 20
41.2819
  0
VERTEX
  8
0
 10
165.5826
 20
41.3143
  0
VERTEX
  8
0
 10
165.6113
 20
41.3847
  0
VERTEX
  8
0
 10
165.6209
 20
41.4724
  0
VERTEX
  8
0
 10
165.6109
 20
41.5574
  0
VERTEX
  8
0
 10
165.5809
 20
41.6261
  0
VERTEX
  8
0
 10
165.5547
 20
41.657
  0
VERTEX
  8
0
 10
165.5233
 20
41.6791
  0
VERTEX
  8
0
 10
165.4869
 20
41.6924
  0
VERTEX
  8
0
 10
165.4452
 20
41.6968
  0
VERTEX
  8
0
 10
165.4024
 20
41.6923
  0
VERTEX
  8
0
 10
165.3653
 20
41.6788
  0
VERTEX
  8
0
 10
165.3337
 20
41.6564
  0
VERTEX
  8
0
 10
165.3078
 20
41.625
  0
VERTEX
  8
0
 10
165.2786
 20
41.5557
  0
VERTEX
  8
0
 10
165.2689
 20
41.469
  0
VERTEX
  8
0
 10
165.2689
 20
41.469
  0
SEQEND
  0
POLYLINE
  8
0
 66
     1
 10
0
 20
0
  0
VERTEX
  8
0
 10
165.8449
 20
41.1648
  0
VERTEX
  8
0
 10
165.8449
 20
41.768
  0
VERTEX
  8
0
 10
165.9369
 20
41.768
  0
VERTEX
  8
0
 10
165.9369
 20
41.6772
  0
VERTEX
  8
0
 10
165.9634
 20
41.72
  0
VERTEX
  8
0
 10
165.9875
 20
41.7489
  0
VERTEX
  8
0
 10
166.0238
 20
41.7728
  0
VERTEX
  8
0
 10
166.0664
 20
41.7808
  0
VERTEX
  8
0
 10
166.1177
 20
41.7727
  0
VERTEX
  8
0
 10
166.1704
 20
41.7483
  0
VERTEX
  8
0
 10
166.1352
 20
41.6546
  0
VERTEX
  8
0
 10
166.0977
 20
41.6712
  0
VERTEX
  8
0
 10
166.0602
 20
41.6768
  0
VERTEX
  8
0
 10
166.0273
 20
41.671
  0
VERTEX
  8
0
 10
165.9966
 20
41.6535
  0
VERTEX
  8
0
 10
165.976
 20
41.6306
  0
VERTEX
  8
0
 10
165.962
 20
41.6005
  0
VERTEX
  8
0
 10
165.9492
 20
41.544
  0
VERTEX
  8
0
 10
165.9449
 20
41.4811
  0
VERTEX
  8
0
 10
165.9449
 20
41.1648
  0
VERTEX
  8
0
 10
165.8449
 20
41.1648
  0
SEQEND
  0
POLYLINE
  8
0
 66
     1
 10
0
 20
0
  0
VERTEX
  8
0
 10
166.6209
 20
41.1648
  0
VERTEX
  8
0
 10
166.6209
 20
41.2444
  0
VERTEX
  8
0
 10
166.5962
 20
41.2131
  0
VERTEX
  8
0
 10
166.5672
 20
41.1886
  0
VERTEX
  8
0
 10
166.5338
 20
41.1711
  0
VERTEX
  8
0
 10
166.496
 20
41.1605
  0
VERTEX
  8
0
 10
166.4539
 20
41.1568
  0
VERTEX
  8
0
 10
166.3836
 20
41.1668
  0
VERTEX
  8
0
 10
166.32
 20
41.1979
  0
VERTEX
  8
0
 10
166.2679
 20
41.2449
  0
VERTEX
  8
0
 10
166.2293
 20
41.3063
  0
VERTEX
  8
0
 10
166.2053
 20
41.3811
  0
VERTEX
  8
0
 10
166.1969
 20
41.4682
  0
VERTEX
  8
0
 10
166.1986
 20
41.5151
  0
VERTEX
  8
0
 10
166.204
 20
41.5583
  0
VERTEX
  8
0
 10
166.2133
 20
41.5979
  0
VERTEX
  8
0
 10
166.2264
 20
41.6339
  0
VERTEX
  8
0
 10
166.2433
 20
41.6663
  0
VERTEX
  8
0
 10
166.264
 20
41.6952
  0
VERTEX
  8
0
 10
166.2886
 20
41.7204
  0
VERTEX
  8
0
 10
166.3169
 20
41.742
  0
VERTEX
  8
0
 10
166.3802
 20
41.7711
  0
VERTEX
  8
0
 10
166.451
 20
41.7808
  0
VERTEX
  8
0
 10
166.5011
 20
41.7757
  0
VERTEX
  8
0
 10
166.5455
 20
41.7604
  0
VERTEX
  8
0
 10
166.5841
 20
41.7349
  0
VERTEX
  8
0
 10
166.6169
 20
41.6992
  0
VERTEX
  8
0
 10
166.6169
 20
41.9968
  0
VERTEX
  8
0
 10
166.7169
 20
41.9968
  0
VERTEX
  8
0
 10
166.7169
 20
41.1648
  0
VERTEX
  8
0
 10
166.6209
 20
41.1648
  0
SEQEND
  0
POLYLINE
  8
0
 66
     1
 10
0
 20
0
  0
VERTEX
  8
0
 10
166.3009
 20
41.4685
  0
VERTEX
  8
0
 10
166.3098
 20
41.3854
  0
VERTEX
  8
0
 10
166.3365
 20
41.3165
  0
VERTEX
  8
0
 10
166.3608
 20
41.2836
  0
VERTEX
  8
0
 10
166.3902
 20
41.26
  0
VERTEX
  8
0
 10
166.4246
 20
41.2457
  0
VERTEX
  8
0
 10
166.4642
 20
41.2408
  0
VERTEX
  8
0
 10
166.5032
 20
41.2451
  0
VERTEX
  8
0
 10
166.5371
 20
41.2585
  0
VERTEX
  8
0
 10
166.5659
 20
41.281
  0
VERTEX
  8
0
 10
166.5896
 20
41.3126
  0
VERTEX
  8
0
 10
166.6154
 20
41.3792
  0
VERTEX
  8
0
 10
166.624
 20
41.4601
  0
VERTEX
  8
0
 10
166.6157
 20
41.5475
  0
VERTEX
  8
0
 10
166.5907
 20
41.6177
  0
VERTEX
  8
0
 10
166.5664
 20
41.6523
  0
VERTEX
  8
0
 10
166.5365
 20
41.677
  0
VERTEX
  8
0
 10
166.5009
 20
41.6919
  0
VERTEX
  8
0
 10
166.4597
 20
41.6968
  0
VERTEX
  8
0
 10
166.4196
 20
41.6921
  0
VERTEX
  8
0
 10
166.3851
 20
41.6779
  0
VERTEX
  8
0
 10
166.3563
 20
41.6542
  0
VERTEX
  8
0
 10
166.3331
 20
41.621
  0
VERTEX
  8
0
 10
166.309
 20
41.5532
  0
VERTEX
  8
0
 10
166.3009
 20
41.4685
  0
VERTEX
  8
0
 10
166.3009
 20
41.4685
  0
SEQEND
  0
POLYLINE
  8
0
 66
     1
 10
0
 20
0
  0
VERTEX
  8
0
 10
167.2807
 20
41.3617
  0
VERTEX
  8
0
 10
167.3859
 20
41.3489
  0
VERTEX
  8
0
 10
167.3762
 20
41.3182
  0
VERTEX
  8
0
 10
167.3642
 20
41.2902
  0
VERTEX
  8
0
 10
167.35
 20
41.2648
  0
VERTEX
  8
0
 10
167.3336
 20
41.2422
  0
VERTEX
  8
0
 10
167.3149
 20
41.2221
  0
VERTEX
  8
0
 10
167.2941
 20
41.2048
  0
VERTEX
  8
0
 10
167.271
 20
41.1901
  0
VERTEX
  8
0
 10
167.2457
 20
41.1781
  0
VERTEX
  8
0
 10
167.2182
 20
41.1688
  0
VERTEX
  8
0
 10
167.1885
 20
41.1621
  0
VERTEX
  8
0
 10
167.1566
 20
41.1581
  0
VERTEX
  8
0
 10
167.1224
 20
41.1568
  0
VERTEX
  8
0
 10
167.0599
 20
41.1618
  0
VERTEX
  8
0
 10
167.0042
 20
41.1769
  0
VERTEX
  8
0
 10
166.9555
 20
41.202
  0
VERTEX
  8
0
 10
166.9137
 20
41.2372
  0
VERTEX
  8
0
 10
166.886
 20
41.272
  0
VERTEX
  8
0
 10
166.8646
 20
41.312
  0
VERTEX
  8
0
 10
166.8492
 20
41.3573
  0
VERTEX
  8
0
 10
166.84
 20
41.4079
  0
VERTEX
  8
0
 10
166.8369
 20
41.4637
  0
VERTEX
  8
0
 10
166.8412
 20
41.5298
  0
VERTEX
  8
0
 10
166.8541
 20
41.5892
  0
VERTEX
  8
0
 10
166.8756
 20
41.642
  0
VERTEX
  8
0
 10
166.9057
 20
41.688
  0
VERTEX
  8
0
 10
166.9384
 20
41.7214
  0
VERTEX
  8
0
 10
166.9758
 20
41.7474
  0
VERTEX
  8
0
 10
167.018
 20
41.766
  0
VERTEX
  8
0
 10
167.065
 20
41.7771
  0
VERTEX
  8
0
 10
167.1168
 20
41.7808
  0
VERTEX
  8
0
 10
167.1673
 20
41.7771
  0
VERTEX
  8
0
 10
167.213
 20
41.766
  0
VERTEX
  8
0
 10
167.2541
 20
41.7476
  0
VERTEX
  8
0
 10
167.2905
 20
41.7218
  0
VERTEX
  8
0
 10
167.3222
 20
41.6886
  0
VERTEX
  8
0
 10
167.3515
 20
41.643
  0
VERTEX
  8
0
 10
167.3725
 20
41.591
  0
VERTEX
  8
0
 10
167.3851
 20
41.5326
  0
VERTEX
  8
0
 10
167.3893
 20
41.4679
  0
VERTEX
  8
0
 10
167.3892
 20
41.4538
  0
VERTEX
  8
0
 10
167.3887
 20
41.4408
  0
VERTEX
  8
0
 10
166.9409
 20
41.4408
  0
VERTEX
  8
0
 10
166.9552
 20
41.363
  0
VERTEX
  8
0
 10
166.989
 20
41.3012
  0
VERTEX
  8
0
 10
167.0257
 20
41.2676
  0
VERTEX
  8
0
 10
167.0702
 20
41.2475
  0
VERTEX
  8
0
 10
167.1224
 20
41.2408
  0
VERTEX
  8
0
 10
167.1584
 20
41.2442
  0
VERTEX
  8
0
 10
167.1905
 20
41.2542
  0
VERTEX
  8
0
 10
167.2188
 20
41.271
  0
VERTEX
  8
0
 10
167.2433
 20
41.2945
  0
VERTEX
  8
0
 10
167.2639
 20
41.3248
  0
VERTEX
  8
0
 10
167.2807
 20
41.3617
  0
VERTEX
  8
0
 10
167.2807
 20
41.3617
  0
SEQEND
  0
POLYLINE
  8
0
 66
     1
 10
0
 20
0
  0
VERTEX
  8
0
 10
166.9475
 20
41.5248
  0
VERTEX
  8
0
 10
167.2821
 20
41.5248
  0
VERTEX
  8
0
 10
167.2691
 20
41.5909
  0
VERTEX
  8
0
 10
167.2437
 20
41.6382
  0
VERTEX
  8
0
 10
167.2082
 20
41.6705
  0
VERTEX
  8
0
 10
167.1663
 20
41.69
  0
VERTEX
  8
0
 10
167.1179
 20
41.6968
  0
VERTEX
  8
0
 10
167.0508
 20
41.6847
  0
VERTEX
  8
0
 10
166.9972
 20
41.6472
  0
VERTEX
  8
0
 10
166.9624
 20
41.5929
  0
VERTEX
  8
0
 10
166.9475
 20
41.5248
  0
VERTEX
  8
0
 10
166.9475
 20
41.5248
  0
SEQEND
  0
POLYLINE
  8
0
 66
     1
 10
0
 20
0
  0
VERTEX
  8
0
 10
167.5129
 20
41.1648
  0
VERTEX
  8
0
 10
167.5129
 20
41.768
  0
VERTEX
  8
0
 10
167.6049
 20
41.768
  0
VERTEX
  8
0
 10
167.6049
 20
41.6772
  0
VERTEX
  8
0
 10
167.6314
 20
41.72
  0
VERTEX
  8
0
 10
167.6555
 20
41.7489
  0
VERTEX
  8
0
 10
167.6918
 20
41.7728
  0
VERTEX
  8
0
 10
167.7344
 20
41.7808
  0
VERTEX
  8
0
 10
167.7857
 20
41.7727
  0
VERTEX
  8
0
 10
167.8384
 20
41.7483
  0
VERTEX
  8
0
 10
167.8032
 20
41.6546
  0
VERTEX
  8
0
 10
167.7657
 20
41.6712
  0
VERTEX
  8
0
 10
167.7282
 20
41.6768
  0
VERTEX
  8
0
 10
167.6953
 20
41.671
  0
VERTEX
  8
0
 10
167.6646
 20
41.6535
  0
VERTEX
  8
0
 10
167.644
 20
41.6306
  0
VERTEX
  8
0
 10
167.63
 20
41.6005
  0
VERTEX
  8
0
 10
167.6172
 20
41.544
  0
VERTEX
  8
0
 10
167.6129
 20
41.4811
  0
VERTEX
  8
0
 10
167.6129
 20
41.1648
  0
VERTEX
  8
0
 10
167.5129
 20
41.1648
  0
SEQEND
  0
POLYLINE
  8
0
 66
     1
 10
0
 20
0
  0
VERTEX
  8
0
 10
167.9289
 20
41.1648
  0
VERTEX
  8
0
 10
167.9289
 20
41.2848
  0
VERTEX
  8
0
 10
168.0449
 20
41.2848
  0
VERTEX
  8
0
 10
168.0449
 20
41.1689
  0
VERTEX
  8
0
 10
168.0423
 20
41.1304
  0
VERTEX
  8
0
 10
168.0343
 20
41.0963
  0
VERTEX
  8
0
 10
168.0211
 20
41.0667
  0
VERTEX
  8
0
 10
168.0025
 20
41.0416
  0
VERTEX
  8
0
 10
167.9786
 20
41.021
  0
VERTEX
  8
0
 10
167.9495
 20
41.0048
  0
VERTEX
  8
0
 10
167.9209
 20
41.0473
  0
VERTEX
  8
0
 10
167.948
 20
41.0642
  0
VERTEX
  8
0
 10
167.9678
 20
41.0894
  0
VERTEX
  8
0
 10
167.9802
 20
41.1229
  0
VERTEX
  8
0
 10
167.9852
 20
41.1648
  0
VERTEX
  8
0
 10
167.9289
 20
41.1648
  0
SEQEND
  0
POLYLINE
  8
0
 66
     1
 10
0
 20
0
  0
VERTEX
  8
0
 10
168.7289
 20
41.5765
  0
VERTEX
  8
0
 10
168.7301
 20
41.6301
  0
VERTEX
  8
0
 10
168.7337
 20
41.6802
  0
VERTEX
  8
0
 10
168.7397
 20
41.7267
  0
VERTEX
  8
0
 10
168.7481
 20
41.7696
  0
VERTEX
  8
0
 10
168.7589
 20
41.8089
  0
VERTEX
  8
0
 10
168.772
 20
41.8447
  0
VERTEX
  8
0
 10
168.7876
 20
41.8769
  0
VERTEX
  8
0
 10
168.8056
 20
41.9055
  0
VERTEX
  8
0
 10
168.8259
 20
41.9306
  0
VERTEX
  8
0
 10
168.8487
 20
41.9521
  0
VERTEX
  8
0
 10
168.9156
 20
41.9883
  0
VERTEX
  8
0
 10
168.9989
 20
42.0008
  0
VERTEX
  8
0
 10
169.0606
 20
41.9943
  0
VERTEX
  8
0
 10
169.1159
 20
41.9736
  0
VERTEX
  8
0
 10
169.1516
 20
41.9494
  0
VERTEX
  8
0
 10
169.1829
 20
41.9172
  0
VERTEX
  8
0
 10
169.2098
 20
41.877
  0
VERTEX
  8
0
 10
169.2323
 20
41.8287
  0
VERTEX
  8
0
 10
169.2503
 20
41.7725
  0
VERTEX
  8
0
 10
169.2643
 20
41.6878
  0
VERTEX
  8
0
 10
169.2689
 20
41.5765
  0
VERTEX
  8
0
 10
169.2677
 20
41.523
  0
VERTEX
  8
0
 10
169.2641
 20
41.473
  0
VERTEX
  8
0
 10
169.2581
 20
41.4266
  0
VERTEX
  8
0
 10
169.2498
 20
41.3838
  0
VERTEX
  8
0
 10
169.239
 20
41.3445
  0
VERTEX
  8
0
 10
169.2258
 20
41.3088
  0
VERTEX
  8
0
 10
169.2102
 20
41.2766
  0
VERTEX
  8
0
 10
169.1923
 20
41.248
  0
VERTEX
  8
0
 10
169.1719
 20
41.223
  0
VERTEX
  8
0
 10
169.1492
 20
41.2015
  0
VERTEX
  8
0
 10
169.0822
 20
41.1652
  0
VERTEX
  8
0
 10
168.9989
 20
41.1528
  0
VERTEX
  8
0
 10
168.9778
 20
41.1534
  0
VERTEX
  8
0
 10
168.9575
 20
41.1553
  0
VERTEX
  8
0
 10
168.9381
 20
41.1587
  0
VERTEX
  8
0
 10
168.9196
 20
41.1633
  0
VERTEX
  8
0
 10
168.9019
 20
41.1694
  0
VERTEX
  8
0
 10
168.8851
 20
41.1768
  0
VERTEX
  8
0
 10
168.8691
 20
41.1856
  0
VERTEX
  8
0
 10
168.854
 20
41.1957
  0
VERTEX
  8
0
 10
168.8398
 20
41.2072
  0
VERTEX
  8
0
 10
168.8264
 20
41.22
  0
VERTEX
  8
0
 10
168.8139
 20
41.2343
  0
VERTEX
  8
0
 10
168.8022
 20
41.2498
  0
VERTEX
  8
0
 10
168.7914
 20
41.2668
  0
VERTEX
  8
0
 10
168.7815
 20
41.2851
  0
VERTEX
  8
0
 10
168.7724
 20
41.3048
  0
VERTEX
  8
0
 10
168.7642
 20
41.3258
  0
VERTEX
  8
0
 10
168.7568
 20
41.3482
  0
VERTEX
  8
0
 10
168.7503
 20
41.372
  0
VERTEX
  8
0
 10
168.7447
 20
41.3971
  0
VERTEX
  8
0
 10
168.7399
 20
41.4236
  0
VERTEX
  8
0
 10
168.736
 20
41.4514
  0
VERTEX
  8
0
 10
168.7329
 20
41.4807
  0
VERTEX
  8
0
 10
168.7307
 20
41.5112
  0
VERTEX
  8
0
 10
168.7294
 20
41.5432
  0
VERTEX
  8
0
 10
168.7289
 20
41.5765
  0
VERTEX
  8
0
 10
168.7289
 20
41.5765
  0
SEQEND
  0
POLYLINE
  8
0
 66
     1
 10
0
 20
0
  0
VERTEX
  8
0
 10
168.8329
 20
41.5768
  0
VERTEX
  8
0
 10
168.8354
 20
41.4916
  0
VERTEX
  8
0
 10
168.8428
 20
41.4209
  0
VERTEX
  8
0
 10
168.855
 20
41.3649
  0
VERTEX
  8
0
 10
168.8673
 20
41.331
  0
VERTEX
  8
0
 10
168.8823
 20
41.3024
  0
VERTEX
  8
0
 10
168.9001
 20
41.2789
  0
VERTEX
  8
0
 10
168.9206
 20
41.2606
  0
VERTEX
  8
0
 10
168.9439
 20
41.2475
  0
VERTEX
  8
0
 10
168.97
 20
41.2395
  0
VERTEX
  8
0
 10
168.9989
 20
41.2368
  0
VERTEX
  8
0
 10
169.0159
 20
41.2376
  0
VERTEX
  8
0
 10
169.032
 20
41.2403
  0
VERTEX
  8
0
 10
169.0472
 20
41.245
  0
VERTEX
  8
0
 10
169.0615
 20
41.2515
  0
VERTEX
  8
0
 10
169.0748
 20
41.2599
  0
VERTEX
  8
0
 10
169.0872
 20
41.2702
  0
VERTEX
  8
0
 10
169.0987
 20
41.2824
  0
VERTEX
  8
0
 10
169.1093
 20
41.2965
  0
VERTEX
  8
0
 10
169.1189
 20
41.3125
  0
VERTEX
  8
0
 10
169.1277
 20
41.3304
  0
VERTEX
  8
0
 10
169.1355
 20
41.3502
  0
VERTEX
  8
0
 10
169.1424
 20
41.3719
  0
VERTEX
  8
0
 10
169.1484
 20
41.3955
  0
VERTEX
  8
0
 10
169.1534
 20
41.421
  0
VERTEX
  8
0
 10
169.1576
 20
41.4483
  0
VERTEX
  8
0
 10
169.1608
 20
41.4776
  0
VERTEX
  8
0
 10
169.1631
 20
41.5088
  0
VERTEX
  8
0
 10
169.1645
 20
41.5418
  0
VERTEX
  8
0
 10
169.1649
 20
41.5768
  0
VERTEX
  8
0
 10
169.1625
 20
41.662
  0
VERTEX
  8
0
 10
169.1551
 20
41.7327
  0
VERTEX
  8
0
 10
169.1428
 20
41.7887
  0
VERTEX
  8
0
 10
169.1304
 20
41.8226
  0
VERTEX
  8
0
 10
169.1152
 20
41.8512
  0
VERTEX
  8
0
 10
169.0973
 20
41.8747
  0
VERTEX
  8
0
 10
169.0766
 20
41.893
  0
VERTEX
  8
0
 10
169.0531
 20
41.9061
  0
VERTEX
  8
0
 10
169.0268
 20
41.914
  0
VERTEX
  8
0
 10
168.9978
 20
41.9168
  0
VERTEX
  8
0
 10
168.9541
 20
41.9104
  0
VERTEX
  8
0
 10
168.9167
 20
41.8906
  0
VERTEX
  8
0
 10
168.8856
 20
41.8573
  0
VERTEX
  8
0
 10
168.8716
 20
41.8332
  0
VERTEX
  8
0
 10
168.8598
 20
41.8039
  0
VERTEX
  8
0
 10
168.8501
 20
41.7691
  0
VERTEX
  8
0
 10
168.8426
 20
41.7291
  0
VERTEX
  8
0
 10
168.8372
 20
41.6836
  0
VERTEX
  8
0
 10
168.834
 20
41.6329
  0
VERTEX
  8
0
 10
168.8329
 20
41.5768
  0
VERTEX
  8
0
 10
168.8329
 20
41.5768
  0
SEQEND
  0
POLYLINE
  8
0
 66
     1
 10
0
 20
0
  0
VERTEX
  8
0
 10
169.4249
 20
41.1648
  0
VERTEX
  8
0
 10
169.4249
 20
41.2848
  0
VERTEX
  8
0
 10
169.5409
 20
41.2848
  0
VERTEX
  8
0
 10
169.5409
 20
41.1648
  0
VERTEX
  8
0
 10
169.4249
 20
41.1648
  0
SEQEND
  0
POLYLINE
  8
0
 66
     1
 10
0
 20
0
  0
VERTEX
  8
0
 10
169.6889
 20
41.3854
  0
VERTEX
  8
0
 10
169.7954
 20
41.3945
  0
VERTEX
  8
0
 10
169.8021
 20
41.3614
  0
VERTEX
  8
0
 10
169.8114
 20
41.3322
  0
VERTEX
  8
0
 10
169.8236
 20
41.3069
  0
VERTEX
  8
0
 10
169.8385
 20
41.2855
  0
VERTEX
  8
0
 10
169.8561
 20
41.2679
  0
VERTEX
  8
0
 10
169.8765
 20
41.2543
  0
VERTEX
  8
0
 10
169.8997
 20
41.2446
  0
VERTEX
  8
0
 10
169.9256
 20
41.2387
  0
VERTEX
  8
0
 10
169.9543
 20
41.2368
  0
VERTEX
  8
0
 10
170.0048
 20
41.2437
  0
VERTEX
  8
0
 10
170.0479
 20
41.2646
  0
VERTEX
  8
0
 10
170.0839
 20
41.2993
  0
VERTEX
  8
0
 10
170.1177
 20
41.3629
  0
VERTEX
  8
0
 10
170.1289
 20
41.4402
  0
VERTEX
  8
0
 10
170.1172
 20
41.5162
  0
VERTEX
  8
0
 10
170.0822
 20
41.5762
  0
VERTEX
  8
0
 10
170.047
 20
41.6052
  0
VERTEX
  8
0
 10
170.0038
 20
41.6227
  0
VERTEX
  8
0
 10
169.9526
 20
41.6288
  0
VERTEX
  8
0
 10
169.9069
 20
41.6239
  0
VERTEX
  8
0
 10
169.8666
 20
41.6087
  0
VERTEX
  8
0
 10
169.8317
 20
41.5832
  0
VERTEX
  8
0
 10
169.8022
 20
41.5474
  0
VERTEX
  8
0
 10
169.707
 20
41.5598
  0
VERTEX
  8
0
 10
169.7871
 20
41.9848
  0
VERTEX
  8
0
 10
170.1984
 20
41.9848
  0
VERTEX
  8
0
 10
170.1984
 20
41.8888
  0
VERTEX
  8
0
 10
169.8708
 20
41.8888
  0
VERTEX
  8
0
 10
169.8245
 20
41.6652
  0
VERTEX
  8
0
 10
169.9006
 20
41.7036
  0
VERTEX
  8
0
 10
169.9804
 20
41.7168
  0
VERTEX
  8
0
 10
170.0342
 20
41.7121
  0
VERTEX
  8
0
 10
170.0831
 20
41.6976
  0
VERTEX
  8
0
 10
170.127
 20
41.6731
  0
VERTEX
  8
0
 10
170.166
 20
41.6387
  0
VERTEX
  8
0
 10
170.1971
 20
41.5982
  0
VERTEX
  8
0
 10
170.2192
 20
41.5529
  0
VERTEX
  8
0
 10
170.2325
 20
41.5029
  0
VERTEX
  8
0
 10
170.2369
 20
41.4481
  0
VERTEX
  8
0
 10
170.2297
 20
41.3767
  0
VERTEX
  8
0
 10
170.2079
 20
41.3118
  0
VERTEX
  8
0
 10
170.1715
 20
41.2535
  0
VERTEX
  8
0
 10
170.1374
 20
41.2174
  0
VERTEX
  8
0
 10
170.0987
 20
41.1893
  0
VERTEX
  8
0
 10
170.0552
 20
41.1692
  0
VERTEX
  8
0
 10
170.0072
 20
41.157
  0
VERTEX
  8
0
 10
169.9545
 20
41.1528
  0
VERTEX
  8
0
 10
169.8855
 20
41.1596
  0
VERTEX
  8
0
 10
169.8249
 20
41.1798
  0
VERTEX
  8
0
 10
169.7729
 20
41.2137
  0
VERTEX
  8
0
 10
169.731
 20
41.2605
  0
VERTEX
  8
0
 10
169.703
 20
41.3178
  0
VERTEX
  8
0
 10
169.6889
 20
41.3854
  0
VERTEX
  8
0
 10
169.6889
 20
41.3854
  0
SEQEND
  0
POLYLINE
  8
0
 66
     1
 10
0
 20
0
  0
VERTEX
  8
0
 10
170.3369
 20
41.5765
  0
VERTEX
  8
0
 10
170.3381
 20
41.6301
  0
VERTEX
  8
0
 10
170.3417
 20
41.6802
  0
VERTEX
  8
0
 10
170.3477
 20
41.7267
  0
VERTEX
  8
0
 10
170.3561
 20
41.7696
  0
VERTEX
  8
0
 10
170.3669
 20
41.8089
  0
VERTEX
  8
0
 10
170.38
 20
41.8447
  0
VERTEX
  8
0
 10
170.3956
 20
41.8769
  0
VERTEX
  8
0
 10
170.4136
 20
41.9055
  0
VERTEX
  8
0
 10
170.4339
 20
41.9306
  0
VERTEX
  8
0
 10
170.4567
 20
41.9521
  0
VERTEX
  8
0
 10
170.5236
 20
41.9883
  0
VERTEX
  8
0
 10
170.6069
 20
42.0008
  0
VERTEX
  8
0
 10
170.6686
 20
41.9943
  0
VERTEX
  8
0
 10
170.7239
 20
41.9736
  0
VERTEX
  8
0
 10
170.7596
 20
41.9494
  0
VERTEX
  8
0
 10
170.7909
 20
41.9172
  0
VERTEX
  8
0
 10
170.8178
 20
41.877
  0
VERTEX
  8
0
 10
170.8403
 20
41.8287
  0
VERTEX
  8
0
 10
170.8583
 20
41.7725
  0
VERTEX
  8
0
 10
170.8723
 20
41.6878
  0
VERTEX
  8
0
 10
170.8769
 20
41.5765
  0
VERTEX
  8
0
 10
170.8757
 20
41.523
  0
VERTEX
  8
0
 10
170.8721
 20
41.473
  0
VERTEX
  8
0
 10
170.8661
 20
41.4266
  0
VERTEX
  8
0
 10
170.8578
 20
41.3838
  0
VERTEX
  8
0
 10
170.847
 20
41.3445
  0
VERTEX
  8
0
 10
170.8338
 20
41.3088
  0
VERTEX
  8
0
 10
170.8182
 20
41.2766
  0
VERTEX
  8
0
 10
170.8003
 20
41.248
  0
VERTEX
  8
0
 10
170.7799
 20
41.223
  0
VERTEX
  8
0
 10
170.7572
 20
41.2015
  0
VERTEX
  8
0
 10
170.6902
 20
41.1652
  0
VERTEX
  8
0
 10
170.6069
 20
41.1528
  0
VERTEX
  8
0
 10
170.5858
 20
41.1534
  0
VERTEX
  8
0
 10
170.5655
 20
41.1553
  0
VERTEX
  8
0
 10
170.5461
 20
41.1587
  0
VERTEX
  8
0
 10
170.5276
 20
41.1633
  0
VERTEX
  8
0
 10
170.5099
 20
41.1694
  0
VERTEX
  8
0
 10
170.4931
 20
41.1768
  0
VERTEX
  8
0
 10
170.4771
 20
41.1856
  0
VERTEX
  8
0
 10
170.462
 20
41.1957
  0
VERTEX
  8
0
 10
170.4478
 20
41.2072
  0
VERTEX
  8
0
 10
170.4344
 20
41.22
  0
VERTEX
  8
0
 10
170.4219
 20
41.2343
  0
VERTEX
  8
0
 10
170.4102
 20
41.2498
  0
VERTEX
  8
0
 10
170.3994
 20
41.2668
  0
VERTEX
  8
0
 10
170.3895
 20
41.2851
  0
VERTEX
  8
0
 10
170.3804
 20
41.3048
  0
VERTEX
  8
0
 10
170.3722
 20
41.3258
  0
VERTEX
  8
0
 10
170.3648
 20
41.3482
  0
VERTEX
  8
0
 10
170.3583
 20
41.372
  0
VERTEX
  8
0
 10
170.3527
 20
41.3971
  0
VERTEX
  8
0
 10
170.3479
 20
41.4236
  0
VERTEX
  8
0
 10
170.344
 20
41.4514
  0
VERTEX
  8
0
 10
170.3409
 20
41.4807
  0
VERTEX
  8
0
 10
170.3387
 20
41.5112
  0
VERTEX
  8
0
 10
170.3374
 20
41.5432
  0
VERTEX
  8
0
 10
170.3369
 20
41.5765
  0
VERTEX
  8
0
 10
170.3369
 20
41.5765
  0
SEQEND
  0
POLYLINE
  8
0
 66
     1
 10
0
 20
0
  0
VERTEX
  8
0
 10
170.4409
 20
41.5768
  0
VERTEX
  8
0
 10
170.4434
 20
41.4916
  0
VERTEX
  8
0
 10
170.4508
 20
41.4209
  0
VERTEX
  8
0
 10
170.463
 20
41.3649
  0
VERTEX
  8
0
 10
170.4753
 20
41.331
  0
VERTEX
  8
0
 10
170.4903
 20
41.3024
  0
VERTEX
  8
0
 10
170.5081
 20
41.2789
  0
VERTEX
  8
0
 10
170.5286
 20
41.2606
  0
VERTEX
  8
0
 10
170.5519
 20
41.2475
  0
VERTEX
  8
0
 10
170.578
 20
41.2395
  0
VERTEX
  8
0
 10
170.6069
 20
41.2368
  0
VERTEX
  8
0
 10
170.6239
 20
41.2376
  0
VERTEX
  8
0
 10
170.64
 20
41.2403
  0
VERTEX
  8
0
 10
170.6552
 20
41.245
  0
VERTEX
  8
0
 10
170.6695
 20
41.2515
  0
VERTEX
  8
0
 10
170.6828
 20
41.2599
  0
VERTEX
  8
0
 10
170.6952
 20
41.2702
  0
VERTEX
  8
0
 10
170.7067
 20
41.2824
  0
VERTEX
  8
0
 10
170.7173
 20
41.2965
  0
VERTEX
  8
0
 10
170.7269
 20
41.3125
  0
VERTEX
  8
0
 10
170.7357
 20
41.3304
  0
VERTEX
  8
0
 10
170.7435
 20
41.3502
  0
VERTEX
  8
0
 10
170.7504
 20
41.3719
  0
VERTEX
  8
0
 10
170.7564
 20
41.3955
  0
VERTEX
  8
0
 10
170.7614
 20
41.421
  0
VERTEX
  8
0
 10
170.7656
 20
41.4483
  0
VERTEX
  8
0
 10
170.7688
 20
41.4776
  0
VERTEX
  8
0
 10
170.7711
 20
41.5088
  0
VERTEX
  8
0
 10
170.7725
 20
41.5418
  0
VERTEX
  8
0
 10
170.7729
 20
41.5768
  0
VERTEX
  8
0
 10
170.7705
 20
41.662
  0
VERTEX
  8
0
 10
170.7631
 20
41.7327
  0
VERTEX
  8
0
 10
170.7508
 20
41.7887
  0
VERTEX
  8
0
 10
170.7384
 20
41.8226
  0
VERTEX
  8
0
 10
170.7232
 20
41.8512
  0
VERTEX
  8
0
 10
170.7053
 20
41.8747
  0
VERTEX
  8
0
 10
170.6846
 20
41.893
  0
VERTEX
  8
0
 10
170.6611
 20
41.9061
  0
VERTEX
  8
0
 10
170.6348
 20
41.914
  0
VERTEX
  8
0
 10
170.6058
 20
41.9168
  0
VERTEX
  8
0
 10
170.5621
 20
41.9104
  0
VERTEX
  8
0
 10
170.5247
 20
41.8906
  0
VERTEX
  8
0
 10
170.4936
 20
41.8573
  0
VERTEX
  8
0
 10
170.4796
 20
41.8332
  0
VERTEX
  8
0
 10
170.4678
 20
41.8039
  0
VERTEX
  8
0
 10
170.4581
 20
41.7691
  0
VERTEX
  8
0
 10
170.4506
 20
41.7291
  0
VERTEX
  8
0
 10
170.4452
 20
41.6836
  0
VERTEX
  8
0
 10
170.442
 20
41.6329
  0
VERTEX
  8
0
 10
170.4409
 20
41.5768
  0
VERTEX
  8
0
 10
170.4409
 20
41.5768
  0
SEQEND
  0
POLYLINE
  8
0
 66
     1
 10
0
 20
0
  0
VERTEX
  8
0
 10
171.0092
 20
41.7048
  0
VERTEX
  8
0
 10
170.9809
 20
41.8618
  0
VERTEX
  8
0
 10
170.9809
 20
41.9968
  0
VERTEX
  8
0
 10
171.0969
 20
41.9968
  0
VERTEX
  8
0
 10
171.0969
 20
41.8618
  0
VERTEX
  8
0
 10
171.0715
 20
41.7048
  0
VERTEX
  8
0
 10
171.0092
 20
41.7048
  0
SEQEND
  0
POLYLINE
  8
0
 66
     1
 10
0
 20
0
  0
VERTEX
  8
0
 10
171.1967
 20
41.7048
  0
VERTEX
  8
0
 10
171.1689
 20
41.8618
  0
VERTEX
  8
0
 10
171.1689
 20
41.9968
  0
VERTEX
  8
0
 10
171.2849
 20
41.9968
  0
VERTEX
  8
0
 10
171.2849
 20
41.8618
  0
VERTEX
  8
0
 10
171.2577
 20
41.7048
  0
VERTEX
  8
0
 10
171.1967
 20
41.7048
  0
SEQEND
  0
POLYLINE
  8
0
 66
     1
 10
0
 20
0
  0
VERTEX
  8
0
 10
171.9769
 20
41.1648
  0
VERTEX
  8
0
 10
171.9769
 20
41.9968
  0
VERTEX
  8
0
 10
172.0849
 20
41.9968
  0
VERTEX
  8
0
 10
172.0849
 20
41.1648
  0
VERTEX
  8
0
 10
171.9769
 20
41.1648
  0
SEQEND
  0
POLYLINE
  8
0
 66
     1
 10
0
 20
0
  0
VERTEX
  8
0
 10
172.2689
 20
41.1648
  0
VERTEX
  8
0
 10
172.2689
 20
41.768
  0
VERTEX
  8
0
 10
172.3609
 20
41.768
  0
VERTEX
  8
0
 10
172.3609
 20
41.6828
  0
VERTEX
  8
0
 10
172.3897
 20
41.7179
  0
VERTEX
  8
0
 10
172.4232
 20
41.7452
  0
VERTEX
  8
0
 10
172.4614
 20
41.7648
  0
VERTEX
  8
0
 10
172.5043
 20
41.7767
  0
VERTEX
  8
0
 10
172.5519
 20
41.7808
  0
VERTEX
  8
0
 10
172.603
 20
41.7758
  0
VERTEX
  8
0
 10
172.6513
 20
41.7609
  0
VERTEX
  8
0
 10
172.6878
 20
41.7401
  0
VERTEX
  8
0
 10
172.7167
 20
41.712
  0
VERTEX
  8
0
 10
172.7378
 20
41.6768
  0
VERTEX
  8
0
 10
172.7513
 20
41.6345
  0
VERTEX
  8
0
 10
172.7555
 20
41.5963
  0
VERTEX
  8
0
 10
172.7569
 20
41.5352
  0
VERTEX
  8
0
 10
172.7569
 20
41.1648
  0
VERTEX
  8
0
 10
172.6569
 20
41.1648
  0
VERTEX
  8
0
 10
172.6569
 20
41.5315
  0
VERTEX
  8
0
 10
172.6549
 20
41.5782
  0
VERTEX
  8
0
 10
172.6489
 20
41.6116
  0
VERTEX
  8
0
 10
172.6315
 20
41.6477
  0
VERTEX
  8
0
 10
172.602
 20
41.674
  0
VERTEX
  8
0
 10
172.5689
 20
41.6881
  0
VERTEX
  8
0
 10
172.5304
 20
41.6928
  0
VERTEX
  8
0
 10
172.5046
 20
41.6914
  0
VERTEX
  8
0
 10
172.481
 20
41.6873
  0
VERTEX
  8
0
 10
172.4597
 20
41.6804
  0
VERTEX
  8
0
 10
172.4407
 20
41.6707
  0
VERTEX
  8
0
 10
172.4239
 20
41.6583
  0
VERTEX
  8
0
 10
172.4093
 20
41.6431
  0
VERTEX
  8
0
 10
172.397
 20
41.6252
  0
VERTEX
  8
0
 10
172.3869
 20
41.6045
  0
VERTEX
  8
0
 10
172.379
 20
41.581
  0
VERTEX
  8
0
 10
172.3734
 20
41.5548
  0
VERTEX
  8
0
 10
172.37
 20
41.5258
  0
VERTEX
  8
0
 10
172.3689
 20
41.4941
  0
VERTEX
  8
0
 10
172.3689
 20
41.1648
  0
VERTEX
  8
0
 10
172.2689
 20
41.1648
  0
SEQEND
  0
POLYLINE
  8
0
 66
     1
 10
0
 20
0
  0
VERTEX
  8
0
 10
173.3009
 20
41.1648
  0
VERTEX
  8
0
 10
173.3009
 20
41.2444
  0
VERTEX
  8
0
 10
173.2762
 20
41.2131
  0
VERTEX
  8
0
 10
173.2472
 20
41.1886
  0
VERTEX
  8
0
 10
173.2138
 20
41.1711
  0
VERTEX
  8
0
 10
173.176
 20
41.1605
  0
VERTEX
  8
0
 10
173.1339
 20
41.1568
  0
VERTEX
  8
0
 10
173.0636
 20
41.1668
  0
VERTEX
  8
0
 10
173
 20
41.1979
  0
VERTEX
  8
0
 10
172.9479
 20
41.2449
  0
VERTEX
  8
0
 10
172.9093
 20
41.3063
  0
VERTEX
  8
0
 10
172.8853
 20
41.3811
  0
VERTEX
  8
0
 10
172.8769
 20
41.4682
  0
VERTEX
  8
0
 10
172.8786
 20
41.5151
  0
VERTEX
  8
0
 10
172.884
 20
41.5583
  0
VERTEX
  8
0
 10
172.8933
 20
41.5979
  0
VERTEX
  8
0
 10
172.9064
 20
41.6339
  0
VERTEX
  8
0
 10
172.9233
 20
41.6663
  0
VERTEX
  8
0
 10
172.944
 20
41.6952
  0
VERTEX
  8
0
 10
172.9686
 20
41.7204
  0
VERTEX
  8
0
 10
172.9969
 20
41.742
  0
VERTEX
  8
0
 10
173.0602
 20
41.7711
  0
VERTEX
  8
0
 10
173.131
 20
41.7808
  0
VERTEX
  8
0
 10
173.1811
 20
41.7757
  0
VERTEX
  8
0
 10
173.2255
 20
41.7604
  0
VERTEX
  8
0
 10
173.2641
 20
41.7349
  0
VERTEX
  8
0
 10
173.2969
 20
41.6992
  0
VERTEX
  8
0
 10
173.2969
 20
41.9968
  0
VERTEX
  8
0
 10
173.3969
 20
41.9968
  0
VERTEX
  8
0
 10
173.3969
 20
41.1648
  0
VERTEX
  8
0
 10
173.3009
 20
41.1648
  0
SEQEND
  0
POLYLINE
  8
0
 66
     1
 10
0
 20
0
  0
VERTEX
  8
0
 10
172.9809
 20
41.4685
  0
VERTEX
  8
0
 10
172.9898
 20
41.3854
  0
VERTEX
  8
0
 10
173.0165
 20
41.3165
  0
VERTEX
  8
0
 10
173.0408
 20
41.2836
  0
VERTEX
  8
0
 10
173.0702
 20
41.26
  0
VERTEX
  8
0
 10
173.1046
 20
41.2457
  0
VERTEX
  8
0
 10
173.1442
 20
41.2408
  0
VERTEX
  8
0
 10
173.1832
 20
41.2451
  0
VERTEX
  8
0
 10
173.2171
 20
41.2585
  0
VERTEX
  8
0
 10
173.2459
 20
41.281
  0
VERTEX
  8
0
 10
173.2696
 20
41.3126
  0
VERTEX
  8
0
 10
173.2954
 20
41.3792
  0
VERTEX
  8
0
 10
173.304
 20
41.4601
  0
VERTEX
  8
0
 10
173.2957
 20
41.5475
  0
VERTEX
  8
0
 10
173.2707
 20
41.6177
  0
VERTEX
  8
0
 10
173.2464
 20
41.6523
  0
VERTEX
  8
0
 10
173.2165
 20
41.677
  0
VERTEX
  8
0
 10
173.1809
 20
41.6919
  0
VERTEX
  8
0
 10
173.1397
 20
41.6968
  0
VERTEX
  8
0
 10
173.0996
 20
41.6921
  0
VERTEX
  8
0
 10
173.0651
 20
41.6779
  0
VERTEX
  8
0
 10
173.0363
 20
41.6542
  0
VERTEX
  8
0
 10
173.0131
 20
41.621
  0
VERTEX
  8
0
 10
172.989
 20
41.5532
  0
VERTEX
  8
0
 10
172.9809
 20
41.4685
  0
VERTEX
  8
0
 10
172.9809
 20
41.4685
  0
SEQEND
  0
POLYLINE
  8
0
 66
     1
 10
0
 20
0
  0
VERTEX
  8
0
 10
173.9607
 20
41.3617
  0
VERTEX
  8
0
 10
174.0659
 20
41.3489
  0
VERTEX
  8
0
 10
174.0562
 20
41.3182
  0
VERTEX
  8
0
 10
174.0442
 20
41.2902
  0
VERTEX
  8
0
 10
174.03
 20
41.2648
  0
VERTEX
  8
0
 10
174.0136
 20
41.2422
  0
VERTEX
  8
0
 10
173.9949
 20
41.2221
  0
VERTEX
  8
0
 10
173.9741
 20
41.2048
  0
VERTEX
  8
0
 10
173.951
 20
41.1901
  0
VERTEX
  8
0
 10
173.9257
 20
41.1781
  0
VERTEX
  8
0
 10
173.8982
 20
41.1688
  0
VERTEX
  8
0
 10
173.8685
 20
41.1621
  0
VERTEX
  8
0
 10
173.8366
 20
41.1581
  0
VERTEX
  8
0
 10
173.8024
 20
41.1568
  0
VERTEX
  8
0
 10
173.7399
 20
41.1618
  0
VERTEX
  8
0
 10
173.6842
 20
41.1769
  0
VERTEX
  8
0
 10
173.6355
 20
41.202
  0
VERTEX
  8
0
 10
173.5937
 20
41.2372
  0
VERTEX
  8
0
 10
173.566
 20
41.272
  0
VERTEX
  8
0
 10
173.5446
 20
41.312
  0
VERTEX
  8
0
 10
173.5292
 20
41.3573
  0
VERTEX
  8
0
 10
173.52
 20
41.4079
  0
VERTEX
  8
0
 10
173.5169
 20
41.4637
  0
VERTEX
  8
0
 10
173.5212
 20
41.5298
  0
VERTEX
  8
0
 10
173.5341
 20
41.5892
  0
VERTEX
  8
0
 10
173.5556
 20
41.642
  0
VERTEX
  8
0
 10
173.5857
 20
41.688
  0
VERTEX
  8
0
 10
173.6184
 20
41.7214
  0
VERTEX
  8
0
 10
173.6558
 20
41.7474
  0
VERTEX
  8
0
 10
173.698
 20
41.766
  0
VERTEX
  8
0
 10
173.745
 20
41.7771
  0
VERTEX
  8
0
 10
173.7968
 20
41.7808
  0
VERTEX
  8
0
 10
173.8473
 20
41.7771
  0
VERTEX
  8
0
 10
173.893
 20
41.766
  0
VERTEX
  8
0
 10
173.9341
 20
41.7476
  0
VERTEX
  8
0
 10
173.9705
 20
41.7218
  0
VERTEX
  8
0
 10
174.0022
 20
41.6886
  0
VERTEX
  8
0
 10
174.0315
 20
41.643
  0
VERTEX
  8
0
 10
174.0525
 20
41.591
  0
VERTEX
  8
0
 10
174.0651
 20
41.5326
  0
VERTEX
  8
0
 10
174.0693
 20
41.4679
  0
VERTEX
  8
0
 10
174.0692
 20
41.4538
  0
VERTEX
  8
0
 10
174.0687
 20
41.4408
  0
VERTEX
  8
0
 10
173.6209
 20
41.4408
  0
VERTEX
  8
0
 10
173.6352
 20
41.363
  0
VERTEX
  8
0
 10
173.669
 20
41.3012
  0
VERTEX
  8
0
 10
173.7057
 20
41.2676
  0
VERTEX
  8
0
 10
173.7502
 20
41.2475
  0
VERTEX
  8
0
 10
173.8024
 20
41.2408
  0
VERTEX
  8
0
 10
173.8384
 20
41.2442
  0
VERTEX
  8
0
 10
173.8705
 20
41.2542
  0
VERTEX
  8
0
 10
173.8988
 20
41.271
  0
VERTEX
  8
0
 10
173.9233
 20
41.2945
  0
VERTEX
  8
0
 10
173.9439
 20
41.3248
  0
VERTEX
  8
0
 10
173.9607
 20
41.3617
  0
VERTEX
  8
0
 10
173.9607
 20
41.3617
  0
SEQEND
  0
POLYLINE
  8
0
 66
     1
 10
0
 20
0
  0
VERTEX
  8
0
 10
173.6275
 20
41.5248
  0
VERTEX
  8
0
 10
173.9621
 20
41.5248
  0
VERTEX
  8
0
 10
173.9491
 20
41.5909
  0
VERTEX
  8
0
 10
173.9237
 20
41.6382
  0
VERTEX
  8
0
 10
173.8882
 20
41.6705
  0
VERTEX
  8
0
 10
173.8463
 20
41.69
  0
VERTEX
  8
0
 10
173.7979
 20
41.6968
  0
VERTEX
  8
0
 10
173.7308
 20
41.6847
  0
VERTEX
  8
0
 10
173.6772
 20
41.6472
  0
VERTEX
  8
0
 10
173.6424
 20
41.5929
  0
VERTEX
  8
0
 10
173.6275
 20
41.5248
  0
VERTEX
  8
0
 10
173.6275
 20
41.5248
  0
SEQEND
  0
POLYLINE
  8
0
 66
     1
 10
0
 20
0
  0
VERTEX
  8
0
 10
174.1929
 20
41.1648
  0
VERTEX
  8
0
 10
174.1929
 20
41.768
  0
VERTEX
  8
0
 10
174.2849
 20
41.768
  0
VERTEX
  8
0
 10
174.2849
 20
41.6828
  0
VERTEX
  8
0
 10
174.3137
 20
41.7179
  0
VERTEX
  8
0
 10
174.3472
 20
41.7452
  0
VERTEX
  8
0
 10
174.3854
 20
41.7648
  0
VERTEX
  8
0
 10
174.4283
 20
41.7767
  0
VERTEX
  8
0
 10
174.4759
 20
41.7808
  0
VERTEX
  8
0
 10
174.527
 20
41.7758
  0
VERTEX
  8
0
 10
174.5753
 20
41.7609
  0
VERTEX
  8
0
 10
174.6118
 20
41.7401
  0
VERTEX
  8
0
 10
174.6407
 20
41.712
  0
VERTEX
  8
0
 10
174.6618
 20
41.6768
  0
VERTEX
  8
0
 10
174.6753
 20
41.6345
  0
VERTEX
  8
0
 10
174.6795
 20
41.5963
  0
VERTEX
  8
0
 10
174.6809
 20
41.5352
  0
VERTEX
  8
0
 10
174.6809
 20
41.1648
  0
VERTEX
  8
0
 10
174.5809
 20
41.1648
  0
VERTEX
  8
0
 10
174.5809
 20
41.5315
  0
VERTEX
  8
0
 10
174.5789
 20
41.5782
  0
VERTEX
  8
0
 10
174.5729
 20
41.6116
  0
VERTEX
  8
0
 10
174.5555
 20
41.6477
  0
VERTEX
  8
0
 10
174.526
 20
41.674
  0
VERTEX
  8
0
 10
174.4929
 20
41.6881
  0
VERTEX
  8
0
 10
174.4544
 20
41.6928
  0
VERTEX
  8
0
 10
174.4286
 20
41.6914
  0
VERTEX
  8
0
 10
174.405
 20
41.6873
  0
VERTEX
  8
0
 10
174.3837
 20
41.6804
  0
VERTEX
  8
0
 10
174.3647
 20
41.6707
  0
VERTEX
  8
0
 10
174.3479
 20
41.6583
  0
VERTEX
  8
0
 10
174.3333
 20
41.6431
  0
VERTEX
  8
0
 10
174.321
 20
41.6252
  0
VERTEX
  8
0
 10
174.3109
 20
41.6045
  0
VERTEX
  8
0
 10
174.303
 20
41.581
  0
VERTEX
  8
0
 10
174.2974
 20
41.5548
  0
VERTEX
  8
0
 10
174.294
 20
41.5258
  0
VERTEX
  8
0
 10
174.2929
 20
41.4941
  0
VERTEX
  8
0
 10
174.2929
 20
41.1648
  0
VERTEX
  8
0
 10
174.1929
 20
41.1648
  0
SEQEND
  0
POLYLINE
  8
0
 66
     1
 10
0
 20
0
  0
VERTEX
  8
0
 10
175.0585
 20
41.2596
  0
VERTEX
  8
0
 10
175.0732
 20
41.1699
  0
VERTEX
  8
0
 10
175.0326
 20
41.1633
  0
VERTEX
  8
0
 10
174.997
 20
41.1608
  0
VERTEX
  8
0
 10
174.9512
 20
41.1643
  0
VERTEX
  8
0
 10
174.9146
 20
41.176
  0
VERTEX
  8
0
 10
174.8873
 20
41.1959
  0
VERTEX
  8
0
 10
174.8692
 20
41.224
  0
VERTEX
  8
0
 10
174.8624
 20
41.2504
  0
VERTEX
  8
0
 10
174.8583
 20
41.2904
  0
VERTEX
  8
0
 10
174.8569
 20
41.3441
  0
VERTEX
  8
0
 10
174.8569
 20
41.6888
  0
VERTEX
  8
0
 10
174.7809
 20
41.6888
  0
VERTEX
  8
0
 10
174.7809
 20
41.7688
  0
VERTEX
  8
0
 10
174.8569
 20
41.7688
  0
VERTEX
  8
0
 10
174.8569
 20
41.9162
  0
VERTEX
  8
0
 10
174.9569
 20
41.9768
  0
VERTEX
  8
0
 10
174.9569
 20
41.7688
  0
VERTEX
  8
0
 10
175.0569
 20
41.7688
  0
VERTEX
  8
0
 10
175.0569
 20
41.6888
  0
VERTEX
  8
0
 10
174.9569
 20
41.6888
  0
VERTEX
  8
0
 10
174.9569
 20
41.3395
  0
VERTEX
  8
0
 10
174.9573
 20
41.3125
  0
VERTEX
  8
0
 10
174.9586
 20
41.2979
  0
VERTEX
  8
0
 10
174.9658
 20
41.2779
  0
VERTEX
  8
0
 10
174.9794
 20
41.2641
  0
VERTEX
  8
0
 10
174.9937
 20
41.2589
  0
VERTEX
  8
0
 10
175.0142
 20
41.2568
  0
VERTEX
  8
0
 10
175.0334
 20
41.2572
  0
VERTEX
  8
0
 10
175.0585
 20
41.2596
  0
VERTEX
  8
0
 10
175.0585
 20
41.2596
  0
SEQEND
  0
POLYLINE
  8
0
 66
     1
 10
0
 20
0
  0
VERTEX
  8
0
 10
175.1889
 20
41.1648
  0
VERTEX
  8
0
 10
175.1889
 20
41.2848
  0
VERTEX
  8
0
 10
175.3049
 20
41.2848
  0
VERTEX
  8
0
 10
175.3049
 20
41.1689
  0
VERTEX
  8
0
 10
175.3023
 20
41.1304
  0
VERTEX
  8
0
 10
175.2943
 20
41.0963
  0
VERTEX
  8
0
 10
175.2811
 20
41.0667
  0
VERTEX
  8
0
 10
175.2625
 20
41.0416
  0
VERTEX
  8
0
 10
175.2386
 20
41.021
  0
VERTEX
  8
0
 10
175.2095
 20
41.0048
  0
VERTEX
  8
0
 10
175.1809
 20
41.0473
  0
VERTEX
  8
0
 10
175.208
 20
41.0642
  0
VERTEX
  8
0
 10
175.2278
 20
41.0894
  0
VERTEX
  8
0
 10
175.2402
 20
41.1229
  0
VERTEX
  8
0
 10
175.2452
 20
41.1648
  0
VERTEX
  8
0
 10
175.1889
 20
41.1648
  0
SEQEND
  0
POLYLINE
  8
0
 66
     1
 10
0
 20
0
  0
VERTEX
  8
0
 10
176.0249
 20
41.1648
  0
VERTEX
  8
0
 10
176.0249
 20
41.9968
  0
VERTEX
  8
0
 10
176.335
 20
41.9968
  0
VERTEX
  8
0
 10
176.4194
 20
41.9904
  0
VERTEX
  8
0
 10
176.4866
 20
41.9712
  0
VERTEX
  8
0
 10
176.536
 20
41.9405
  0
VERTEX
  8
0
 10
176.5748
 20
41.8958
  0
VERTEX
  8
0
 10
176.6001
 20
41.842
  0
VERTEX
  8
0
 10
176.6089
 20
41.784
  0
VERTEX
  8
0
 10
176.6061
 20
41.7466
  0
VERTEX
  8
0
 10
176.5967
 20
41.7124
  0
VERTEX
  8
0
 10
176.5807
 20
41.6814
  0
VERTEX
  8
0
 10
176.5583
 20
41.6536
  0
VERTEX
  8
0
 10
176.5293
 20
41.6289
  0
VERTEX
  8
0
 10
176.4938
 20
41.6075
  0
VERTEX
  8
0
 10
176.5583
 20
41.5784
  0
VERTEX
  8
0
 10
176.6068
 20
41.5342
  0
VERTEX
  8
0
 10
176.6384
 20
41.4755
  0
VERTEX
  8
0
 10
176.6489
 20
41.406
  0
VERTEX
  8
0
 10
176.6434
 20
41.3537
  0
VERTEX
  8
0
 10
176.6269
 20
41.3033
  0
VERTEX
  8
0
 10
176.5996
 20
41.256
  0
VERTEX
  8
0
 10
176.5638
 20
41.2199
  0
VERTEX
  8
0
 10
176.5228
 20
41.1958
  0
VERTEX
  8
0
 10
176.4718
 20
41.1786
  0
VERTEX
  8
0
 10
176.4109
 20
41.1682
  0
VERTEX
  8
0
 10
176.34
 20
41.1648
  0
VERTEX
  8
0
 10
176.0249
 20
41.1648
  0
SEQEND
  0
POLYLINE
  8
0
 66
     1
 10
0
 20
0
  0
VERTEX
  8
0
 10
176.1329
 20
41.6488
  0
VERTEX
  8
0
 10
176.3121
 20
41.6488
  0
VERTEX
  8
0
 10
176.3744
 20
41.6512
  0
VERTEX
  8
0
 10
176.4167
 20
41.6585
  0
VERTEX
  8
0
 10
176.4466
 20
41.6711
  0
VERTEX
  8
0
 10
176.4701
 20
41.6888
  0
VERTEX
  8
0
 10
176.4869
 20
41.7116
  0
VERTEX
  8
0
 10
176.4972
 20
41.7396
  0
VERTEX
  8
0
 10
176.5009
 20
41.7728
  0
VERTEX
  8
0
 10
176.4982
 20
41.8066
  0
VERTEX
  8
0
 10
176.4893
 20
41.835
  0
VERTEX
  8
0
 10
176.474
 20
41.8583
  0
VERTEX
  8
0
 10
176.4524
 20
41.8762
  0
VERTEX
  8
0
 10
176.4246
 20
41.8889
  0
VERTEX
  8
0
 10
176.3747
 20
41.8978
  0
VERTEX
  8
0
 10
176.2985
 20
41.9008
  0
VERTEX
  8
0
 10
176.1329
 20
41.9008
  0
VERTEX
  8
0
 10
176.1329
 20
41.6488
  0
SEQEND
  0
POLYLINE
  8
0
 66
     1
 10
0
 20
0
  0
VERTEX
  8
0
 10
176.1329
 20
41.2608
  0
VERTEX
  8
0
 10
176.34
 20
41.2608
  0
VERTEX
  8
0
 10
176.3854
 20
41.2618
  0
VERTEX
  8
0
 10
176.4149
 20
41.2649
  0
VERTEX
  8
0
 10
176.4605
 20
41.2791
  0
VERTEX
  8
0
 10
176.4956
 20
41.3025
  0
VERTEX
  8
0
 10
176.5205
 20
41.335
  0
VERTEX
  8
0
 10
176.5325
 20
41.368
  0
VERTEX
  8
0
 10
176.5369
 20
41.4068
  0
VERTEX
  8
0
 10
176.5337
 20
41.4441
  0
VERTEX
  8
0
 10
176.523
 20
41.476
  0
VERTEX
  8
0
 10
176.505
 20
41.5023
  0
VERTEX
  8
0
 10
176.4795
 20
41.523
  0
VERTEX
  8
0
 10
176.4467
 20
41.5383
  0
VERTEX
  8
0
 10
176.3951
 20
41.5492
  0
VERTEX
  8
0
 10
176.3253
 20
41.5528
  0
VERTEX
  8
0
 10
176.1329
 20
41.5528
  0
VERTEX
  8
0
 10
176.1329
 20
41.2608
  0
SEQEND
  0
POLYLINE
  8
0
 66
     1
 10
0
 20
0
  0
VERTEX
  8
0
 10
176.7849
 20
41.1648
  0
VERTEX
  8
0
 10
176.7849
 20
41.9968
  0
VERTEX
  8
0
 10
176.8849
 20
41.9968
  0
VERTEX
  8
0
 10
176.8849
 20
41.1648
  0
VERTEX
  8
0
 10
176.7849
 20
41.1648
  0
SEQEND
  0
POLYLINE
  8
0
 66
     1
 10
0
 20
0
  0
VERTEX
  8
0
 10
177.4329
 20
41.1648
  0
VERTEX
  8
0
 10
177.4329
 20
41.2568
  0
VERTEX
  8
0
 10
177.4033
 20
41.2208
  0
VERTEX
  8
0
 10
177.3697
 20
41.1928
  0
VERTEX
  8
0
 10
177.3319
 20
41.1728
  0
VERTEX
  8
0
 10
177.2901
 20
41.1608
  0
VERTEX
  8
0
 10
177.2442
 20
41.1568
  0
VERTEX
  8
0
 10
177.1979
 20
41.1612
  0
VERTEX
  8
0
 10
177.1529
 20
41.1743
  0
VERTEX
  8
0
 10
177.1093
 20
41.1972
  0
VERTEX
  8
0
 10
177.0779
 20
41.2278
  0
VERTEX
  8
0
 10
177.0595
 20
41.2613
  0
VERTEX
  8
0
 10
177.0471
 20
41.3033
  0
VERTEX
  8
0
 10
177.0425
 20
41.3422
  0
VERTEX
  8
0
 10
177.0409
 20
41.398
  0
VERTEX
  8
0
 10
177.0409
 20
41.7688
  0
VERTEX
  8
0
 10
177.1409
 20
41.7688
  0
VERTEX
  8
0
 10
177.1409
 20
41.4373
  0
VERTEX
  8
0
 10
177.1425
 20
41.37
  0
VERTEX
  8
0
 10
177.1472
 20
41.3304
  0
VERTEX
  8
0
 10
177.1584
 20
41.2999
  0
VERTEX
  8
0
 10
177.1758
 20
41.2761
  0
VERTEX
  8
0
 10
177.1994
 20
41.259
  0
VERTEX
  8
0
 10
177.2291
 20
41.2486
  0
VERTEX
  8
0
 10
177.265
 20
41.2448
  0
VERTEX
  8
0
 10
177.3095
 20
41.2502
  0
VERTEX
  8
0
 10
177.351
 20
41.2676
  0
VERTEX
  8
0
 10
177.3852
 20
41.2952
  0
VERTEX
  8
0
 10
177.4079
 20
41.3315
  0
VERTEX
  8
0
 10
177.4207
 20
41.381
  0
VERTEX
  8
0
 10
177.4249
 20
41.4485
  0
VERTEX
  8
0
 10
177.4249
 20
41.7688
  0
VERTEX
  8
0
 10
177.5249
 20
41.7688
  0
VERTEX
  8
0
 10
177.5249
 20
41.1648
  0
VERTEX
  8
0
 10
177.4329
 20
41.1648
  0
SEQEND
  0
POLYLINE
  8
0
 66
     1
 10
0
 20
0
  0
VERTEX
  8
0
 10
178.0927
 20
41.3617
  0
VERTEX
  8
0
 10
178.1979
 20
41.3489
  0
VERTEX
  8
0
 10
178.1882
 20
41.3182
  0
VERTEX
  8
0
 10
178.1762
 20
41.2902
  0
VERTEX
  8
0
 10
178.162
 20
41.2648
  0
VERTEX
  8
0
 10
178.1456
 20
41.2422
  0
VERTEX
  8
0
 10
178.1269
 20
41.2221
  0
VERTEX
  8
0
 10
178.1061
 20
41.2048
  0
VERTEX
  8
0
 10
178.083
 20
41.1901
  0
VERTEX
  8
0
 10
178.0577
 20
41.1781
  0
VERTEX
  8
0
 10
178.0302
 20
41.1688
  0
VERTEX
  8
0
 10
178.0005
 20
41.1621
  0
VERTEX
  8
0
 10
177.9686
 20
41.1581
  0
VERTEX
  8
0
 10
177.9344
 20
41.1568
  0
VERTEX
  8
0
 10
177.8719
 20
41.1618
  0
VERTEX
  8
0
 10
177.8162
 20
41.1769
  0
VERTEX
  8
0
 10
177.7675
 20
41.202
  0
VERTEX
  8
0
 10
177.7257
 20
41.2372
  0
VERTEX
  8
0
 10
177.698
 20
41.272
  0
VERTEX
  8
0
 10
177.6766
 20
41.312
  0
VERTEX
  8
0
 10
177.6612
 20
41.3573
  0
VERTEX
  8
0
 10
177.652
 20
41.4079
  0
VERTEX
  8
0
 10
177.6489
 20
41.4637
  0
VERTEX
  8
0
 10
177.6532
 20
41.5298
  0
VERTEX
  8
0
 10
177.6661
 20
41.5892
  0
VERTEX
  8
0
 10
177.6876
 20
41.642
  0
VERTEX
  8
0
 10
177.7177
 20
41.688
  0
VERTEX
  8
0
 10
177.7504
 20
41.7214
  0
VERTEX
  8
0
 10
177.7878
 20
41.7474
  0
VERTEX
  8
0
 10
177.83
 20
41.766
  0
VERTEX
  8
0
 10
177.877
 20
41.7771
  0
VERTEX
  8
0
 10
177.9288
 20
41.7808
  0
VERTEX
  8
0
 10
177.9793
 20
41.7771
  0
VERTEX
  8
0
 10
178.025
 20
41.766
  0
VERTEX
  8
0
 10
178.0661
 20
41.7476
  0
VERTEX
  8
0
 10
178.1025
 20
41.7218
  0
VERTEX
  8
0
 10
178.1342
 20
41.6886
  0
VERTEX
  8
0
 10
178.1635
 20
41.643
  0
VERTEX
  8
0
 10
178.1845
 20
41.591
  0
VERTEX
  8
0
 10
178.1971
 20
41.5326
  0
VERTEX
  8
0
 10
178.2013
 20
41.4679
  0
VERTEX
  8
0
 10
178.2012
 20
41.4538
  0
VERTEX
  8
0
 10
178.2007
 20
41.4408
  0
VERTEX
  8
0
 10
177.7529
 20
41.4408
  0
VERTEX
  8
0
 10
177.7672
 20
41.363
  0
VERTEX
  8
0
 10
177.801
 20
41.3012
  0
VERTEX
  8
0
 10
177.8377
 20
41.2676
  0
VERTEX
  8
0
 10
177.8822
 20
41.2475
  0
VERTEX
  8
0
 10
177.9344
 20
41.2408
  0
VERTEX
  8
0
 10
177.9704
 20
41.2442
  0
VERTEX
  8
0
 10
178.0025
 20
41.2542
  0
VERTEX
  8
0
 10
178.0308
 20
41.271
  0
VERTEX
  8
0
 10
178.0553
 20
41.2945
  0
VERTEX
  8
0
 10
178.0759
 20
41.3248
  0
VERTEX
  8
0
 10
178.0927
 20
41.3617
  0
VERTEX
  8
0
 10
178.0927
 20
41.3617
  0
SEQEND
  0
POLYLINE
  8
0
 66
     1
 10
0
 20
0
  0
VERTEX
  8
0
 10
177.7595
 20
41.5248
  0
VERTEX
  8
0
 10
178.0941
 20
41.5248
  0
VERTEX
  8
0
 10
178.0811
 20
41.5909
  0
VERTEX
  8
0
 10
178.0557
 20
41.6382
  0
VERTEX
  8
0
 10
178.0202
 20
41.6705
  0
VERTEX
  8
0
 10
177.9783
 20
41.69
  0
VERTEX
  8
0
 10
177.9299
 20
41.6968
  0
VERTEX
  8
0
 10
177.8628
 20
41.6847
  0
VERTEX
  8
0
 10
177.8092
 20
41.6472
  0
VERTEX
  8
0
 10
177.7744
 20
41.5929
  0
VERTEX
  8
0
 10
177.7595
 20
41.5248
  0
VERTEX
  8
0
 10
177.7595
 20
41.5248
  0
SEQEND
  0
POLYLINE
  8
0
 66
     1
 10
0
 20
0
  0
VERTEX
  8
0
 10
178.8209
 20
41.4688
  0
VERTEX
  8
0
 10
178.8235
 20
41.5217
  0
VERTEX
  8
0
 10
178.8312
 20
41.5698
  0
VERTEX
  8
0
 10
178.844
 20
41.6131
  0
VERTEX
  8
0
 10
178.862
 20
41.6517
  0
VERTEX
  8
0
 10
178.885
 20
41.6855
  0
VERTEX
  8
0
 10
178.9132
 20
41.7145
  0
VERTEX
  8
0
 10
178.9682
 20
41.7513
  0
VERTEX
  8
0
 10
179.0308
 20
41.7734
  0
VERTEX
  8
0
 10
179.1012
 20
41.7808
  0
VERTEX
  8
0
 10
179.1517
 20
41.7773
  0
VERTEX
  8
0
 10
179.1977
 20
41.7669
  0
VERTEX
  8
0
 10
179.2392
 20
41.7494
  0
VERTEX
  8
0
 10
179.2763
 20
41.725
  0
VERTEX
  8
0
 10
179.3089
 20
41.6937
  0
VERTEX
  8
0
 10
179.3404
 20
41.6489
  0
VERTEX
  8
0
 10
179.3629
 20
41.598
  0
VERTEX
  8
0
 10
179.3764
 20
41.5407
  0
VERTEX
  8
0
 10
179.3809
 20
41.4772
  0
VERTEX
  8
0
 10
179.3792
 20
41.4324
  0
VERTEX
  8
0
 10
179.3742
 20
41.3909
  0
VERTEX
  8
0
 10
179.3659
 20
41.3527
  0
VERTEX
  8
0
 10
179.3541
 20
41.3179
  0
VERTEX
  8
0
 10
179.3391
 20
41.2863
  0
VERTEX
  8
0
 10
179.3206
 20
41.2581
  0
VERTEX
  8
0
 10
179.2989
 20
41.2332
  0
VERTEX
  8
0
 10
179.2738
 20
41.2116
  0
VERTEX
  8
0
 10
179.2453
 20
41.1934
  0
VERTEX
  8
0
 10
179.1763
 20
41.1662
  0
VERTEX
  8
0
 10
179.1012
 20
41.1568
  0
VERTEX
  8
0
 10
179.049
 20
41.1602
  0
VERTEX
  8
0
 10
179.0018
 20
41.1708
  0
VERTEX
  8
0
 10
178.9596
 20
41.1887
  0
VERTEX
  8
0
 10
178.9224
 20
41.2138
  0
VERTEX
  8
0
 10
178.8902
 20
41.2462
  0
VERTEX
  8
0
 10
178.8599
 20
41.2913
  0
VERTEX
  8
0
 10
178.8382
 20
41.3434
  0
VERTEX
  8
0
 10
178.8253
 20
41.4026
  0
VERTEX
  8
0
 10
178.8209
 20
41.4688
  0
VERTEX
  8
0
 10
178.8209
 20
41.4688
  0
SEQEND
  0
POLYLINE
  8
0
 66
     1
 10
0
 20
0
  0
VERTEX
  8
0
 10
178.9249
 20
41.469
  0
VERTEX
  8
0
 10
178.9346
 20
41.3817
  0
VERTEX
  8
0
 10
178.9638
 20
41.3126
  0
VERTEX
  8
0
 10
178.9897
 20
41.2814
  0
VERTEX
  8
0
 10
179.0213
 20
41.259
  0
VERTEX
  8
0
 10
179.0584
 20
41.2455
  0
VERTEX
  8
0
 10
179.1012
 20
41.2408
  0
VERTEX
  8
0
 10
179.144
 20
41.2452
  0
VERTEX
  8
0
 10
179.1812
 20
41.2589
  0
VERTEX
  8
0
 10
179.2127
 20
41.2819
  0
VERTEX
  8
0
 10
179.2386
 20
41.3143
  0
VERTEX
  8
0
 10
179.2673
 20
41.3847
  0
VERTEX
  8
0
 10
179.2769
 20
41.4724
  0
VERTEX
  8
0
 10
179.2669
 20
41.5574
  0
VERTEX
  8
0
 10
179.2369
 20
41.6261
  0
VERTEX
  8
0
 10
179.2107
 20
41.657
  0
VERTEX
  8
0
 10
179.1793
 20
41.6791
  0
VERTEX
  8
0
 10
179.1429
 20
41.6924
  0
VERTEX
  8
0
 10
179.1012
 20
41.6968
  0
VERTEX
  8
0
 10
179.0584
 20
41.6923
  0
VERTEX
  8
0
 10
179.0213
 20
41.6788
  0
VERTEX
  8
0
 10
178.9897
 20
41.6564
  0
VERTEX
  8
0
 10
178.9638
 20
41.625
  0
VERTEX
  8
0
 10
178.9346
 20
41.5557
  0
VERTEX
  8
0
 10
178.9249
 20
41.469
  0
VERTEX
  8
0
 10
178.9249
 20
41.469
  0
SEQEND
  0
POLYLINE
  8
0
 66
     1
 10
0
 20
0
  0
VERTEX
  8
0
 10
179.5009
 20
41.1648
  0
VERTEX
  8
0
 10
179.5009
 20
41.768
  0
VERTEX
  8
0
 10
179.5929
 20
41.768
  0
VERTEX
  8
0
 10
179.5929
 20
41.6828
  0
VERTEX
  8
0
 10
179.6217
 20
41.7179
  0
VERTEX
  8
0
 10
179.6552
 20
41.7452
  0
VERTEX
  8
0
 10
179.6934
 20
41.7648
  0
VERTEX
  8
0
 10
179.7363
 20
41.7767
  0
VERTEX
  8
0
 10
179.7839
 20
41.7808
  0
VERTEX
  8
0
 10
179.835
 20
41.7758
  0
VERTEX
  8
0
 10
179.8833
 20
41.7609
  0
VERTEX
  8
0
 10
179.9198
 20
41.7401
  0
VERTEX
  8
0
 10
179.9487
 20
41.712
  0
VERTEX
  8
0
 10
179.9698
 20
41.6768
  0
VERTEX
  8
0
 10
179.9833
 20
41.6345
  0
VERTEX
  8
0
 10
179.9875
 20
41.5963
  0
VERTEX
  8
0
 10
179.9889
 20
41.5352
  0
VERTEX
  8
0
 10
179.9889
 20
41.1648
  0
VERTEX
  8
0
 10
179.8889
 20
41.1648
  0
VERTEX
  8
0
 10
179.8889
 20
41.5315
  0
VERTEX
  8
0
 10
179.8869
 20
41.5782
  0
VERTEX
  8
0
 10
179.8809
 20
41.6116
  0
VERTEX
  8
0
 10
179.8635
 20
41.6477
  0
VERTEX
  8
0
 10
179.834
 20
41.674
  0
VERTEX
  8
0
 10
179.8009
 20
41.6881
  0
VERTEX
  8
0
 10
179.7624
 20
41.6928
  0
VERTEX
  8
0
 10
179.7366
 20
41.6914
  0
VERTEX
  8
0
 10
179.713
 20
41.6873
  0
VERTEX
  8
0
 10
179.6917
 20
41.6804
  0
VERTEX
  8
0
 10
179.6727
 20
41.6707
  0
VERTEX
  8
0
 10
179.6559
 20
41.6583
  0
VERTEX
  8
0
 10
179.6413
 20
41.6431
  0
VERTEX
  8
0
 10
179.629
 20
41.6252
  0
VERTEX
  8
0
 10
179.6189
 20
41.6045
  0
VERTEX
  8
0
 10
179.611
 20
41.581
  0
VERTEX
  8
0
 10
179.6054
 20
41.5548
  0
VERTEX
  8
0
 10
179.602
 20
41.5258
  0
VERTEX
  8
0
 10
179.6009
 20
41.4941
  0
VERTEX
  8
0
 10
179.6009
 20
41.1648
  0
VERTEX
  8
0
 10
179.5009
 20
41.1648
  0
SEQEND
  0
POLYLINE
  8
0
 66
     1
 10
0
 20
0
  0
VERTEX
  8
0
 10
180.8338
 20
41.1648
  0
VERTEX
  8
0
 10
180.6129
 20
41.9968
  0
VERTEX
  8
0
 10
180.7252
 20
41.9968
  0
VERTEX
  8
0
 10
180.851
 20
41.4539
  0
VERTEX
  8
0
 10
180.8699
 20
41.3681
  0
VERTEX
  8
0
 10
180.886
 20
41.2845
  0
VERTEX
  8
0
 10
180.8974
 20
41.3325
  0
VERTEX
  8
0
 10
180.9069
 20
41.3718
  0
VERTEX
  8
0
 10
180.9143
 20
41.4023
  0
VERTEX
  8
0
 10
180.9198
 20
41.4242
  0
VERTEX
  8
0
 10
180.9232
 20
41.4374
  0
VERTEX
  8
0
 10
181.0806
 20
41.9968
  0
VERTEX
  8
0
 10
181.2127
 20
41.9968
  0
VERTEX
  8
0
 10
181.3312
 20
41.5773
  0
VERTEX
  8
0
 10
181.369
 20
41.4265
  0
VERTEX
  8
0
 10
181.395
 20
41.2845
  0
VERTEX
  8
0
 10
181.4046
 20
41.3298
  0
VERTEX
  8
0
 10
181.4182
 20
41.3899
  0
VERTEX
  8
0
 10
181.436
 20
41.4646
  0
VERTEX
  8
0
 10
181.5645
 20
41.9968
  0
VERTEX
  8
0
 10
181.6764
 20
41.9968
  0
VERTEX
  8
0
 10
181.4496
 20
41.1648
  0
VERTEX
  8
0
 10
181.3438
 20
41.1648
  0
VERTEX
  8
0
 10
181.1689
 20
41.7988
  0
VERTEX
  8
0
 10
181.1555
 20
41.8445
  0
VERTEX
  8
0
 10
181.1464
 20
41.8767
  0
VERTEX
  8
0
 10
181.1415
 20
41.8954
  0
VERTEX
  8
0
 10
181.1314
 20
41.846
  0
VERTEX
  8
0
 10
181.1204
 20
41.7988
  0
VERTEX
  8
0
 10
180.9462
 20
41.1648
  0
VERTEX
  8
0
 10
180.8338
 20
41.1648
  0
SEQEND
  0
POLYLINE
  8
0
 66
     1
 10
0
 20
0
  0
VERTEX
  8
0
 10
181.7649
 20
41.1648
  0
VERTEX
  8
0
 10
181.7649
 20
41.9968
  0
VERTEX
  8
0
 10
181.8649
 20
41.9968
  0
VERTEX
  8
0
 10
181.8649
 20
41.6992
  0
VERTEX
  8
0
 10
181.9029
 20
41.7347
  0
VERTEX
  8
0
 10
181.9456
 20
41.7601
  0
VERTEX
  8
0
 10
181.993
 20
41.7755
  0
VERTEX
  8
0
 10
182.045
 20
41.7808
  0
VERTEX
  8
0
 10
182.1066
 20
41.7744
  0
VERTEX
  8
0
 10
182.1612
 20
41.7541
  0
VERTEX
  8
0
 10
182.208
 20
41.7173
  0
VERTEX
  8
0
 10
182.2376
 20
41.6657
  0
VERTEX
  8
0
 10
182.2491
 20
41.6143
  0
VERTEX
  8
0
 10
182.2529
 20
41.5465
  0
VERTEX
  8
0
 10
182.2529
 20
41.1648
  0
VERTEX
  8
0
 10
182.1529
 20
41.1648
  0
VERTEX
  8
0
 10
182.1529
 20
41.5465
  0
VERTEX
  8
0
 10
182.1513
 20
41.577
  0
VERTEX
  8
0
 10
182.1466
 20
41.6039
  0
VERTEX
  8
0
 10
182.1387
 20
41.6273
  0
VERTEX
  8
0
 10
182.1277
 20
41.6471
  0
VERTEX
  8
0
 10
182.1135
 20
41.6633
  0
VERTEX
  8
0
 10
182.0961
 20
41.676
  0
VERTEX
  8
0
 10
182.0756
 20
41.6852
  0
VERTEX
  8
0
 10
182.052
 20
41.6908
  0
VERTEX
  8
0
 10
182.0252
 20
41.6928
  0
VERTEX
  8
0
 10
181.981
 20
41.6873
  0
VERTEX
  8
0
 10
181.9396
 20
41.6696
  0
VERTEX
  8
0
 10
181.9054
 20
41.6417
  0
VERTEX
  8
0
 10
181.8823
 20
41.6057
  0
VERTEX
  8
0
 10
181.8693
 20
41.5579
  0
VERTEX
  8
0
 10
181.8649
 20
41.4943
  0
VERTEX
  8
0
 10
181.8649
 20
41.1648
  0
VERTEX
  8
0
 10
181.7649
 20
41.1648
  0
SEQEND
  0
POLYLINE
  8
0
 66
     1
 10
0
 20
0
  0
VERTEX
  8
0
 10
182.4049
 20
41.8808
  0
VERTEX
  8
0
 10
182.4049
 20
41.9968
  0
VERTEX
  8
0
 10
182.5049
 20
41.9968
  0
VERTEX
  8
0
 10
182.5049
 20
41.8808
  0
VERTEX
  8
0
 10
182.4049
 20
41.8808
  0
SEQEND
  0
POLYLINE
  8
0
 66
     1
 10
0
 20
0
  0
VERTEX
  8
0
 10
182.4049
 20
41.1648
  0
VERTEX
  8
0
 10
182.4049
 20
41.768
  0
VERTEX
  8
0
 10
182.5049
 20
41.768
  0
VERTEX
  8
0
 10
182.5049
 20
41.1648
  0
VERTEX
  8
0
 10
182.4049
 20
41.1648
  0
SEQEND
  0
POLYLINE
  8
0
 66
     1
 10
0
 20
0
  0
VERTEX
  8
0
 10
182.8865
 20
41.2596
  0
VERTEX
  8
0
 10
182.9012
 20
41.1699
  0
VERTEX
  8
0
 10
182.8606
 20
41.1633
  0
VERTEX
  8
0
 10
182.825
 20
41.1608
  0
VERTEX
  8
0
 10
182.7792
 20
41.1643
  0
VERTEX
  8
0
 10
182.7426
 20
41.176
  0
VERTEX
  8
0
 10
182.7153
 20
41.1959
  0
VERTEX
  8
0
 10
182.6972
 20
41.224
  0
VERTEX
  8
0
 10
182.6904
 20
41.2504
  0
VERTEX
  8
0
 10
182.6863
 20
41.2904
  0
VERTEX
  8
0
 10
182.6849
 20
41.3441
  0
VERTEX
  8
0
 10
182.6849
 20
41.6888
  0
VERTEX
  8
0
 10
182.6089
 20
41.6888
  0
VERTEX
  8
0
 10
182.6089
 20
41.7688
  0
VERTEX
  8
0
 10
182.6849
 20
41.7688
  0
VERTEX
  8
0
 10
182.6849
 20
41.9162
  0
VERTEX
  8
0
 10
182.7849
 20
41.9768
  0
VERTEX
  8
0
 10
182.7849
 20
41.7688
  0
VERTEX
  8
0
 10
182.8849
 20
41.7688
  0
VERTEX
  8
0
 10
182.8849
 20
41.6888
  0
VERTEX
  8
0
 10
182.7849
 20
41.6888
  0
VERTEX
  8
0
 10
182.7849
 20
41.3395
  0
VERTEX
  8
0
 10
182.7853
 20
41.3125
  0
VERTEX
  8
0
 10
182.7866
 20
41.2979
  0
VERTEX
  8
0
 10
182.7938
 20
41.2779
  0
VERTEX
  8
0
 10
182.8074
 20
41.2641
  0
VERTEX
  8
0
 10
182.8217
 20
41.2589
  0
VERTEX
  8
0
 10
182.8422
 20
41.2568
  0
VERTEX
  8
0
 10
182.8614
 20
41.2572
  0
VERTEX
  8
0
 10
182.8865
 20
41.2596
  0
VERTEX
  8
0
 10
182.8865
 20
41.2596
  0
SEQEND
  0
POLYLINE
  8
0
 66
     1
 10
0
 20
0
  0
VERTEX
  8
0
 10
183.3927
 20
41.3617
  0
VERTEX
  8
0
 10
183.4979
 20
41.3489
  0
VERTEX
  8
0
 10
183.4882
 20
41.3182
  0
VERTEX
  8
0
 10
183.4762
 20
41.2902
  0
VERTEX
  8
0
 10
183.462
 20
41.2648
  0
VERTEX
  8
0
 10
183.4456
 20
41.2422
  0
VERTEX
  8
0
 10
183.4269
 20
41.2221
  0
VERTEX
  8
0
 10
183.4061
 20
41.2048
  0
VERTEX
  8
0
 10
183.383
 20
41.1901
  0
VERTEX
  8
0
 10
183.3577
 20
41.1781
  0
VERTEX
  8
0
 10
183.3302
 20
41.1688
  0
VERTEX
  8
0
 10
183.3005
 20
41.1621
  0
VERTEX
  8
0
 10
183.2686
 20
41.1581
  0
VERTEX
  8
0
 10
183.2344
 20
41.1568
  0
VERTEX
  8
0
 10
183.1719
 20
41.1618
  0
VERTEX
  8
0
 10
183.1162
 20
41.1769
  0
VERTEX
  8
0
 10
183.0675
 20
41.202
  0
VERTEX
  8
0
 10
183.0257
 20
41.2372
  0
VERTEX
  8
0
 10
182.998
 20
41.272
  0
VERTEX
  8
0
 10
182.9766
 20
41.312
  0
VERTEX
  8
0
 10
182.9612
 20
41.3573
  0
VERTEX
  8
0
 10
182.952
 20
41.4079
  0
VERTEX
  8
0
 10
182.9489
 20
41.4637
  0
VERTEX
  8
0
 10
182.9532
 20
41.5298
  0
VERTEX
  8
0
 10
182.9661
 20
41.5892
  0
VERTEX
  8
0
 10
182.9876
 20
41.642
  0
VERTEX
  8
0
 10
183.0177
 20
41.688
  0
VERTEX
  8
0
 10
183.0504
 20
41.7214
  0
VERTEX
  8
0
 10
183.0878
 20
41.7474
  0
VERTEX
  8
0
 10
183.13
 20
41.766
  0
VERTEX
  8
0
 10
183.177
 20
41.7771
  0
VERTEX
  8
0
 10
183.2288
 20
41.7808
  0
VERTEX
  8
0
 10
183.2793
 20
41.7771
  0
VERTEX
  8
0
 10
183.325
 20
41.766
  0
VERTEX
  8
0
 10
183.3661
 20
41.7476
  0
VERTEX
  8
0
 10
183.4025
 20
41.7218
  0
VERTEX
  8
0
 10
183.4342
 20
41.6886
  0
VERTEX
  8
0
 10
183.4635
 20
41.643
  0
VERTEX
  8
0
 10
183.4845
 20
41.591
  0
VERTEX
  8
0
 10
183.4971
 20
41.5326
  0
VERTEX
  8
0
 10
183.5013
 20
41.4679
  0
VERTEX
  8
0
 10
183.5012
 20
41.4538
  0
VERTEX
  8
0
 10
183.5007
 20
41.4408
  0
VERTEX
  8
0
 10
183.0529
 20
41.4408
  0
VERTEX
  8
0
 10
183.0672
 20
41.363
  0
VERTEX
  8
0
 10
183.101
 20
41.3012
  0
VERTEX
  8
0
 10
183.1377
 20
41.2676
  0
VERTEX
  8
0
 10
183.1822
 20
41.2475
  0
VERTEX
  8
0
 10
183.2344
 20
41.2408
  0
VERTEX
  8
0
 10
183.2704
 20
41.2442
  0
VERTEX
  8
0
 10
183.3025
 20
41.2542
  0
VERTEX
  8
0
 10
183.3308
 20
41.271
  0
VERTEX
  8
0
 10
183.3553
 20
41.2945
  0
VERTEX
  8
0
 10
183.3759
 20
41.3248
  0
VERTEX
  8
0
 10
183.3927
 20
41.3617
  0
VERTEX
  8
0
 10
183.3927
 20
41.3617
  0
SEQEND
  0
POLYLINE
  8
0
 66
     1
 10
0
 20
0
  0
VERTEX
  8
0
 10
183.0595
 20
41.5248
  0
VERTEX
  8
0
 10
183.3941
 20
41.5248
  0
VERTEX
  8
0
 10
183.3811
 20
41.5909
  0
VERTEX
  8
0
 10
183.3557
 20
41.6382
  0
VERTEX
  8
0
 10
183.3202
 20
41.6705
  0
VERTEX
  8
0
 10
183.2783
 20
41.69
  0
VERTEX
  8
0
 10
183.2299
 20
41.6968
  0
VERTEX
  8
0
 10
183.1628
 20
41.6847
  0
VERTEX
  8
0
 10
183.1092
 20
41.6472
  0
VERTEX
  8
0
 10
183.0744
 20
41.5929
  0
VERTEX
  8
0
 10
183.0595
 20
41.5248
  0
VERTEX
  8
0
 10
183.0595
 20
41.5248
  0
SEQEND
  0
POLYLINE
  8
0
 66
     1
 10
0
 20
0
  0
VERTEX
  8
0
 10
183.6569
 20
41.6528
  0
VERTEX
  8
0
 10
183.6569
 20
41.7688
  0
VERTEX
  8
0
 10
183.7729
 20
41.7688
  0
VERTEX
  8
0
 10
183.7729
 20
41.6528
  0
VERTEX
  8
0
 10
183.6569
 20
41.6528
  0
SEQEND
  0
POLYLINE
  8
0
 66
     1
 10
0
 20
0
  0
VERTEX
  8
0
 10
183.6569
 20
41.1648
  0
VERTEX
  8
0
 10
183.6569
 20
41.2808
  0
VERTEX
  8
0
 10
183.7729
 20
41.2808
  0
VERTEX
  8
0
 10
183.7729
 20
41.1665
  0
VERTEX
  8
0
 10
183.7703
 20
41.1285
  0
VERTEX
  8
0
 10
183.7623
 20
41.095
  0
VERTEX
  8
0
 10
183.7491
 20
41.0658
  0
VERTEX
  8
0
 10
183.7305
 20
41.0411
  0
VERTEX
  8
0
 10
183.7066
 20
41.0207
  0
VERTEX
  8
0
 10
183.6775
 20
41.0048
  0
VERTEX
  8
0
 10
183.6489
 20
41.0473
  0
VERTEX
  8
0
 10
183.676
 20
41.0642
  0
VERTEX
  8
0
 10
183.6958
 20
41.0894
  0
VERTEX
  8
0
 10
183.7082
 20
41.1229
  0
VERTEX
  8
0
 10
183.7132
 20
41.1648
  0
VERTEX
  8
0
 10
183.6569
 20
41.1648
  0
SEQEND
  0
POLYLINE
  8
0
 66
     1
 10
0
 20
0
  0
VERTEX
  8
0
 10
150.0009
 20
39.5648
  0
VERTEX
  8
0
 10
150.0009
 20
40.3968
  0
VERTEX
  8
0
 10
150.367
 20
40.3968
  0
VERTEX
  8
0
 10
150.4507
 20
40.393
  0
VERTEX
  8
0
 10
150.5128
 20
40.3815
  0
VERTEX
  8
0
 10
150.579
 20
40.3486
  0
VERTEX
  8
0
 10
150.6265
 20
40.2952
  0
VERTEX
  8
0
 10
150.652
 20
40.2358
  0
VERTEX
  8
0
 10
150.6609
 20
40.1698
  0
VERTEX
  8
0
 10
150.6599
 20
40.143
  0
VERTEX
  8
0
 10
150.6565
 20
40.1179
  0
VERTEX
  8
0
 10
150.6507
 20
40.0944
  0
VERTEX
  8
0
 10
150.6425
 20
40.0725
  0
VERTEX
  8
0
 10
150.6319
 20
40.0523
  0
VERTEX
  8
0
 10
150.6189
 20
40.0337
  0
VERTEX
  8
0
 10
150.6036
 20
40.0167
  0
VERTEX
  8
0
 10
150.5858
 20
40.0013
  0
VERTEX
  8
0
 10
150.5657
 20
39.9876
  0
VERTEX
  8
0
 10
150.5432
 20
39.9755
  0
VERTEX
  8
0
 10
150.5183
 20
39.965
  0
VERTEX
  8
0
 10
150.4909
 20
39.9562
  0
VERTEX
  8
0
 10
150.4613
 20
39.9489
  0
VERTEX
  8
0
 10
150.4292
 20
39.9434
  0
VERTEX
  8
0
 10
150.4677
 20
39.9225
  0
VERTEX
  8
0
 10
150.4952
 20
39.9019
  0
VERTEX
  8
0
 10
150.543
 20
39.8507
  0
VERTEX
  8
0
 10
150.586
 20
39.7912
  0
VERTEX
  8
0
 10
150.73
 20
39.5648
  0
VERTEX
  8
0
 10
150.5929
 20
39.5648
  0
VERTEX
  8
0
 10
150.4825
 20
39.7407
  0
VERTEX
  8
0
 10
150.4482
 20
39.7932
  0
VERTEX
  8
0
 10
150.4214
 20
39.8319
  0
VERTEX
  8
0
 10
150.3813
 20
39.8808
  0
VERTEX
  8
0
 10
150.3472
 20
39.9107
  0
VERTEX
  8
0
 10
150.3223
 20
39.9245
  0
VERTEX
  8
0
 10
150.2974
 20
39.9329
  0
VERTEX
  8
0
 10
150.2734
 20
39.9358
  0
VERTEX
  8
0
 10
150.2363
 20
39.9368
  0
VERTEX
  8
0
 10
150.1089
 20
39.9368
  0
VERTEX
  8
0
 10
150.1089
 20
39.5648
  0
VERTEX
  8
0
 10
150.0009
 20
39.5648
  0
SEQEND
  0
POLYLINE
  8
0
 66
     1
 10
0
 20
0
  0
VERTEX
  8
0
 10
150.1089
 20
40.0328
  0
VERTEX
  8
0
 10
150.3447
 20
40.0328
  0
VERTEX
  8
0
 10
150.3969
 20
40.0354
  0
VERTEX
  8
0
 10
150.4412
 20
40.0431
  0
VERTEX
  8
0
 10
150.4776
 20
40.056
  0
VERTEX
  8
0
 10
150.5062
 20
40.0741
  0
VERTEX
  8
0
 10
150.5269
 20
40.0973
  0
VERTEX
  8
0
 10
150.5434
 20
40.1329
  0
VERTEX
  8
0
 10
150.5489
 20
40.1713
  0
VERTEX
  8
0
 10
150.5427
 20
40.2144
  0
VERTEX
  8
0
 10
150.524
 20
40.2493
  0
VERTEX
  8
0
 10
150.4929
 20
40.2762
  0
VERTEX
  8
0
 10
150.4396
 20
40.2976
  0
VERTEX
  8
0
 10
150.3714
 20
40.3048
  0
VERTEX
  8
0
 10
150.1089
 20
40.3048
  0
VERTEX
  8
0
 10
150.1089
 20
40.0328
  0
SEQEND
  0
POLYLINE
  8
0
 66
     1
 10
0
 20
0
  0
VERTEX
  8
0
 10
150.7849
 20
39.8688
  0
VERTEX
  8
0
 10
150.7875
 20
39.9217
  0
VERTEX
  8
0
 10
150.7952
 20
39.9698
  0
VERTEX
  8
0
 10
150.808
 20
40.0131
  0
VERTEX
  8
0
 10
150.826
 20
40.0517
  0
VERTEX
  8
0
 10
150.849
 20
40.0855
  0
VERTEX
  8
0
 10
150.8772
 20
40.1145
  0
VERTEX
  8
0
 10
150.9322
 20
40.1513
  0
VERTEX
  8
0
 10
150.9948
 20
40.1734
  0
VERTEX
  8
0
 10
151.0652
 20
40.1808
  0
VERTEX
  8
0
 10
151.1157
 20
40.1773
  0
VERTEX
  8
0
 10
151.1617
 20
40.1669
  0
VERTEX
  8
0
 10
151.2032
 20
40.1494
  0
VERTEX
  8
0
 10
151.2403
 20
40.125
  0
VERTEX
  8
0
 10
151.2729
 20
40.0937
  0
VERTEX
  8
0
 10
151.3044
 20
40.0489
  0
VERTEX
  8
0
 10
151.3269
 20
39.998
  0
VERTEX
  8
0
 10
151.3404
 20
39.9407
  0
VERTEX
  8
0
 10
151.3449
 20
39.8772
  0
VERTEX
  8
0
 10
151.3433
 20
39.8324
  0
VERTEX
  8
0
 10
151.3382
 20
39.7909
  0
VERTEX
  8
0
 10
151.3299
 20
39.7527
  0
VERTEX
  8
0
 10
151.3181
 20
39.7179
  0
VERTEX
  8
0
 10
151.3031
 20
39.6863
  0
VERTEX
  8
0
 10
151.2846
 20
39.6581
  0
VERTEX
  8
0
 10
151.2629
 20
39.6332
  0
VERTEX
  8
0
 10
151.2378
 20
39.6116
  0
VERTEX
  8
0
 10
151.2093
 20
39.5934
  0
VERTEX
  8
0
 10
151.1403
 20
39.5662
  0
VERTEX
  8
0
 10
151.0652
 20
39.5568
  0
VERTEX
  8
0
 10
151.013
 20
39.5602
  0
VERTEX
  8
0
 10
150.9658
 20
39.5708
  0
VERTEX
  8
0
 10
150.9236
 20
39.5887
  0
VERTEX
  8
0
 10
150.8864
 20
39.6138
  0
VERTEX
  8
0
 10
150.8542
 20
39.6462
  0
VERTEX
  8
0
 10
150.8239
 20
39.6913
  0
VERTEX
  8
0
 10
150.8022
 20
39.7434
  0
VERTEX
  8
0
 10
150.7893
 20
39.8026
  0
VERTEX
  8
0
 10
150.7849
 20
39.8688
  0
VERTEX
  8
0
 10
150.7849
 20
39.8688
  0
SEQEND
  0
POLYLINE
  8
0
 66
     1
 10
0
 20
0
  0
VERTEX
  8
0
 10
150.8889
 20
39.869
  0
VERTEX
  8
0
 10
150.8986
 20
39.7817
  0
VERTEX
  8
0
 10
150.9278
 20
39.7126
  0
VERTEX
  8
0
 10
150.9537
 20
39.6814
  0
VERTEX
  8
0
 10
150.9853
 20
39.659
  0
VERTEX
  8
0
 10
151.0224
 20
39.6455
  0
VERTEX
  8
0
 10
151.0652
 20
39.6408
  0
VERTEX
  8
0
 10
151.108
 20
39.6452
  0
VERTEX
  8
0
 10
151.1452
 20
39.6589
  0
VERTEX
  8
0
 10
151.1767
 20
39.6819
  0
VERTEX
  8
0
 10
151.2026
 20
39.7143
  0
VERTEX
  8
0
 10
151.2313
 20
39.7847
  0
VERTEX
  8
0
 10
151.2409
 20
39.8724
  0
VERTEX
  8
0
 10
151.2309
 20
39.9574
  0
VERTEX
  8
0
 10
151.2009
 20
40.0261
  0
VERTEX
  8
0
 10
151.1747
 20
40.057
  0
VERTEX
  8
0
 10
151.1433
 20
40.0791
  0
VERTEX
  8
0
 10
151.1069
 20
40.0924
  0
VERTEX
  8
0
 10
151.0652
 20
40.0968
  0
VERTEX
  8
0
 10
151.0224
 20
40.0923
  0
VERTEX
  8
0
 10
150.9853
 20
40.0788
  0
VERTEX
  8
0
 10
150.9537
 20
40.0564
  0
VERTEX
  8
0
 10
150.9278
 20
40.025
  0
VERTEX
  8
0
 10
150.8986
 20
39.9557
  0
VERTEX
  8
0
 10
150.8889
 20
39.869
  0
VERTEX
  8
0
 10
150.8889
 20
39.869
  0
SEQEND
  0
POLYLINE
  8
0
 66
     1
 10
0
 20
0
  0
VERTEX
  8
0
 10
151.8529
 20
39.5648
  0
VERTEX
  8
0
 10
151.8529
 20
39.6568
  0
VERTEX
  8
0
 10
151.8233
 20
39.6208
  0
VERTEX
  8
0
 10
151.7897
 20
39.5928
  0
VERTEX
  8
0
 10
151.7519
 20
39.5728
  0
VERTEX
  8
0
 10
151.7101
 20
39.5608
  0
VERTEX
  8
0
 10
151.6642
 20
39.5568
  0
VERTEX
  8
0
 10
151.6179
 20
39.5612
  0
VERTEX
  8
0
 10
151.5729
 20
39.5743
  0
VERTEX
  8
0
 10
151.5293
 20
39.5972
  0
VERTEX
  8
0
 10
151.4979
 20
39.6278
  0
VERTEX
  8
0
 10
151.4795
 20
39.6613
  0
VERTEX
  8
0
 10
151.4671
 20
39.7033
  0
VERTEX
  8
0
 10
151.4625
 20
39.7422
  0
VERTEX
  8
0
 10
151.4609
 20
39.798
  0
VERTEX
  8
0
 10
151.4609
 20
40.1688
  0
VERTEX
  8
0
 10
151.5609
 20
40.1688
  0
VERTEX
  8
0
 10
151.5609
 20
39.8373
  0
VERTEX
  8
0
 10
151.5625
 20
39.77
  0
VERTEX
  8
0
 10
151.5672
 20
39.7304
  0
VERTEX
  8
0
 10
151.5784
 20
39.6999
  0
VERTEX
  8
0
 10
151.5958
 20
39.6761
  0
VERTEX
  8
0
 10
151.6194
 20
39.659
  0
VERTEX
  8
0
 10
151.6491
 20
39.6486
  0
VERTEX
  8
0
 10
151.685
 20
39.6448
  0
VERTEX
  8
0
 10
151.7295
 20
39.6502
  0
VERTEX
  8
0
 10
151.771
 20
39.6676
  0
VERTEX
  8
0
 10
151.8052
 20
39.6952
  0
VERTEX
  8
0
 10
151.8279
 20
39.7315
  0
VERTEX
  8
0
 10
151.8407
 20
39.781
  0
VERTEX
  8
0
 10
151.8449
 20
39.8485
  0
VERTEX
  8
0
 10
151.8449
 20
40.1688
  0
VERTEX
  8
0
 10
151.9449
 20
40.1688
  0
VERTEX
  8
0
 10
151.9449
 20
39.5648
  0
VERTEX
  8
0
 10
151.8529
 20
39.5648
  0
SEQEND
  0
POLYLINE
  8
0
 66
     1
 10
0
 20
0
  0
VERTEX
  8
0
 10
152.1009
 20
39.5648
  0
VERTEX
  8
0
 10
152.1009
 20
40.168
  0
VERTEX
  8
0
 10
152.1929
 20
40.168
  0
VERTEX
  8
0
 10
152.1929
 20
40.0828
  0
VERTEX
  8
0
 10
152.2217
 20
40.1179
  0
VERTEX
  8
0
 10
152.2552
 20
40.1452
  0
VERTEX
  8
0
 10
152.2934
 20
40.1648
  0
VERTEX
  8
0
 10
152.3363
 20
40.1767
  0
VERTEX
  8
0
 10
152.3839
 20
40.1808
  0
VERTEX
  8
0
 10
152.435
 20
40.1758
  0
VERTEX
  8
0
 10
152.4833
 20
40.1609
  0
VERTEX
  8
0
 10
152.5198
 20
40.1401
  0
VERTEX
  8
0
 10
152.5487
 20
40.112
  0
VERTEX
  8
0
 10
152.5698
 20
40.0768
  0
VERTEX
  8
0
 10
152.5833
 20
40.0345
  0
VERTEX
  8
0
 10
152.5875
 20
39.9963
  0
VERTEX
  8
0
 10
152.5889
 20
39.9352
  0
VERTEX
  8
0
 10
152.5889
 20
39.5648
  0
VERTEX
  8
0
 10
152.4889
 20
39.5648
  0
VERTEX
  8
0
 10
152.4889
 20
39.9315
  0
VERTEX
  8
0
 10
152.4869
 20
39.9782
  0
VERTEX
  8
0
 10
152.4809
 20
40.0116
  0
VERTEX
  8
0
 10
152.4635
 20
40.0477
  0
VERTEX
  8
0
 10
152.434
 20
40.074
  0
VERTEX
  8
0
 10
152.4009
 20
40.0881
  0
VERTEX
  8
0
 10
152.3624
 20
40.0928
  0
VERTEX
  8
0
 10
152.3366
 20
40.0914
  0
VERTEX
  8
0
 10
152.313
 20
40.0873
  0
VERTEX
  8
0
 10
152.2917
 20
40.0804
  0
VERTEX
  8
0
 10
152.2727
 20
40.0707
  0
VERTEX
  8
0
 10
152.2559
 20
40.0583
  0
VERTEX
  8
0
 10
152.2413
 20
40.0431
  0
VERTEX
  8
0
 10
152.229
 20
40.0252
  0
VERTEX
  8
0
 10
152.2189
 20
40.0045
  0
VERTEX
  8
0
 10
152.211
 20
39.981
  0
VERTEX
  8
0
 10
152.2054
 20
39.9548
  0
VERTEX
  8
0
 10
152.202
 20
39.9258
  0
VERTEX
  8
0
 10
152.2009
 20
39.8941
  0
VERTEX
  8
0
 10
152.2009
 20
39.5648
  0
VERTEX
  8
0
 10
152.1009
 20
39.5648
  0
SEQEND
  0
POLYLINE
  8
0
 66
     1
 10
0
 20
0
  0
VERTEX
  8
0
 10
153.1329
 20
39.5648
  0
VERTEX
  8
0
 10
153.1329
 20
39.6444
  0
VERTEX
  8
0
 10
153.1082
 20
39.6131
  0
VERTEX
  8
0
 10
153.0792
 20
39.5886
  0
VERTEX
  8
0
 10
153.0458
 20
39.5711
  0
VERTEX
  8
0
 10
153.008
 20
39.5605
  0
VERTEX
  8
0
 10
152.9659
 20
39.5568
  0
VERTEX
  8
0
 10
152.8956
 20
39.5668
  0
VERTEX
  8
0
 10
152.832
 20
39.5979
  0
VERTEX
  8
0
 10
152.7799
 20
39.6449
  0
VERTEX
  8
0
 10
152.7413
 20
39.7063
  0
VERTEX
  8
0
 10
152.7173
 20
39.7811
  0
VERTEX
  8
0
 10
152.7089
 20
39.8682
  0
VERTEX
  8
0
 10
152.7106
 20
39.9151
  0
VERTEX
  8
0
 10
152.716
 20
39.9583
  0
VERTEX
  8
0
 10
152.7253
 20
39.9979
  0
VERTEX
  8
0
 10
152.7384
 20
40.0339
  0
VERTEX
  8
0
 10
152.7553
 20
40.0663
  0
VERTEX
  8
0
 10
152.776
 20
40.0952
  0
VERTEX
  8
0
 10
152.8006
 20
40.1204
  0
VERTEX
  8
0
 10
152.8289
 20
40.142
  0
VERTEX
  8
0
 10
152.8922
 20
40.1711
  0
VERTEX
  8
0
 10
152.963
 20
40.1808
  0
VERTEX
  8
0
 10
153.0131
 20
40.1757
  0
VERTEX
  8
0
 10
153.0575
 20
40.1604
  0
VERTEX
  8
0
 10
153.0961
 20
40.1349
  0
VERTEX
  8
0
 10
153.1289
 20
40.0992
  0
VERTEX
  8
0
 10
153.1289
 20
40.3968
  0
VERTEX
  8
0
 10
153.2289
 20
40.3968
  0
VERTEX
  8
0
 10
153.2289
 20
39.5648
  0
VERTEX
  8
0
 10
153.1329
 20
39.5648
  0
SEQEND
  0
POLYLINE
  8
0
 66
     1
 10
0
 20
0
  0
VERTEX
  8
0
 10
152.8129
 20
39.8685
  0
VERTEX
  8
0
 10
152.8218
 20
39.7854
  0
VERTEX
  8
0
 10
152.8485
 20
39.7165
  0
VERTEX
  8
0
 10
152.8728
 20
39.6836
  0
VERTEX
  8
0
 10
152.9022
 20
39.66
  0
VERTEX
  8
0
 10
152.9366
 20
39.6457
  0
VERTEX
  8
0
 10
152.9762
 20
39.6408
  0
VERTEX
  8
0
 10
153.0152
 20
39.6451
  0
VERTEX
  8
0
 10
153.0491
 20
39.6585
  0
VERTEX
  8
0
 10
153.0779
 20
39.681
  0
VERTEX
  8
0
 10
153.1016
 20
39.7126
  0
VERTEX
  8
0
 10
153.1274
 20
39.7792
  0
VERTEX
  8
0
 10
153.136
 20
39.8601
  0
VERTEX
  8
0
 10
153.1277
 20
39.9475
  0
VERTEX
  8
0
 10
153.1027
 20
40.0177
  0
VERTEX
  8
0
 10
153.0784
 20
40.0523
  0
VERTEX
  8
0
 10
153.0485
 20
40.077
  0
VERTEX
  8
0
 10
153.0129
 20
40.0919
  0
VERTEX
  8
0
 10
152.9717
 20
40.0968
  0
VERTEX
  8
0
 10
152.9316
 20
40.0921
  0
VERTEX
  8
0
 10
152.8971
 20
40.0779
  0
VERTEX
  8
0
 10
152.8683
 20
40.0542
  0
VERTEX
  8
0
 10
152.8451
 20
40.021
  0
VERTEX
  8
0
 10
152.821
 20
39.9532
  0
VERTEX
  8
0
 10
152.8129
 20
39.8685
  0
VERTEX
  8
0
 10
152.8129
 20
39.8685
  0
SEQEND
  0
POLYLINE
  8
0
 66
     1
 10
0
 20
0
  0
VERTEX
  8
0
 10
153.7927
 20
39.7617
  0
VERTEX
  8
0
 10
153.8979
 20
39.7489
  0
VERTEX
  8
0
 10
153.8882
 20
39.7182
  0
VERTEX
  8
0
 10
153.8762
 20
39.6902
  0
VERTEX
  8
0
 10
153.862
 20
39.6648
  0
VERTEX
  8
0
 10
153.8456
 20
39.6422
  0
VERTEX
  8
0
 10
153.8269
 20
39.6221
  0
VERTEX
  8
0
 10
153.8061
 20
39.6048
  0
VERTEX
  8
0
 10
153.783
 20
39.5901
  0
VERTEX
  8
0
 10
153.7577
 20
39.5781
  0
VERTEX
  8
0
 10
153.7302
 20
39.5688
  0
VERTEX
  8
0
 10
153.7005
 20
39.5621
  0
VERTEX
  8
0
 10
153.6686
 20
39.5581
  0
VERTEX
  8
0
 10
153.6344
 20
39.5568
  0
VERTEX
  8
0
 10
153.5719
 20
39.5618
  0
VERTEX
  8
0
 10
153.5162
 20
39.5769
  0
VERTEX
  8
0
 10
153.4675
 20
39.602
  0
VERTEX
  8
0
 10
153.4257
 20
39.6372
  0
VERTEX
  8
0
 10
153.398
 20
39.672
  0
VERTEX
  8
0
 10
153.3766
 20
39.712
  0
VERTEX
  8
0
 10
153.3612
 20
39.7573
  0
VERTEX
  8
0
 10
153.352
 20
39.8079
  0
VERTEX
  8
0
 10
153.3489
 20
39.8637
  0
VERTEX
  8
0
 10
153.3532
 20
39.9298
  0
VERTEX
  8
0
 10
153.3661
 20
39.9892
  0
VERTEX
  8
0
 10
153.3876
 20
40.042
  0
VERTEX
  8
0
 10
153.4177
 20
40.088
  0
VERTEX
  8
0
 10
153.4504
 20
40.1214
  0
VERTEX
  8
0
 10
153.4878
 20
40.1474
  0
VERTEX
  8
0
 10
153.53
 20
40.166
  0
VERTEX
  8
0
 10
153.577
 20
40.1771
  0
VERTEX
  8
0
 10
153.6288
 20
40.1808
  0
VERTEX
  8
0
 10
153.6793
 20
40.1771
  0
VERTEX
  8
0
 10
153.725
 20
40.166
  0
VERTEX
  8
0
 10
153.7661
 20
40.1476
  0
VERTEX
  8
0
 10
153.8025
 20
40.1218
  0
VERTEX
  8
0
 10
153.8342
 20
40.0886
  0
VERTEX
  8
0
 10
153.8635
 20
40.043
  0
VERTEX
  8
0
 10
153.8845
 20
39.991
  0
VERTEX
  8
0
 10
153.8971
 20
39.9326
  0
VERTEX
  8
0
 10
153.9013
 20
39.8679
  0
VERTEX
  8
0
 10
153.9012
 20
39.8538
  0
VERTEX
  8
0
 10
153.9007
 20
39.8408
  0
VERTEX
  8
0
 10
153.4529
 20
39.8408
  0
VERTEX
  8
0
 10
153.4672
 20
39.763
  0
VERTEX
  8
0
 10
153.501
 20
39.7012
  0
VERTEX
  8
0
 10
153.5377
 20
39.6676
  0
VERTEX
  8
0
 10
153.5822
 20
39.6475
  0
VERTEX
  8
0
 10
153.6344
 20
39.6408
  0
VERTEX
  8
0
 10
153.6704
 20
39.6442
  0
VERTEX
  8
0
 10
153.7025
 20
39.6542
  0
VERTEX
  8
0
 10
153.7308
 20
39.671
  0
VERTEX
  8
0
 10
153.7553
 20
39.6945
  0
VERTEX
  8
0
 10
153.7759
 20
39.7248
  0
VERTEX
  8
0
 10
153.7927
 20
39.7617
  0
VERTEX
  8
0
 10
153.7927
 20
39.7617
  0
SEQEND
  0
POLYLINE
  8
0
 66
     1
 10
0
 20
0
  0
VERTEX
  8
0
 10
153.4595
 20
39.9248
  0
VERTEX
  8
0
 10
153.7941
 20
39.9248
  0
VERTEX
  8
0
 10
153.7811
 20
39.9909
  0
VERTEX
  8
0
 10
153.7557
 20
40.0382
  0
VERTEX
  8
0
 10
153.7202
 20
40.0705
  0
VERTEX
  8
0
 10
153.6783
 20
40.09
  0
VERTEX
  8
0
 10
153.6299
 20
40.0968
  0
VERTEX
  8
0
 10
153.5628
 20
40.0847
  0
VERTEX
  8
0
 10
153.5092
 20
40.0472
  0
VERTEX
  8
0
 10
153.4744
 20
39.9929
  0
VERTEX
  8
0
 10
153.4595
 20
39.9248
  0
VERTEX
  8
0
 10
153.4595
 20
39.9248
  0
SEQEND
  0
POLYLINE
  8
0
 66
     1
 10
0
 20
0
  0
VERTEX
  8
0
 10
154.4169
 20
39.5648
  0
VERTEX
  8
0
 10
154.4169
 20
39.6444
  0
VERTEX
  8
0
 10
154.3922
 20
39.6131
  0
VERTEX
  8
0
 10
154.3632
 20
39.5886
  0
VERTEX
  8
0
 10
154.3298
 20
39.5711
  0
VERTEX
  8
0
 10
154.292
 20
39.5605
  0
VERTEX
  8
0
 10
154.2499
 20
39.5568
  0
VERTEX
  8
0
 10
154.1796
 20
39.5668
  0
VERTEX
  8
0
 10
154.116
 20
39.5979
  0
VERTEX
  8
0
 10
154.0639
 20
39.6449
  0
VERTEX
  8
0
 10
154.0253
 20
39.7063
  0
VERTEX
  8
0
 10
154.0013
 20
39.7811
  0
VERTEX
  8
0
 10
153.9929
 20
39.8682
  0
VERTEX
  8
0
 10
153.9946
 20
39.9151
  0
VERTEX
  8
0
 10
154
 20
39.9583
  0
VERTEX
  8
0
 10
154.0093
 20
39.9979
  0
VERTEX
  8
0
 10
154.0224
 20
40.0339
  0
VERTEX
  8
0
 10
154.0393
 20
40.0663
  0
VERTEX
  8
0
 10
154.06
 20
40.0952
  0
VERTEX
  8
0
 10
154.0846
 20
40.1204
  0
VERTEX
  8
0
 10
154.1129
 20
40.142
  0
VERTEX
  8
0
 10
154.1762
 20
40.1711
  0
VERTEX
  8
0
 10
154.247
 20
40.1808
  0
VERTEX
  8
0
 10
154.2971
 20
40.1757
  0
VERTEX
  8
0
 10
154.3415
 20
40.1604
  0
VERTEX
  8
0
 10
154.3801
 20
40.1349
  0
VERTEX
  8
0
 10
154.4129
 20
40.0992
  0
VERTEX
  8
0
 10
154.4129
 20
40.3968
  0
VERTEX
  8
0
 10
154.5129
 20
40.3968
  0
VERTEX
  8
0
 10
154.5129
 20
39.5648
  0
VERTEX
  8
0
 10
154.4169
 20
39.5648
  0
SEQEND
  0
POLYLINE
  8
0
 66
     1
 10
0
 20
0
  0
VERTEX
  8
0
 10
154.0969
 20
39.8685
  0
VERTEX
  8
0
 10
154.1058
 20
39.7854
  0
VERTEX
  8
0
 10
154.1325
 20
39.7165
  0
VERTEX
  8
0
 10
154.1568
 20
39.6836
  0
VERTEX
  8
0
 10
154.1862
 20
39.66
  0
VERTEX
  8
0
 10
154.2206
 20
39.6457
  0
VERTEX
  8
0
 10
154.2602
 20
39.6408
  0
VERTEX
  8
0
 10
154.2992
 20
39.6451
  0
VERTEX
  8
0
 10
154.3331
 20
39.6585
  0
VERTEX
  8
0
 10
154.3619
 20
39.681
  0
VERTEX
  8
0
 10
154.3856
 20
39.7126
  0
VERTEX
  8
0
 10
154.4114
 20
39.7792
  0
VERTEX
  8
0
 10
154.42
 20
39.8601
  0
VERTEX
  8
0
 10
154.4117
 20
39.9475
  0
VERTEX
  8
0
 10
154.3867
 20
40.0177
  0
VERTEX
  8
0
 10
154.3624
 20
40.0523
  0
VERTEX
  8
0
 10
154.3325
 20
40.077
  0
VERTEX
  8
0
 10
154.2969
 20
40.0919
  0
VERTEX
  8
0
 10
154.2557
 20
40.0968
  0
VERTEX
  8
0
 10
154.2156
 20
40.0921
  0
VERTEX
  8
0
 10
154.1811
 20
40.0779
  0
VERTEX
  8
0
 10
154.1523
 20
40.0542
  0
VERTEX
  8
0
 10
154.1291
 20
40.021
  0
VERTEX
  8
0
 10
154.105
 20
39.9532
  0
VERTEX
  8
0
 10
154.0969
 20
39.8685
  0
VERTEX
  8
0
 10
154.0969
 20
39.8685
  0
SEQEND
  0
POLYLINE
  8
0
 66
     1
 10
0
 20
0
  0
VERTEX
  8
0
 10
155.2129
 20
39.5648
  0
VERTEX
  8
0
 10
155.2129
 20
40.3968
  0
VERTEX
  8
0
 10
155.579
 20
40.3968
  0
VERTEX
  8
0
 10
155.6627
 20
40.393
  0
VERTEX
  8
0
 10
155.7248
 20
40.3815
  0
VERTEX
  8
0
 10
155.791
 20
40.3486
  0
VERTEX
  8
0
 10
155.8385
 20
40.2952
  0
VERTEX
  8
0
 10
155.864
 20
40.2358
  0
VERTEX
  8
0
 10
155.8729
 20
40.1698
  0
VERTEX
  8
0
 10
155.8719
 20
40.143
  0
VERTEX
  8
0
 10
155.8685
 20
40.1179
  0
VERTEX
  8
0
 10
155.8627
 20
40.0944
  0
VERTEX
  8
0
 10
155.8545
 20
40.0725
  0
VERTEX
  8
0
 10
155.8439
 20
40.0523
  0
VERTEX
  8
0
 10
155.8309
 20
40.0337
  0
VERTEX
  8
0
 10
155.8156
 20
40.0167
  0
VERTEX
  8
0
 10
155.7978
 20
40.0013
  0
VERTEX
  8
0
 10
155.7777
 20
39.9876
  0
VERTEX
  8
0
 10
155.7552
 20
39.9755
  0
VERTEX
  8
0
 10
155.7303
 20
39.965
  0
VERTEX
  8
0
 10
155.7029
 20
39.9562
  0
VERTEX
  8
0
 10
155.6733
 20
39.9489
  0
VERTEX
  8
0
 10
155.6412
 20
39.9434
  0
VERTEX
  8
0
 10
155.6797
 20
39.9225
  0
VERTEX
  8
0
 10
155.7072
 20
39.9019
  0
VERTEX
  8
0
 10
155.755
 20
39.8507
  0
VERTEX
  8
0
 10
155.798
 20
39.7912
  0
VERTEX
  8
0
 10
155.942
 20
39.5648
  0
VERTEX
  8
0
 10
155.8049
 20
39.5648
  0
VERTEX
  8
0
 10
155.6945
 20
39.7407
  0
VERTEX
  8
0
 10
155.6602
 20
39.7932
  0
VERTEX
  8
0
 10
155.6334
 20
39.8319
  0
VERTEX
  8
0
 10
155.5933
 20
39.8808
  0
VERTEX
  8
0
 10
155.5592
 20
39.9107
  0
VERTEX
  8
0
 10
155.5343
 20
39.9245
  0
VERTEX
  8
0
 10
155.5094
 20
39.9329
  0
VERTEX
  8
0
 10
155.4854
 20
39.9358
  0
VERTEX
  8
0
 10
155.4483
 20
39.9368
  0
VERTEX
  8
0
 10
155.3209
 20
39.9368
  0
VERTEX
  8
0
 10
155.3209
 20
39.5648
  0
VERTEX
  8
0
 10
155.2129
 20
39.5648
  0
SEQEND
  0
POLYLINE
  8
0
 66
     1
 10
0
 20
0
  0
VERTEX
  8
0
 10
155.3209
 20
40.0328
  0
VERTEX
  8
0
 10
155.5567
 20
40.0328
  0
VERTEX
  8
0
 10
155.6089
 20
40.0354
  0
VERTEX
  8
0
 10
155.6532
 20
40.0431
  0
VERTEX
  8
0
 10
155.6896
 20
40.056
  0
VERTEX
  8
0
 10
155.7182
 20
40.0741
  0
VERTEX
  8
0
 10
155.7389
 20
40.0973
  0
VERTEX
  8
0
 10
155.7554
 20
40.1329
  0
VERTEX
  8
0
 10
155.7609
 20
40.1713
  0
VERTEX
  8
0
 10
155.7547
 20
40.2144
  0
VERTEX
  8
0
 10
155.736
 20
40.2493
  0
VERTEX
  8
0
 10
155.7049
 20
40.2762
  0
VERTEX
  8
0
 10
155.6516
 20
40.2976
  0
VERTEX
  8
0
 10
155.5834
 20
40.3048
  0
VERTEX
  8
0
 10
155.3209
 20
40.3048
  0
VERTEX
  8
0
 10
155.3209
 20
40.0328
  0
SEQEND
  0
POLYLINE
  8
0
 66
     1
 10
0
 20
0
  0
VERTEX
  8
0
 10
156.4447
 20
39.7617
  0
VERTEX
  8
0
 10
156.5499
 20
39.7489
  0
VERTEX
  8
0
 10
156.5402
 20
39.7182
  0
VERTEX
  8
0
 10
156.5282
 20
39.6902
  0
VERTEX
  8
0
 10
156.514
 20
39.6648
  0
VERTEX
  8
0
 10
156.4976
 20
39.6422
  0
VERTEX
  8
0
 10
156.4789
 20
39.6221
  0
VERTEX
  8
0
 10
156.4581
 20
39.6048
  0
VERTEX
  8
0
 10
156.435
 20
39.5901
  0
VERTEX
  8
0
 10
156.4097
 20
39.5781
  0
VERTEX
  8
0
 10
156.3822
 20
39.5688
  0
VERTEX
  8
0
 10
156.3525
 20
39.5621
  0
VERTEX
  8
0
 10
156.3206
 20
39.5581
  0
VERTEX
  8
0
 10
156.2864
 20
39.5568
  0
VERTEX
  8
0
 10
156.2239
 20
39.5618
  0
VERTEX
  8
0
 10
156.1682
 20
39.5769
  0
VERTEX
  8
0
 10
156.1195
 20
39.602
  0
VERTEX
  8
0
 10
156.0777
 20
39.6372
  0
VERTEX
  8
0
 10
156.05
 20
39.672
  0
VERTEX
  8
0
 10
156.0286
 20
39.712
  0
VERTEX
  8
0
 10
156.0132
 20
39.7573
  0
VERTEX
  8
0
 10
156.004
 20
39.8079
  0
VERTEX
  8
0
 10
156.0009
 20
39.8637
  0
VERTEX
  8
0
 10
156.0052
 20
39.9298
  0
VERTEX
  8
0
 10
156.0181
 20
39.9892
  0
VERTEX
  8
0
 10
156.0396
 20
40.042
  0
VERTEX
  8
0
 10
156.0697
 20
40.088
  0
VERTEX
  8
0
 10
156.1024
 20
40.1214
  0
VERTEX
  8
0
 10
156.1398
 20
40.1474
  0
VERTEX
  8
0
 10
156.182
 20
40.166
  0
VERTEX
  8
0
 10
156.229
 20
40.1771
  0
VERTEX
  8
0
 10
156.2808
 20
40.1808
  0
VERTEX
  8
0
 10
156.3313
 20
40.1771
  0
VERTEX
  8
0
 10
156.377
 20
40.166
  0
VERTEX
  8
0
 10
156.4181
 20
40.1476
  0
VERTEX
  8
0
 10
156.4545
 20
40.1218
  0
VERTEX
  8
0
 10
156.4862
 20
40.0886
  0
VERTEX
  8
0
 10
156.5155
 20
40.043
  0
VERTEX
  8
0
 10
156.5365
 20
39.991
  0
VERTEX
  8
0
 10
156.5491
 20
39.9326
  0
VERTEX
  8
0
 10
156.5533
 20
39.8679
  0
VERTEX
  8
0
 10
156.5532
 20
39.8538
  0
VERTEX
  8
0
 10
156.5527
 20
39.8408
  0
VERTEX
  8
0
 10
156.1049
 20
39.8408
  0
VERTEX
  8
0
 10
156.1192
 20
39.763
  0
VERTEX
  8
0
 10
156.153
 20
39.7012
  0
VERTEX
  8
0
 10
156.1897
 20
39.6676
  0
VERTEX
  8
0
 10
156.2342
 20
39.6475
  0
VERTEX
  8
0
 10
156.2864
 20
39.6408
  0
VERTEX
  8
0
 10
156.3224
 20
39.6442
  0
VERTEX
  8
0
 10
156.3545
 20
39.6542
  0
VERTEX
  8
0
 10
156.3828
 20
39.671
  0
VERTEX
  8
0
 10
156.4073
 20
39.6945
  0
VERTEX
  8
0
 10
156.4279
 20
39.7248
  0
VERTEX
  8
0
 10
156.4447
 20
39.7617
  0
VERTEX
  8
0
 10
156.4447
 20
39.7617
  0
SEQEND
  0
POLYLINE
  8
0
 66
     1
 10
0
 20
0
  0
VERTEX
  8
0
 10
156.1115
 20
39.9248
  0
VERTEX
  8
0
 10
156.4461
 20
39.9248
  0
VERTEX
  8
0
 10
156.4331
 20
39.9909
  0
VERTEX
  8
0
 10
156.4077
 20
40.0382
  0
VERTEX
  8
0
 10
156.3722
 20
40.0705
  0
VERTEX
  8
0
 10
156.3303
 20
40.09
  0
VERTEX
  8
0
 10
156.2819
 20
40.0968
  0
VERTEX
  8
0
 10
156.2148
 20
40.0847
  0
VERTEX
  8
0
 10
156.1612
 20
40.0472
  0
VERTEX
  8
0
 10
156.1264
 20
39.9929
  0
VERTEX
  8
0
 10
156.1115
 20
39.9248
  0
VERTEX
  8
0
 10
156.1115
 20
39.9248
  0
SEQEND
  0
POLYLINE
  8
0
 66
     1
 10
0
 20
0
  0
VERTEX
  8
0
 10
157.0709
 20
39.7883
  0
VERTEX
  8
0
 10
157.1709
 20
39.7754
  0
VERTEX
  8
0
 10
157.1548
 20
39.7132
  0
VERTEX
  8
0
 10
157.1277
 20
39.6603
  0
VERTEX
  8
0
 10
157.0896
 20
39.6168
  0
VERTEX
  8
0
 10
157.0411
 20
39.5835
  0
VERTEX
  8
0
 10
156.9851
 20
39.5635
  0
VERTEX
  8
0
 10
156.9215
 20
39.5568
  0
VERTEX
  8
0
 10
156.8701
 20
39.5604
  0
VERTEX
  8
0
 10
156.8237
 20
39.5711
  0
VERTEX
  8
0
 10
156.7824
 20
39.589
  0
VERTEX
  8
0
 10
156.7461
 20
39.614
  0
VERTEX
  8
0
 10
156.7149
 20
39.6462
  0
VERTEX
  8
0
 10
156.686
 20
39.6909
  0
VERTEX
  8
0
 10
156.6654
 20
39.7426
  0
VERTEX
  8
0
 10
156.653
 20
39.8011
  0
VERTEX
  8
0
 10
156.6489
 20
39.8665
  0
VERTEX
  8
0
 10
156.6505
 20
39.9107
  0
VERTEX
  8
0
 10
156.6553
 20
39.9516
  0
VERTEX
  8
0
 10
156.6633
 20
39.9891
  0
VERTEX
  8
0
 10
156.6746
 20
40.0233
  0
VERTEX
  8
0
 10
156.689
 20
40.0541
  0
VERTEX
  8
0
 10
156.7066
 20
40.0817
  0
VERTEX
  8
0
 10
156.7274
 20
40.1058
  0
VERTEX
  8
0
 10
156.7514
 20
40.1267
  0
VERTEX
  8
0
 10
156.7787
 20
40.1442
  0
VERTEX
  8
0
 10
156.8475
 20
40.1714
  0
VERTEX
  8
0
 10
156.922
 20
40.1808
  0
VERTEX
  8
0
 10
157.0092
 20
40.1691
  0
VERTEX
  8
0
 10
157.0803
 20
40.1327
  0
VERTEX
  8
0
 10
157.1172
 20
40.0955
  0
VERTEX
  8
0
 10
157.1442
 20
40.0485
  0
VERTEX
  8
0
 10
157.1612
 20
39.9919
  0
VERTEX
  8
0
 10
157.0624
 20
39.9767
  0
VERTEX
  8
0
 10
157.053
 20
40.0086
  0
VERTEX
  8
0
 10
157.0402
 20
40.0355
  0
VERTEX
  8
0
 10
157.024
 20
40.0576
  0
VERTEX
  8
0
 10
157.0045
 20
40.0747
  0
VERTEX
  8
0
 10
156.9816
 20
40.087
  0
VERTEX
  8
0
 10
156.9554
 20
40.0943
  0
VERTEX
  8
0
 10
156.9257
 20
40.0968
  0
VERTEX
  8
0
 10
156.8825
 20
40.0923
  0
VERTEX
  8
0
 10
156.8453
 20
40.079
  0
VERTEX
  8
0
 10
156.8141
 20
40.0568
  0
VERTEX
  8
0
 10
156.789
 20
40.0257
  0
VERTEX
  8
0
 10
156.762
 20
39.9572
  0
VERTEX
  8
0
 10
156.7529
 20
39.8694
  0
VERTEX
  8
0
 10
156.7538
 20
39.838
  0
VERTEX
  8
0
 10
156.7563
 20
39.809
  0
VERTEX
  8
0
 10
156.7606
 20
39.7823
  0
VERTEX
  8
0
 10
156.7666
 20
39.7579
  0
VERTEX
  8
0
 10
156.7742
 20
39.7358
  0
VERTEX
  8
0
 10
156.7836
 20
39.716
  0
VERTEX
  8
0
 10
156.7947
 20
39.6985
  0
VERTEX
  8
0
 10
156.8075
 20
39.6833
  0
VERTEX
  8
0
 10
156.822
 20
39.6705
  0
VERTEX
  8
0
 10
156.8382
 20
39.6599
  0
VERTEX
  8
0
 10
156.8561
 20
39.6517
  0
VERTEX
  8
0
 10
156.8758
 20
39.6457
  0
VERTEX
  8
0
 10
156.8971
 20
39.6421
  0
VERTEX
  8
0
 10
156.9201
 20
39.6408
  0
VERTEX
  8
0
 10
156.9475
 20
39.6425
  0
VERTEX
  8
0
 10
156.9723
 20
39.6479
  0
VERTEX
  8
0
 10
156.9943
 20
39.6569
  0
VERTEX
  8
0
 10
157.0138
 20
39.6697
  0
VERTEX
  8
0
 10
157.0305
 20
39.686
  0
VERTEX
  8
0
 10
157.0446
 20
39.7061
  0
VERTEX
  8
0
 10
157.056
 20
39.7298
  0
VERTEX
  8
0
 10
157.0648
 20
39.7572
  0
VERTEX
  8
0
 10
157.0709
 20
39.7883
  0
VERTEX
  8
0
 10
157.0709
 20
39.7883
  0
SEQEND
  0
POLYLINE
  8
0
 66
     1
 10
0
 20
0
  0
VERTEX
  8
0
 10
157.4785
 20
39.6596
  0
VERTEX
  8
0
 10
157.4932
 20
39.5699
  0
VERTEX
  8
0
 10
157.4526
 20
39.5633
  0
VERTEX
  8
0
 10
157.417
 20
39.5608
  0
VERTEX
  8
0
 10
157.3712
 20
39.5643
  0
VERTEX
  8
0
 10
157.3346
 20
39.576
  0
VERTEX
  8
0
 10
157.3073
 20
39.5959
  0
VERTEX
  8
0
 10
157.2892
 20
39.624
  0
VERTEX
  8
0
 10
157.2824
 20
39.6504
  0
VERTEX
  8
0
 10
157.2783
 20
39.6904
  0
VERTEX
  8
0
 10
157.2769
 20
39.7441
  0
VERTEX
  8
0
 10
157.2769
 20
40.0888
  0
VERTEX
  8
0
 10
157.2009
 20
40.0888
  0
VERTEX
  8
0
 10
157.2009
 20
40.1688
  0
VERTEX
  8
0
 10
157.2769
 20
40.1688
  0
VERTEX
  8
0
 10
157.2769
 20
40.3162
  0
VERTEX
  8
0
 10
157.3769
 20
40.3768
  0
VERTEX
  8
0
 10
157.3769
 20
40.1688
  0
VERTEX
  8
0
 10
157.4769
 20
40.1688
  0
VERTEX
  8
0
 10
157.4769
 20
40.0888
  0
VERTEX
  8
0
 10
157.3769
 20
40.0888
  0
VERTEX
  8
0
 10
157.3769
 20
39.7395
  0
VERTEX
  8
0
 10
157.3773
 20
39.7125
  0
VERTEX
  8
0
 10
157.3786
 20
39.6979
  0
VERTEX
  8
0
 10
157.3858
 20
39.6779
  0
VERTEX
  8
0
 10
157.3994
 20
39.6641
  0
VERTEX
  8
0
 10
157.4137
 20
39.6589
  0
VERTEX
  8
0
 10
157.4342
 20
39.6568
  0
VERTEX
  8
0
 10
157.4534
 20
39.6572
  0
VERTEX
  8
0
 10
157.4785
 20
39.6596
  0
VERTEX
  8
0
 10
157.4785
 20
39.6596
  0
SEQEND
  0
POLYLINE
  8
0
 66
     1
 10
0
 20
0
  0
VERTEX
  8
0
 10
157.9704
 20
39.6427
  0
VERTEX
  8
0
 10
157.9183
 20
39.6053
  0
VERTEX
  8
0
 10
157.8641
 20
39.5786
  0
VERTEX
  8
0
 10
157.808
 20
39.5624
  0
VERTEX
  8
0
 10
157.7497
 20
39.5568
  0
VERTEX
  8
0
 10
157.6699
 20
39.5666
  0
VERTEX
  8
0
 10
157.6064
 20
39.5972
  0
VERTEX
  8
0
 10
157.5725
 20
39.632
  0
VERTEX
  8
0
 10
157.552
 20
39.6754
  0
VERTEX
  8
0
 10
157.5449
 20
39.7276
  0
VERTEX
  8
0
 10
157.5492
 20
39.7691
  0
VERTEX
  8
0
 10
157.5626
 20
39.806
  0
VERTEX
  8
0
 10
157.5852
 20
39.8383
  0
VERTEX
  8
0
 10
157.6169
 20
39.8659
  0
VERTEX
  8
0
 10
157.6506
 20
39.8851
  0
VERTEX
  8
0
 10
157.69
 20
39.899
  0
VERTEX
  8
0
 10
157.7268
 20
39.9067
  0
VERTEX
  8
0
 10
157.7799
 20
39.9142
  0
VERTEX
  8
0
 10
157.8559
 20
39.9248
  0
VERTEX
  8
0
 10
157.9161
 20
39.9364
  0
VERTEX
  8
0
 10
157.9604
 20
39.949
  0
VERTEX
  8
0
 10
157.9605
 20
39.9666
  0
VERTEX
  8
0
 10
157.9609
 20
39.9754
  0
VERTEX
  8
0
 10
157.9538
 20
40.0281
  0
VERTEX
  8
0
 10
157.9322
 20
40.0625
  0
VERTEX
  8
0
 10
157.8843
 20
40.088
  0
VERTEX
  8
0
 10
157.817
 20
40.0968
  0
VERTEX
  8
0
 10
157.757
 20
40.0912
  0
VERTEX
  8
0
 10
157.7142
 20
40.0732
  0
VERTEX
  8
0
 10
157.683
 20
40.0382
  0
VERTEX
  8
0
 10
157.6614
 20
39.9835
  0
VERTEX
  8
0
 10
157.5624
 20
39.997
  0
VERTEX
  8
0
 10
157.5763
 20
40.0429
  0
VERTEX
  8
0
 10
157.5967
 20
40.0821
  0
VERTEX
  8
0
 10
157.6235
 20
40.1146
  0
VERTEX
  8
0
 10
157.6569
 20
40.1403
  0
VERTEX
  8
0
 10
157.6968
 20
40.1594
  0
VERTEX
  8
0
 10
157.7593
 20
40.1752
  0
VERTEX
  8
0
 10
157.8329
 20
40.1808
  0
VERTEX
  8
0
 10
157.886
 20
40.1784
  0
VERTEX
  8
0
 10
157.9322
 20
40.1708
  0
VERTEX
  8
0
 10
157.9712
 20
40.158
  0
VERTEX
  8
0
 10
158.0033
 20
40.1399
  0
VERTEX
  8
0
 10
158.0282
 20
40.1167
  0
VERTEX
  8
0
 10
158.0471
 20
40.0861
  0
VERTEX
  8
0
 10
158.0599
 20
40.0475
  0
VERTEX
  8
0
 10
158.0637
 20
40.0126
  0
VERTEX
  8
0
 10
158.0649
 20
39.9534
  0
VERTEX
  8
0
 10
158.0649
 20
39.8172
  0
VERTEX
  8
0
 10
158.0649
 20
39.7728
  0
VERTEX
  8
0
 10
158.065
 20
39.7377
  0
VERTEX
  8
0
 10
158.0651
 20
39.7118
  0
VERTEX
  8
0
 10
158.0653
 20
39.6952
  0
VERTEX
  8
0
 10
158.0655
 20
39.6879
  0
VERTEX
  8
0
 10
158.0755
 20
39.6197
  0
VERTEX
  8
0
 10
158.0967
 20
39.5648
  0
VERTEX
  8
0
 10
157.9907
 20
39.5648
  0
VERTEX
  8
0
 10
157.978
 20
39.6009
  0
VERTEX
  8
0
 10
157.9704
 20
39.6427
  0
VERTEX
  8
0
 10
157.9704
 20
39.6427
  0
SEQEND
  0
POLYLINE
  8
0
 66
     1
 10
0
 20
0
  0
VERTEX
  8
0
 10
157.9609
 20
39.8695
  0
VERTEX
  8
0
 10
157.8919
 20
39.8491
  0
VERTEX
  8
0
 10
157.7954
 20
39.8315
  0
VERTEX
  8
0
 10
157.752
 20
39.8245
  0
VERTEX
  8
0
 10
157.7244
 20
39.818
  0
VERTEX
  8
0
 10
157.6901
 20
39.8017
  0
VERTEX
  8
0
 10
157.667
 20
39.7784
  0
VERTEX
  8
0
 10
157.6567
 20
39.7561
  0
VERTEX
  8
0
 10
157.6529
 20
39.7308
  0
VERTEX
  8
0
 10
157.6621
 20
39.6888
  0
VERTEX
  8
0
 10
157.6907
 20
39.658
  0
VERTEX
  8
0
 10
157.7277
 20
39.6421
  0
VERTEX
  8
0
 10
157.7734
 20
39.6368
  0
VERTEX
  8
0
 10
157.8131
 20
39.6394
  0
VERTEX
  8
0
 10
157.8483
 20
39.6474
  0
VERTEX
  8
0
 10
157.879
 20
39.6606
  0
VERTEX
  8
0
 10
157.9053
 20
39.6791
  0
VERTEX
  8
0
 10
157.9272
 20
39.7029
  0
VERTEX
  8
0
 10
157.9446
 20
39.7319
  0
VERTEX
  8
0
 10
157.9568
 20
39.7742
  0
VERTEX
  8
0
 10
157.9609
 20
39.8326
  0
VERTEX
  8
0
 10
157.9609
 20
39.8695
  0
SEQEND
  0
POLYLINE
  8
0
 66
     1
 10
0
 20
0
  0
VERTEX
  8
0
 10
158.2169
 20
39.5648
  0
VERTEX
  8
0
 10
158.2169
 20
40.168
  0
VERTEX
  8
0
 10
158.3089
 20
40.168
  0
VERTEX
  8
0
 10
158.3089
 20
40.0828
  0
VERTEX
  8
0
 10
158.3377
 20
40.1179
  0
VERTEX
  8
0
 10
158.3712
 20
40.1452
  0
VERTEX
  8
0
 10
158.4094
 20
40.1648
  0
VERTEX
  8
0
 10
158.4523
 20
40.1767
  0
VERTEX
  8
0
 10
158.4999
 20
40.1808
  0
VERTEX
  8
0
 10
158.551
 20
40.1758
  0
VERTEX
  8
0
 10
158.5993
 20
40.1609
  0
VERTEX
  8
0
 10
158.6358
 20
40.1401
  0
VERTEX
  8
0
 10
158.6647
 20
40.112
  0
VERTEX
  8
0
 10
158.6858
 20
40.0768
  0
VERTEX
  8
0
 10
158.6993
 20
40.0345
  0
VERTEX
  8
0
 10
158.7035
 20
39.9963
  0
VERTEX
  8
0
 10
158.7049
 20
39.9352
  0
VERTEX
  8
0
 10
158.7049
 20
39.5648
  0
VERTEX
  8
0
 10
158.6049
 20
39.5648
  0
VERTEX
  8
0
 10
158.6049
 20
39.9315
  0
VERTEX
  8
0
 10
158.6029
 20
39.9782
  0
VERTEX
  8
0
 10
158.5969
 20
40.0116
  0
VERTEX
  8
0
 10
158.5795
 20
40.0477
  0
VERTEX
  8
0
 10
158.55
 20
40.074
  0
VERTEX
  8
0
 10
158.5169
 20
40.0881
  0
VERTEX
  8
0
 10
158.4784
 20
40.0928
  0
VERTEX
  8
0
 10
158.4526
 20
40.0914
  0
VERTEX
  8
0
 10
158.429
 20
40.0873
  0
VERTEX
  8
0
 10
158.4077
 20
40.0804
  0
VERTEX
  8
0
 10
158.3887
 20
40.0707
  0
VERTEX
  8
0
 10
158.3719
 20
40.0583
  0
VERTEX
  8
0
 10
158.3573
 20
40.0431
  0
VERTEX
  8
0
 10
158.345
 20
40.0252
  0
VERTEX
  8
0
 10
158.3349
 20
40.0045
  0
VERTEX
  8
0
 10
158.327
 20
39.981
  0
VERTEX
  8
0
 10
158.3214
 20
39.9548
  0
VERTEX
  8
0
 10
158.318
 20
39.9258
  0
VERTEX
  8
0
 10
158.3169
 20
39.8941
  0
VERTEX
  8
0
 10
158.3169
 20
39.5648
  0
VERTEX
  8
0
 10
158.2169
 20
39.5648
  0
SEQEND
  0
POLYLINE
  8
0
 66
     1
 10
0
 20
0
  0
VERTEX
  8
0
 10
158.8452
 20
39.5192
  0
VERTEX
  8
0
 10
158.944
 20
39.5044
  0
VERTEX
  8
0
 10
158.9554
 20
39.4648
  0
VERTEX
  8
0
 10
158.9784
 20
39.4372
  0
VERTEX
  8
0
 10
159.0228
 20
39.4162
  0
VERTEX
  8
0
 10
159.0816
 20
39.4088
  0
VERTEX
  8
0
 10
159.1172
 20
39.4109
  0
VERTEX
  8
0
 10
159.1486
 20
39.4173
  0
VERTEX
  8
0
 10
159.1758
 20
39.4283
  0
VERTEX
  8
0
 10
159.1988
 20
39.4437
  0
VERTEX
  8
0
 10
159.2175
 20
39.4635
  0
VERTEX
  8
0
 10
159.2321
 20
39.4877
  0
VERTEX
  8
0
 10
159.2424
 20
39.5164
  0
VERTEX
  8
0
 10
159.2465
 20
39.5433
  0
VERTEX
  8
0
 10
159.2489
 20
39.5869
  0
VERTEX
  8
0
 10
159.2497
 20
39.6472
  0
VERTEX
  8
0
 10
159.2146
 20
39.6112
  0
VERTEX
  8
0
 10
159.1753
 20
39.5854
  0
VERTEX
  8
0
 10
159.1317
 20
39.5699
  0
VERTEX
  8
0
 10
159.0839
 20
39.5648
  0
VERTEX
  8
0
 10
159.0367
 20
39.5685
  0
VERTEX
  8
0
 10
158.9938
 20
39.5796
  0
VERTEX
  8
0
 10
158.955
 20
39.5981
  0
VERTEX
  8
0
 10
158.9203
 20
39.624
  0
VERTEX
  8
0
 10
158.8898
 20
39.6572
  0
VERTEX
  8
0
 10
158.8538
 20
39.7184
  0
VERTEX
  8
0
 10
158.8321
 20
39.7891
  0
VERTEX
  8
0
 10
158.8249
 20
39.8694
  0
VERTEX
  8
0
 10
158.8318
 20
39.9484
  0
VERTEX
  8
0
 10
158.8524
 20
40.0209
  0
VERTEX
  8
0
 10
158.8916
 20
40.0906
  0
VERTEX
  8
0
 10
158.945
 20
40.1411
  0
VERTEX
  8
0
 10
159.0087
 20
40.1706
  0
VERTEX
  8
0
 10
159.083
 20
40.1808
  0
VERTEX
  8
0
 10
159.1332
 20
40.1757
  0
VERTEX
  8
0
 10
159.1789
 20
40.1598
  0
VERTEX
  8
0
 10
159.2202
 20
40.1332
  0
VERTEX
  8
0
 10
159.2569
 20
40.0958
  0
VERTEX
  8
0
 10
159.2569
 20
40.168
  0
VERTEX
  8
0
 10
159.3529
 20
40.168
  0
VERTEX
  8
0
 10
159.3529
 20
39.6495
  0
VERTEX
  8
0
 10
159.351
 20
39.5814
  0
VERTEX
  8
0
 10
159.3454
 20
39.526
  0
VERTEX
  8
0
 10
159.336
 20
39.4835
  0
VERTEX
  8
0
 10
159.3134
 20
39.433
  0
VERTEX
  8
0
 10
159.2793
 20
39.3914
  0
VERTEX
  8
0
 10
159.2339
 20
39.3587
  0
VERTEX
  8
0
 10
159.1655
 20
39.3333
  0
VERTEX
  8
0
 10
159.0822
 20
39.3248
  0
VERTEX
  8
0
 10
159.0173
 20
39.3296
  0
VERTEX
  8
0
 10
158.9618
 20
39.3442
  0
VERTEX
  8
0
 10
158.9157
 20
39.3684
  0
VERTEX
  8
0
 10
158.8843
 20
39.3968
  0
VERTEX
  8
0
 10
158.862
 20
39.4313
  0
VERTEX
  8
0
 10
158.849
 20
39.4721
  0
VERTEX
  8
0
 10
158.8452
 20
39.5192
  0
VERTEX
  8
0
 10
158.8452
 20
39.5192
  0
SEQEND
  0
POLYLINE
  8
0
 66
     1
 10
0
 20
0
  0
VERTEX
  8
0
 10
158.9289
 20
39.8768
  0
VERTEX
  8
0
 10
158.9374
 20
39.7903
  0
VERTEX
  8
0
 10
158.9627
 20
39.7221
  0
VERTEX
  8
0
 10
158.9866
 20
39.69
  0
VERTEX
  8
0
 10
159.0163
 20
39.6671
  0
VERTEX
  8
0
 10
159.0516
 20
39.6534
  0
VERTEX
  8
0
 10
159.0926
 20
39.6488
  0
VERTEX
  8
0
 10
159.1332
 20
39.6533
  0
VERTEX
  8
0
 10
159.1683
 20
39.6667
  0
VERTEX
  8
0
 10
159.1979
 20
39.6891
  0
VERTEX
  8
0
 10
159.222
 20
39.7204
  0
VERTEX
  8
0
 10
159.2482
 20
39.7882
  0
VERTEX
  8
0
 10
159.2569
 20
39.8734
  0
VERTEX
  8
0
 10
159.2476
 20
39.9564
  0
VERTEX
  8
0
 10
159.2198
 20
40.0246
  0
VERTEX
  8
0
 10
159.1949
 20
40.0562
  0
VERTEX
  8
0
 10
159.1651
 20
40.0787
  0
VERTEX
  8
0
 10
159.1304
 20
40.0923
  0
VERTEX
  8
0
 10
159.0909
 20
40.0968
  0
VERTEX
  8
0
 10
159.052
 20
40.0923
  0
VERTEX
  8
0
 10
159.0181
 20
40.0789
  0
VERTEX
  8
0
 10
158.989
 20
40.0565
  0
VERTEX
  8
0
 10
158.9649
 20
40.0252
  0
VERTEX
  8
0
 10
158.9379
 20
39.9582
  0
VERTEX
  8
0
 10
158.9289
 20
39.8768
  0
VERTEX
  8
0
 10
158.9289
 20
39.8768
  0
SEQEND
  0
POLYLINE
  8
0
 66
     1
 10
0
 20
0
  0
VERTEX
  8
0
 10
159.5009
 20
39.5648
  0
VERTEX
  8
0
 10
159.5009
 20
40.3968
  0
VERTEX
  8
0
 10
159.6009
 20
40.3968
  0
VERTEX
  8
0
 10
159.6009
 20
39.5648
  0
VERTEX
  8
0
 10
159.5009
 20
39.5648
  0
SEQEND
  0
POLYLINE
  8
0
 66
     1
 10
0
 20
0
  0
VERTEX
  8
0
 10
160.1647
 20
39.7617
  0
VERTEX
  8
0
 10
160.2699
 20
39.7489
  0
VERTEX
  8
0
 10
160.2602
 20
39.7182
  0
VERTEX
  8
0
 10
160.2482
 20
39.6902
  0
VERTEX
  8
0
 10
160.234
 20
39.6648
  0
VERTEX
  8
0
 10
160.2176
 20
39.6422
  0
VERTEX
  8
0
 10
160.1989
 20
39.6221
  0
VERTEX
  8
0
 10
160.1781
 20
39.6048
  0
VERTEX
  8
0
 10
160.155
 20
39.5901
  0
VERTEX
  8
0
 10
160.1297
 20
39.5781
  0
VERTEX
  8
0
 10
160.1022
 20
39.5688
  0
VERTEX
  8
0
 10
160.0725
 20
39.5621
  0
VERTEX
  8
0
 10
160.0406
 20
39.5581
  0
VERTEX
  8
0
 10
160.0064
 20
39.5568
  0
VERTEX
  8
0
 10
159.9439
 20
39.5618
  0
VERTEX
  8
0
 10
159.8882
 20
39.5769
  0
VERTEX
  8
0
 10
159.8395
 20
39.602
  0
VERTEX
  8
0
 10
159.7977
 20
39.6372
  0
VERTEX
  8
0
 10
159.77
 20
39.672
  0
VERTEX
  8
0
 10
159.7486
 20
39.712
  0
VERTEX
  8
0
 10
159.7332
 20
39.7573
  0
VERTEX
  8
0
 10
159.724
 20
39.8079
  0
VERTEX
  8
0
 10
159.7209
 20
39.8637
  0
VERTEX
  8
0
 10
159.7252
 20
39.9298
  0
VERTEX
  8
0
 10
159.7381
 20
39.9892
  0
VERTEX
  8
0
 10
159.7596
 20
40.042
  0
VERTEX
  8
0
 10
159.7897
 20
40.088
  0
VERTEX
  8
0
 10
159.8224
 20
40.1214
  0
VERTEX
  8
0
 10
159.8598
 20
40.1474
  0
VERTEX
  8
0
 10
159.902
 20
40.166
  0
VERTEX
  8
0
 10
159.949
 20
40.1771
  0
VERTEX
  8
0
 10
160.0008
 20
40.1808
  0
VERTEX
  8
0
 10
160.0513
 20
40.1771
  0
VERTEX
  8
0
 10
160.097
 20
40.166
  0
VERTEX
  8
0
 10
160.1381
 20
40.1476
  0
VERTEX
  8
0
 10
160.1745
 20
40.1218
  0
VERTEX
  8
0
 10
160.2062
 20
40.0886
  0
VERTEX
  8
0
 10
160.2355
 20
40.043
  0
VERTEX
  8
0
 10
160.2565
 20
39.991
  0
VERTEX
  8
0
 10
160.2691
 20
39.9326
  0
VERTEX
  8
0
 10
160.2733
 20
39.8679
  0
VERTEX
  8
0
 10
160.2732
 20
39.8538
  0
VERTEX
  8
0
 10
160.2727
 20
39.8408
  0
VERTEX
  8
0
 10
159.8249
 20
39.8408
  0
VERTEX
  8
0
 10
159.8392
 20
39.763
  0
VERTEX
  8
0
 10
159.873
 20
39.7012
  0
VERTEX
  8
0
 10
159.9097
 20
39.6676
  0
VERTEX
  8
0
 10
159.9542
 20
39.6475
  0
VERTEX
  8
0
 10
160.0064
 20
39.6408
  0
VERTEX
  8
0
 10
160.0424
 20
39.6442
  0
VERTEX
  8
0
 10
160.0745
 20
39.6542
  0
VERTEX
  8
0
 10
160.1028
 20
39.671
  0
VERTEX
  8
0
 10
160.1273
 20
39.6945
  0
VERTEX
  8
0
 10
160.1479
 20
39.7248
  0
VERTEX
  8
0
 10
160.1647
 20
39.7617
  0
VERTEX
  8
0
 10
160.1647
 20
39.7617
  0
SEQEND
  0
POLYLINE
  8
0
 66
     1
 10
0
 20
0
  0
VERTEX
  8
0
 10
159.8315
 20
39.9248
  0
VERTEX
  8
0
 10
160.1661
 20
39.9248
  0
VERTEX
  8
0
 10
160.1531
 20
39.9909
  0
VERTEX
  8
0
 10
160.1277
 20
40.0382
  0
VERTEX
  8
0
 10
160.0922
 20
40.0705
  0
VERTEX
  8
0
 10
160.0503
 20
40.09
  0
VERTEX
  8
0
 10
160.0019
 20
40.0968
  0
VERTEX
  8
0
 10
159.9348
 20
40.0847
  0
VERTEX
  8
0
 10
159.8812
 20
40.0472
  0
VERTEX
  8
0
 10
159.8464
 20
39.9929
  0
VERTEX
  8
0
 10
159.8315
 20
39.9248
  0
VERTEX
  8
0
 10
159.8315
 20
39.9248
  0
SEQEND
  0
POLYLINE
  8
0
 66
     1
 10
0
 20
0
  0
VERTEX
  8
0
 10
161.2889
 20
39.5648
  0
VERTEX
  8
0
 10
161.1889
 20
39.5648
  0
VERTEX
  8
0
 10
161.1889
 20
40.2159
  0
VERTEX
  8
0
 10
161.0977
 20
40.1472
  0
VERTEX
  8
0
 10
160.9849
 20
40.0935
  0
VERTEX
  8
0
 10
160.9849
 20
40.1922
  0
VERTEX
  8
0
 10
161.0407
 20
40.2211
  0
VERTEX
  8
0
 10
161.09
 20
40.2524
  0
VERTEX
  8
0
 10
161.133
 20
40.286
  0
VERTEX
  8
0
 10
161.1696
 20
40.3219
  0
VERTEX
  8
0
 10
161.1998
 20
40.3602
  0
VERTEX
  8
0
 10
161.2236
 20
40.4008
  0
VERTEX
  8
0
 10
161.2889
 20
40.4008
  0
VERTEX
  8
0
 10
161.2889
 20
39.5648
  0
SEQEND
  0
POLYLINE
  8
0
 66
     1
 10
0
 20
0
  0
VERTEX
  8
0
 10
161.5449
 20
39.7854
  0
VERTEX
  8
0
 10
161.6514
 20
39.7945
  0
VERTEX
  8
0
 10
161.6581
 20
39.7614
  0
VERTEX
  8
0
 10
161.6674
 20
39.7322
  0
VERTEX
  8
0
 10
161.6796
 20
39.7069
  0
VERTEX
  8
0
 10
161.6945
 20
39.6855
  0
VERTEX
  8
0
 10
161.7121
 20
39.6679
  0
VERTEX
  8
0
 10
161.7325
 20
39.6543
  0
VERTEX
  8
0
 10
161.7557
 20
39.6446
  0
VERTEX
  8
0
 10
161.7816
 20
39.6387
  0
VERTEX
  8
0
 10
161.8103
 20
39.6368
  0
VERTEX
  8
0
 10
161.8608
 20
39.6437
  0
VERTEX
  8
0
 10
161.9039
 20
39.6646
  0
VERTEX
  8
0
 10
161.9399
 20
39.6993
  0
VERTEX
  8
0
 10
161.9737
 20
39.7629
  0
VERTEX
  8
0
 10
161.9849
 20
39.8402
  0
VERTEX
  8
0
 10
161.9732
 20
39.9162
  0
VERTEX
  8
0
 10
161.9382
 20
39.9762
  0
VERTEX
  8
0
 10
161.903
 20
40.0052
  0
VERTEX
  8
0
 10
161.8598
 20
40.0227
  0
VERTEX
  8
0
 10
161.8086
 20
40.0288
  0
VERTEX
  8
0
 10
161.7629
 20
40.0239
  0
VERTEX
  8
0
 10
161.7226
 20
40.0087
  0
VERTEX
  8
0
 10
161.6877
 20
39.9832
  0
VERTEX
  8
0
 10
161.6582
 20
39.9474
  0
VERTEX
  8
0
 10
161.563
 20
39.9598
  0
VERTEX
  8
0
 10
161.6431
 20
40.3848
  0
VERTEX
  8
0
 10
162.0544
 20
40.3848
  0
VERTEX
  8
0
 10
162.0544
 20
40.2888
  0
VERTEX
  8
0
 10
161.7268
 20
40.2888
  0
VERTEX
  8
0
 10
161.6805
 20
40.0652
  0
VERTEX
  8
0
 10
161.7566
 20
40.1036
  0
VERTEX
  8
0
 10
161.8364
 20
40.1168
  0
VERTEX
  8
0
 10
161.8902
 20
40.1121
  0
VERTEX
  8
0
 10
161.9391
 20
40.0976
  0
VERTEX
  8
0
 10
161.983
 20
40.0731
  0
VERTEX
  8
0
 10
162.022
 20
40.0387
  0
VERTEX
  8
0
 10
162.0531
 20
39.9982
  0
VERTEX
  8
0
 10
162.0752
 20
39.9529
  0
VERTEX
  8
0
 10
162.0885
 20
39.9029
  0
VERTEX
  8
0
 10
162.0929
 20
39.8481
  0
VERTEX
  8
0
 10
162.0857
 20
39.7767
  0
VERTEX
  8
0
 10
162.0639
 20
39.7118
  0
VERTEX
  8
0
 10
162.0275
 20
39.6535
  0
VERTEX
  8
0
 10
161.9934
 20
39.6174
  0
VERTEX
  8
0
 10
161.9547
 20
39.5893
  0
VERTEX
  8
0
 10
161.9112
 20
39.5692
  0
VERTEX
  8
0
 10
161.8632
 20
39.557
  0
VERTEX
  8
0
 10
161.8105
 20
39.5528
  0
VERTEX
  8
0
 10
161.7415
 20
39.5596
  0
VERTEX
  8
0
 10
161.6809
 20
39.5798
  0
VERTEX
  8
0
 10
161.6289
 20
39.6137
  0
VERTEX
  8
0
 10
161.587
 20
39.6605
  0
VERTEX
  8
0
 10
161.559
 20
39.7178
  0
VERTEX
  8
0
 10
161.5449
 20
39.7854
  0
VERTEX
  8
0
 10
161.5449
 20
39.7854
  0
SEQEND
  0
POLYLINE
  8
0
 66
     1
 10
0
 20
0
  0
VERTEX
  8
0
 10
162.2449
 20
39.5648
  0
VERTEX
  8
0
 10
162.2449
 20
39.6848
  0
VERTEX
  8
0
 10
162.3609
 20
39.6848
  0
VERTEX
  8
0
 10
162.3609
 20
39.5648
  0
VERTEX
  8
0
 10
162.2449
 20
39.5648
  0
SEQEND
  0
POLYLINE
  8
0
 66
     1
 10
0
 20
0
  0
VERTEX
  8
0
 10
162.5129
 20
39.9765
  0
VERTEX
  8
0
 10
162.5141
 20
40.0301
  0
VERTEX
  8
0
 10
162.5177
 20
40.0802
  0
VERTEX
  8
0
 10
162.5237
 20
40.1267
  0
VERTEX
  8
0
 10
162.5321
 20
40.1696
  0
VERTEX
  8
0
 10
162.5429
 20
40.2089
  0
VERTEX
  8
0
 10
162.556
 20
40.2447
  0
VERTEX
  8
0
 10
162.5716
 20
40.2769
  0
VERTEX
  8
0
 10
162.5896
 20
40.3055
  0
VERTEX
  8
0
 10
162.6099
 20
40.3306
  0
VERTEX
  8
0
 10
162.6327
 20
40.3521
  0
VERTEX
  8
0
 10
162.6996
 20
40.3883
  0
VERTEX
  8
0
 10
162.7829
 20
40.4008
  0
VERTEX
  8
0
 10
162.8446
 20
40.3943
  0
VERTEX
  8
0
 10
162.8999
 20
40.3736
  0
VERTEX
  8
0
 10
162.9356
 20
40.3494
  0
VERTEX
  8
0
 10
162.9669
 20
40.3172
  0
VERTEX
  8
0
 10
162.9938
 20
40.277
  0
VERTEX
  8
0
 10
163.0163
 20
40.2287
  0
VERTEX
  8
0
 10
163.0343
 20
40.1725
  0
VERTEX
  8
0
 10
163.0483
 20
40.0878
  0
VERTEX
  8
0
 10
163.0529
 20
39.9765
  0
VERTEX
  8
0
 10
163.0517
 20
39.923
  0
VERTEX
  8
0
 10
163.0481
 20
39.873
  0
VERTEX
  8
0
 10
163.0421
 20
39.8266
  0
VERTEX
  8
0
 10
163.0338
 20
39.7838
  0
VERTEX
  8
0
 10
163.023
 20
39.7445
  0
VERTEX
  8
0
 10
163.0098
 20
39.7088
  0
VERTEX
  8
0
 10
162.9942
 20
39.6766
  0
VERTEX
  8
0
 10
162.9763
 20
39.648
  0
VERTEX
  8
0
 10
162.9559
 20
39.623
  0
VERTEX
  8
0
 10
162.9332
 20
39.6015
  0
VERTEX
  8
0
 10
162.8662
 20
39.5652
  0
VERTEX
  8
0
 10
162.7829
 20
39.5528
  0
VERTEX
  8
0
 10
162.7618
 20
39.5534
  0
VERTEX
  8
0
 10
162.7415
 20
39.5553
  0
VERTEX
  8
0
 10
162.7221
 20
39.5587
  0
VERTEX
  8
0
 10
162.7036
 20
39.5633
  0
VERTEX
  8
0
 10
162.6859
 20
39.5694
  0
VERTEX
  8
0
 10
162.6691
 20
39.5768
  0
VERTEX
  8
0
 10
162.6531
 20
39.5856
  0
VERTEX
  8
0
 10
162.638
 20
39.5957
  0
VERTEX
  8
0
 10
162.6238
 20
39.6072
  0
VERTEX
  8
0
 10
162.6104
 20
39.62
  0
VERTEX
  8
0
 10
162.5979
 20
39.6343
  0
VERTEX
  8
0
 10
162.5862
 20
39.6498
  0
VERTEX
  8
0
 10
162.5754
 20
39.6668
  0
VERTEX
  8
0
 10
162.5655
 20
39.6851
  0
VERTEX
  8
0
 10
162.5564
 20
39.7048
  0
VERTEX
  8
0
 10
162.5482
 20
39.7258
  0
VERTEX
  8
0
 10
162.5408
 20
39.7482
  0
VERTEX
  8
0
 10
162.5343
 20
39.772
  0
VERTEX
  8
0
 10
162.5287
 20
39.7971
  0
VERTEX
  8
0
 10
162.5239
 20
39.8236
  0
VERTEX
  8
0
 10
162.52
 20
39.8514
  0
VERTEX
  8
0
 10
162.5169
 20
39.8807
  0
VERTEX
  8
0
 10
162.5147
 20
39.9112
  0
VERTEX
  8
0
 10
162.5134
 20
39.9432
  0
VERTEX
  8
0
 10
162.5129
 20
39.9765
  0
VERTEX
  8
0
 10
162.5129
 20
39.9765
  0
SEQEND
  0
POLYLINE
  8
0
 66
     1
 10
0
 20
0
  0
VERTEX
  8
0
 10
162.6169
 20
39.9768
  0
VERTEX
  8
0
 10
162.6194
 20
39.8916
  0
VERTEX
  8
0
 10
162.6268
 20
39.8209
  0
VERTEX
  8
0
 10
162.639
 20
39.7649
  0
VERTEX
  8
0
 10
162.6513
 20
39.731
  0
VERTEX
  8
0
 10
162.6663
 20
39.7024
  0
VERTEX
  8
0
 10
162.6841
 20
39.6789
  0
VERTEX
  8
0
 10
162.7046
 20
39.6606
  0
VERTEX
  8
0
 10
162.7279
 20
39.6475
  0
VERTEX
  8
0
 10
162.754
 20
39.6395
  0
VERTEX
  8
0
 10
162.7829
 20
39.6368
  0
VERTEX
  8
0
 10
162.7999
 20
39.6376
  0
VERTEX
  8
0
 10
162.816
 20
39.6403
  0
VERTEX
  8
0
 10
162.8312
 20
39.645
  0
VERTEX
  8
0
 10
162.8455
 20
39.6515
  0
VERTEX
  8
0
 10
162.8588
 20
39.6599
  0
VERTEX
  8
0
 10
162.8712
 20
39.6702
  0
VERTEX
  8
0
 10
162.8827
 20
39.6824
  0
VERTEX
  8
0
 10
162.8933
 20
39.6965
  0
VERTEX
  8
0
 10
162.9029
 20
39.7125
  0
VERTEX
  8
0
 10
162.9117
 20
39.7304
  0
VERTEX
  8
0
 10
162.9195
 20
39.7502
  0
VERTEX
  8
0
 10
162.9264
 20
39.7719
  0
VERTEX
  8
0
 10
162.9324
 20
39.7955
  0
VERTEX
  8
0
 10
162.9374
 20
39.821
  0
VERTEX
  8
0
 10
162.9416
 20
39.8483
  0
VERTEX
  8
0
 10
162.9448
 20
39.8776
  0
VERTEX
  8
0
 10
162.9471
 20
39.9088
  0
VERTEX
  8
0
 10
162.9485
 20
39.9418
  0
VERTEX
  8
0
 10
162.9489
 20
39.9768
  0
VERTEX
  8
0
 10
162.9465
 20
40.062
  0
VERTEX
  8
0
 10
162.9391
 20
40.1327
  0
VERTEX
  8
0
 10
162.9268
 20
40.1887
  0
VERTEX
  8
0
 10
162.9144
 20
40.2226
  0
VERTEX
  8
0
 10
162.8992
 20
40.2512
  0
VERTEX
  8
0
 10
162.8813
 20
40.2747
  0
VERTEX
  8
0
 10
162.8606
 20
40.293
  0
VERTEX
  8
0
 10
162.8371
 20
40.3061
  0
VERTEX
  8
0
 10
162.8108
 20
40.314
  0
VERTEX
  8
0
 10
162.7818
 20
40.3168
  0
VERTEX
  8
0
 10
162.7381
 20
40.3104
  0
VERTEX
  8
0
 10
162.7007
 20
40.2906
  0
VERTEX
  8
0
 10
162.6696
 20
40.2573
  0
VERTEX
  8
0
 10
162.6556
 20
40.2332
  0
VERTEX
  8
0
 10
162.6438
 20
40.2039
  0
VERTEX
  8
0
 10
162.6341
 20
40.1691
  0
VERTEX
  8
0
 10
162.6266
 20
40.1291
  0
VERTEX
  8
0
 10
162.6212
 20
40.0836
  0
VERTEX
  8
0
 10
162.618
 20
40.0329
  0
VERTEX
  8
0
 10
162.6169
 20
39.9768
  0
VERTEX
  8
0
 10
162.6169
 20
39.9768
  0
SEQEND
  0
POLYLINE
  8
0
 66
     1
 10
0
 20
0
  0
VERTEX
  8
0
 10
163.1529
 20
39.9765
  0
VERTEX
  8
0
 10
163.1541
 20
40.0301
  0
VERTEX
  8
0
 10
163.1577
 20
40.0802
  0
VERTEX
  8
0
 10
163.1637
 20
40.1267
  0
VERTEX
  8
0
 10
163.1721
 20
40.1696
  0
VERTEX
  8
0
 10
163.1829
 20
40.2089
  0
VERTEX
  8
0
 10
163.196
 20
40.2447
  0
VERTEX
  8
0
 10
163.2116
 20
40.2769
  0
VERTEX
  8
0
 10
163.2296
 20
40.3055
  0
VERTEX
  8
0
 10
163.2499
 20
40.3306
  0
VERTEX
  8
0
 10
163.2727
 20
40.3521
  0
VERTEX
  8
0
 10
163.3396
 20
40.3883
  0
VERTEX
  8
0
 10
163.4229
 20
40.4008
  0
VERTEX
  8
0
 10
163.4846
 20
40.3943
  0
VERTEX
  8
0
 10
163.5399
 20
40.3736
  0
VERTEX
  8
0
 10
163.5756
 20
40.3494
  0
VERTEX
  8
0
 10
163.6069
 20
40.3172
  0
VERTEX
  8
0
 10
163.6338
 20
40.277
  0
VERTEX
  8
0
 10
163.6563
 20
40.2287
  0
VERTEX
  8
0
 10
163.6743
 20
40.1725
  0
VERTEX
  8
0
 10
163.6883
 20
40.0878
  0
VERTEX
  8
0
 10
163.6929
 20
39.9765
  0
VERTEX
  8
0
 10
163.6917
 20
39.923
  0
VERTEX
  8
0
 10
163.6881
 20
39.873
  0
VERTEX
  8
0
 10
163.6821
 20
39.8266
  0
VERTEX
  8
0
 10
163.6738
 20
39.7838
  0
VERTEX
  8
0
 10
163.663
 20
39.7445
  0
VERTEX
  8
0
 10
163.6498
 20
39.7088
  0
VERTEX
  8
0
 10
163.6342
 20
39.6766
  0
VERTEX
  8
0
 10
163.6163
 20
39.648
  0
VERTEX
  8
0
 10
163.5959
 20
39.623
  0
VERTEX
  8
0
 10
163.5732
 20
39.6015
  0
VERTEX
  8
0
 10
163.5062
 20
39.5652
  0
VERTEX
  8
0
 10
163.4229
 20
39.5528
  0
VERTEX
  8
0
 10
163.4018
 20
39.5534
  0
VERTEX
  8
0
 10
163.3815
 20
39.5553
  0
VERTEX
  8
0
 10
163.3621
 20
39.5587
  0
VERTEX
  8
0
 10
163.3436
 20
39.5633
  0
VERTEX
  8
0
 10
163.3259
 20
39.5694
  0
VERTEX
  8
0
 10
163.3091
 20
39.5768
  0
VERTEX
  8
0
 10
163.2931
 20
39.5856
  0
VERTEX
  8
0
 10
163.278
 20
39.5957
  0
VERTEX
  8
0
 10
163.2638
 20
39.6072
  0
VERTEX
  8
0
 10
163.2504
 20
39.62
  0
VERTEX
  8
0
 10
163.2379
 20
39.6343
  0
VERTEX
  8
0
 10
163.2262
 20
39.6498
  0
VERTEX
  8
0
 10
163.2154
 20
39.6668
  0
VERTEX
  8
0
 10
163.2055
 20
39.6851
  0
VERTEX
  8
0
 10
163.1964
 20
39.7048
  0
VERTEX
  8
0
 10
163.1882
 20
39.7258
  0
VERTEX
  8
0
 10
163.1808
 20
39.7482
  0
VERTEX
  8
0
 10
163.1743
 20
39.772
  0
VERTEX
  8
0
 10
163.1687
 20
39.7971
  0
VERTEX
  8
0
 10
163.1639
 20
39.8236
  0
VERTEX
  8
0
 10
163.16
 20
39.8514
  0
VERTEX
  8
0
 10
163.1569
 20
39.8807
  0
VERTEX
  8
0
 10
163.1547
 20
39.9112
  0
VERTEX
  8
0
 10
163.1534
 20
39.9432
  0
VERTEX
  8
0
 10
163.1529
 20
39.9765
  0
VERTEX
  8
0
 10
163.1529
 20
39.9765
  0
SEQEND
  0
POLYLINE
  8
0
 66
     1
 10
0
 20
0
  0
VERTEX
  8
0
 10
163.2569
 20
39.9768
  0
VERTEX
  8
0
 10
163.2594
 20
39.8916
  0
VERTEX
  8
0
 10
163.2668
 20
39.8209
  0
VERTEX
  8
0
 10
163.279
 20
39.7649
  0
VERTEX
  8
0
 10
163.2913
 20
39.731
  0
VERTEX
  8
0
 10
163.3063
 20
39.7024
  0
VERTEX
  8
0
 10
163.3241
 20
39.6789
  0
VERTEX
  8
0
 10
163.3446
 20
39.6606
  0
VERTEX
  8
0
 10
163.3679
 20
39.6475
  0
VERTEX
  8
0
 10
163.394
 20
39.6395
  0
VERTEX
  8
0
 10
163.4229
 20
39.6368
  0
VERTEX
  8
0
 10
163.4399
 20
39.6376
  0
VERTEX
  8
0
 10
163.456
 20
39.6403
  0
VERTEX
  8
0
 10
163.4712
 20
39.645
  0
VERTEX
  8
0
 10
163.4855
 20
39.6515
  0
VERTEX
  8
0
 10
163.4988
 20
39.6599
  0
VERTEX
  8
0
 10
163.5112
 20
39.6702
  0
VERTEX
  8
0
 10
163.5227
 20
39.6824
  0
VERTEX
  8
0
 10
163.5333
 20
39.6965
  0
VERTEX
  8
0
 10
163.5429
 20
39.7125
  0
VERTEX
  8
0
 10
163.5517
 20
39.7304
  0
VERTEX
  8
0
 10
163.5595
 20
39.7502
  0
VERTEX
  8
0
 10
163.5664
 20
39.7719
  0
VERTEX
  8
0
 10
163.5724
 20
39.7955
  0
VERTEX
  8
0
 10
163.5774
 20
39.821
  0
VERTEX
  8
0
 10
163.5816
 20
39.8483
  0
VERTEX
  8
0
 10
163.5848
 20
39.8776
  0
VERTEX
  8
0
 10
163.5871
 20
39.9088
  0
VERTEX
  8
0
 10
163.5885
 20
39.9418
  0
VERTEX
  8
0
 10
163.5889
 20
39.9768
  0
VERTEX
  8
0
 10
163.5865
 20
40.062
  0
VERTEX
  8
0
 10
163.5791
 20
40.1327
  0
VERTEX
  8
0
 10
163.5668
 20
40.1887
  0
VERTEX
  8
0
 10
163.5544
 20
40.2226
  0
VERTEX
  8
0
 10
163.5392
 20
40.2512
  0
VERTEX
  8
0
 10
163.5213
 20
40.2747
  0
VERTEX
  8
0
 10
163.5006
 20
40.293
  0
VERTEX
  8
0
 10
163.4771
 20
40.3061
  0
VERTEX
  8
0
 10
163.4508
 20
40.314
  0
VERTEX
  8
0
 10
163.4218
 20
40.3168
  0
VERTEX
  8
0
 10
163.3781
 20
40.3104
  0
VERTEX
  8
0
 10
163.3407
 20
40.2906
  0
VERTEX
  8
0
 10
163.3096
 20
40.2573
  0
VERTEX
  8
0
 10
163.2956
 20
40.2332
  0
VERTEX
  8
0
 10
163.2838
 20
40.2039
  0
VERTEX
  8
0
 10
163.2741
 20
40.1691
  0
VERTEX
  8
0
 10
163.2666
 20
40.1291
  0
VERTEX
  8
0
 10
163.2612
 20
40.0836
  0
VERTEX
  8
0
 10
163.258
 20
40.0329
  0
VERTEX
  8
0
 10
163.2569
 20
39.9768
  0
VERTEX
  8
0
 10
163.2569
 20
39.9768
  0
SEQEND
  0
POLYLINE
  8
0
 66
     1
 10
0
 20
0
  0
VERTEX
  8
0
 10
163.8252
 20
40.1048
  0
VERTEX
  8
0
 10
163.7969
 20
40.2618
  0
VERTEX
  8
0
 10
163.7969
 20
40.3968
  0
VERTEX
  8
0
 10
163.9129
 20
40.3968
  0
VERTEX
  8
0
 10
163.9129
 20
40.2618
  0
VERTEX
  8
0
 10
163.8875
 20
40.1048
  0
VERTEX
  8
0
 10
163.8252
 20
40.1048
  0
SEQEND
  0
POLYLINE
  8
0
 66
     1
 10
0
 20
0
  0
VERTEX
  8
0
 10
164.0127
 20
40.1048
  0
VERTEX
  8
0
 10
163.9849
 20
40.2618
  0
VERTEX
  8
0
 10
163.9849
 20
40.3968
  0
VERTEX
  8
0
 10
164.1009
 20
40.3968
  0
VERTEX
  8
0
 10
164.1009
 20
40.2618
  0
VERTEX
  8
0
 10
164.0737
 20
40.1048
  0
VERTEX
  8
0
 10
164.0127
 20
40.1048
  0
SEQEND
  0
POLYLINE
  8
0
 66
     1
 10
0
 20
0
  0
VERTEX
  8
0
 10
164.7769
 20
39.5648
  0
VERTEX
  8
0
 10
164.7769
 20
40.3968
  0
VERTEX
  8
0
 10
165.143
 20
40.3968
  0
VERTEX
  8
0
 10
165.2267
 20
40.393
  0
VERTEX
  8
0
 10
165.2888
 20
40.3815
  0
VERTEX
  8
0
 10
165.355
 20
40.3486
  0
VERTEX
  8
0
 10
165.4025
 20
40.2952
  0
VERTEX
  8
0
 10
165.428
 20
40.2358
  0
VERTEX
  8
0
 10
165.4369
 20
40.1698
  0
VERTEX
  8
0
 10
165.4359
 20
40.143
  0
VERTEX
  8
0
 10
165.4325
 20
40.1179
  0
VERTEX
  8
0
 10
165.4267
 20
40.0944
  0
VERTEX
  8
0
 10
165.4185
 20
40.0725
  0
VERTEX
  8
0
 10
165.4079
 20
40.0523
  0
VERTEX
  8
0
 10
165.3949
 20
40.0337
  0
VERTEX
  8
0
 10
165.3796
 20
40.0167
  0
VERTEX
  8
0
 10
165.3618
 20
40.0013
  0
VERTEX
  8
0
 10
165.3417
 20
39.9876
  0
VERTEX
  8
0
 10
165.3192
 20
39.9755
  0
VERTEX
  8
0
 10
165.2943
 20
39.965
  0
VERTEX
  8
0
 10
165.2669
 20
39.9562
  0
VERTEX
  8
0
 10
165.2373
 20
39.9489
  0
VERTEX
  8
0
 10
165.2052
 20
39.9434
  0
VERTEX
  8
0
 10
165.2437
 20
39.9225
  0
VERTEX
  8
0
 10
165.2712
 20
39.9019
  0
VERTEX
  8
0
 10
165.319
 20
39.8507
  0
VERTEX
  8
0
 10
165.362
 20
39.7912
  0
VERTEX
  8
0
 10
165.506
 20
39.5648
  0
VERTEX
  8
0
 10
165.3689
 20
39.5648
  0
VERTEX
  8
0
 10
165.2585
 20
39.7407
  0
VERTEX
  8
0
 10
165.2242
 20
39.7932
  0
VERTEX
  8
0
 10
165.1974
 20
39.8319
  0
VERTEX
  8
0
 10
165.1573
 20
39.8808
  0
VERTEX
  8
0
 10
165.1232
 20
39.9107
  0
VERTEX
  8
0
 10
165.0983
 20
39.9245
  0
VERTEX
  8
0
 10
165.0734
 20
39.9329
  0
VERTEX
  8
0
 10
165.0494
 20
39.9358
  0
VERTEX
  8
0
 10
165.0123
 20
39.9368
  0
VERTEX
  8
0
 10
164.8849
 20
39.9368
  0
VERTEX
  8
0
 10
164.8849
 20
39.5648
  0
VERTEX
  8
0
 10
164.7769
 20
39.5648
  0
SEQEND
  0
POLYLINE
  8
0
 66
     1
 10
0
 20
0
  0
VERTEX
  8
0
 10
164.8849
 20
40.0328
  0
VERTEX
  8
0
 10
165.1207
 20
40.0328
  0
VERTEX
  8
0
 10
165.1729
 20
40.0354
  0
VERTEX
  8
0
 10
165.2172
 20
40.0431
  0
VERTEX
  8
0
 10
165.2536
 20
40.056
  0
VERTEX
  8
0
 10
165.2822
 20
40.0741
  0
VERTEX
  8
0
 10
165.3029
 20
40.0973
  0
VERTEX
  8
0
 10
165.3194
 20
40.1329
  0
VERTEX
  8
0
 10
165.3249
 20
40.1713
  0
VERTEX
  8
0
 10
165.3187
 20
40.2144
  0
VERTEX
  8
0
 10
165.3
 20
40.2493
  0
VERTEX
  8
0
 10
165.2689
 20
40.2762
  0
VERTEX
  8
0
 10
165.2156
 20
40.2976
  0
VERTEX
  8
0
 10
165.1474
 20
40.3048
  0
VERTEX
  8
0
 10
164.8849
 20
40.3048
  0
VERTEX
  8
0
 10
164.8849
 20
40.0328
  0
SEQEND
  0
POLYLINE
  8
0
 66
     1
 10
0
 20
0
  0
VERTEX
  8
0
 10
165.9904
 20
39.6427
  0
VERTEX
  8
0
 10
165.9383
 20
39.6053
  0
VERTEX
  8
0
 10
165.8841
 20
39.5786
  0
VERTEX
  8
0
 10
165.828
 20
39.5624
  0
VERTEX
  8
0
 10
165.7697
 20
39.5568
  0
VERTEX
  8
0
 10
165.6899
 20
39.5666
  0
VERTEX
  8
0
 10
165.6264
 20
39.5972
  0
VERTEX
  8
0
 10
165.5925
 20
39.632
  0
VERTEX
  8
0
 10
165.572
 20
39.6754
  0
VERTEX
  8
0
 10
165.5649
 20
39.7276
  0
VERTEX
  8
0
 10
165.5692
 20
39.7691
  0
VERTEX
  8
0
 10
165.5826
 20
39.806
  0
VERTEX
  8
0
 10
165.6052
 20
39.8383
  0
VERTEX
  8
0
 10
165.6369
 20
39.8659
  0
VERTEX
  8
0
 10
165.6706
 20
39.8851
  0
VERTEX
  8
0
 10
165.71
 20
39.899
  0
VERTEX
  8
0
 10
165.7468
 20
39.9067
  0
VERTEX
  8
0
 10
165.7999
 20
39.9142
  0
VERTEX
  8
0
 10
165.8759
 20
39.9248
  0
VERTEX
  8
0
 10
165.9361
 20
39.9364
  0
VERTEX
  8
0
 10
165.9804
 20
39.949
  0
VERTEX
  8
0
 10
165.9805
 20
39.9666
  0
VERTEX
  8
0
 10
165.9809
 20
39.9754
  0
VERTEX
  8
0
 10
165.9738
 20
40.0281
  0
VERTEX
  8
0
 10
165.9522
 20
40.0625
  0
VERTEX
  8
0
 10
165.9043
 20
40.088
  0
VERTEX
  8
0
 10
165.837
 20
40.0968
  0
VERTEX
  8
0
 10
165.777
 20
40.0912
  0
VERTEX
  8
0
 10
165.7342
 20
40.0732
  0
VERTEX
  8
0
 10
165.703
 20
40.0382
  0
VERTEX
  8
0
 10
165.6814
 20
39.9835
  0
VERTEX
  8
0
 10
165.5824
 20
39.997
  0
VERTEX
  8
0
 10
165.5963
 20
40.0429
  0
VERTEX
  8
0
 10
165.6167
 20
40.0821
  0
VERTEX
  8
0
 10
165.6435
 20
40.1146
  0
VERTEX
  8
0
 10
165.6769
 20
40.1403
  0
VERTEX
  8
0
 10
165.7168
 20
40.1594
  0
VERTEX
  8
0
 10
165.7793
 20
40.1752
  0
VERTEX
  8
0
 10
165.8529
 20
40.1808
  0
VERTEX
  8
0
 10
165.906
 20
40.1784
  0
VERTEX
  8
0
 10
165.9522
 20
40.1708
  0
VERTEX
  8
0
 10
165.9912
 20
40.158
  0
VERTEX
  8
0
 10
166.0233
 20
40.1399
  0
VERTEX
  8
0
 10
166.0482
 20
40.1167
  0
VERTEX
  8
0
 10
166.0671
 20
40.0861
  0
VERTEX
  8
0
 10
166.0799
 20
40.0475
  0
VERTEX
  8
0
 10
166.0837
 20
40.0126
  0
VERTEX
  8
0
 10
166.0849
 20
39.9534
  0
VERTEX
  8
0
 10
166.0849
 20
39.8172
  0
VERTEX
  8
0
 10
166.0849
 20
39.7728
  0
VERTEX
  8
0
 10
166.085
 20
39.7377
  0
VERTEX
  8
0
 10
166.0851
 20
39.7118
  0
VERTEX
  8
0
 10
166.0853
 20
39.6952
  0
VERTEX
  8
0
 10
166.0855
 20
39.6879
  0
VERTEX
  8
0
 10
166.0955
 20
39.6197
  0
VERTEX
  8
0
 10
166.1167
 20
39.5648
  0
VERTEX
  8
0
 10
166.0107
 20
39.5648
  0
VERTEX
  8
0
 10
165.998
 20
39.6009
  0
VERTEX
  8
0
 10
165.9904
 20
39.6427
  0
VERTEX
  8
0
 10
165.9904
 20
39.6427
  0
SEQEND
  0
POLYLINE
  8
0
 66
     1
 10
0
 20
0
  0
VERTEX
  8
0
 10
165.9809
 20
39.8695
  0
VERTEX
  8
0
 10
165.9119
 20
39.8491
  0
VERTEX
  8
0
 10
165.8154
 20
39.8315
  0
VERTEX
  8
0
 10
165.772
 20
39.8245
  0
VERTEX
  8
0
 10
165.7444
 20
39.818
  0
VERTEX
  8
0
 10
165.7101
 20
39.8017
  0
VERTEX
  8
0
 10
165.687
 20
39.7784
  0
VERTEX
  8
0
 10
165.6767
 20
39.7561
  0
VERTEX
  8
0
 10
165.6729
 20
39.7308
  0
VERTEX
  8
0
 10
165.6821
 20
39.6888
  0
VERTEX
  8
0
 10
165.7107
 20
39.658
  0
VERTEX
  8
0
 10
165.7477
 20
39.6421
  0
VERTEX
  8
0
 10
165.7934
 20
39.6368
  0
VERTEX
  8
0
 10
165.8331
 20
39.6394
  0
VERTEX
  8
0
 10
165.8683
 20
39.6474
  0
VERTEX
  8
0
 10
165.899
 20
39.6606
  0
VERTEX
  8
0
 10
165.9253
 20
39.6791
  0
VERTEX
  8
0
 10
165.9472
 20
39.7029
  0
VERTEX
  8
0
 10
165.9646
 20
39.7319
  0
VERTEX
  8
0
 10
165.9768
 20
39.7742
  0
VERTEX
  8
0
 10
165.9809
 20
39.8326
  0
VERTEX
  8
0
 10
165.9809
 20
39.8695
  0
SEQEND
  0
POLYLINE
  8
0
 66
     1
 10
0
 20
0
  0
VERTEX
  8
0
 10
166.6289
 20
39.5648
  0
VERTEX
  8
0
 10
166.6289
 20
39.6444
  0
VERTEX
  8
0
 10
166.6042
 20
39.6131
  0
VERTEX
  8
0
 10
166.5752
 20
39.5886
  0
VERTEX
  8
0
 10
166.5418
 20
39.5711
  0
VERTEX
  8
0
 10
166.504
 20
39.5605
  0
VERTEX
  8
0
 10
166.4619
 20
39.5568
  0
VERTEX
  8
0
 10
166.3916
 20
39.5668
  0
VERTEX
  8
0
 10
166.328
 20
39.5979
  0
VERTEX
  8
0
 10
166.2759
 20
39.6449
  0
VERTEX
  8
0
 10
166.2373
 20
39.7063
  0
VERTEX
  8
0
 10
166.2133
 20
39.7811
  0
VERTEX
  8
0
 10
166.2049
 20
39.8682
  0
VERTEX
  8
0
 10
166.2066
 20
39.9151
  0
VERTEX
  8
0
 10
166.212
 20
39.9583
  0
VERTEX
  8
0
 10
166.2213
 20
39.9979
  0
VERTEX
  8
0
 10
166.2344
 20
40.0339
  0
VERTEX
  8
0
 10
166.2513
 20
40.0663
  0
VERTEX
  8
0
 10
166.272
 20
40.0952
  0
VERTEX
  8
0
 10
166.2966
 20
40.1204
  0
VERTEX
  8
0
 10
166.3249
 20
40.142
  0
VERTEX
  8
0
 10
166.3882
 20
40.1711
  0
VERTEX
  8
0
 10
166.459
 20
40.1808
  0
VERTEX
  8
0
 10
166.5091
 20
40.1757
  0
VERTEX
  8
0
 10
166.5535
 20
40.1604
  0
VERTEX
  8
0
 10
166.5921
 20
40.1349
  0
VERTEX
  8
0
 10
166.6249
 20
40.0992
  0
VERTEX
  8
0
 10
166.6249
 20
40.3968
  0
VERTEX
  8
0
 10
166.7249
 20
40.3968
  0
VERTEX
  8
0
 10
166.7249
 20
39.5648
  0
VERTEX
  8
0
 10
166.6289
 20
39.5648
  0
SEQEND
  0
POLYLINE
  8
0
 66
     1
 10
0
 20
0
  0
VERTEX
  8
0
 10
166.3089
 20
39.8685
  0
VERTEX
  8
0
 10
166.3178
 20
39.7854
  0
VERTEX
  8
0
 10
166.3445
 20
39.7165
  0
VERTEX
  8
0
 10
166.3688
 20
39.6836
  0
VERTEX
  8
0
 10
166.3982
 20
39.66
  0
VERTEX
  8
0
 10
166.4326
 20
39.6457
  0
VERTEX
  8
0
 10
166.4722
 20
39.6408
  0
VERTEX
  8
0
 10
166.5112
 20
39.6451
  0
VERTEX
  8
0
 10
166.5451
 20
39.6585
  0
VERTEX
  8
0
 10
166.5739
 20
39.681
  0
VERTEX
  8
0
 10
166.5976
 20
39.7126
  0
VERTEX
  8
0
 10
166.6234
 20
39.7792
  0
VERTEX
  8
0
 10
166.632
 20
39.8601
  0
VERTEX
  8
0
 10
166.6237
 20
39.9475
  0
VERTEX
  8
0
 10
166.5987
 20
40.0177
  0
VERTEX
  8
0
 10
166.5744
 20
40.0523
  0
VERTEX
  8
0
 10
166.5445
 20
40.077
  0
VERTEX
  8
0
 10
166.5089
 20
40.0919
  0
VERTEX
  8
0
 10
166.4677
 20
40.0968
  0
VERTEX
  8
0
 10
166.4276
 20
40.0921
  0
VERTEX
  8
0
 10
166.3931
 20
40.0779
  0
VERTEX
  8
0
 10
166.3643
 20
40.0542
  0
VERTEX
  8
0
 10
166.3411
 20
40.021
  0
VERTEX
  8
0
 10
166.317
 20
39.9532
  0
VERTEX
  8
0
 10
166.3089
 20
39.8685
  0
VERTEX
  8
0
 10
166.3089
 20
39.8685
  0
SEQEND
  0
POLYLINE
  8
0
 66
     1
 10
0
 20
0
  0
VERTEX
  8
0
 10
166.8809
 20
40.2808
  0
VERTEX
  8
0
 10
166.8809
 20
40.3968
  0
VERTEX
  8
0
 10
166.9809
 20
40.3968
  0
VERTEX
  8
0
 10
166.9809
 20
40.2808
  0
VERTEX
  8
0
 10
166.8809
 20
40.2808
  0
SEQEND
  0
POLYLINE
  8
0
 66
     1
 10
0
 20
0
  0
VERTEX
  8
0
 10
166.8809
 20
39.5648
  0
VERTEX
  8
0
 10
166.8809
 20
40.168
  0
VERTEX
  8
0
 10
166.9809
 20
40.168
  0
VERTEX
  8
0
 10
166.9809
 20
39.5648
  0
VERTEX
  8
0
 10
166.8809
 20
39.5648
  0
SEQEND
  0
POLYLINE
  8
0
 66
     1
 10
0
 20
0
  0
VERTEX
  8
0
 10
167.5289
 20
39.5648
  0
VERTEX
  8
0
 10
167.5289
 20
39.6568
  0
VERTEX
  8
0
 10
167.4993
 20
39.6208
  0
VERTEX
  8
0
 10
167.4657
 20
39.5928
  0
VERTEX
  8
0
 10
167.4279
 20
39.5728
  0
VERTEX
  8
0
 10
167.3861
 20
39.5608
  0
VERTEX
  8
0
 10
167.3402
 20
39.5568
  0
VERTEX
  8
0
 10
167.2939
 20
39.5612
  0
VERTEX
  8
0
 10
167.2489
 20
39.5743
  0
VERTEX
  8
0
 10
167.2053
 20
39.5972
  0
VERTEX
  8
0
 10
167.1739
 20
39.6278
  0
VERTEX
  8
0
 10
167.1555
 20
39.6613
  0
VERTEX
  8
0
 10
167.1431
 20
39.7033
  0
VERTEX
  8
0
 10
167.1385
 20
39.7422
  0
VERTEX
  8
0
 10
167.1369
 20
39.798
  0
VERTEX
  8
0
 10
167.1369
 20
40.1688
  0
VERTEX
  8
0
 10
167.2369
 20
40.1688
  0
VERTEX
  8
0
 10
167.2369
 20
39.8373
  0
VERTEX
  8
0
 10
167.2385
 20
39.77
  0
VERTEX
  8
0
 10
167.2432
 20
39.7304
  0
VERTEX
  8
0
 10
167.2544
 20
39.6999
  0
VERTEX
  8
0
 10
167.2718
 20
39.6761
  0
VERTEX
  8
0
 10
167.2954
 20
39.659
  0
VERTEX
  8
0
 10
167.3251
 20
39.6486
  0
VERTEX
  8
0
 10
167.361
 20
39.6448
  0
VERTEX
  8
0
 10
167.4055
 20
39.6502
  0
VERTEX
  8
0
 10
167.447
 20
39.6676
  0
VERTEX
  8
0
 10
167.4812
 20
39.6952
  0
VERTEX
  8
0
 10
167.5039
 20
39.7315
  0
VERTEX
  8
0
 10
167.5167
 20
39.781
  0
VERTEX
  8
0
 10
167.5209
 20
39.8485
  0
VERTEX
  8
0
 10
167.5209
 20
40.1688
  0
VERTEX
  8
0
 10
167.6209
 20
40.1688
  0
VERTEX
  8
0
 10
167.6209
 20
39.5648
  0
VERTEX
  8
0
 10
167.5289
 20
39.5648
  0
SEQEND
  0
POLYLINE
  8
0
 66
     1
 10
0
 20
0
  0
VERTEX
  8
0
 10
167.7369
 20
39.7477
  0
VERTEX
  8
0
 10
167.837
 20
39.7634
  0
VERTEX
  8
0
 10
167.8433
 20
39.7347
  0
VERTEX
  8
0
 10
167.8533
 20
39.7098
  0
VERTEX
  8
0
 10
167.867
 20
39.6887
  0
VERTEX
  8
0
 10
167.8844
 20
39.6715
  0
VERTEX
  8
0
 10
167.9056
 20
39.658
  0
VERTEX
  8
0
 10
167.9306
 20
39.6485
  0
VERTEX
  8
0
 10
167.9592
 20
39.6427
  0
VERTEX
  8
0
 10
167.9917
 20
39.6408
  0
VERTEX
  8
0
 10
168.0415
 20
39.6458
  0
VERTEX
  8
0
 10
168.0828
 20
39.661
  0
VERTEX
  8
0
 10
168.1174
 20
39.692
  0
VERTEX
  8
0
 10
168.1289
 20
39.7357
  0
VERTEX
  8
0
 10
168.1215
 20
39.7663
  0
VERTEX
  8
0
 10
168.099
 20
39.7895
  0
VERTEX
  8
0
 10
168.0785
 20
39.7993
  0
VERTEX
  8
0
 10
168.0439
 20
39.8108
  0
VERTEX
  8
0
 10
167.9953
 20
39.8238
  0
VERTEX
  8
0
 10
167.9395
 20
39.838
  0
VERTEX
  8
0
 10
167.8991
 20
39.8492
  0
VERTEX
  8
0
 10
167.8741
 20
39.8575
  0
VERTEX
  8
0
 10
167.8135
 20
39.8888
  0
VERTEX
  8
0
 10
167.7749
 20
39.9287
  0
VERTEX
  8
0
 10
167.7584
 20
39.9665
  0
VERTEX
  8
0
 10
167.7529
 20
40.009
  0
VERTEX
  8
0
 10
167.7605
 20
40.0594
  0
VERTEX
  8
0
 10
167.7833
 20
40.1028
  0
VERTEX
  8
0
 10
167.8214
 20
40.1392
  0
VERTEX
  8
0
 10
167.8878
 20
40.1701
  0
VERTEX
  8
0
 10
167.974
 20
40.1808
  0
VERTEX
  8
0
 10
168.0394
 20
40.176
  0
VERTEX
  8
0
 10
168.0978
 20
40.1605
  0
VERTEX
  8
0
 10
168.1443
 20
40.1364
  0
VERTEX
  8
0
 10
168.1775
 20
40.1044
  0
VERTEX
  8
0
 10
168.1983
 20
40.0653
  0
VERTEX
  8
0
 10
168.212
 20
40.0134
  0
VERTEX
  8
0
 10
168.1119
 20
39.9999
  0
VERTEX
  8
0
 10
168.1055
 20
40.0254
  0
VERTEX
  8
0
 10
168.095
 20
40.0471
  0
VERTEX
  8
0
 10
168.0804
 20
40.0649
  0
VERTEX
  8
0
 10
168.0615
 20
40.0787
  0
VERTEX
  8
0
 10
168.0384
 20
40.0887
  0
VERTEX
  8
0
 10
168.0112
 20
40.0947
  0
VERTEX
  8
0
 10
167.9798
 20
40.0968
  0
VERTEX
  8
0
 10
167.9454
 20
40.0954
  0
VERTEX
  8
0
 10
167.9162
 20
40.0907
  0
VERTEX
  8
0
 10
167.8922
 20
40.0829
  0
VERTEX
  8
0
 10
167.8735
 20
40.072
  0
VERTEX
  8
0
 10
167.8601
 20
40.0578
  0
VERTEX
  8
0
 10
167.8519
 20
40.0405
  0
VERTEX
  8
0
 10
167.8489
 20
40.0199
  0
VERTEX
  8
0
 10
167.8518
 20
40.0017
  0
VERTEX
  8
0
 10
167.8614
 20
39.9842
  0
VERTEX
  8
0
 10
167.8777
 20
39.969
  0
VERTEX
  8
0
 10
167.9005
 20
39.9576
  0
VERTEX
  8
0
 10
167.916
 20
39.9525
  0
VERTEX
  8
0
 10
167.946
 20
39.9439
  0
VERTEX
  8
0
 10
167.9905
 20
39.9318
  0
VERTEX
  8
0
 10
168.0558
 20
39.9133
  0
VERTEX
  8
0
 10
168.106
 20
39.8976
  0
VERTEX
  8
0
 10
168.1412
 20
39.8846
  0
VERTEX
  8
0
 10
168.174
 20
39.8668
  0
VERTEX
  8
0
 10
168.1996
 20
39.844
  0
VERTEX
  8
0
 10
168.218
 20
39.8162
  0
VERTEX
  8
0
 10
168.2291
 20
39.7833
  0
VERTEX
  8
0
 10
168.2329
 20
39.7454
  0
VERTEX
  8
0
 10
168.2258
 20
39.6966
  0
VERTEX
  8
0
 10
168.2031
 20
39.65
  0
VERTEX
  8
0
 10
168.1802
 20
39.6217
  0
VERTEX
  8
0
 10
168.1524
 20
39.5985
  0
VERTEX
  8
0
 10
168.1197
 20
39.5804
  0
VERTEX
  8
0
 10
168.0821
 20
39.5674
  0
VERTEX
  8
0
 10
168.0396
 20
39.5595
  0
VERTEX
  8
0
 10
167.9922
 20
39.5568
  0
VERTEX
  8
0
 10
167.9593
 20
39.5578
  0
VERTEX
  8
0
 10
167.9287
 20
39.561
  0
VERTEX
  8
0
 10
167.9002
 20
39.5666
  0
VERTEX
  8
0
 10
167.8739
 20
39.5744
  0
VERTEX
  8
0
 10
167.8499
 20
39.5845
  0
VERTEX
  8
0
 10
167.828
 20
39.5969
  0
VERTEX
  8
0
 10
167.8084
 20
39.6116
  0
VERTEX
  8
0
 10
167.7909
 20
39.6286
  0
VERTEX
  8
0
 10
167.7757
 20
39.6478
  0
VERTEX
  8
0
 10
167.7627
 20
39.6694
  0
VERTEX
  8
0
 10
167.7519
 20
39.6932
  0
VERTEX
  8
0
 10
167.7433
 20
39.7193
  0
VERTEX
  8
0
 10
167.7369
 20
39.7477
  0
VERTEX
  8
0
 10
167.7369
 20
39.7477
  0
SEQEND
  0
POLYLINE
  8
0
 66
     1
 10
0
 20
0
  0
VERTEX
  8
0
 10
168.3889
 20
40.0528
  0
VERTEX
  8
0
 10
168.3889
 20
40.1688
  0
VERTEX
  8
0
 10
168.5049
 20
40.1688
  0
VERTEX
  8
0
 10
168.5049
 20
40.0528
  0
VERTEX
  8
0
 10
168.3889
 20
40.0528
  0
SEQEND
  0
POLYLINE
  8
0
 66
     1
 10
0
 20
0
  0
VERTEX
  8
0
 10
168.3889
 20
39.5648
  0
VERTEX
  8
0
 10
168.3889
 20
39.6808
  0
VERTEX
  8
0
 10
168.5049
 20
39.6808
  0
VERTEX
  8
0
 10
168.5049
 20
39.5665
  0
VERTEX
  8
0
 10
168.5023
 20
39.5285
  0
VERTEX
  8
0
 10
168.4943
 20
39.495
  0
VERTEX
  8
0
 10
168.4811
 20
39.4658
  0
VERTEX
  8
0
 10
168.4625
 20
39.4411
  0
VERTEX
  8
0
 10
168.4386
 20
39.4207
  0
VERTEX
  8
0
 10
168.4095
 20
39.4048
  0
VERTEX
  8
0
 10
168.3809
 20
39.4473
  0
VERTEX
  8
0
 10
168.408
 20
39.4642
  0
VERTEX
  8
0
 10
168.4278
 20
39.4894
  0
VERTEX
  8
0
 10
168.4402
 20
39.5229
  0
VERTEX
  8
0
 10
168.4452
 20
39.5648
  0
VERTEX
  8
0
 10
168.3889
 20
39.5648
  0
SEQEND
  0
ARC
  8
0
 10
168
 20
64.3913
 40
15
 50
180
 51
270
  0
ARC
  8
0
 10
168
 20
64.3913
 40
15
 50
270
 51
360
  0
ARC
  8
0
 10
168
 20
64.3913
 40
15
 50
0
 51
90
  0
ARC
  8
0
 10
168
 20
64.3913
 40
15
 50
90
 51
180
  0
ARC
  8
0
 10
165
 20
72.8288
 40
0.5625
 50
149.0362
 51
290.1658
  0
ARC
  8
0
 10
171
 20
72.8288
 40
0.5625
 50
249.8343
 51
390.9638
  0
POLYLINE
  8
0
 66
     1
 10
0
 20
0
  0
VERTEX
  8
0
 10
168
 20
78.3913
  0
VERTEX
  8
0
 10
164.5177
 20
73.1182
  0
SEQEND
  0
POLYLINE
  8
0
 66
     1
 10
0
 20
0
  0
VERTEX
  8
0
 10
165.1939
 20
72.3008
  0
VERTEX
  8
0
 10
166.625
 20
72.8263
  0
SEQEND
  0
POLYLINE
  8
0
 66
     1
 10
0
 20
0
  0
VERTEX
  8
0
 10
169.375
 20
72.8263
  0
VERTEX
  8
0
 10
170.8061
 20
72.3008
  0
SEQEND
  0
POLYLINE
  8
0
 66
     1
 10
0
 20
0
  0
VERTEX
  8
0
 10
171.4823
 20
73.1182
  0
VERTEX
  8
0
 10
168
 20
78.3913
  0
SEQEND
  0
POLYLINE
  8
0
 66
     1
 10
0
 20
0
  0
VERTEX
  8
0
 10
169.375
 20
66.3913
  0
VERTEX
  8
0
 10
166.625
 20
66.3913
  0
VERTEX
  8
0
 10
166.625
 20
72.8263
  0
SEQEND
  0
POLYLINE
  8
0
 66
     1
 10
0
 20
0
  0
VERTEX
  8
0
 10
169.375
 20
72.8263
  0
VERTEX
  8
0
 10
169.375
 20
66.3913
  0
SEQEND
  0
POLYLINE
  8
0
 66
     1
 10
0
 20
0
  0
VERTEX
  8
0
 10
158.7769
 20
59.9648
  0
VERTEX
  8
0
 10
157.3169
 20
59.9648
  0
VERTEX
  8
0
 10
157.3169
 20
61.2848
  0
VERTEX
  8
0
 10
158.1449
 20
61.2848
  0
VERTEX
  8
0
 10
158.1449
 20
61.8288
  0
VERTEX
  8
0
 10
157.3169
 20
61.8288
  0
VERTEX
  8
0
 10
157.3169
 20
62.8368
  0
VERTEX
  8
0
 10
158.6249
 20
62.8368
  0
VERTEX
  8
0
 10
158.6249
 20
63.3968
  0
VERTEX
  8
0
 10
156.7369
 20
63.3968
  0
VERTEX
  8
0
 10
156.7369
 20
59.3968
  0
VERTEX
  8
0
 10
158.7769
 20
59.3968
  0
VERTEX
  8
0
 10
158.7769
 20
59.9648
  0
SEQEND
  0
POLYLINE
  8
0
 66
     1
 10
0
 20
0
  0
VERTEX
  8
0
 10
160.7649
 20
63.3968
  0
VERTEX
  8
0
 10
160.1049
 20
60.8008
  0
VERTEX
  8
0
 10
159.4449
 20
63.3968
  0
VERTEX
  8
0
 10
158.8649
 20
63.4008
  0
VERTEX
  8
0
 10
159.8809
 20
59.3968
  0
VERTEX
  8
0
 10
160.3169
 20
59.3968
  0
VERTEX
  8
0
 10
161.3449
 20
63.4008
  0
VERTEX
  8
0
 10
160.7649
 20
63.3968
  0
SEQEND
  0
POLYLINE
  8
0
 66
     1
 10
0
 20
0
  0
VERTEX
  8
0
 10
161.4049
 20
59.3928
  0
VERTEX
  8
0
 10
161.9809
 20
59.3968
  0
VERTEX
  8
0
 10
162.2489
 20
60.4888
  0
VERTEX
  8
0
 10
163.1049
 20
60.4888
  0
VERTEX
  8
0
 10
163.3849
 20
59.3968
  0
VERTEX
  8
0
 10
163.9649
 20
59.3928
  0
VERTEX
  8
0
 10
162.9649
 20
63.3968
  0
VERTEX
  8
0
 10
162.4049
 20
63.3968
  0
VERTEX
  8
0
 10
161.4049
 20
59.3928
  0
SEQEND
  0
POLYLINE
  8
0
 66
     1
 10
0
 20
0
  0
VERTEX
  8
0
 10
162.3889
 20
61.0528
  0
VERTEX
  8
0
 10
162.6689
 20
62.2048
  0
VERTEX
  8
0
 10
162.9649
 20
61.0528
  0
VERTEX
  8
0
 10
162.3889
 20
61.0528
  0
SEQEND
  0
POLYLINE
  8
0
 66
     1
 10
0
 20
0
  0
VERTEX
  8
0
 10
166.3249
 20
62.3328
  0
VERTEX
  8
0
 10
166.3181
 20
62.4032
  0
VERTEX
  8
0
 10
166.3089
 20
62.4717
  0
VERTEX
  8
0
 10
166.2975
 20
62.5381
  0
VERTEX
  8
0
 10
166.2838
 20
62.6025
  0
VERTEX
  8
0
 10
166.2678
 20
62.6649
  0
VERTEX
  8
0
 10
166.2495
 20
62.7254
  0
VERTEX
  8
0
 10
166.2289
 20
62.7838
  0
VERTEX
  8
0
 10
166.2061
 20
62.8402
  0
VERTEX
  8
0
 10
166.1809
 20
62.8947
  0
VERTEX
  8
0
 10
166.1535
 20
62.9471
  0
VERTEX
  8
0
 10
166.1238
 20
62.9975
  0
VERTEX
  8
0
 10
166.0918
 20
63.0459
  0
VERTEX
  8
0
 10
166.0575
 20
63.0924
  0
VERTEX
  8
0
 10
166.0209
 20
63.1368
  0
VERTEX
  8
0
 10
165.9897
 20
63.1708
  0
VERTEX
  8
0
 10
165.9573
 20
63.203
  0
VERTEX
  8
0
 10
165.9239
 20
63.2334
  0
VERTEX
  8
0
 10
165.8895
 20
63.2619
  0
VERTEX
  8
0
 10
165.8539
 20
63.2885
  0
VERTEX
  8
0
 10
165.8174
 20
63.3134
  0
VERTEX
  8
0
 10
165.7797
 20
63.3364
  0
VERTEX
  8
0
 10
165.741
 20
63.3575
  0
VERTEX
  8
0
 10
165.7012
 20
63.3768
  0
VERTEX
  8
0
 10
165.6604
 20
63.3943
  0
VERTEX
  8
0
 10
165.6185
 20
63.4099
  0
VERTEX
  8
0
 10
165.5755
 20
63.4237
  0
VERTEX
  8
0
 10
165.5315
 20
63.4357
  0
VERTEX
  8
0
 10
165.4864
 20
63.4458
  0
VERTEX
  8
0
 10
165.4402
 20
63.4541
  0
VERTEX
  8
0
 10
165.393
 20
63.4605
  0
VERTEX
  8
0
 10
165.3447
 20
63.4651
  0
VERTEX
  8
0
 10
165.2953
 20
63.4679
  0
VERTEX
  8
0
 10
165.2449
 20
63.4688
  0
VERTEX
  8
0
 10
165.2218
 20
63.4686
  0
VERTEX
  8
0
 10
165.199
 20
63.468
  0
VERTEX
  8
0
 10
165.1764
 20
63.4669
  0
VERTEX
  8
0
 10
165.154
 20
63.4655
  0
VERTEX
  8
0
 10
165.1318
 20
63.4636
  0
VERTEX
  8
0
 10
165.1099
 20
63.4614
  0
VERTEX
  8
0
 10
165.0882
 20
63.4587
  0
VERTEX
  8
0
 10
165.0667
 20
63.4556
  0
VERTEX
  8
0
 10
165.0455
 20
63.4521
  0
VERTEX
  8
0
 10
165.0245
 20
63.4482
  0
VERTEX
  8
0
 10
165.0038
 20
63.4439
  0
VERTEX
  8
0
 10
164.9832
 20
63.4391
  0
VERTEX
  8
0
 10
164.9629
 20
63.434
  0
VERTEX
  8
0
 10
164.9429
 20
63.4284
  0
VERTEX
  8
0
 10
164.923
 20
63.4224
  0
VERTEX
  8
0
 10
164.9034
 20
63.4161
  0
VERTEX
  8
0
 10
164.884
 20
63.4093
  0
VERTEX
  8
0
 10
164.8649
 20
63.402
  0
VERTEX
  8
0
 10
164.846
 20
63.3944
  0
VERTEX
  8
0
 10
164.8273
 20
63.3864
  0
VERTEX
  8
0
 10
164.8089
 20
63.3779
  0
VERTEX
  8
0
 10
164.7907
 20
63.3691
  0
VERTEX
  8
0
 10
164.7727
 20
63.3598
  0
VERTEX
  8
0
 10
164.7549
 20
63.3501
  0
VERTEX
  8
0
 10
164.7374
 20
63.34
  0
VERTEX
  8
0
 10
164.7201
 20
63.3295
  0
VERTEX
  8
0
 10
164.7031
 20
63.3186
  0
VERTEX
  8
0
 10
164.6863
 20
63.3073
  0
VERTEX
  8
0
 10
164.6697
 20
63.2955
  0
VERTEX
  8
0
 10
164.6533
 20
63.2834
  0
VERTEX
  8
0
 10
164.6372
 20
63.2708
  0
VERTEX
  8
0
 10
164.6213
 20
63.2578
  0
VERTEX
  8
0
 10
164.6056
 20
63.2445
  0
VERTEX
  8
0
 10
164.5902
 20
63.2307
  0
VERTEX
  8
0
 10
164.575
 20
63.2164
  0
VERTEX
  8
0
 10
164.5601
 20
63.2018
  0
VERTEX
  8
0
 10
164.5453
 20
63.1868
  0
VERTEX
  8
0
 10
164.5308
 20
63.1713
  0
VERTEX
  8
0
 10
164.5166
 20
63.1555
  0
VERTEX
  8
0
 10
164.5025
 20
63.1392
  0
VERTEX
  8
0
 10
164.4887
 20
63.1225
  0
VERTEX
  8
0
 10
164.4751
 20
63.1054
  0
VERTEX
  8
0
 10
164.4618
 20
63.0879
  0
VERTEX
  8
0
 10
164.4487
 20
63.07
  0
VERTEX
  8
0
 10
164.4358
 20
63.0516
  0
VERTEX
  8
0
 10
164.4232
 20
63.0329
  0
VERTEX
  8
0
 10
164.4108
 20
63.0137
  0
VERTEX
  8
0
 10
164.3986
 20
62.9942
  0
VERTEX
  8
0
 10
164.3866
 20
62.9742
  0
VERTEX
  8
0
 10
164.3749
 20
62.9538
  0
VERTEX
  8
0
 10
164.3634
 20
62.933
  0
VERTEX
  8
0
 10
164.3522
 20
62.9118
  0
VERTEX
  8
0
 10
164.3412
 20
62.8901
  0
VERTEX
  8
0
 10
164.3304
 20
62.8681
  0
VERTEX
  8
0
 10
164.3198
 20
62.8456
  0
VERTEX
  8
0
 10
164.3095
 20
62.8228
  0
VERTEX
  8
0
 10
164.2994
 20
62.7995
  0
VERTEX
  8
0
 10
164.2895
 20
62.7758
  0
VERTEX
  8
0
 10
164.2799
 20
62.7517
  0
VERTEX
  8
0
 10
164.2705
 20
62.7272
  0
VERTEX
  8
0
 10
164.2614
 20
62.7023
  0
VERTEX
  8
0
 10
164.2524
 20
62.6769
  0
VERTEX
  8
0
 10
164.2437
 20
62.6512
  0
VERTEX
  8
0
 10
164.2353
 20
62.625
  0
VERTEX
  8
0
 10
164.227
 20
62.5984
  0
VERTEX
  8
0
 10
164.219
 20
62.5715
  0
VERTEX
  8
0
 10
164.2112
 20
62.5441
  0
VERTEX
  8
0
 10
164.2037
 20
62.5162
  0
VERTEX
  8
0
 10
164.1964
 20
62.488
  0
VERTEX
  8
0
 10
164.1893
 20
62.4594
  0
VERTEX
  8
0
 10
164.1825
 20
62.4303
  0
VERTEX
  8
0
 10
164.1759
 20
62.4009
  0
VERTEX
  8
0
 10
164.1695
 20
62.371
  0
VERTEX
  8
0
 10
164.1633
 20
62.3407
  0
VERTEX
  8
0
 10
164.1574
 20
62.31
  0
VERTEX
  8
0
 10
164.1517
 20
62.2789
  0
VERTEX
  8
0
 10
164.1463
 20
62.2474
  0
VERTEX
  8
0
 10
164.1411
 20
62.2155
  0
VERTEX
  8
0
 10
164.1361
 20
62.1831
  0
VERTEX
  8
0
 10
164.1313
 20
62.1504
  0
VERTEX
  8
0
 10
164.1268
 20
62.1172
  0
VERTEX
  8
0
 10
164.1225
 20
62.0836
  0
VERTEX
  8
0
 10
164.1184
 20
62.0497
  0
VERTEX
  8
0
 10
164.1146
 20
62.0153
  0
VERTEX
  8
0
 10
164.111
 20
61.9804
  0
VERTEX
  8
0
 10
164.1077
 20
61.9452
  0
VERTEX
  8
0
 10
164.1045
 20
61.9096
  0
VERTEX
  8
0
 10
164.1016
 20
61.8735
  0
VERTEX
  8
0
 10
164.099
 20
61.8371
  0
VERTEX
  8
0
 10
164.0965
 20
61.8002
  0
VERTEX
  8
0
 10
164.0943
 20
61.7629
  0
VERTEX
  8
0
 10
164.0923
 20
61.7252
  0
VERTEX
  8
0
 10
164.0906
 20
61.6871
  0
VERTEX
  8
0
 10
164.0891
 20
61.6486
  0
VERTEX
  8
0
 10
164.0878
 20
61.6096
  0
VERTEX
  8
0
 10
164.0868
 20
61.5703
  0
VERTEX
  8
0
 10
164.086
 20
61.5305
  0
VERTEX
  8
0
 10
164.0854
 20
61.4904
  0
VERTEX
  8
0
 10
164.085
 20
61.4498
  0
VERTEX
  8
0
 10
164.0849
 20
61.4088
  0
VERTEX
  8
0
 10
164.085
 20
61.3674
  0
VERTEX
  8
0
 10
164.0854
 20
61.3264
  0
VERTEX
  8
0
 10
164.086
 20
61.2859
  0
VERTEX
  8
0
 10
164.0868
 20
61.2457
  0
VERTEX
  8
0
 10
164.0879
 20
61.206
  0
VERTEX
  8
0
 10
164.0892
 20
61.1667
  0
VERTEX
  8
0
 10
164.0908
 20
61.1278
  0
VERTEX
  8
0
 10
164.0926
 20
61.0893
  0
VERTEX
  8
0
 10
164.0946
 20
61.0512
  0
VERTEX
  8
0
 10
164.0969
 20
61.0136
  0
VERTEX
  8
0
 10
164.0994
 20
60.9764
  0
VERTEX
  8
0
 10
164.1022
 20
60.9395
  0
VERTEX
  8
0
 10
164.1052
 20
60.9031
  0
VERTEX
  8
0
 10
164.1084
 20
60.8672
  0
VERTEX
  8
0
 10
164.1119
 20
60.8316
  0
VERTEX
  8
0
 10
164.1156
 20
60.7964
  0
VERTEX
  8
0
 10
164.1196
 20
60.7617
  0
VERTEX
  8
0
 10
164.1238
 20
60.7274
  0
VERTEX
  8
0
 10
164.1282
 20
60.6935
  0
VERTEX
  8
0
 10
164.1329
 20
60.66
  0
VERTEX
  8
0
 10
164.1378
 20
60.6269
  0
VERTEX
  8
0
 10
164.143
 20
60.5943
  0
VERTEX
  8
0
 10
164.1484
 20
60.562
  0
VERTEX
  8
0
 10
164.154
 20
60.5302
  0
VERTEX
  8
0
 10
164.1599
 20
60.4988
  0
VERTEX
  8
0
 10
164.166
 20
60.4678
  0
VERTEX
  8
0
 10
164.1724
 20
60.4372
  0
VERTEX
  8
0
 10
164.179
 20
60.4071
  0
VERTEX
  8
0
 10
164.1858
 20
60.3773
  0
VERTEX
  8
0
 10
164.1929
 20
60.348
  0
VERTEX
  8
0
 10
164.2002
 20
60.3191
  0
VERTEX
  8
0
 10
164.2078
 20
60.2906
  0
VERTEX
  8
0
 10
164.2156
 20
60.2625
  0
VERTEX
  8
0
 10
164.2236
 20
60.2348
  0
VERTEX
  8
0
 10
164.2319
 20
60.2076
  0
VERTEX
  8
0
 10
164.2404
 20
60.1808
  0
VERTEX
  8
0
 10
164.2492
 20
60.1543
  0
VERTEX
  8
0
 10
164.2582
 20
60.1283
  0
VERTEX
  8
0
 10
164.2674
 20
60.1028
  0
VERTEX
  8
0
 10
164.2769
 20
60.0776
  0
VERTEX
  8
0
 10
164.2866
 20
60.0528
  0
VERTEX
  8
0
 10
164.2966
 20
60.0285
  0
VERTEX
  8
0
 10
164.3068
 20
60.0046
  0
VERTEX
  8
0
 10
164.3172
 20
59.9811
  0
VERTEX
  8
0
 10
164.3279
 20
59.958
  0
VERTEX
  8
0
 10
164.3388
 20
59.9353
  0
VERTEX
  8
0
 10
164.35
 20
59.9131
  0
VERTEX
  8
0
 10
164.3614
 20
59.8912
  0
VERTEX
  8
0
 10
164.373
 20
59.8698
  0
VERTEX
  8
0
 10
164.3849
 20
59.8488
  0
VERTEX
  8
0
 10
164.397
 20
59.8282
  0
VERTEX
  8
0
 10
164.4094
 20
59.808
  0
VERTEX
  8
0
 10
164.422
 20
59.7883
  0
VERTEX
  8
0
 10
164.4348
 20
59.7689
  0
VERTEX
  8
0
 10
164.4479
 20
59.75
  0
VERTEX
  8
0
 10
164.4612
 20
59.7315
  0
VERTEX
  8
0
 10
164.4748
 20
59.7134
  0
VERTEX
  8
0
 10
164.4886
 20
59.6957
  0
VERTEX
  8
0
 10
164.5026
 20
59.6784
  0
VERTEX
  8
0
 10
164.5169
 20
59.6616
  0
VERTEX
  8
0
 10
164.5314
 20
59.6452
  0
VERTEX
  8
0
 10
164.5462
 20
59.6291
  0
VERTEX
  8
0
 10
164.5612
 20
59.6135
  0
VERTEX
  8
0
 10
164.5764
 20
59.5984
  0
VERTEX
  8
0
 10
164.5919
 20
59.5836
  0
VERTEX
  8
0
 10
164.6076
 20
59.5692
  0
VERTEX
  8
0
 10
164.6236
 20
59.5553
  0
VERTEX
  8
0
 10
164.6398
 20
59.5418
  0
VERTEX
  8
0
 10
164.6562
 20
59.5287
  0
VERTEX
  8
0
 10
164.6729
 20
59.516
  0
VERTEX
  8
0
 10
164.6898
 20
59.5037
  0
VERTEX
  8
0
 10
164.707
 20
59.4919
  0
VERTEX
  8
0
 10
164.7244
 20
59.4804
  0
VERTEX
  8
0
 10
164.742
 20
59.4694
  0
VERTEX
  8
0
 10
164.7599
 20
59.4588
  0
VERTEX
  8
0
 10
164.778
 20
59.4486
  0
VERTEX
  8
0
 10
164.7964
 20
59.4388
  0
VERTEX
  8
0
 10
164.815
 20
59.4295
  0
VERTEX
  8
0
 10
164.8338
 20
59.4205
  0
VERTEX
  8
0
 10
164.8529
 20
59.412
  0
VERTEX
  8
0
 10
164.8722
 20
59.4039
  0
VERTEX
  8
0
 10
164.8918
 20
59.3962
  0
VERTEX
  8
0
 10
164.9116
 20
59.3889
  0
VERTEX
  8
0
 10
164.9316
 20
59.382
  0
VERTEX
  8
0
 10
164.9519
 20
59.3756
  0
VERTEX
  8
0
 10
164.9724
 20
59.3696
  0
VERTEX
  8
0
 10
164.9932
 20
59.3639
  0
VERTEX
  8
0
 10
165.0142
 20
59.3587
  0
VERTEX
  8
0
 10
165.0354
 20
59.354
  0
VERTEX
  8
0
 10
165.0569
 20
59.3496
  0
VERTEX
  8
0
 10
165.0786
 20
59.3456
  0
VERTEX
  8
0
 10
165.1006
 20
59.3421
  0
VERTEX
  8
0
 10
165.1228
 20
59.339
  0
VERTEX
  8
0
 10
165.1452
 20
59.3363
  0
VERTEX
  8
0
 10
165.1679
 20
59.334
  0
VERTEX
  8
0
 10
165.1908
 20
59.3321
  0
VERTEX
  8
0
 10
165.214
 20
59.3307
  0
VERTEX
  8
0
 10
165.2374
 20
59.3296
  0
VERTEX
  8
0
 10
165.261
 20
59.329
  0
VERTEX
  8
0
 10
165.2849
 20
59.3288
  0
VERTEX
  8
0
 10
165.3357
 20
59.3297
  0
VERTEX
  8
0
 10
165.3853
 20
59.3325
  0
VERTEX
  8
0
 10
165.4336
 20
59.3372
  0
VERTEX
  8
0
 10
165.4808
 20
59.3437
  0
VERTEX
  8
0
 10
165.5268
 20
59.3521
  0
VERTEX
  8
0
 10
165.5716
 20
59.3623
  0
VERTEX
  8
0
 10
165.6152
 20
59.3744
  0
VERTEX
  8
0
 10
165.6576
 20
59.3884
  0
VERTEX
  8
0
 10
165.6988
 20
59.4042
  0
VERTEX
  8
0
 10
165.7388
 20
59.4219
  0
VERTEX
  8
0
 10
165.7776
 20
59.4414
  0
VERTEX
  8
0
 10
165.8152
 20
59.4628
  0
VERTEX
  8
0
 10
165.8516
 20
59.4861
  0
VERTEX
  8
0
 10
165.8868
 20
59.5112
  0
VERTEX
  8
0
 10
165.9208
 20
59.5382
  0
VERTEX
  8
0
 10
165.9536
 20
59.5671
  0
VERTEX
  8
0
 10
165.9853
 20
59.5978
  0
VERTEX
  8
0
 10
166.0157
 20
59.6304
  0
VERTEX
  8
0
 10
166.0449
 20
59.6648
  0
VERTEX
  8
0
 10
166.0793
 20
59.7092
  0
VERTEX
  8
0
 10
166.1114
 20
59.7557
  0
VERTEX
  8
0
 10
166.1413
 20
59.8043
  0
VERTEX
  8
0
 10
166.169
 20
59.8548
  0
VERTEX
  8
0
 10
166.1945
 20
59.9074
  0
VERTEX
  8
0
 10
166.2178
 20
59.9621
  0
VERTEX
  8
0
 10
166.2389
 20
60.0188
  0
VERTEX
  8
0
 10
166.2578
 20
60.0775
  0
VERTEX
  8
0
 10
166.2745
 20
60.1383
  0
VERTEX
  8
0
 10
166.289
 20
60.2011
  0
VERTEX
  8
0
 10
166.3013
 20
60.266
  0
VERTEX
  8
0
 10
166.3114
 20
60.3329
  0
VERTEX
  8
0
 10
166.3193
 20
60.4018
  0
VERTEX
  8
0
 10
166.3249
 20
60.4728
  0
VERTEX
  8
0
 10
165.7449
 20
60.4728
  0
VERTEX
  8
0
 10
165.7489
 20
60.4088
  0
VERTEX
  8
0
 10
165.7487
 20
60.3444
  0
VERTEX
  8
0
 10
165.7435
 20
60.2837
  0
VERTEX
  8
0
 10
165.7334
 20
60.2268
  0
VERTEX
  8
0
 10
165.7182
 20
60.1737
  0
VERTEX
  8
0
 10
165.6981
 20
60.1243
  0
VERTEX
  8
0
 10
165.673
 20
60.0787
  0
VERTEX
  8
0
 10
165.6429
 20
60.0368
  0
VERTEX
  8
0
 10
165.6162
 20
60.0074
  0
VERTEX
  8
0
 10
165.5866
 20
59.9815
  0
VERTEX
  8
0
 10
165.5543
 20
59.959
  0
VERTEX
  8
0
 10
165.5191
 20
59.94
  0
VERTEX
  8
0
 10
165.4811
 20
59.9244
  0
VERTEX
  8
0
 10
165.4403
 20
59.9123
  0
VERTEX
  8
0
 10
165.3966
 20
59.9037
  0
VERTEX
  8
0
 10
165.3502
 20
59.8985
  0
VERTEX
  8
0
 10
165.3009
 20
59.8968
  0
VERTEX
  8
0
 10
165.2755
 20
59.8973
  0
VERTEX
  8
0
 10
165.2506
 20
59.899
  0
VERTEX
  8
0
 10
165.2262
 20
59.9017
  0
VERTEX
  8
0
 10
165.2023
 20
59.9055
  0
VERTEX
  8
0
 10
165.1789
 20
59.9104
  0
VERTEX
  8
0
 10
165.156
 20
59.9164
  0
VERTEX
  8
0
 10
165.1336
 20
59.9234
  0
VERTEX
  8
0
 10
165.1117
 20
59.9316
  0
VERTEX
  8
0
 10
165.0903
 20
59.9408
  0
VERTEX
  8
0
 10
165.0694
 20
59.9511
  0
VERTEX
  8
0
 10
165.049
 20
59.9625
  0
VERTEX
  8
0
 10
165.029
 20
59.975
  0
VERTEX
  8
0
 10
165.0096
 20
59.9886
  0
VERTEX
  8
0
 10
164.9907
 20
60.0033
  0
VERTEX
  8
0
 10
164.9723
 20
60.019
  0
VERTEX
  8
0
 10
164.9543
 20
60.0359
  0
VERTEX
  8
0
 10
164.9369
 20
60.0538
  0
VERTEX
  8
0
 10
164.92
 20
60.0728
  0
VERTEX
  8
0
 10
164.9036
 20
60.0929
  0
VERTEX
  8
0
 10
164.8876
 20
60.1141
  0
VERTEX
  8
0
 10
164.8722
 20
60.1364
  0
VERTEX
  8
0
 10
164.8573
 20
60.1597
  0
VERTEX
  8
0
 10
164.8428
 20
60.1842
  0
VERTEX
  8
0
 10
164.8289
 20
60.2097
  0
VERTEX
  8
0
 10
164.8155
 20
60.2363
  0
VERTEX
  8
0
 10
164.8025
 20
60.264
  0
VERTEX
  8
0
 10
164.7901
 20
60.2928
  0
VERTEX
  8
0
 10
164.7781
 20
60.3227
  0
VERTEX
  8
0
 10
164.7667
 20
60.3537
  0
VERTEX
  8
0
 10
164.7557
 20
60.3857
  0
VERTEX
  8
0
 10
164.7453
 20
60.4189
  0
VERTEX
  8
0
 10
164.7353
 20
60.4531
  0
VERTEX
  8
0
 10
164.7259
 20
60.4884
  0
VERTEX
  8
0
 10
164.7169
 20
60.5248
  0
VERTEX
  8
0
 10
164.7077
 20
60.5666
  0
VERTEX
  8
0
 10
164.6991
 20
60.6109
  0
VERTEX
  8
0
 10
164.6911
 20
60.6578
  0
VERTEX
  8
0
 10
164.6837
 20
60.7073
  0
VERTEX
  8
0
 10
164.6768
 20
60.7593
  0
VERTEX
  8
0
 10
164.6706
 20
60.8139
  0
VERTEX
  8
0
 10
164.665
 20
60.8711
  0
VERTEX
  8
0
 10
164.6599
 20
60.9308
  0
VERTEX
  8
0
 10
164.6555
 20
60.9931
  0
VERTEX
  8
0
 10
164.6516
 20
61.0579
  0
VERTEX
  8
0
 10
164.6483
 20
61.1253
  0
VERTEX
  8
0
 10
164.6457
 20
61.1953
  0
VERTEX
  8
0
 10
164.6436
 20
61.2678
  0
VERTEX
  8
0
 10
164.6421
 20
61.3429
  0
VERTEX
  8
0
 10
164.6412
 20
61.4206
  0
VERTEX
  8
0
 10
164.6409
 20
61.5008
  0
VERTEX
  8
0
 10
164.6412
 20
61.5731
  0
VERTEX
  8
0
 10
164.6419
 20
61.6429
  0
VERTEX
  8
0
 10
164.6432
 20
61.7102
  0
VERTEX
  8
0
 10
164.6449
 20
61.775
  0
VERTEX
  8
0
 10
164.6472
 20
61.8374
  0
VERTEX
  8
0
 10
164.6499
 20
61.8974
  0
VERTEX
  8
0
 10
164.6532
 20
61.9548
  0
VERTEX
  8
0
 10
164.6569
 20
62.0098
  0
VERTEX
  8
0
 10
164.6612
 20
62.0623
  0
VERTEX
  8
0
 10
164.6659
 20
62.1124
  0
VERTEX
  8
0
 10
164.6712
 20
62.1599
  0
VERTEX
  8
0
 10
164.6769
 20
62.205
  0
VERTEX
  8
0
 10
164.6832
 20
62.2477
  0
VERTEX
  8
0
 10
164.6899
 20
62.2879
  0
VERTEX
  8
0
 10
164.6972
 20
62.3256
  0
VERTEX
  8
0
 10
164.7049
 20
62.3608
  0
VERTEX
  8
0
 10
164.7138
 20
62.3965
  0
VERTEX
  8
0
 10
164.7232
 20
62.4309
  0
VERTEX
  8
0
 10
164.7332
 20
62.4642
  0
VERTEX
  8
0
 10
164.7438
 20
62.4962
  0
VERTEX
  8
0
 10
164.755
 20
62.527
  0
VERTEX
  8
0
 10
164.7668
 20
62.5566
  0
VERTEX
  8
0
 10
164.7792
 20
62.585
  0
VERTEX
  8
0
 10
164.7922
 20
62.6122
  0
VERTEX
  8
0
 10
164.8058
 20
62.6382
  0
VERTEX
  8
0
 10
164.82
 20
62.663
  0
VERTEX
  8
0
 10
164.8348
 20
62.6866
  0
VERTEX
  8
0
 10
164.8502
 20
62.709
  0
VERTEX
  8
0
 10
164.8662
 20
62.7301
  0
VERTEX
  8
0
 10
164.8828
 20
62.7501
  0
VERTEX
  8
0
 10
164.8999
 20
62.7688
  0
VERTEX
  8
0
 10
164.9177
 20
62.7863
  0
VERTEX
  8
0
 10
164.936
 20
62.8026
  0
VERTEX
  8
0
 10
164.955
 20
62.8178
  0
VERTEX
  8
0
 10
164.9746
 20
62.8317
  0
VERTEX
  8
0
 10
164.9947
 20
62.8443
  0
VERTEX
  8
0
 10
165.0154
 20
62.8558
  0
VERTEX
  8
0
 10
165.0368
 20
62.8661
  0
VERTEX
  8
0
 10
165.0587
 20
62.8752
  0
VERTEX
  8
0
 10
165.0812
 20
62.883
  0
VERTEX
  8
0
 10
165.1044
 20
62.8897
  0
VERTEX
  8
0
 10
165.1281
 20
62.8951
  0
VERTEX
  8
0
 10
165.1524
 20
62.8994
  0
VERTEX
  8
0
 10
165.1773
 20
62.9024
  0
VERTEX
  8
0
 10
165.2028
 20
62.9042
  0
VERTEX
  8
0
 10
165.2289
 20
62.9048
  0
VERTEX
  8
0
 10
165.2547
 20
62.9043
  0
VERTEX
  8
0
 10
165.2799
 20
62.9028
  0
VERTEX
  8
0
 10
165.3044
 20
62.9003
  0
VERTEX
  8
0
 10
165.3282
 20
62.8969
  0
VERTEX
  8
0
 10
165.3515
 20
62.8924
  0
VERTEX
  8
0
 10
165.374
 20
62.887
  0
VERTEX
  8
0
 10
165.396
 20
62.8805
  0
VERTEX
  8
0
 10
165.4173
 20
62.8731
  0
VERTEX
  8
0
 10
165.4379
 20
62.8647
  0
VERTEX
  8
0
 10
165.4579
 20
62.8553
  0
VERTEX
  8
0
 10
165.4773
 20
62.8449
  0
VERTEX
  8
0
 10
165.496
 20
62.8335
  0
VERTEX
  8
0
 10
165.5141
 20
62.8212
  0
VERTEX
  8
0
 10
165.5315
 20
62.8078
  0
VERTEX
  8
0
 10
165.5483
 20
62.7935
  0
VERTEX
  8
0
 10
165.5644
 20
62.7781
  0
VERTEX
  8
0
 10
165.5799
 20
62.7618
  0
VERTEX
  8
0
 10
165.5948
 20
62.7445
  0
VERTEX
  8
0
 10
165.609
 20
62.7262
  0
VERTEX
  8
0
 10
165.6226
 20
62.7069
  0
VERTEX
  8
0
 10
165.6355
 20
62.6866
  0
VERTEX
  8
0
 10
165.6478
 20
62.6653
  0
VERTEX
  8
0
 10
165.6594
 20
62.643
  0
VERTEX
  8
0
 10
165.6704
 20
62.6198
  0
VERTEX
  8
0
 10
165.6807
 20
62.5955
  0
VERTEX
  8
0
 10
165.6904
 20
62.5703
  0
VERTEX
  8
0
 10
165.6995
 20
62.5441
  0
VERTEX
  8
0
 10
165.7079
 20
62.5169
  0
VERTEX
  8
0
 10
165.7157
 20
62.4887
  0
VERTEX
  8
0
 10
165.7228
 20
62.4595
  0
VERTEX
  8
0
 10
165.7293
 20
62.4293
  0
VERTEX
  8
0
 10
165.7352
 20
62.3981
  0
VERTEX
  8
0
 10
165.7404
 20
62.3659
  0
VERTEX
  8
0
 10
165.7449
 20
62.3328
  0
VERTEX
  8
0
 10
166.3249
 20
62.3328
  0
SEQEND
  0
POLYLINE
  8
0
 66
     1
 10
0
 20
0
  0
VERTEX
  8
0
 10
166.5249
 20
63.3968
  0
VERTEX
  8
0
 10
166.5249
 20
60.5088
  0
VERTEX
  8
0
 10
166.527
 20
60.4523
  0
VERTEX
  8
0
 10
166.5312
 20
60.3968
  0
VERTEX
  8
0
 10
166.5376
 20
60.3422
  0
VERTEX
  8
0
 10
166.5462
 20
60.2886
  0
VERTEX
  8
0
 10
166.557
 20
60.2359
  0
VERTEX
  8
0
 10
166.5699
 20
60.1841
  0
VERTEX
  8
0
 10
166.5851
 20
60.1333
  0
VERTEX
  8
0
 10
166.6024
 20
60.0834
  0
VERTEX
  8
0
 10
166.622
 20
60.0344
  0
VERTEX
  8
0
 10
166.6437
 20
59.9864
  0
VERTEX
  8
0
 10
166.6676
 20
59.9394
  0
VERTEX
  8
0
 10
166.6937
 20
59.8933
  0
VERTEX
  8
0
 10
166.7219
 20
59.8481
  0
VERTEX
  8
0
 10
166.7524
 20
59.8039
  0
VERTEX
  8
0
 10
166.7851
 20
59.7606
  0
VERTEX
  8
0
 10
166.8199
 20
59.7182
  0
VERTEX
  8
0
 10
166.8569
 20
59.6768
  0
VERTEX
  8
0
 10
166.8915
 20
59.6411
  0
VERTEX
  8
0
 10
166.9269
 20
59.6074
  0
VERTEX
  8
0
 10
166.9631
 20
59.5756
  0
VERTEX
  8
0
 10
167.0003
 20
59.5457
  0
VERTEX
  8
0
 10
167.0383
 20
59.5177
  0
VERTEX
  8
0
 10
167.0771
 20
59.4917
  0
VERTEX
  8
0
 10
167.1168
 20
59.4676
  0
VERTEX
  8
0
 10
167.1574
 20
59.4454
  0
VERTEX
  8
0
 10
167.1989
 20
59.4252
  0
VERTEX
  8
0
 10
167.2412
 20
59.4069
  0
VERTEX
  8
0
 10
167.2844
 20
59.3905
  0
VERTEX
  8
0
 10
167.3284
 20
59.376
  0
VERTEX
  8
0
 10
167.3733
 20
59.3635
  0
VERTEX
  8
0
 10
167.4191
 20
59.3529
  0
VERTEX
  8
0
 10
167.4657
 20
59.3442
  0
VERTEX
  8
0
 10
167.5132
 20
59.3375
  0
VERTEX
  8
0
 10
167.5616
 20
59.3326
  0
VERTEX
  8
0
 10
167.6108
 20
59.3298
  0
VERTEX
  8
0
 10
167.6609
 20
59.3288
  0
VERTEX
  8
0
 10
167.7098
 20
59.3298
  0
VERTEX
  8
0
 10
167.7579
 20
59.3328
  0
VERTEX
  8
0
 10
167.8051
 20
59.3379
  0
VERTEX
  8
0
 10
167.8516
 20
59.3449
  0
VERTEX
  8
0
 10
167.8973
 20
59.354
  0
VERTEX
  8
0
 10
167.9421
 20
59.3651
  0
VERTEX
  8
0
 10
167.9862
 20
59.3782
  0
VERTEX
  8
0
 10
168.0295
 20
59.3933
  0
VERTEX
  8
0
 10
168.072
 20
59.4105
  0
VERTEX
  8
0
 10
168.1137
 20
59.4296
  0
VERTEX
  8
0
 10
168.1546
 20
59.4508
  0
VERTEX
  8
0
 10
168.1946
 20
59.474
  0
VERTEX
  8
0
 10
168.2339
 20
59.4992
  0
VERTEX
  8
0
 10
168.2724
 20
59.5264
  0
VERTEX
  8
0
 10
168.3101
 20
59.5557
  0
VERTEX
  8
0
 10
168.347
 20
59.5869
  0
VERTEX
  8
0
 10
168.3831
 20
59.6202
  0
VERTEX
  8
0
 10
168.4184
 20
59.6555
  0
VERTEX
  8
0
 10
168.4529
 20
59.6928
  0
VERTEX
  8
0
 10
168.4907
 20
59.7373
  0
VERTEX
  8
0
 10
168.526
 20
59.7827
  0
VERTEX
  8
0
 10
168.559
 20
59.8292
  0
VERTEX
  8
0
 10
168.5894
 20
59.8765
  0
VERTEX
  8
0
 10
168.6175
 20
59.9249
  0
VERTEX
  8
0
 10
168.643
 20
59.9742
  0
VERTEX
  8
0
 10
168.6662
 20
60.0245
  0
VERTEX
  8
0
 10
168.6869
 20
60.0758
  0
VERTEX
  8
0
 10
168.7052
 20
60.128
  0
VERTEX
  8
0
 10
168.721
 20
60.1812
  0
VERTEX
  8
0
 10
168.7345
 20
60.2354
  0
VERTEX
  8
0
 10
168.7454
 20
60.2905
  0
VERTEX
  8
0
 10
168.754
 20
60.3467
  0
VERTEX
  8
0
 10
168.76
 20
60.4037
  0
VERTEX
  8
0
 10
168.7637
 20
60.4618
  0
VERTEX
  8
0
 10
168.7649
 20
60.5208
  0
VERTEX
  8
0
 10
168.7649
 20
63.3968
  0
VERTEX
  8
0
 10
168.1929
 20
63.3968
  0
VERTEX
  8
0
 10
168.1929
 20
60.5328
  0
VERTEX
  8
0
 10
168.1907
 20
60.4654
  0
VERTEX
  8
0
 10
168.1842
 20
60.4013
  0
VERTEX
  8
0
 10
168.1732
 20
60.3404
  0
VERTEX
  8
0
 10
168.1579
 20
60.2828
  0
VERTEX
  8
0
 10
168.1382
 20
60.2284
  0
VERTEX
  8
0
 10
168.1142
 20
60.1773
  0
VERTEX
  8
0
 10
168.0857
 20
60.1294
  0
VERTEX
  8
0
 10
168.0529
 20
60.0848
  0
VERTEX
  8
0
 10
168.0243
 20
60.0515
  0
VERTEX
  8
0
 10
167.9938
 20
60.0213
  0
VERTEX
  8
0
 10
167.9614
 20
59.9943
  0
VERTEX
  8
0
 10
167.927
 20
59.9705
  0
VERTEX
  8
0
 10
167.8908
 20
59.9499
  0
VERTEX
  8
0
 10
167.8526
 20
59.9325
  0
VERTEX
  8
0
 10
167.8125
 20
59.9182
  0
VERTEX
  8
0
 10
167.7705
 20
59.9071
  0
VERTEX
  8
0
 10
167.7265
 20
59.8991
  0
VERTEX
  8
0
 10
167.6807
 20
59.8944
  0
VERTEX
  8
0
 10
167.6329
 20
59.8928
  0
VERTEX
  8
0
 10
167.588
 20
59.8944
  0
VERTEX
  8
0
 10
167.5447
 20
59.8994
  0
VERTEX
  8
0
 10
167.5032
 20
59.9077
  0
VERTEX
  8
0
 10
167.4634
 20
59.9192
  0
VERTEX
  8
0
 10
167.4253
 20
59.9341
  0
VERTEX
  8
0
 10
167.389
 20
59.9523
  0
VERTEX
  8
0
 10
167.3543
 20
59.9738
  0
VERTEX
  8
0
 10
167.3214
 20
59.9986
  0
VERTEX
  8
0
 10
167.2902
 20
60.0267
  0
VERTEX
  8
0
 10
167.2607
 20
60.0581
  0
VERTEX
  8
0
 10
167.2329
 20
60.0928
  0
VERTEX
  8
0
 10
167.1968
 20
60.1459
  0
VERTEX
  8
0
 10
167.1663
 20
60.2022
  0
VERTEX
  8
0
 10
167.1413
 20
60.2618
  0
VERTEX
  8
0
 10
167.1219
 20
60.3246
  0
VERTEX
  8
0
 10
167.108
 20
60.3908
  0
VERTEX
  8
0
 10
167.0997
 20
60.4601
  0
VERTEX
  8
0
 10
167.0969
 20
60.5328
  0
VERTEX
  8
0
 10
167.0969
 20
63.3968
  0
VERTEX
  8
0
 10
166.5249
 20
63.3968
  0
SEQEND
  0
POLYLINE
  8
0
 66
     1
 10
0
 20
0
  0
VERTEX
  8
0
 10
168.9049
 20
59.3928
  0
VERTEX
  8
0
 10
169.4809
 20
59.3968
  0
VERTEX
  8
0
 10
169.7489
 20
60.4888
  0
VERTEX
  8
0
 10
170.6049
 20
60.4888
  0
VERTEX
  8
0
 10
170.8849
 20
59.3968
  0
VERTEX
  8
0
 10
171.4649
 20
59.3928
  0
VERTEX
  8
0
 10
170.4649
 20
63.3968
  0
VERTEX
  8
0
 10
169.9049
 20
63.3968
  0
VERTEX
  8
0
 10
168.9049
 20
59.3928
  0
SEQEND
  0
POLYLINE
  8
0
 66
     1
 10
0
 20
0
  0
VERTEX
  8
0
 10
169.8889
 20
61.0528
  0
VERTEX
  8
0
 10
170.1689
 20
62.2048
  0
VERTEX
  8
0
 10
170.4649
 20
61.0528
  0
VERTEX
  8
0
 10
169.8889
 20
61.0528
  0
SEQEND
  0
POLYLINE
  8
0
 66
     1
 10
0
 20
0
  0
VERTEX
  8
0
 10
172.2489
 20
59.3968
  0
VERTEX
  8
0
 10
172.8249
 20
59.3968
  0
VERTEX
  8
0
 10
172.8249
 20
62.8648
  0
VERTEX
  8
0
 10
173.5649
 20
62.8648
  0
VERTEX
  8
0
 10
173.5649
 20
63.3968
  0
VERTEX
  8
0
 10
171.5249
 20
63.3968
  0
VERTEX
  8
0
 10
171.5249
 20
62.8648
  0
VERTEX
  8
0
 10
172.2489
 20
62.8648
  0
VERTEX
  8
0
 10
172.2489
 20
59.3968
  0
SEQEND
  0
POLYLINE
  8
0
 66
     1
 10
0
 20
0
  0
VERTEX
  8
0
 10
173.7049
 20
59.3968
  0
VERTEX
  8
0
 10
174.2649
 20
59.3968
  0
VERTEX
  8
0
 10
174.2649
 20
63.3968
  0
VERTEX
  8
0
 10
173.7049
 20
63.3968
  0
VERTEX
  8
0
 10
173.7049
 20
59.3968
  0
SEQEND
  0
POLYLINE
  8
0
 66
     1
 10
0
 20
0
  0
VERTEX
  8
0
 10
176.8249
 20
61.4048
  0
VERTEX
  8
0
 10
176.8248
 20
61.4459
  0
VERTEX
  8
0
 10
176.8245
 20
61.4865
  0
VERTEX
  8
0
 10
176.8239
 20
61.5268
  0
VERTEX
  8
0
 10
176.823
 20
61.5666
  0
VERTEX
  8
0
 10
176.822
 20
61.606
  0
VERTEX
  8
0
 10
176.8207
 20
61.645
  0
VERTEX
  8
0
 10
176.8192
 20
61.6836
  0
VERTEX
  8
0
 10
176.8174
 20
61.7218
  0
VERTEX
  8
0
 10
176.8154
 20
61.7596
  0
VERTEX
  8
0
 10
176.8132
 20
61.797
  0
VERTEX
  8
0
 10
176.8107
 20
61.8339
  0
VERTEX
  8
0
 10
176.808
 20
61.8704
  0
VERTEX
  8
0
 10
176.8051
 20
61.9066
  0
VERTEX
  8
0
 10
176.802
 20
61.9423
  0
VERTEX
  8
0
 10
176.7986
 20
61.9776
  0
VERTEX
  8
0
 10
176.7949
 20
62.0124
  0
VERTEX
  8
0
 10
176.7911
 20
62.0469
  0
VERTEX
  8
0
 10
176.787
 20
62.081
  0
VERTEX
  8
0
 10
176.7826
 20
62.1146
  0
VERTEX
  8
0
 10
176.778
 20
62.1478
  0
VERTEX
  8
0
 10
176.7732
 20
62.1807
  0
VERTEX
  8
0
 10
176.7682
 20
62.2131
  0
VERTEX
  8
0
 10
176.7629
 20
62.245
  0
VERTEX
  8
0
 10
176.7574
 20
62.2766
  0
VERTEX
  8
0
 10
176.7517
 20
62.3078
  0
VERTEX
  8
0
 10
176.7457
 20
62.3385
  0
VERTEX
  8
0
 10
176.7395
 20
62.3689
  0
VERTEX
  8
0
 10
176.733
 20
62.3988
  0
VERTEX
  8
0
 10
176.7264
 20
62.4283
  0
VERTEX
  8
0
 10
176.7194
 20
62.4574
  0
VERTEX
  8
0
 10
176.7123
 20
62.4861
  0
VERTEX
  8
0
 10
176.7049
 20
62.5144
  0
VERTEX
  8
0
 10
176.6973
 20
62.5423
  0
VERTEX
  8
0
 10
176.6894
 20
62.5697
  0
VERTEX
  8
0
 10
176.6814
 20
62.5968
  0
VERTEX
  8
0
 10
176.673
 20
62.6234
  0
VERTEX
  8
0
 10
176.6645
 20
62.6496
  0
VERTEX
  8
0
 10
176.6557
 20
62.6754
  0
VERTEX
  8
0
 10
176.6467
 20
62.7008
  0
VERTEX
  8
0
 10
176.6374
 20
62.7258
  0
VERTEX
  8
0
 10
176.6279
 20
62.7503
  0
VERTEX
  8
0
 10
176.6182
 20
62.7745
  0
VERTEX
  8
0
 10
176.6082
 20
62.7982
  0
VERTEX
  8
0
 10
176.598
 20
62.8215
  0
VERTEX
  8
0
 10
176.5876
 20
62.8444
  0
VERTEX
  8
0
 10
176.5769
 20
62.8669
  0
VERTEX
  8
0
 10
176.566
 20
62.889
  0
VERTEX
  8
0
 10
176.5549
 20
62.9107
  0
VERTEX
  8
0
 10
176.5435
 20
62.9319
  0
VERTEX
  8
0
 10
176.5319
 20
62.9528
  0
VERTEX
  8
0
 10
176.5201
 20
62.9732
  0
VERTEX
  8
0
 10
176.508
 20
62.9932
  0
VERTEX
  8
0
 10
176.4957
 20
63.0129
  0
VERTEX
  8
0
 10
176.4832
 20
63.0321
  0
VERTEX
  8
0
 10
176.4704
 20
63.0508
  0
VERTEX
  8
0
 10
176.4574
 20
63.0692
  0
VERTEX
  8
0
 10
176.4441
 20
63.0872
  0
VERTEX
  8
0
 10
176.4307
 20
63.1047
  0
VERTEX
  8
0
 10
176.417
 20
63.1218
  0
VERTEX
  8
0
 10
176.403
 20
63.1386
  0
VERTEX
  8
0
 10
176.3888
 20
63.1549
  0
VERTEX
  8
0
 10
176.3744
 20
63.1708
  0
VERTEX
  8
0
 10
176.3598
 20
63.1862
  0
VERTEX
  8
0
 10
176.3449
 20
63.2013
  0
VERTEX
  8
0
 10
176.3298
 20
63.216
  0
VERTEX
  8
0
 10
176.3144
 20
63.2302
  0
VERTEX
  8
0
 10
176.2988
 20
63.244
  0
VERTEX
  8
0
 10
176.283
 20
63.2574
  0
VERTEX
  8
0
 10
176.2669
 20
63.2704
  0
VERTEX
  8
0
 10
176.2506
 20
63.283
  0
VERTEX
  8
0
 10
176.2341
 20
63.2952
  0
VERTEX
  8
0
 10
176.2174
 20
63.307
  0
VERTEX
  8
0
 10
176.2004
 20
63.3183
  0
VERTEX
  8
0
 10
176.1831
 20
63.3293
  0
VERTEX
  8
0
 10
176.1657
 20
63.3398
  0
VERTEX
  8
0
 10
176.148
 20
63.3499
  0
VERTEX
  8
0
 10
176.13
 20
63.3596
  0
VERTEX
  8
0
 10
176.1119
 20
63.3689
  0
VERTEX
  8
0
 10
176.0935
 20
63.3778
  0
VERTEX
  8
0
 10
176.0748
 20
63.3862
  0
VERTEX
  8
0
 10
176.056
 20
63.3943
  0
VERTEX
  8
0
 10
176.0369
 20
63.4019
  0
VERTEX
  8
0
 10
176.0175
 20
63.4091
  0
VERTEX
  8
0
 10
175.998
 20
63.416
  0
VERTEX
  8
0
 10
175.9782
 20
63.4224
  0
VERTEX
  8
0
 10
175.9581
 20
63.4283
  0
VERTEX
  8
0
 10
175.9378
 20
63.4339
  0
VERTEX
  8
0
 10
175.9173
 20
63.4391
  0
VERTEX
  8
0
 10
175.8966
 20
63.4438
  0
VERTEX
  8
0
 10
175.8756
 20
63.4482
  0
VERTEX
  8
0
 10
175.8544
 20
63.4521
  0
VERTEX
  8
0
 10
175.8329
 20
63.4556
  0
VERTEX
  8
0
 10
175.8113
 20
63.4587
  0
VERTEX
  8
0
 10
175.7893
 20
63.4614
  0
VERTEX
  8
0
 10
175.7672
 20
63.4636
  0
VERTEX
  8
0
 10
175.7448
 20
63.4655
  0
VERTEX
  8
0
 10
175.7222
 20
63.4669
  0
VERTEX
  8
0
 10
175.6993
 20
63.468
  0
VERTEX
  8
0
 10
175.6762
 20
63.4686
  0
VERTEX
  8
0
 10
175.6529
 20
63.4688
  0
VERTEX
  8
0
 10
175.6293
 20
63.4686
  0
VERTEX
  8
0
 10
175.6059
 20
63.468
  0
VERTEX
  8
0
 10
175.5827
 20
63.4669
  0
VERTEX
  8
0
 10
175.5598
 20
63.4655
  0
VERTEX
  8
0
 10
175.5371
 20
63.4636
  0
VERTEX
  8
0
 10
175.5146
 20
63.4614
  0
VERTEX
  8
0
 10
175.4924
 20
63.4587
  0
VERTEX
  8
0
 10
175.4704
 20
63.4556
  0
VERTEX
  8
0
 10
175.4487
 20
63.4521
  0
VERTEX
  8
0
 10
175.4272
 20
63.4482
  0
VERTEX
  8
0
 10
175.4059
 20
63.4438
  0
VERTEX
  8
0
 10
175.3849
 20
63.4391
  0
VERTEX
  8
0
 10
175.3641
 20
63.4339
  0
VERTEX
  8
0
 10
175.3436
 20
63.4283
  0
VERTEX
  8
0
 10
175.3233
 20
63.4224
  0
VERTEX
  8
0
 10
175.3032
 20
63.416
  0
VERTEX
  8
0
 10
175.2833
 20
63.4091
  0
VERTEX
  8
0
 10
175.2637
 20
63.4019
  0
VERTEX
  8
0
 10
175.2444
 20
63.3943
  0
VERTEX
  8
0
 10
175.2252
 20
63.3862
  0
VERTEX
  8
0
 10
175.2064
 20
63.3778
  0
VERTEX
  8
0
 10
175.1877
 20
63.3689
  0
VERTEX
  8
0
 10
175.1693
 20
63.3596
  0
VERTEX
  8
0
 10
175.1511
 20
63.3499
  0
VERTEX
  8
0
 10
175.1332
 20
63.3398
  0
VERTEX
  8
0
 10
175.1155
 20
63.3293
  0
VERTEX
  8
0
 10
175.098
 20
63.3183
  0
VERTEX
  8
0
 10
175.0808
 20
63.307
  0
VERTEX
  8
0
 10
175.0638
 20
63.2952
  0
VERTEX
  8
0
 10
175.047
 20
63.283
  0
VERTEX
  8
0
 10
175.0305
 20
63.2704
  0
VERTEX
  8
0
 10
175.0143
 20
63.2574
  0
VERTEX
  8
0
 10
174.9982
 20
63.244
  0
VERTEX
  8
0
 10
174.9824
 20
63.2302
  0
VERTEX
  8
0
 10
174.9669
 20
63.216
  0
VERTEX
  8
0
 10
174.9515
 20
63.2013
  0
VERTEX
  8
0
 10
174.9364
 20
63.1862
  0
VERTEX
  8
0
 10
174.9216
 20
63.1708
  0
VERTEX
  8
0
 10
174.907
 20
63.1549
  0
VERTEX
  8
0
 10
174.8926
 20
63.1386
  0
VERTEX
  8
0
 10
174.8785
 20
63.1218
  0
VERTEX
  8
0
 10
174.8646
 20
63.1047
  0
VERTEX
  8
0
 10
174.8509
 20
63.0872
  0
VERTEX
  8
0
 10
174.8375
 20
63.0692
  0
VERTEX
  8
0
 10
174.8243
 20
63.0508
  0
VERTEX
  8
0
 10
174.8113
 20
63.0321
  0
VERTEX
  8
0
 10
174.7986
 20
63.0129
  0
VERTEX
  8
0
 10
174.7862
 20
62.9932
  0
VERTEX
  8
0
 10
174.7739
 20
62.9732
  0
VERTEX
  8
0
 10
174.7619
 20
62.9528
  0
VERTEX
  8
0
 10
174.7502
 20
62.9319
  0
VERTEX
  8
0
 10
174.7386
 20
62.9107
  0
VERTEX
  8
0
 10
174.7274
 20
62.889
  0
VERTEX
  8
0
 10
174.7163
 20
62.8669
  0
VERTEX
  8
0
 10
174.7055
 20
62.8444
  0
VERTEX
  8
0
 10
174.6949
 20
62.8215
  0
VERTEX
  8
0
 10
174.6846
 20
62.7982
  0
VERTEX
  8
0
 10
174.6745
 20
62.7745
  0
VERTEX
  8
0
 10
174.6646
 20
62.7503
  0
VERTEX
  8
0
 10
174.655
 20
62.7258
  0
VERTEX
  8
0
 10
174.6456
 20
62.7008
  0
VERTEX
  8
0
 10
174.6365
 20
62.6754
  0
VERTEX
  8
0
 10
174.6276
 20
62.6496
  0
VERTEX
  8
0
 10
174.6189
 20
62.6234
  0
VERTEX
  8
0
 10
174.6105
 20
62.5968
  0
VERTEX
  8
0
 10
174.6023
 20
62.5697
  0
VERTEX
  8
0
 10
174.5943
 20
62.5423
  0
VERTEX
  8
0
 10
174.5866
 20
62.5144
  0
VERTEX
  8
0
 10
174.5791
 20
62.4861
  0
VERTEX
  8
0
 10
174.5718
 20
62.4574
  0
VERTEX
  8
0
 10
174.5648
 20
62.4283
  0
VERTEX
  8
0
 10
174.5581
 20
62.3988
  0
VERTEX
  8
0
 10
174.5515
 20
62.3689
  0
VERTEX
  8
0
 10
174.5452
 20
62.3385
  0
VERTEX
  8
0
 10
174.5392
 20
62.3078
  0
VERTEX
  8
0
 10
174.5334
 20
62.2766
  0
VERTEX
  8
0
 10
174.5278
 20
62.245
  0
VERTEX
  8
0
 10
174.5224
 20
62.2131
  0
VERTEX
  8
0
 10
174.5173
 20
62.1807
  0
VERTEX
  8
0
 10
174.5124
 20
62.1478
  0
VERTEX
  8
0
 10
174.5078
 20
62.1146
  0
VERTEX
  8
0
 10
174.5034
 20
62.081
  0
VERTEX
  8
0
 10
174.4993
 20
62.0469
  0
VERTEX
  8
0
 10
174.4953
 20
62.0124
  0
VERTEX
  8
0
 10
174.4917
 20
61.9776
  0
VERTEX
  8
0
 10
174.4882
 20
61.9423
  0
VERTEX
  8
0
 10
174.485
 20
61.9066
  0
VERTEX
  8
0
 10
174.482
 20
61.8704
  0
VERTEX
  8
0
 10
174.4793
 20
61.8339
  0
VERTEX
  8
0
 10
174.4768
 20
61.797
  0
VERTEX
  8
0
 10
174.4745
 20
61.7596
  0
VERTEX
  8
0
 10
174.4725
 20
61.7218
  0
VERTEX
  8
0
 10
174.4707
 20
61.6836
  0
VERTEX
  8
0
 10
174.4692
 20
61.645
  0
VERTEX
  8
0
 10
174.4679
 20
61.606
  0
VERTEX
  8
0
 10
174.4668
 20
61.5666
  0
VERTEX
  8
0
 10
174.466
 20
61.5268
  0
VERTEX
  8
0
 10
174.4654
 20
61.4865
  0
VERTEX
  8
0
 10
174.465
 20
61.4459
  0
VERTEX
  8
0
 10
174.4649
 20
61.4048
  0
VERTEX
  8
0
 10
174.465
 20
61.3635
  0
VERTEX
  8
0
 10
174.4654
 20
61.3226
  0
VERTEX
  8
0
 10
174.466
 20
61.2821
  0
VERTEX
  8
0
 10
174.4668
 20
61.242
  0
VERTEX
  8
0
 10
174.4678
 20
61.2024
  0
VERTEX
  8
0
 10
174.4691
 20
61.1631
  0
VERTEX
  8
0
 10
174.4706
 20
61.1243
  0
VERTEX
  8
0
 10
174.4724
 20
61.0859
  0
VERTEX
  8
0
 10
174.4744
 20
61.0479
  0
VERTEX
  8
0
 10
174.4766
 20
61.0104
  0
VERTEX
  8
0
 10
174.479
 20
60.9732
  0
VERTEX
  8
0
 10
174.4817
 20
60.9364
  0
VERTEX
  8
0
 10
174.4846
 20
60.9001
  0
VERTEX
  8
0
 10
174.4877
 20
60.8642
  0
VERTEX
  8
0
 10
174.4911
 20
60.8287
  0
VERTEX
  8
0
 10
174.4947
 20
60.7936
  0
VERTEX
  8
0
 10
174.4986
 20
60.759
  0
VERTEX
  8
0
 10
174.5026
 20
60.7247
  0
VERTEX
  8
0
 10
174.5069
 20
60.6909
  0
VERTEX
  8
0
 10
174.5115
 20
60.6574
  0
VERTEX
  8
0
 10
174.5163
 20
60.6244
  0
VERTEX
  8
0
 10
174.5213
 20
60.5918
  0
VERTEX
  8
0
 10
174.5265
 20
60.5597
  0
VERTEX
  8
0
 10
174.532
 20
60.5279
  0
VERTEX
  8
0
 10
174.5377
 20
60.4965
  0
VERTEX
  8
0
 10
174.5436
 20
60.4656
  0
VERTEX
  8
0
 10
174.5498
 20
60.4351
  0
VERTEX
  8
0
 10
174.5562
 20
60.405
  0
VERTEX
  8
0
 10
174.5628
 20
60.3753
  0
VERTEX
  8
0
 10
174.5697
 20
60.346
  0
VERTEX
  8
0
 10
174.5768
 20
60.3172
  0
VERTEX
  8
0
 10
174.5841
 20
60.2887
  0
VERTEX
  8
0
 10
174.5917
 20
60.2607
  0
VERTEX
  8
0
 10
174.5995
 20
60.2331
  0
VERTEX
  8
0
 10
174.6075
 20
60.2059
  0
VERTEX
  8
0
 10
174.6158
 20
60.1791
  0
VERTEX
  8
0
 10
174.6243
 20
60.1528
  0
VERTEX
  8
0
 10
174.633
 20
60.1268
  0
VERTEX
  8
0
 10
174.642
 20
60.1013
  0
VERTEX
  8
0
 10
174.6512
 20
60.0762
  0
VERTEX
  8
0
 10
174.6606
 20
60.0514
  0
VERTEX
  8
0
 10
174.6703
 20
60.0272
  0
VERTEX
  8
0
 10
174.6801
 20
60.0033
  0
VERTEX
  8
0
 10
174.6903
 20
59.9798
  0
VERTEX
  8
0
 10
174.7006
 20
59.9568
  0
VERTEX
  8
0
 10
174.7112
 20
59.9342
  0
VERTEX
  8
0
 10
174.7221
 20
59.9119
  0
VERTEX
  8
0
 10
174.7331
 20
59.8901
  0
VERTEX
  8
0
 10
174.7444
 20
59.8688
  0
VERTEX
  8
0
 10
174.7559
 20
59.8478
  0
VERTEX
  8
0
 10
174.7677
 20
59.8272
  0
VERTEX
  8
0
 10
174.7797
 20
59.8071
  0
VERTEX
  8
0
 10
174.7919
 20
59.7874
  0
VERTEX
  8
0
 10
174.8043
 20
59.7681
  0
VERTEX
  8
0
 10
174.817
 20
59.7492
  0
VERTEX
  8
0
 10
174.83
 20
59.7307
  0
VERTEX
  8
0
 10
174.8431
 20
59.7126
  0
VERTEX
  8
0
 10
174.8565
 20
59.695
  0
VERTEX
  8
0
 10
174.8701
 20
59.6778
  0
VERTEX
  8
0
 10
174.884
 20
59.661
  0
VERTEX
  8
0
 10
174.898
 20
59.6446
  0
VERTEX
  8
0
 10
174.9124
 20
59.6286
  0
VERTEX
  8
0
 10
174.9269
 20
59.613
  0
VERTEX
  8
0
 10
174.9417
 20
59.5978
  0
VERTEX
  8
0
 10
174.9567
 20
59.5831
  0
VERTEX
  8
0
 10
174.972
 20
59.5688
  0
VERTEX
  8
0
 10
174.9874
 20
59.5549
  0
VERTEX
  8
0
 10
175.0032
 20
59.5414
  0
VERTEX
  8
0
 10
175.0191
 20
59.5283
  0
VERTEX
  8
0
 10
175.0353
 20
59.5156
  0
VERTEX
  8
0
 10
175.0517
 20
59.5034
  0
VERTEX
  8
0
 10
175.0683
 20
59.4916
  0
VERTEX
  8
0
 10
175.0852
 20
59.4801
  0
VERTEX
  8
0
 10
175.1023
 20
59.4691
  0
VERTEX
  8
0
 10
175.1197
 20
59.4585
  0
VERTEX
  8
0
 10
175.1373
 20
59.4484
  0
VERTEX
  8
0
 10
175.1551
 20
59.4386
  0
VERTEX
  8
0
 10
175.1731
 20
59.4293
  0
VERTEX
  8
0
 10
175.1914
 20
59.4203
  0
VERTEX
  8
0
 10
175.2099
 20
59.4118
  0
VERTEX
  8
0
 10
175.2286
 20
59.4037
  0
VERTEX
  8
0
 10
175.2476
 20
59.3961
  0
VERTEX
  8
0
 10
175.2668
 20
59.3888
  0
VERTEX
  8
0
 10
175.2862
 20
59.3819
  0
VERTEX
  8
0
 10
175.3059
 20
59.3755
  0
VERTEX
  8
0
 10
175.3258
 20
59.3695
  0
VERTEX
  8
0
 10
175.346
 20
59.3639
  0
VERTEX
  8
0
 10
175.3663
 20
59.3587
  0
VERTEX
  8
0
 10
175.3869
 20
59.3539
  0
VERTEX
  8
0
 10
175.4078
 20
59.3496
  0
VERTEX
  8
0
 10
175.4288
 20
59.3456
  0
VERTEX
  8
0
 10
175.4501
 20
59.3421
  0
VERTEX
  8
0
 10
175.4717
 20
59.339
  0
VERTEX
  8
0
 10
175.4934
 20
59.3363
  0
VERTEX
  8
0
 10
175.5154
 20
59.334
  0
VERTEX
  8
0
 10
175.5377
 20
59.3321
  0
VERTEX
  8
0
 10
175.5601
 20
59.3307
  0
VERTEX
  8
0
 10
175.5828
 20
59.3296
  0
VERTEX
  8
0
 10
175.6058
 20
59.329
  0
VERTEX
  8
0
 10
175.6289
 20
59.3288
  0
VERTEX
  8
0
 10
175.6527
 20
59.329
  0
VERTEX
  8
0
 10
175.6763
 20
59.3296
  0
VERTEX
  8
0
 10
175.6996
 20
59.3307
  0
VERTEX
  8
0
 10
175.7227
 20
59.3321
  0
VERTEX
  8
0
 10
175.7455
 20
59.334
  0
VERTEX
  8
0
 10
175.7681
 20
59.3363
  0
VERTEX
  8
0
 10
175.7905
 20
59.339
  0
VERTEX
  8
0
 10
175.8126
 20
59.3421
  0
VERTEX
  8
0
 10
175.8345
 20
59.3456
  0
VERTEX
  8
0
 10
175.8562
 20
59.3496
  0
VERTEX
  8
0
 10
175.8776
 20
59.3539
  0
VERTEX
  8
0
 10
175.8987
 20
59.3587
  0
VERTEX
  8
0
 10
175.9197
 20
59.3639
  0
VERTEX
  8
0
 10
175.9404
 20
59.3695
  0
VERTEX
  8
0
 10
175.9608
 20
59.3755
  0
VERTEX
  8
0
 10
175.981
 20
59.3819
  0
VERTEX
  8
0
 10
176.001
 20
59.3888
  0
VERTEX
  8
0
 10
176.0207
 20
59.3961
  0
VERTEX
  8
0
 10
176.0402
 20
59.4037
  0
VERTEX
  8
0
 10
176.0595
 20
59.4118
  0
VERTEX
  8
0
 10
176.0785
 20
59.4203
  0
VERTEX
  8
0
 10
176.0973
 20
59.4293
  0
VERTEX
  8
0
 10
176.1158
 20
59.4386
  0
VERTEX
  8
0
 10
176.1341
 20
59.4484
  0
VERTEX
  8
0
 10
176.1522
 20
59.4585
  0
VERTEX
  8
0
 10
176.17
 20
59.4691
  0
VERTEX
  8
0
 10
176.1876
 20
59.4801
  0
VERTEX
  8
0
 10
176.2049
 20
59.4916
  0
VERTEX
  8
0
 10
176.222
 20
59.5034
  0
VERTEX
  8
0
 10
176.2389
 20
59.5156
  0
VERTEX
  8
0
 10
176.2555
 20
59.5283
  0
VERTEX
  8
0
 10
176.2719
 20
59.5414
  0
VERTEX
  8
0
 10
176.288
 20
59.5549
  0
VERTEX
  8
0
 10
176.3039
 20
59.5688
  0
VERTEX
  8
0
 10
176.3196
 20
59.5831
  0
VERTEX
  8
0
 10
176.335
 20
59.5978
  0
VERTEX
  8
0
 10
176.3502
 20
59.613
  0
VERTEX
  8
0
 10
176.3652
 20
59.6286
  0
VERTEX
  8
0
 10
176.3799
 20
59.6446
  0
VERTEX
  8
0
 10
176.3944
 20
59.661
  0
VERTEX
  8
0
 10
176.4086
 20
59.6778
  0
VERTEX
  8
0
 10
176.4226
 20
59.695
  0
VERTEX
  8
0
 10
176.4363
 20
59.7126
  0
VERTEX
  8
0
 10
176.4499
 20
59.7307
  0
VERTEX
  8
0
 10
176.4631
 20
59.7492
  0
VERTEX
  8
0
 10
176.4762
 20
59.7681
  0
VERTEX
  8
0
 10
176.489
 20
59.7874
  0
VERTEX
  8
0
 10
176.5015
 20
59.8071
  0
VERTEX
  8
0
 10
176.5138
 20
59.8272
  0
VERTEX
  8
0
 10
176.5259
 20
59.8478
  0
VERTEX
  8
0
 10
176.5378
 20
59.8688
  0
VERTEX
  8
0
 10
176.5494
 20
59.8901
  0
VERTEX
  8
0
 10
176.5607
 20
59.9119
  0
VERTEX
  8
0
 10
176.5719
 20
59.9342
  0
VERTEX
  8
0
 10
176.5827
 20
59.9568
  0
VERTEX
  8
0
 10
176.5934
 20
59.9798
  0
VERTEX
  8
0
 10
176.6038
 20
60.0033
  0
VERTEX
  8
0
 10
176.6139
 20
60.0272
  0
VERTEX
  8
0
 10
176.6239
 20
60.0514
  0
VERTEX
  8
0
 10
176.6336
 20
60.0762
  0
VERTEX
  8
0
 10
176.643
 20
60.1013
  0
VERTEX
  8
0
 10
176.6522
 20
60.1268
  0
VERTEX
  8
0
 10
176.6612
 20
60.1528
  0
VERTEX
  8
0
 10
176.6699
 20
60.1791
  0
VERTEX
  8
0
 10
176.6784
 20
60.2059
  0
VERTEX
  8
0
 10
176.6867
 20
60.2331
  0
VERTEX
  8
0
 10
176.6947
 20
60.2607
  0
VERTEX
  8
0
 10
176.7025
 20
60.2887
  0
VERTEX
  8
0
 10
176.71
 20
60.3172
  0
VERTEX
  8
0
 10
176.7173
 20
60.346
  0
VERTEX
  8
0
 10
176.7243
 20
60.3753
  0
VERTEX
  8
0
 10
176.7312
 20
60.405
  0
VERTEX
  8
0
 10
176.7377
 20
60.4351
  0
VERTEX
  8
0
 10
176.7441
 20
60.4656
  0
VERTEX
  8
0
 10
176.7502
 20
60.4965
  0
VERTEX
  8
0
 10
176.756
 20
60.5279
  0
VERTEX
  8
0
 10
176.7617
 20
60.5597
  0
VERTEX
  8
0
 10
176.767
 20
60.5918
  0
VERTEX
  8
0
 10
176.7722
 20
60.6244
  0
VERTEX
  8
0
 10
176.7771
 20
60.6574
  0
VERTEX
  8
0
 10
176.7817
 20
60.6909
  0
VERTEX
  8
0
 10
176.7862
 20
60.7247
  0
VERTEX
  8
0
 10
176.7904
 20
60.759
  0
VERTEX
  8
0
 10
176.7943
 20
60.7936
  0
VERTEX
  8
0
 10
176.798
 20
60.8287
  0
VERTEX
  8
0
 10
176.8015
 20
60.8642
  0
VERTEX
  8
0
 10
176.8047
 20
60.9001
  0
VERTEX
  8
0
 10
176.8077
 20
60.9364
  0
VERTEX
  8
0
 10
176.8105
 20
60.9732
  0
VERTEX
  8
0
 10
176.813
 20
61.0104
  0
VERTEX
  8
0
 10
176.8152
 20
61.0479
  0
VERTEX
  8
0
 10
176.8173
 20
61.0859
  0
VERTEX
  8
0
 10
176.8191
 20
61.1243
  0
VERTEX
  8
0
 10
176.8206
 20
61.1631
  0
VERTEX
  8
0
 10
176.8219
 20
61.2024
  0
VERTEX
  8
0
 10
176.823
 20
61.242
  0
VERTEX
  8
0
 10
176.8238
 20
61.2821
  0
VERTEX
  8
0
 10
176.8244
 20
61.3226
  0
VERTEX
  8
0
 10
176.8248
 20
61.3635
  0
VERTEX
  8
0
 10
176.8249
 20
61.4048
  0
VERTEX
  8
0
 10
176.8249
 20
61.4048
  0
SEQEND
  0
POLYLINE
  8
0
 66
     1
 10
0
 20
0
  0
VERTEX
  8
0
 10
176.2769
 20
61.4048
  0
VERTEX
  8
0
 10
176.2768
 20
61.3678
  0
VERTEX
  8
0
 10
176.2765
 20
61.3312
  0
VERTEX
  8
0
 10
176.2761
 20
61.2952
  0
VERTEX
  8
0
 10
176.2754
 20
61.2595
  0
VERTEX
  8
0
 10
176.2745
 20
61.2244
  0
VERTEX
  8
0
 10
176.2735
 20
61.1897
  0
VERTEX
  8
0
 10
176.2723
 20
61.1554
  0
VERTEX
  8
0
 10
176.2708
 20
61.1216
  0
VERTEX
  8
0
 10
176.2692
 20
61.0883
  0
VERTEX
  8
0
 10
176.2674
 20
61.0554
  0
VERTEX
  8
0
 10
176.2654
 20
61.023
  0
VERTEX
  8
0
 10
176.2632
 20
60.9911
  0
VERTEX
  8
0
 10
176.2609
 20
60.9596
  0
VERTEX
  8
0
 10
176.2583
 20
60.9286
  0
VERTEX
  8
0
 10
176.2555
 20
60.898
  0
VERTEX
  8
0
 10
176.2526
 20
60.8679
  0
VERTEX
  8
0
 10
176.2494
 20
60.8382
  0
VERTEX
  8
0
 10
176.2461
 20
60.809
  0
VERTEX
  8
0
 10
176.2426
 20
60.7803
  0
VERTEX
  8
0
 10
176.2389
 20
60.752
  0
VERTEX
  8
0
 10
176.235
 20
60.7242
  0
VERTEX
  8
0
 10
176.2309
 20
60.6969
  0
VERTEX
  8
0
 10
176.2266
 20
60.67
  0
VERTEX
  8
0
 10
176.2221
 20
60.6436
  0
VERTEX
  8
0
 10
176.2175
 20
60.6176
  0
VERTEX
  8
0
 10
176.2126
 20
60.5921
  0
VERTEX
  8
0
 10
176.2076
 20
60.567
  0
VERTEX
  8
0
 10
176.2024
 20
60.5424
  0
VERTEX
  8
0
 10
176.1969
 20
60.5183
  0
VERTEX
  8
0
 10
176.1913
 20
60.4946
  0
VERTEX
  8
0
 10
176.1855
 20
60.4714
  0
VERTEX
  8
0
 10
176.1795
 20
60.4486
  0
VERTEX
  8
0
 10
176.1734
 20
60.4264
  0
VERTEX
  8
0
 10
176.167
 20
60.4045
  0
VERTEX
  8
0
 10
176.1604
 20
60.3831
  0
VERTEX
  8
0
 10
176.1537
 20
60.3622
  0
VERTEX
  8
0
 10
176.1467
 20
60.3418
  0
VERTEX
  8
0
 10
176.1396
 20
60.3218
  0
VERTEX
  8
0
 10
176.1323
 20
60.3022
  0
VERTEX
  8
0
 10
176.1248
 20
60.2832
  0
VERTEX
  8
0
 10
176.117
 20
60.2645
  0
VERTEX
  8
0
 10
176.1092
 20
60.2464
  0
VERTEX
  8
0
 10
176.1011
 20
60.2287
  0
VERTEX
  8
0
 10
176.0928
 20
60.2114
  0
VERTEX
  8
0
 10
176.0843
 20
60.1947
  0
VERTEX
  8
0
 10
176.0757
 20
60.1784
  0
VERTEX
  8
0
 10
176.0668
 20
60.1625
  0
VERTEX
  8
0
 10
176.0578
 20
60.1471
  0
VERTEX
  8
0
 10
176.0486
 20
60.1322
  0
VERTEX
  8
0
 10
176.0392
 20
60.1177
  0
VERTEX
  8
0
 10
176.0295
 20
60.1037
  0
VERTEX
  8
0
 10
176.0198
 20
60.0901
  0
VERTEX
  8
0
 10
176.0098
 20
60.077
  0
VERTEX
  8
0
 10
175.9996
 20
60.0643
  0
VERTEX
  8
0
 10
175.9892
 20
60.0522
  0
VERTEX
  8
0
 10
175.9787
 20
60.0404
  0
VERTEX
  8
0
 10
175.9679
 20
60.0292
  0
VERTEX
  8
0
 10
175.957
 20
60.0184
  0
VERTEX
  8
0
 10
175.9459
 20
60.008
  0
VERTEX
  8
0
 10
175.9345
 20
59.9982
  0
VERTEX
  8
0
 10
175.923
 20
59.9887
  0
VERTEX
  8
0
 10
175.9113
 20
59.9798
  0
VERTEX
  8
0
 10
175.8994
 20
59.9713
  0
VERTEX
  8
0
 10
175.8874
 20
59.9632
  0
VERTEX
  8
0
 10
175.8751
 20
59.9556
  0
VERTEX
  8
0
 10
175.8626
 20
59.9485
  0
VERTEX
  8
0
 10
175.85
 20
59.9418
  0
VERTEX
  8
0
 10
175.8371
 20
59.9356
  0
VERTEX
  8
0
 10
175.8241
 20
59.9299
  0
VERTEX
  8
0
 10
175.8109
 20
59.9246
  0
VERTEX
  8
0
 10
175.7975
 20
59.9198
  0
VERTEX
  8
0
 10
175.7839
 20
59.9154
  0
VERTEX
  8
0
 10
175.7701
 20
59.9115
  0
VERTEX
  8
0
 10
175.7561
 20
59.9081
  0
VERTEX
  8
0
 10
175.7419
 20
59.9051
  0
VERTEX
  8
0
 10
175.7276
 20
59.9025
  0
VERTEX
  8
0
 10
175.713
 20
59.9005
  0
VERTEX
  8
0
 10
175.6983
 20
59.8989
  0
VERTEX
  8
0
 10
175.6834
 20
59.8977
  0
VERTEX
  8
0
 10
175.6682
 20
59.897
  0
VERTEX
  8
0
 10
175.6529
 20
59.8968
  0
VERTEX
  8
0
 10
175.6383
 20
59.897
  0
VERTEX
  8
0
 10
175.6239
 20
59.8977
  0
VERTEX
  8
0
 10
175.6096
 20
59.8988
  0
VERTEX
  8
0
 10
175.5955
 20
59.9003
  0
VERTEX
  8
0
 10
175.5816
 20
59.9022
  0
VERTEX
  8
0
 10
175.5678
 20
59.9046
  0
VERTEX
  8
0
 10
175.5542
 20
59.9074
  0
VERTEX
  8
0
 10
175.5408
 20
59.9107
  0
VERTEX
  8
0
 10
175.5276
 20
59.9144
  0
VERTEX
  8
0
 10
175.5145
 20
59.9185
  0
VERTEX
  8
0
 10
175.5016
 20
59.9231
  0
VERTEX
  8
0
 10
175.4889
 20
59.9281
  0
VERTEX
  8
0
 10
175.4763
 20
59.9335
  0
VERTEX
  8
0
 10
175.4639
 20
59.9394
  0
VERTEX
  8
0
 10
175.4517
 20
59.9457
  0
VERTEX
  8
0
 10
175.4396
 20
59.9525
  0
VERTEX
  8
0
 10
175.4278
 20
59.9596
  0
VERTEX
  8
0
 10
175.4161
 20
59.9672
  0
VERTEX
  8
0
 10
175.4045
 20
59.9753
  0
VERTEX
  8
0
 10
175.3932
 20
59.9838
  0
VERTEX
  8
0
 10
175.382
 20
59.9927
  0
VERTEX
  8
0
 10
175.3709
 20
60.002
  0
VERTEX
  8
0
 10
175.3601
 20
60.0118
  0
VERTEX
  8
0
 10
175.3494
 20
60.022
  0
VERTEX
  8
0
 10
175.3389
 20
60.0327
  0
VERTEX
  8
0
 10
175.3285
 20
60.0438
  0
VERTEX
  8
0
 10
175.3184
 20
60.0553
  0
VERTEX
  8
0
 10
175.3084
 20
60.0672
  0
VERTEX
  8
0
 10
175.2986
 20
60.0796
  0
VERTEX
  8
0
 10
175.2889
 20
60.0925
  0
VERTEX
  8
0
 10
175.2794
 20
60.1057
  0
VERTEX
  8
0
 10
175.2701
 20
60.1194
  0
VERTEX
  8
0
 10
175.261
 20
60.1336
  0
VERTEX
  8
0
 10
175.252
 20
60.1481
  0
VERTEX
  8
0
 10
175.2432
 20
60.1631
  0
VERTEX
  8
0
 10
175.2346
 20
60.1786
  0
VERTEX
  8
0
 10
175.2261
 20
60.1944
  0
VERTEX
  8
0
 10
175.2178
 20
60.2107
  0
VERTEX
  8
0
 10
175.2097
 20
60.2275
  0
VERTEX
  8
0
 10
175.2017
 20
60.2447
  0
VERTEX
  8
0
 10
175.194
 20
60.2623
  0
VERTEX
  8
0
 10
175.1864
 20
60.2803
  0
VERTEX
  8
0
 10
175.1789
 20
60.2988
  0
VERTEX
  8
0
 10
175.1717
 20
60.3177
  0
VERTEX
  8
0
 10
175.1646
 20
60.3371
  0
VERTEX
  8
0
 10
175.1576
 20
60.3568
  0
VERTEX
  8
0
 10
175.1509
 20
60.3771
  0
VERTEX
  8
0
 10
175.1443
 20
60.3977
  0
VERTEX
  8
0
 10
175.1379
 20
60.4188
  0
VERTEX
  8
0
 10
175.1317
 20
60.4403
  0
VERTEX
  8
0
 10
175.1256
 20
60.4623
  0
VERTEX
  8
0
 10
175.1197
 20
60.4847
  0
VERTEX
  8
0
 10
175.114
 20
60.5075
  0
VERTEX
  8
0
 10
175.1084
 20
60.5308
  0
VERTEX
  8
0
 10
175.103
 20
60.5545
  0
VERTEX
  8
0
 10
175.0978
 20
60.5786
  0
VERTEX
  8
0
 10
175.0928
 20
60.6032
  0
VERTEX
  8
0
 10
175.0879
 20
60.6282
  0
VERTEX
  8
0
 10
175.0832
 20
60.6536
  0
VERTEX
  8
0
 10
175.0787
 20
60.6795
  0
VERTEX
  8
0
 10
175.0743
 20
60.7058
  0
VERTEX
  8
0
 10
175.0701
 20
60.7325
  0
VERTEX
  8
0
 10
175.0661
 20
60.7597
  0
VERTEX
  8
0
 10
175.0623
 20
60.7873
  0
VERTEX
  8
0
 10
175.0586
 20
60.8154
  0
VERTEX
  8
0
 10
175.0551
 20
60.8439
  0
VERTEX
  8
0
 10
175.0518
 20
60.8728
  0
VERTEX
  8
0
 10
175.0486
 20
60.9021
  0
VERTEX
  8
0
 10
175.0456
 20
60.9319
  0
VERTEX
  8
0
 10
175.0428
 20
60.9621
  0
VERTEX
  8
0
 10
175.0402
 20
60.9928
  0
VERTEX
  8
0
 10
175.0377
 20
61.0239
  0
VERTEX
  8
0
 10
175.0354
 20
61.0554
  0
VERTEX
  8
0
 10
175.0332
 20
61.0874
  0
VERTEX
  8
0
 10
175.0313
 20
61.1198
  0
VERTEX
  8
0
 10
175.0295
 20
61.1526
  0
VERTEX
  8
0
 10
175.0278
 20
61.1858
  0
VERTEX
  8
0
 10
175.0264
 20
61.2195
  0
VERTEX
  8
0
 10
175.0251
 20
61.2537
  0
VERTEX
  8
0
 10
175.024
 20
61.2882
  0
VERTEX
  8
0
 10
175.0231
 20
61.3233
  0
VERTEX
  8
0
 10
175.0223
 20
61.3587
  0
VERTEX
  8
0
 10
175.0217
 20
61.3946
  0
VERTEX
  8
0
 10
175.0213
 20
61.4309
  0
VERTEX
  8
0
 10
175.021
 20
61.4676
  0
VERTEX
  8
0
 10
175.0209
 20
61.5048
  0
VERTEX
  8
0
 10
175.0222
 20
61.6157
  0
VERTEX
  8
0
 10
175.0259
 20
61.7227
  0
VERTEX
  8
0
 10
175.032
 20
61.8257
  0
VERTEX
  8
0
 10
175.0407
 20
61.9247
  0
VERTEX
  8
0
 10
175.0518
 20
62.0199
  0
VERTEX
  8
0
 10
175.0654
 20
62.111
  0
VERTEX
  8
0
 10
175.0814
 20
62.1982
  0
VERTEX
  8
0
 10
175.0999
 20
62.2815
  0
VERTEX
  8
0
 10
175.1209
 20
62.3608
  0
VERTEX
  8
0
 10
175.1319
 20
62.3979
  0
VERTEX
  8
0
 10
175.1435
 20
62.4338
  0
VERTEX
  8
0
 10
175.1556
 20
62.4683
  0
VERTEX
  8
0
 10
175.1681
 20
62.5015
  0
VERTEX
  8
0
 10
175.1813
 20
62.5335
  0
VERTEX
  8
0
 10
175.1949
 20
62.5641
  0
VERTEX
  8
0
 10
175.2091
 20
62.5934
  0
VERTEX
  8
0
 10
175.2237
 20
62.6214
  0
VERTEX
  8
0
 10
175.2389
 20
62.6482
  0
VERTEX
  8
0
 10
175.2547
 20
62.6736
  0
VERTEX
  8
0
 10
175.2709
 20
62.6977
  0
VERTEX
  8
0
 10
175.2877
 20
62.7205
  0
VERTEX
  8
0
 10
175.305
 20
62.742
  0
VERTEX
  8
0
 10
175.3228
 20
62.7622
  0
VERTEX
  8
0
 10
175.3412
 20
62.7811
  0
VERTEX
  8
0
 10
175.36
 20
62.7987
  0
VERTEX
  8
0
 10
175.3794
 20
62.815
  0
VERTEX
  8
0
 10
175.3993
 20
62.8299
  0
VERTEX
  8
0
 10
175.4198
 20
62.8436
  0
VERTEX
  8
0
 10
175.4407
 20
62.856
  0
VERTEX
  8
0
 10
175.4622
 20
62.8671
  0
VERTEX
  8
0
 10
175.4842
 20
62.8769
  0
VERTEX
  8
0
 10
175.5068
 20
62.8853
  0
VERTEX
  8
0
 10
175.5298
 20
62.8925
  0
VERTEX
  8
0
 10
175.5534
 20
62.8984
  0
VERTEX
  8
0
 10
175.5775
 20
62.9029
  0
VERTEX
  8
0
 10
175.6021
 20
62.9062
  0
VERTEX
  8
0
 10
175.6273
 20
62.9081
  0
VERTEX
  8
0
 10
175.6529
 20
62.9088
  0
VERTEX
  8
0
 10
175.6767
 20
62.9082
  0
VERTEX
  8
0
 10
175.7
 20
62.9063
  0
VERTEX
  8
0
 10
175.7229
 20
62.9032
  0
VERTEX
  8
0
 10
175.7453
 20
62.8988
  0
VERTEX
  8
0
 10
175.7673
 20
62.8932
  0
VERTEX
  8
0
 10
175.7888
 20
62.8863
  0
VERTEX
  8
0
 10
175.8099
 20
62.8782
  0
VERTEX
  8
0
 10
175.8305
 20
62.8688
  0
VERTEX
  8
0
 10
175.8507
 20
62.8582
  0
VERTEX
  8
0
 10
175.8704
 20
62.8464
  0
VERTEX
  8
0
 10
175.8897
 20
62.8332
  0
VERTEX
  8
0
 10
175.9086
 20
62.8189
  0
VERTEX
  8
0
 10
175.9269
 20
62.8033
  0
VERTEX
  8
0
 10
175.9449
 20
62.7864
  0
VERTEX
  8
0
 10
175.9624
 20
62.7683
  0
VERTEX
  8
0
 10
175.9794
 20
62.749
  0
VERTEX
  8
0
 10
175.996
 20
62.7284
  0
VERTEX
  8
0
 10
176.0121
 20
62.7065
  0
VERTEX
  8
0
 10
176.0278
 20
62.6834
  0
VERTEX
  8
0
 10
176.043
 20
62.6591
  0
VERTEX
  8
0
 10
176.0578
 20
62.6335
  0
VERTEX
  8
0
 10
176.0721
 20
62.6066
  0
VERTEX
  8
0
 10
176.086
 20
62.5785
  0
VERTEX
  8
0
 10
176.0995
 20
62.5492
  0
VERTEX
  8
0
 10
176.1124
 20
62.5186
  0
VERTEX
  8
0
 10
176.125
 20
62.4867
  0
VERTEX
  8
0
 10
176.1371
 20
62.4536
  0
VERTEX
  8
0
 10
176.1487
 20
62.4193
  0
VERTEX
  8
0
 10
176.1599
 20
62.3837
  0
VERTEX
  8
0
 10
176.1706
 20
62.3469
  0
VERTEX
  8
0
 10
176.1809
 20
62.3088
  0
VERTEX
  8
0
 10
176.2011
 20
62.2242
  0
VERTEX
  8
0
 10
176.2189
 20
62.1356
  0
VERTEX
  8
0
 10
176.2343
 20
62.043
  0
VERTEX
  8
0
 10
176.2473
 20
61.9465
  0
VERTEX
  8
0
 10
176.258
 20
61.8461
  0
VERTEX
  8
0
 10
176.2663
 20
61.7417
  0
VERTEX
  8
0
 10
176.2722
 20
61.6333
  0
VERTEX
  8
0
 10
176.2757
 20
61.521
  0
VERTEX
  8
0
 10
176.2769
 20
61.4048
  0
VERTEX
  8
0
 10
176.2769
 20
61.4048
  0
SEQEND
  0
POLYLINE
  8
0
 66
     1
 10
0
 20
0
  0
VERTEX
  8
0
 10
177.0249
 20
59.3968
  0
VERTEX
  8
0
 10
177.5969
 20
59.3968
  0
VERTEX
  8
0
 10
177.5969
 20
62.0768
  0
VERTEX
  8
0
 10
178.8289
 20
59.3968
  0
VERTEX
  8
0
 10
179.2649
 20
59.3968
  0
VERTEX
  8
0
 10
179.2649
 20
63.3968
  0
VERTEX
  8
0
 10
178.6889
 20
63.3968
  0
VERTEX
  8
0
 10
178.6889
 20
60.9968
  0
VERTEX
  8
0
 10
177.5969
 20
63.3968
  0
VERTEX
  8
0
 10
177.0249
 20
63.3968
  0
VERTEX
  8
0
 10
177.0249
 20
59.3968
  0
SEQEND
  0
POLYLINE
  8
0
 66
     1
 10
0
 20
0
  0
VERTEX
  8
0
 10
161.9089
 20
52.3968
  0
VERTEX
  8
0
 10
162.4769
 20
52.3968
  0
VERTEX
  8
0
 10
162.4769
 20
54.2848
  0
VERTEX
  8
0
 10
163.0249
 20
54.2848
  0
VERTEX
  8
0
 10
163.5609
 20
52.3968
  0
VERTEX
  8
0
 10
164.1489
 20
52.3928
  0
VERTEX
  8
0
 10
163.5729
 20
54.3668
  0
VERTEX
  8
0
 10
163.6269
 20
54.3884
  0
VERTEX
  8
0
 10
163.6785
 20
54.4132
  0
VERTEX
  8
0
 10
163.7277
 20
54.4412
  0
VERTEX
  8
0
 10
163.7745
 20
54.4725
  0
VERTEX
  8
0
 10
163.8189
 20
54.5069
  0
VERTEX
  8
0
 10
163.8609
 20
54.5445
  0
VERTEX
  8
0
 10
163.9005
 20
54.5854
  0
VERTEX
  8
0
 10
163.9377
 20
54.6294
  0
VERTEX
  8
0
 10
163.9725
 20
54.6767
  0
VERTEX
  8
0
 10
164.0049
 20
54.7271
  0
VERTEX
  8
0
 10
164.0431
 20
54.7971
  0
VERTEX
  8
0
 10
164.0755
 20
54.8699
  0
VERTEX
  8
0
 10
164.1019
 20
54.9455
  0
VERTEX
  8
0
 10
164.1225
 20
55.0239
  0
VERTEX
  8
0
 10
164.1372
 20
55.105
  0
VERTEX
  8
0
 10
164.146
 20
55.189
  0
VERTEX
  8
0
 10
164.1489
 20
55.2757
  0
VERTEX
  8
0
 10
164.1479
 20
55.3384
  0
VERTEX
  8
0
 10
164.1447
 20
55.3995
  0
VERTEX
  8
0
 10
164.1395
 20
55.459
  0
VERTEX
  8
0
 10
164.1322
 20
55.5169
  0
VERTEX
  8
0
 10
164.1228
 20
55.5732
  0
VERTEX
  8
0
 10
164.1112
 20
55.6278
  0
VERTEX
  8
0
 10
164.0976
 20
55.6808
  0
VERTEX
  8
0
 10
164.0819
 20
55.7321
  0
VERTEX
  8
0
 10
164.0641
 20
55.7819
  0
VERTEX
  8
0
 10
164.0442
 20
55.83
  0
VERTEX
  8
0
 10
164.0223
 20
55.8765
  0
VERTEX
  8
0
 10
163.9982
 20
55.9213
  0
VERTEX
  8
0
 10
163.972
 20
55.9645
  0
VERTEX
  8
0
 10
163.9437
 20
56.0062
  0
VERTEX
  8
0
 10
163.9134
 20
56.0461
  0
VERTEX
  8
0
 10
163.8809
 20
56.0845
  0
VERTEX
  8
0
 10
163.8508
 20
56.1165
  0
VERTEX
  8
0
 10
163.8195
 20
56.1468
  0
VERTEX
  8
0
 10
163.7869
 20
56.1753
  0
VERTEX
  8
0
 10
163.7531
 20
56.2021
  0
VERTEX
  8
0
 10
163.718
 20
56.2272
  0
VERTEX
  8
0
 10
163.6817
 20
56.2506
  0
VERTEX
  8
0
 10
163.6442
 20
56.2722
  0
VERTEX
  8
0
 10
163.6054
 20
56.2921
  0
VERTEX
  8
0
 10
163.5654
 20
56.3103
  0
VERTEX
  8
0
 10
163.5241
 20
56.3267
  0
VERTEX
  8
0
 10
163.4816
 20
56.3414
  0
VERTEX
  8
0
 10
163.4379
 20
56.3544
  0
VERTEX
  8
0
 10
163.3929
 20
56.3656
  0
VERTEX
  8
0
 10
163.3467
 20
56.3752
  0
VERTEX
  8
0
 10
163.2992
 20
56.383
  0
VERTEX
  8
0
 10
163.2505
 20
56.389
  0
VERTEX
  8
0
 10
163.2005
 20
56.3933
  0
VERTEX
  8
0
 10
163.1494
 20
56.3959
  0
VERTEX
  8
0
 10
163.0969
 20
56.3968
  0
VERTEX
  8
0
 10
161.9089
 20
56.3968
  0
VERTEX
  8
0
 10
161.9089
 20
52.3968
  0
SEQEND
  0
POLYLINE
  8
0
 66
     1
 10
0
 20
0
  0
VERTEX
  8
0
 10
162.4769
 20
54.8328
  0
VERTEX
  8
0
 10
162.4769
 20
55.8368
  0
VERTEX
  8
0
 10
163.0689
 20
55.8368
  0
VERTEX
  8
0
 10
163.1255
 20
55.8347
  0
VERTEX
  8
0
 10
163.1793
 20
55.8283
  0
VERTEX
  8
0
 10
163.2303
 20
55.8177
  0
VERTEX
  8
0
 10
163.2784
 20
55.8028
  0
VERTEX
  8
0
 10
163.3238
 20
55.7837
  0
VERTEX
  8
0
 10
163.3663
 20
55.7603
  0
VERTEX
  8
0
 10
163.406
 20
55.7327
  0
VERTEX
  8
0
 10
163.4429
 20
55.7008
  0
VERTEX
  8
0
 10
163.4762
 20
55.6653
  0
VERTEX
  8
0
 10
163.505
 20
55.6268
  0
VERTEX
  8
0
 10
163.5295
 20
55.5853
  0
VERTEX
  8
0
 10
163.5494
 20
55.5408
  0
VERTEX
  8
0
 10
163.565
 20
55.4933
  0
VERTEX
  8
0
 10
163.576
 20
55.4428
  0
VERTEX
  8
0
 10
163.5827
 20
55.3893
  0
VERTEX
  8
0
 10
163.5849
 20
55.3328
  0
VERTEX
  8
0
 10
163.5845
 20
55.3046
  0
VERTEX
  8
0
 10
163.5833
 20
55.2773
  0
VERTEX
  8
0
 10
163.5813
 20
55.2508
  0
VERTEX
  8
0
 10
163.5784
 20
55.225
  0
VERTEX
  8
0
 10
163.5748
 20
55.2001
  0
VERTEX
  8
0
 10
163.5703
 20
55.1761
  0
VERTEX
  8
0
 10
163.5651
 20
55.1528
  0
VERTEX
  8
0
 10
163.559
 20
55.1303
  0
VERTEX
  8
0
 10
163.5521
 20
55.1087
  0
VERTEX
  8
0
 10
163.5444
 20
55.0879
  0
VERTEX
  8
0
 10
163.5359
 20
55.0679
  0
VERTEX
  8
0
 10
163.5266
 20
55.0487
  0
VERTEX
  8
0
 10
163.5165
 20
55.0303
  0
VERTEX
  8
0
 10
163.5056
 20
55.0128
  0
VERTEX
  8
0
 10
163.4938
 20
54.9961
  0
VERTEX
  8
0
 10
163.4813
 20
54.9801
  0
VERTEX
  8
0
 10
163.4679
 20
54.965
  0
VERTEX
  8
0
 10
163.4537
 20
54.9508
  0
VERTEX
  8
0
 10
163.4388
 20
54.9373
  0
VERTEX
  8
0
 10
163.423
 20
54.9246
  0
VERTEX
  8
0
 10
163.4064
 20
54.9128
  0
VERTEX
  8
0
 10
163.389
 20
54.9018
  0
VERTEX
  8
0
 10
163.3707
 20
54.8916
  0
VERTEX
  8
0
 10
163.3517
 20
54.8822
  0
VERTEX
  8
0
 10
163.3319
 20
54.8736
  0
VERTEX
  8
0
 10
163.3112
 20
54.8659
  0
VERTEX
  8
0
 10
163.2898
 20
54.8589
  0
VERTEX
  8
0
 10
163.2675
 20
54.8528
  0
VERTEX
  8
0
 10
163.2444
 20
54.8475
  0
VERTEX
  8
0
 10
163.2205
 20
54.843
  0
VERTEX
  8
0
 10
163.1958
 20
54.8393
  0
VERTEX
  8
0
 10
163.1703
 20
54.8365
  0
VERTEX
  8
0
 10
163.144
 20
54.8344
  0
VERTEX
  8
0
 10
163.1169
 20
54.8332
  0
VERTEX
  8
0
 10
163.0889
 20
54.8328
  0
VERTEX
  8
0
 10
162.4769
 20
54.8328
  0
SEQEND
  0
POLYLINE
  8
0
 66
     1
 10
0
 20
0
  0
VERTEX
  8
0
 10
166.8089
 20
54.4048
  0
VERTEX
  8
0
 10
166.8088
 20
54.4459
  0
VERTEX
  8
0
 10
166.8085
 20
54.4865
  0
VERTEX
  8
0
 10
166.8079
 20
54.5268
  0
VERTEX
  8
0
 10
166.807
 20
54.5666
  0
VERTEX
  8
0
 10
166.806
 20
54.606
  0
VERTEX
  8
0
 10
166.8047
 20
54.645
  0
VERTEX
  8
0
 10
166.8032
 20
54.6836
  0
VERTEX
  8
0
 10
166.8014
 20
54.7218
  0
VERTEX
  8
0
 10
166.7994
 20
54.7596
  0
VERTEX
  8
0
 10
166.7972
 20
54.797
  0
VERTEX
  8
0
 10
166.7947
 20
54.8339
  0
VERTEX
  8
0
 10
166.792
 20
54.8704
  0
VERTEX
  8
0
 10
166.7891
 20
54.9066
  0
VERTEX
  8
0
 10
166.786
 20
54.9423
  0
VERTEX
  8
0
 10
166.7826
 20
54.9776
  0
VERTEX
  8
0
 10
166.7789
 20
55.0124
  0
VERTEX
  8
0
 10
166.7751
 20
55.0469
  0
VERTEX
  8
0
 10
166.771
 20
55.081
  0
VERTEX
  8
0
 10
166.7666
 20
55.1146
  0
VERTEX
  8
0
 10
166.762
 20
55.1478
  0
VERTEX
  8
0
 10
166.7572
 20
55.1807
  0
VERTEX
  8
0
 10
166.7522
 20
55.2131
  0
VERTEX
  8
0
 10
166.7469
 20
55.245
  0
VERTEX
  8
0
 10
166.7414
 20
55.2766
  0
VERTEX
  8
0
 10
166.7357
 20
55.3078
  0
VERTEX
  8
0
 10
166.7297
 20
55.3385
  0
VERTEX
  8
0
 10
166.7235
 20
55.3689
  0
VERTEX
  8
0
 10
166.717
 20
55.3988
  0
VERTEX
  8
0
 10
166.7104
 20
55.4283
  0
VERTEX
  8
0
 10
166.7034
 20
55.4574
  0
VERTEX
  8
0
 10
166.6963
 20
55.4861
  0
VERTEX
  8
0
 10
166.6889
 20
55.5144
  0
VERTEX
  8
0
 10
166.6813
 20
55.5423
  0
VERTEX
  8
0
 10
166.6734
 20
55.5697
  0
VERTEX
  8
0
 10
166.6654
 20
55.5968
  0
VERTEX
  8
0
 10
166.657
 20
55.6234
  0
VERTEX
  8
0
 10
166.6485
 20
55.6496
  0
VERTEX
  8
0
 10
166.6397
 20
55.6754
  0
VERTEX
  8
0
 10
166.6307
 20
55.7008
  0
VERTEX
  8
0
 10
166.6214
 20
55.7258
  0
VERTEX
  8
0
 10
166.6119
 20
55.7503
  0
VERTEX
  8
0
 10
166.6022
 20
55.7745
  0
VERTEX
  8
0
 10
166.5922
 20
55.7982
  0
VERTEX
  8
0
 10
166.582
 20
55.8215
  0
VERTEX
  8
0
 10
166.5716
 20
55.8444
  0
VERTEX
  8
0
 10
166.5609
 20
55.8669
  0
VERTEX
  8
0
 10
166.55
 20
55.889
  0
VERTEX
  8
0
 10
166.5389
 20
55.9107
  0
VERTEX
  8
0
 10
166.5275
 20
55.9319
  0
VERTEX
  8
0
 10
166.5159
 20
55.9528
  0
VERTEX
  8
0
 10
166.5041
 20
55.9732
  0
VERTEX
  8
0
 10
166.492
 20
55.9932
  0
VERTEX
  8
0
 10
166.4797
 20
56.0129
  0
VERTEX
  8
0
 10
166.4672
 20
56.0321
  0
VERTEX
  8
0
 10
166.4544
 20
56.0508
  0
VERTEX
  8
0
 10
166.4414
 20
56.0692
  0
VERTEX
  8
0
 10
166.4281
 20
56.0872
  0
VERTEX
  8
0
 10
166.4147
 20
56.1047
  0
VERTEX
  8
0
 10
166.401
 20
56.1218
  0
VERTEX
  8
0
 10
166.387
 20
56.1386
  0
VERTEX
  8
0
 10
166.3728
 20
56.1549
  0
VERTEX
  8
0
 10
166.3584
 20
56.1708
  0
VERTEX
  8
0
 10
166.3438
 20
56.1862
  0
VERTEX
  8
0
 10
166.3289
 20
56.2013
  0
VERTEX
  8
0
 10
166.3138
 20
56.216
  0
VERTEX
  8
0
 10
166.2984
 20
56.2302
  0
VERTEX
  8
0
 10
166.2828
 20
56.244
  0
VERTEX
  8
0
 10
166.267
 20
56.2574
  0
VERTEX
  8
0
 10
166.2509
 20
56.2704
  0
VERTEX
  8
0
 10
166.2346
 20
56.283
  0
VERTEX
  8
0
 10
166.2181
 20
56.2952
  0
VERTEX
  8
0
 10
166.2014
 20
56.307
  0
VERTEX
  8
0
 10
166.1844
 20
56.3183
  0
VERTEX
  8
0
 10
166.1671
 20
56.3293
  0
VERTEX
  8
0
 10
166.1497
 20
56.3398
  0
VERTEX
  8
0
 10
166.132
 20
56.3499
  0
VERTEX
  8
0
 10
166.114
 20
56.3596
  0
VERTEX
  8
0
 10
166.0959
 20
56.3689
  0
VERTEX
  8
0
 10
166.0775
 20
56.3778
  0
VERTEX
  8
0
 10
166.0588
 20
56.3862
  0
VERTEX
  8
0
 10
166.04
 20
56.3943
  0
VERTEX
  8
0
 10
166.0209
 20
56.4019
  0
VERTEX
  8
0
 10
166.0015
 20
56.4091
  0
VERTEX
  8
0
 10
165.982
 20
56.416
  0
VERTEX
  8
0
 10
165.9622
 20
56.4224
  0
VERTEX
  8
0
 10
165.9421
 20
56.4283
  0
VERTEX
  8
0
 10
165.9218
 20
56.4339
  0
VERTEX
  8
0
 10
165.9013
 20
56.4391
  0
VERTEX
  8
0
 10
165.8806
 20
56.4438
  0
VERTEX
  8
0
 10
165.8596
 20
56.4482
  0
VERTEX
  8
0
 10
165.8384
 20
56.4521
  0
VERTEX
  8
0
 10
165.8169
 20
56.4556
  0
VERTEX
  8
0
 10
165.7953
 20
56.4587
  0
VERTEX
  8
0
 10
165.7733
 20
56.4614
  0
VERTEX
  8
0
 10
165.7512
 20
56.4636
  0
VERTEX
  8
0
 10
165.7288
 20
56.4655
  0
VERTEX
  8
0
 10
165.7062
 20
56.4669
  0
VERTEX
  8
0
 10
165.6833
 20
56.468
  0
VERTEX
  8
0
 10
165.6602
 20
56.4686
  0
VERTEX
  8
0
 10
165.6369
 20
56.4688
  0
VERTEX
  8
0
 10
165.6133
 20
56.4686
  0
VERTEX
  8
0
 10
165.5899
 20
56.468
  0
VERTEX
  8
0
 10
165.5667
 20
56.4669
  0
VERTEX
  8
0
 10
165.5438
 20
56.4655
  0
VERTEX
  8
0
 10
165.5211
 20
56.4636
  0
VERTEX
  8
0
 10
165.4986
 20
56.4614
  0
VERTEX
  8
0
 10
165.4764
 20
56.4587
  0
VERTEX
  8
0
 10
165.4544
 20
56.4556
  0
VERTEX
  8
0
 10
165.4327
 20
56.4521
  0
VERTEX
  8
0
 10
165.4112
 20
56.4482
  0
VERTEX
  8
0
 10
165.3899
 20
56.4438
  0
VERTEX
  8
0
 10
165.3689
 20
56.4391
  0
VERTEX
  8
0
 10
165.3481
 20
56.4339
  0
VERTEX
  8
0
 10
165.3276
 20
56.4283
  0
VERTEX
  8
0
 10
165.3073
 20
56.4224
  0
VERTEX
  8
0
 10
165.2872
 20
56.416
  0
VERTEX
  8
0
 10
165.2673
 20
56.4091
  0
VERTEX
  8
0
 10
165.2477
 20
56.4019
  0
VERTEX
  8
0
 10
165.2284
 20
56.3943
  0
VERTEX
  8
0
 10
165.2092
 20
56.3862
  0
VERTEX
  8
0
 10
165.1904
 20
56.3778
  0
VERTEX
  8
0
 10
165.1717
 20
56.3689
  0
VERTEX
  8
0
 10
165.1533
 20
56.3596
  0
VERTEX
  8
0
 10
165.1351
 20
56.3499
  0
VERTEX
  8
0
 10
165.1172
 20
56.3398
  0
VERTEX
  8
0
 10
165.0995
 20
56.3293
  0
VERTEX
  8
0
 10
165.082
 20
56.3183
  0
VERTEX
  8
0
 10
165.0648
 20
56.307
  0
VERTEX
  8
0
 10
165.0478
 20
56.2952
  0
VERTEX
  8
0
 10
165.031
 20
56.283
  0
VERTEX
  8
0
 10
165.0145
 20
56.2704
  0
VERTEX
  8
0
 10
164.9983
 20
56.2574
  0
VERTEX
  8
0
 10
164.9822
 20
56.244
  0
VERTEX
  8
0
 10
164.9664
 20
56.2302
  0
VERTEX
  8
0
 10
164.9509
 20
56.216
  0
VERTEX
  8
0
 10
164.9355
 20
56.2013
  0
VERTEX
  8
0
 10
164.9204
 20
56.1862
  0
VERTEX
  8
0
 10
164.9056
 20
56.1708
  0
VERTEX
  8
0
 10
164.891
 20
56.1549
  0
VERTEX
  8
0
 10
164.8766
 20
56.1386
  0
VERTEX
  8
0
 10
164.8625
 20
56.1218
  0
VERTEX
  8
0
 10
164.8486
 20
56.1047
  0
VERTEX
  8
0
 10
164.8349
 20
56.0872
  0
VERTEX
  8
0
 10
164.8215
 20
56.0692
  0
VERTEX
  8
0
 10
164.8083
 20
56.0508
  0
VERTEX
  8
0
 10
164.7953
 20
56.0321
  0
VERTEX
  8
0
 10
164.7826
 20
56.0129
  0
VERTEX
  8
0
 10
164.7702
 20
55.9932
  0
VERTEX
  8
0
 10
164.7579
 20
55.9732
  0
VERTEX
  8
0
 10
164.7459
 20
55.9528
  0
VERTEX
  8
0
 10
164.7342
 20
55.9319
  0
VERTEX
  8
0
 10
164.7226
 20
55.9107
  0
VERTEX
  8
0
 10
164.7114
 20
55.889
  0
VERTEX
  8
0
 10
164.7003
 20
55.8669
  0
VERTEX
  8
0
 10
164.6895
 20
55.8444
  0
VERTEX
  8
0
 10
164.6789
 20
55.8215
  0
VERTEX
  8
0
 10
164.6686
 20
55.7982
  0
VERTEX
  8
0
 10
164.6585
 20
55.7745
  0
VERTEX
  8
0
 10
164.6486
 20
55.7503
  0
VERTEX
  8
0
 10
164.639
 20
55.7258
  0
VERTEX
  8
0
 10
164.6296
 20
55.7008
  0
VERTEX
  8
0
 10
164.6205
 20
55.6754
  0
VERTEX
  8
0
 10
164.6116
 20
55.6496
  0
VERTEX
  8
0
 10
164.6029
 20
55.6234
  0
VERTEX
  8
0
 10
164.5945
 20
55.5968
  0
VERTEX
  8
0
 10
164.5863
 20
55.5697
  0
VERTEX
  8
0
 10
164.5783
 20
55.5423
  0
VERTEX
  8
0
 10
164.5706
 20
55.5144
  0
VERTEX
  8
0
 10
164.5631
 20
55.4861
  0
VERTEX
  8
0
 10
164.5558
 20
55.4574
  0
VERTEX
  8
0
 10
164.5488
 20
55.4283
  0
VERTEX
  8
0
 10
164.5421
 20
55.3988
  0
VERTEX
  8
0
 10
164.5355
 20
55.3689
  0
VERTEX
  8
0
 10
164.5292
 20
55.3385
  0
VERTEX
  8
0
 10
164.5232
 20
55.3078
  0
VERTEX
  8
0
 10
164.5174
 20
55.2766
  0
VERTEX
  8
0
 10
164.5118
 20
55.245
  0
VERTEX
  8
0
 10
164.5064
 20
55.2131
  0
VERTEX
  8
0
 10
164.5013
 20
55.1807
  0
VERTEX
  8
0
 10
164.4964
 20
55.1478
  0
VERTEX
  8
0
 10
164.4918
 20
55.1146
  0
VERTEX
  8
0
 10
164.4874
 20
55.081
  0
VERTEX
  8
0
 10
164.4833
 20
55.0469
  0
VERTEX
  8
0
 10
164.4793
 20
55.0124
  0
VERTEX
  8
0
 10
164.4757
 20
54.9776
  0
VERTEX
  8
0
 10
164.4722
 20
54.9423
  0
VERTEX
  8
0
 10
164.469
 20
54.9066
  0
VERTEX
  8
0
 10
164.466
 20
54.8704
  0
VERTEX
  8
0
 10
164.4633
 20
54.8339
  0
VERTEX
  8
0
 10
164.4608
 20
54.797
  0
VERTEX
  8
0
 10
164.4585
 20
54.7596
  0
VERTEX
  8
0
 10
164.4565
 20
54.7218
  0
VERTEX
  8
0
 10
164.4547
 20
54.6836
  0
VERTEX
  8
0
 10
164.4532
 20
54.645
  0
VERTEX
  8
0
 10
164.4519
 20
54.606
  0
VERTEX
  8
0
 10
164.4508
 20
54.5666
  0
VERTEX
  8
0
 10
164.45
 20
54.5268
  0
VERTEX
  8
0
 10
164.4494
 20
54.4865
  0
VERTEX
  8
0
 10
164.449
 20
54.4459
  0
VERTEX
  8
0
 10
164.4489
 20
54.4048
  0
VERTEX
  8
0
 10
164.449
 20
54.3635
  0
VERTEX
  8
0
 10
164.4494
 20
54.3226
  0
VERTEX
  8
0
 10
164.45
 20
54.2821
  0
VERTEX
  8
0
 10
164.4508
 20
54.242
  0
VERTEX
  8
0
 10
164.4518
 20
54.2024
  0
VERTEX
  8
0
 10
164.4531
 20
54.1631
  0
VERTEX
  8
0
 10
164.4546
 20
54.1243
  0
VERTEX
  8
0
 10
164.4564
 20
54.0859
  0
VERTEX
  8
0
 10
164.4584
 20
54.0479
  0
VERTEX
  8
0
 10
164.4606
 20
54.0104
  0
VERTEX
  8
0
 10
164.463
 20
53.9732
  0
VERTEX
  8
0
 10
164.4657
 20
53.9364
  0
VERTEX
  8
0
 10
164.4686
 20
53.9001
  0
VERTEX
  8
0
 10
164.4717
 20
53.8642
  0
VERTEX
  8
0
 10
164.4751
 20
53.8287
  0
VERTEX
  8
0
 10
164.4787
 20
53.7936
  0
VERTEX
  8
0
 10
164.4826
 20
53.759
  0
VERTEX
  8
0
 10
164.4866
 20
53.7247
  0
VERTEX
  8
0
 10
164.4909
 20
53.6909
  0
VERTEX
  8
0
 10
164.4955
 20
53.6574
  0
VERTEX
  8
0
 10
164.5003
 20
53.6244
  0
VERTEX
  8
0
 10
164.5053
 20
53.5918
  0
VERTEX
  8
0
 10
164.5105
 20
53.5597
  0
VERTEX
  8
0
 10
164.516
 20
53.5279
  0
VERTEX
  8
0
 10
164.5217
 20
53.4965
  0
VERTEX
  8
0
 10
164.5276
 20
53.4656
  0
VERTEX
  8
0
 10
164.5338
 20
53.4351
  0
VERTEX
  8
0
 10
164.5402
 20
53.405
  0
VERTEX
  8
0
 10
164.5468
 20
53.3753
  0
VERTEX
  8
0
 10
164.5537
 20
53.346
  0
VERTEX
  8
0
 10
164.5608
 20
53.3172
  0
VERTEX
  8
0
 10
164.5681
 20
53.2887
  0
VERTEX
  8
0
 10
164.5757
 20
53.2607
  0
VERTEX
  8
0
 10
164.5835
 20
53.2331
  0
VERTEX
  8
0
 10
164.5915
 20
53.2059
  0
VERTEX
  8
0
 10
164.5998
 20
53.1791
  0
VERTEX
  8
0
 10
164.6083
 20
53.1528
  0
VERTEX
  8
0
 10
164.617
 20
53.1268
  0
VERTEX
  8
0
 10
164.626
 20
53.1013
  0
VERTEX
  8
0
 10
164.6352
 20
53.0762
  0
VERTEX
  8
0
 10
164.6446
 20
53.0514
  0
VERTEX
  8
0
 10
164.6543
 20
53.0272
  0
VERTEX
  8
0
 10
164.6641
 20
53.0033
  0
VERTEX
  8
0
 10
164.6743
 20
52.9798
  0
VERTEX
  8
0
 10
164.6846
 20
52.9568
  0
VERTEX
  8
0
 10
164.6952
 20
52.9342
  0
VERTEX
  8
0
 10
164.7061
 20
52.9119
  0
VERTEX
  8
0
 10
164.7171
 20
52.8901
  0
VERTEX
  8
0
 10
164.7284
 20
52.8688
  0
VERTEX
  8
0
 10
164.7399
 20
52.8478
  0
VERTEX
  8
0
 10
164.7517
 20
52.8272
  0
VERTEX
  8
0
 10
164.7637
 20
52.8071
  0
VERTEX
  8
0
 10
164.7759
 20
52.7874
  0
VERTEX
  8
0
 10
164.7883
 20
52.7681
  0
VERTEX
  8
0
 10
164.801
 20
52.7492
  0
VERTEX
  8
0
 10
164.814
 20
52.7307
  0
VERTEX
  8
0
 10
164.8271
 20
52.7126
  0
VERTEX
  8
0
 10
164.8405
 20
52.695
  0
VERTEX
  8
0
 10
164.8541
 20
52.6778
  0
VERTEX
  8
0
 10
164.868
 20
52.661
  0
VERTEX
  8
0
 10
164.882
 20
52.6446
  0
VERTEX
  8
0
 10
164.8964
 20
52.6286
  0
VERTEX
  8
0
 10
164.9109
 20
52.613
  0
VERTEX
  8
0
 10
164.9257
 20
52.5978
  0
VERTEX
  8
0
 10
164.9407
 20
52.5831
  0
VERTEX
  8
0
 10
164.956
 20
52.5688
  0
VERTEX
  8
0
 10
164.9714
 20
52.5549
  0
VERTEX
  8
0
 10
164.9872
 20
52.5414
  0
VERTEX
  8
0
 10
165.0031
 20
52.5283
  0
VERTEX
  8
0
 10
165.0193
 20
52.5156
  0
VERTEX
  8
0
 10
165.0357
 20
52.5034
  0
VERTEX
  8
0
 10
165.0523
 20
52.4916
  0
VERTEX
  8
0
 10
165.0692
 20
52.4801
  0
VERTEX
  8
0
 10
165.0863
 20
52.4691
  0
VERTEX
  8
0
 10
165.1037
 20
52.4585
  0
VERTEX
  8
0
 10
165.1213
 20
52.4484
  0
VERTEX
  8
0
 10
165.1391
 20
52.4386
  0
VERTEX
  8
0
 10
165.1571
 20
52.4293
  0
VERTEX
  8
0
 10
165.1754
 20
52.4203
  0
VERTEX
  8
0
 10
165.1939
 20
52.4118
  0
VERTEX
  8
0
 10
165.2126
 20
52.4037
  0
VERTEX
  8
0
 10
165.2316
 20
52.3961
  0
VERTEX
  8
0
 10
165.2508
 20
52.3888
  0
VERTEX
  8
0
 10
165.2702
 20
52.3819
  0
VERTEX
  8
0
 10
165.2899
 20
52.3755
  0
VERTEX
  8
0
 10
165.3098
 20
52.3695
  0
VERTEX
  8
0
 10
165.33
 20
52.3639
  0
VERTEX
  8
0
 10
165.3503
 20
52.3587
  0
VERTEX
  8
0
 10
165.3709
 20
52.3539
  0
VERTEX
  8
0
 10
165.3918
 20
52.3496
  0
VERTEX
  8
0
 10
165.4128
 20
52.3456
  0
VERTEX
  8
0
 10
165.4341
 20
52.3421
  0
VERTEX
  8
0
 10
165.4557
 20
52.339
  0
VERTEX
  8
0
 10
165.4774
 20
52.3363
  0
VERTEX
  8
0
 10
165.4994
 20
52.334
  0
VERTEX
  8
0
 10
165.5217
 20
52.3321
  0
VERTEX
  8
0
 10
165.5441
 20
52.3307
  0
VERTEX
  8
0
 10
165.5668
 20
52.3296
  0
VERTEX
  8
0
 10
165.5898
 20
52.329
  0
VERTEX
  8
0
 10
165.6129
 20
52.3288
  0
VERTEX
  8
0
 10
165.6367
 20
52.329
  0
VERTEX
  8
0
 10
165.6603
 20
52.3296
  0
VERTEX
  8
0
 10
165.6836
 20
52.3307
  0
VERTEX
  8
0
 10
165.7067
 20
52.3321
  0
VERTEX
  8
0
 10
165.7295
 20
52.334
  0
VERTEX
  8
0
 10
165.7521
 20
52.3363
  0
VERTEX
  8
0
 10
165.7745
 20
52.339
  0
VERTEX
  8
0
 10
165.7966
 20
52.3421
  0
VERTEX
  8
0
 10
165.8185
 20
52.3456
  0
VERTEX
  8
0
 10
165.8402
 20
52.3496
  0
VERTEX
  8
0
 10
165.8616
 20
52.3539
  0
VERTEX
  8
0
 10
165.8827
 20
52.3587
  0
VERTEX
  8
0
 10
165.9037
 20
52.3639
  0
VERTEX
  8
0
 10
165.9244
 20
52.3695
  0
VERTEX
  8
0
 10
165.9448
 20
52.3755
  0
VERTEX
  8
0
 10
165.965
 20
52.3819
  0
VERTEX
  8
0
 10
165.985
 20
52.3888
  0
VERTEX
  8
0
 10
166.0047
 20
52.3961
  0
VERTEX
  8
0
 10
166.0242
 20
52.4037
  0
VERTEX
  8
0
 10
166.0435
 20
52.4118
  0
VERTEX
  8
0
 10
166.0625
 20
52.4203
  0
VERTEX
  8
0
 10
166.0813
 20
52.4293
  0
VERTEX
  8
0
 10
166.0998
 20
52.4386
  0
VERTEX
  8
0
 10
166.1181
 20
52.4484
  0
VERTEX
  8
0
 10
166.1362
 20
52.4585
  0
VERTEX
  8
0
 10
166.154
 20
52.4691
  0
VERTEX
  8
0
 10
166.1716
 20
52.4801
  0
VERTEX
  8
0
 10
166.1889
 20
52.4916
  0
VERTEX
  8
0
 10
166.206
 20
52.5034
  0
VERTEX
  8
0
 10
166.2229
 20
52.5156
  0
VERTEX
  8
0
 10
166.2395
 20
52.5283
  0
VERTEX
  8
0
 10
166.2559
 20
52.5414
  0
VERTEX
  8
0
 10
166.272
 20
52.5549
  0
VERTEX
  8
0
 10
166.2879
 20
52.5688
  0
VERTEX
  8
0
 10
166.3036
 20
52.5831
  0
VERTEX
  8
0
 10
166.319
 20
52.5978
  0
VERTEX
  8
0
 10
166.3342
 20
52.613
  0
VERTEX
  8
0
 10
166.3492
 20
52.6286
  0
VERTEX
  8
0
 10
166.3639
 20
52.6446
  0
VERTEX
  8
0
 10
166.3784
 20
52.661
  0
VERTEX
  8
0
 10
166.3926
 20
52.6778
  0
VERTEX
  8
0
 10
166.4066
 20
52.695
  0
VERTEX
  8
0
 10
166.4203
 20
52.7126
  0
VERTEX
  8
0
 10
166.4339
 20
52.7307
  0
VERTEX
  8
0
 10
166.4471
 20
52.7492
  0
VERTEX
  8
0
 10
166.4602
 20
52.7681
  0
VERTEX
  8
0
 10
166.473
 20
52.7874
  0
VERTEX
  8
0
 10
166.4855
 20
52.8071
  0
VERTEX
  8
0
 10
166.4978
 20
52.8272
  0
VERTEX
  8
0
 10
166.5099
 20
52.8478
  0
VERTEX
  8
0
 10
166.5218
 20
52.8688
  0
VERTEX
  8
0
 10
166.5334
 20
52.8901
  0
VERTEX
  8
0
 10
166.5447
 20
52.9119
  0
VERTEX
  8
0
 10
166.5559
 20
52.9342
  0
VERTEX
  8
0
 10
166.5667
 20
52.9568
  0
VERTEX
  8
0
 10
166.5774
 20
52.9798
  0
VERTEX
  8
0
 10
166.5878
 20
53.0033
  0
VERTEX
  8
0
 10
166.5979
 20
53.0272
  0
VERTEX
  8
0
 10
166.6079
 20
53.0514
  0
VERTEX
  8
0
 10
166.6176
 20
53.0762
  0
VERTEX
  8
0
 10
166.627
 20
53.1013
  0
VERTEX
  8
0
 10
166.6362
 20
53.1268
  0
VERTEX
  8
0
 10
166.6452
 20
53.1528
  0
VERTEX
  8
0
 10
166.6539
 20
53.1791
  0
VERTEX
  8
0
 10
166.6624
 20
53.2059
  0
VERTEX
  8
0
 10
166.6707
 20
53.2331
  0
VERTEX
  8
0
 10
166.6787
 20
53.2607
  0
VERTEX
  8
0
 10
166.6865
 20
53.2887
  0
VERTEX
  8
0
 10
166.694
 20
53.3172
  0
VERTEX
  8
0
 10
166.7013
 20
53.346
  0
VERTEX
  8
0
 10
166.7083
 20
53.3753
  0
VERTEX
  8
0
 10
166.7152
 20
53.405
  0
VERTEX
  8
0
 10
166.7217
 20
53.4351
  0
VERTEX
  8
0
 10
166.7281
 20
53.4656
  0
VERTEX
  8
0
 10
166.7342
 20
53.4965
  0
VERTEX
  8
0
 10
166.74
 20
53.5279
  0
VERTEX
  8
0
 10
166.7457
 20
53.5597
  0
VERTEX
  8
0
 10
166.751
 20
53.5918
  0
VERTEX
  8
0
 10
166.7562
 20
53.6244
  0
VERTEX
  8
0
 10
166.7611
 20
53.6574
  0
VERTEX
  8
0
 10
166.7657
 20
53.6909
  0
VERTEX
  8
0
 10
166.7702
 20
53.7247
  0
VERTEX
  8
0
 10
166.7744
 20
53.759
  0
VERTEX
  8
0
 10
166.7783
 20
53.7936
  0
VERTEX
  8
0
 10
166.782
 20
53.8287
  0
VERTEX
  8
0
 10
166.7855
 20
53.8642
  0
VERTEX
  8
0
 10
166.7887
 20
53.9001
  0
VERTEX
  8
0
 10
166.7917
 20
53.9364
  0
VERTEX
  8
0
 10
166.7945
 20
53.9732
  0
VERTEX
  8
0
 10
166.797
 20
54.0104
  0
VERTEX
  8
0
 10
166.7992
 20
54.0479
  0
VERTEX
  8
0
 10
166.8013
 20
54.0859
  0
VERTEX
  8
0
 10
166.8031
 20
54.1243
  0
VERTEX
  8
0
 10
166.8046
 20
54.1631
  0
VERTEX
  8
0
 10
166.8059
 20
54.2024
  0
VERTEX
  8
0
 10
166.807
 20
54.242
  0
VERTEX
  8
0
 10
166.8078
 20
54.2821
  0
VERTEX
  8
0
 10
166.8084
 20
54.3226
  0
VERTEX
  8
0
 10
166.8088
 20
54.3635
  0
VERTEX
  8
0
 10
166.8089
 20
54.4048
  0
VERTEX
  8
0
 10
166.8089
 20
54.4048
  0
SEQEND
  0
POLYLINE
  8
0
 66
     1
 10
0
 20
0
  0
VERTEX
  8
0
 10
166.2609
 20
54.4048
  0
VERTEX
  8
0
 10
166.2608
 20
54.3678
  0
VERTEX
  8
0
 10
166.2605
 20
54.3312
  0
VERTEX
  8
0
 10
166.2601
 20
54.2952
  0
VERTEX
  8
0
 10
166.2594
 20
54.2595
  0
VERTEX
  8
0
 10
166.2585
 20
54.2244
  0
VERTEX
  8
0
 10
166.2575
 20
54.1897
  0
VERTEX
  8
0
 10
166.2563
 20
54.1554
  0
VERTEX
  8
0
 10
166.2548
 20
54.1216
  0
VERTEX
  8
0
 10
166.2532
 20
54.0883
  0
VERTEX
  8
0
 10
166.2514
 20
54.0554
  0
VERTEX
  8
0
 10
166.2494
 20
54.023
  0
VERTEX
  8
0
 10
166.2472
 20
53.9911
  0
VERTEX
  8
0
 10
166.2449
 20
53.9596
  0
VERTEX
  8
0
 10
166.2423
 20
53.9286
  0
VERTEX
  8
0
 10
166.2395
 20
53.898
  0
VERTEX
  8
0
 10
166.2366
 20
53.8679
  0
VERTEX
  8
0
 10
166.2334
 20
53.8382
  0
VERTEX
  8
0
 10
166.2301
 20
53.809
  0
VERTEX
  8
0
 10
166.2266
 20
53.7803
  0
VERTEX
  8
0
 10
166.2229
 20
53.752
  0
VERTEX
  8
0
 10
166.219
 20
53.7242
  0
VERTEX
  8
0
 10
166.2149
 20
53.6969
  0
VERTEX
  8
0
 10
166.2106
 20
53.67
  0
VERTEX
  8
0
 10
166.2061
 20
53.6436
  0
VERTEX
  8
0
 10
166.2015
 20
53.6176
  0
VERTEX
  8
0
 10
166.1966
 20
53.5921
  0
VERTEX
  8
0
 10
166.1916
 20
53.567
  0
VERTEX
  8
0
 10
166.1864
 20
53.5424
  0
VERTEX
  8
0
 10
166.1809
 20
53.5183
  0
VERTEX
  8
0
 10
166.1753
 20
53.4946
  0
VERTEX
  8
0
 10
166.1695
 20
53.4714
  0
VERTEX
  8
0
 10
166.1635
 20
53.4486
  0
VERTEX
  8
0
 10
166.1574
 20
53.4264
  0
VERTEX
  8
0
 10
166.151
 20
53.4045
  0
VERTEX
  8
0
 10
166.1444
 20
53.3831
  0
VERTEX
  8
0
 10
166.1377
 20
53.3622
  0
VERTEX
  8
0
 10
166.1307
 20
53.3418
  0
VERTEX
  8
0
 10
166.1236
 20
53.3218
  0
VERTEX
  8
0
 10
166.1163
 20
53.3022
  0
VERTEX
  8
0
 10
166.1088
 20
53.2832
  0
VERTEX
  8
0
 10
166.101
 20
53.2645
  0
VERTEX
  8
0
 10
166.0932
 20
53.2464
  0
VERTEX
  8
0
 10
166.0851
 20
53.2287
  0
VERTEX
  8
0
 10
166.0768
 20
53.2114
  0
VERTEX
  8
0
 10
166.0683
 20
53.1947
  0
VERTEX
  8
0
 10
166.0597
 20
53.1784
  0
VERTEX
  8
0
 10
166.0508
 20
53.1625
  0
VERTEX
  8
0
 10
166.0418
 20
53.1471
  0
VERTEX
  8
0
 10
166.0326
 20
53.1322
  0
VERTEX
  8
0
 10
166.0232
 20
53.1177
  0
VERTEX
  8
0
 10
166.0135
 20
53.1037
  0
VERTEX
  8
0
 10
166.0038
 20
53.0901
  0
VERTEX
  8
0
 10
165.9938
 20
53.077
  0
VERTEX
  8
0
 10
165.9836
 20
53.0643
  0
VERTEX
  8
0
 10
165.9732
 20
53.0522
  0
VERTEX
  8
0
 10
165.9627
 20
53.0404
  0
VERTEX
  8
0
 10
165.9519
 20
53.0292
  0
VERTEX
  8
0
 10
165.941
 20
53.0184
  0
VERTEX
  8
0
 10
165.9299
 20
53.008
  0
VERTEX
  8
0
 10
165.9185
 20
52.9982
  0
VERTEX
  8
0
 10
165.907
 20
52.9887
  0
VERTEX
  8
0
 10
165.8953
 20
52.9798
  0
VERTEX
  8
0
 10
165.8834
 20
52.9713
  0
VERTEX
  8
0
 10
165.8714
 20
52.9632
  0
VERTEX
  8
0
 10
165.8591
 20
52.9556
  0
VERTEX
  8
0
 10
165.8466
 20
52.9485
  0
VERTEX
  8
0
 10
165.834
 20
52.9418
  0
VERTEX
  8
0
 10
165.8211
 20
52.9356
  0
VERTEX
  8
0
 10
165.8081
 20
52.9299
  0
VERTEX
  8
0
 10
165.7949
 20
52.9246
  0
VERTEX
  8
0
 10
165.7815
 20
52.9198
  0
VERTEX
  8
0
 10
165.7679
 20
52.9154
  0
VERTEX
  8
0
 10
165.7541
 20
52.9115
  0
VERTEX
  8
0
 10
165.7401
 20
52.9081
  0
VERTEX
  8
0
 10
165.7259
 20
52.9051
  0
VERTEX
  8
0
 10
165.7116
 20
52.9025
  0
VERTEX
  8
0
 10
165.697
 20
52.9005
  0
VERTEX
  8
0
 10
165.6823
 20
52.8989
  0
VERTEX
  8
0
 10
165.6674
 20
52.8977
  0
VERTEX
  8
0
 10
165.6522
 20
52.897
  0
VERTEX
  8
0
 10
165.6369
 20
52.8968
  0
VERTEX
  8
0
 10
165.6223
 20
52.897
  0
VERTEX
  8
0
 10
165.6079
 20
52.8977
  0
VERTEX
  8
0
 10
165.5936
 20
52.8988
  0
VERTEX
  8
0
 10
165.5795
 20
52.9003
  0
VERTEX
  8
0
 10
165.5656
 20
52.9022
  0
VERTEX
  8
0
 10
165.5518
 20
52.9046
  0
VERTEX
  8
0
 10
165.5382
 20
52.9074
  0
VERTEX
  8
0
 10
165.5248
 20
52.9107
  0
VERTEX
  8
0
 10
165.5116
 20
52.9144
  0
VERTEX
  8
0
 10
165.4985
 20
52.9185
  0
VERTEX
  8
0
 10
165.4856
 20
52.9231
  0
VERTEX
  8
0
 10
165.4729
 20
52.9281
  0
VERTEX
  8
0
 10
165.4603
 20
52.9335
  0
VERTEX
  8
0
 10
165.4479
 20
52.9394
  0
VERTEX
  8
0
 10
165.4357
 20
52.9457
  0
VERTEX
  8
0
 10
165.4236
 20
52.9525
  0
VERTEX
  8
0
 10
165.4118
 20
52.9596
  0
VERTEX
  8
0
 10
165.4001
 20
52.9672
  0
VERTEX
  8
0
 10
165.3885
 20
52.9753
  0
VERTEX
  8
0
 10
165.3772
 20
52.9838
  0
VERTEX
  8
0
 10
165.366
 20
52.9927
  0
VERTEX
  8
0
 10
165.3549
 20
53.002
  0
VERTEX
  8
0
 10
165.3441
 20
53.0118
  0
VERTEX
  8
0
 10
165.3334
 20
53.022
  0
VERTEX
  8
0
 10
165.3229
 20
53.0327
  0
VERTEX
  8
0
 10
165.3126
 20
53.0438
  0
VERTEX
  8
0
 10
165.3024
 20
53.0553
  0
VERTEX
  8
0
 10
165.2924
 20
53.0672
  0
VERTEX
  8
0
 10
165.2826
 20
53.0796
  0
VERTEX
  8
0
 10
165.2729
 20
53.0925
  0
VERTEX
  8
0
 10
165.2634
 20
53.1057
  0
VERTEX
  8
0
 10
165.2541
 20
53.1194
  0
VERTEX
  8
0
 10
165.245
 20
53.1336
  0
VERTEX
  8
0
 10
165.236
 20
53.1481
  0
VERTEX
  8
0
 10
165.2272
 20
53.1631
  0
VERTEX
  8
0
 10
165.2186
 20
53.1786
  0
VERTEX
  8
0
 10
165.2101
 20
53.1944
  0
VERTEX
  8
0
 10
165.2018
 20
53.2107
  0
VERTEX
  8
0
 10
165.1937
 20
53.2275
  0
VERTEX
  8
0
 10
165.1857
 20
53.2447
  0
VERTEX
  8
0
 10
165.178
 20
53.2623
  0
VERTEX
  8
0
 10
165.1704
 20
53.2803
  0
VERTEX
  8
0
 10
165.1629
 20
53.2988
  0
VERTEX
  8
0
 10
165.1557
 20
53.3177
  0
VERTEX
  8
0
 10
165.1486
 20
53.3371
  0
VERTEX
  8
0
 10
165.1416
 20
53.3568
  0
VERTEX
  8
0
 10
165.1349
 20
53.3771
  0
VERTEX
  8
0
 10
165.1283
 20
53.3977
  0
VERTEX
  8
0
 10
165.1219
 20
53.4188
  0
VERTEX
  8
0
 10
165.1157
 20
53.4403
  0
VERTEX
  8
0
 10
165.1096
 20
53.4623
  0
VERTEX
  8
0
 10
165.1037
 20
53.4847
  0
VERTEX
  8
0
 10
165.098
 20
53.5075
  0
VERTEX
  8
0
 10
165.0924
 20
53.5308
  0
VERTEX
  8
0
 10
165.087
 20
53.5545
  0
VERTEX
  8
0
 10
165.0818
 20
53.5786
  0
VERTEX
  8
0
 10
165.0768
 20
53.6032
  0
VERTEX
  8
0
 10
165.0719
 20
53.6282
  0
VERTEX
  8
0
 10
165.0672
 20
53.6536
  0
VERTEX
  8
0
 10
165.0627
 20
53.6795
  0
VERTEX
  8
0
 10
165.0583
 20
53.7058
  0
VERTEX
  8
0
 10
165.0541
 20
53.7325
  0
VERTEX
  8
0
 10
165.0501
 20
53.7597
  0
VERTEX
  8
0
 10
165.0463
 20
53.7873
  0
VERTEX
  8
0
 10
165.0426
 20
53.8154
  0
VERTEX
  8
0
 10
165.0391
 20
53.8439
  0
VERTEX
  8
0
 10
165.0358
 20
53.8728
  0
VERTEX
  8
0
 10
165.0326
 20
53.9021
  0
VERTEX
  8
0
 10
165.0296
 20
53.9319
  0
VERTEX
  8
0
 10
165.0268
 20
53.9621
  0
VERTEX
  8
0
 10
165.0242
 20
53.9928
  0
VERTEX
  8
0
 10
165.0217
 20
54.0239
  0
VERTEX
  8
0
 10
165.0194
 20
54.0554
  0
VERTEX
  8
0
 10
165.0172
 20
54.0874
  0
VERTEX
  8
0
 10
165.0153
 20
54.1198
  0
VERTEX
  8
0
 10
165.0135
 20
54.1526
  0
VERTEX
  8
0
 10
165.0118
 20
54.1858
  0
VERTEX
  8
0
 10
165.0104
 20
54.2195
  0
VERTEX
  8
0
 10
165.0091
 20
54.2537
  0
VERTEX
  8
0
 10
165.008
 20
54.2882
  0
VERTEX
  8
0
 10
165.0071
 20
54.3233
  0
VERTEX
  8
0
 10
165.0063
 20
54.3587
  0
VERTEX
  8
0
 10
165.0057
 20
54.3946
  0
VERTEX
  8
0
 10
165.0053
 20
54.4309
  0
VERTEX
  8
0
 10
165.005
 20
54.4676
  0
VERTEX
  8
0
 10
165.0049
 20
54.5048
  0
VERTEX
  8
0
 10
165.0062
 20
54.6157
  0
VERTEX
  8
0
 10
165.0099
 20
54.7227
  0
VERTEX
  8
0
 10
165.016
 20
54.8257
  0
VERTEX
  8
0
 10
165.0247
 20
54.9247
  0
VERTEX
  8
0
 10
165.0358
 20
55.0199
  0
VERTEX
  8
0
 10
165.0494
 20
55.111
  0
VERTEX
  8
0
 10
165.0654
 20
55.1982
  0
VERTEX
  8
0
 10
165.0839
 20
55.2815
  0
VERTEX
  8
0
 10
165.1049
 20
55.3608
  0
VERTEX
  8
0
 10
165.1159
 20
55.3979
  0
VERTEX
  8
0
 10
165.1275
 20
55.4338
  0
VERTEX
  8
0
 10
165.1396
 20
55.4683
  0
VERTEX
  8
0
 10
165.1521
 20
55.5015
  0
VERTEX
  8
0
 10
165.1653
 20
55.5335
  0
VERTEX
  8
0
 10
165.1789
 20
55.5641
  0
VERTEX
  8
0
 10
165.1931
 20
55.5934
  0
VERTEX
  8
0
 10
165.2077
 20
55.6214
  0
VERTEX
  8
0
 10
165.2229
 20
55.6482
  0
VERTEX
  8
0
 10
165.2387
 20
55.6736
  0
VERTEX
  8
0
 10
165.2549
 20
55.6977
  0
VERTEX
  8
0
 10
165.2717
 20
55.7205
  0
VERTEX
  8
0
 10
165.289
 20
55.742
  0
VERTEX
  8
0
 10
165.3068
 20
55.7622
  0
VERTEX
  8
0
 10
165.3252
 20
55.7811
  0
VERTEX
  8
0
 10
165.344
 20
55.7987
  0
VERTEX
  8
0
 10
165.3634
 20
55.815
  0
VERTEX
  8
0
 10
165.3833
 20
55.8299
  0
VERTEX
  8
0
 10
165.4038
 20
55.8436
  0
VERTEX
  8
0
 10
165.4247
 20
55.856
  0
VERTEX
  8
0
 10
165.4462
 20
55.8671
  0
VERTEX
  8
0
 10
165.4682
 20
55.8769
  0
VERTEX
  8
0
 10
165.4908
 20
55.8853
  0
VERTEX
  8
0
 10
165.5138
 20
55.8925
  0
VERTEX
  8
0
 10
165.5374
 20
55.8984
  0
VERTEX
  8
0
 10
165.5615
 20
55.9029
  0
VERTEX
  8
0
 10
165.5861
 20
55.9062
  0
VERTEX
  8
0
 10
165.6113
 20
55.9081
  0
VERTEX
  8
0
 10
165.6369
 20
55.9088
  0
VERTEX
  8
0
 10
165.6607
 20
55.9082
  0
VERTEX
  8
0
 10
165.684
 20
55.9063
  0
VERTEX
  8
0
 10
165.7069
 20
55.9032
  0
VERTEX
  8
0
 10
165.7293
 20
55.8988
  0
VERTEX
  8
0
 10
165.7513
 20
55.8932
  0
VERTEX
  8
0
 10
165.7728
 20
55.8863
  0
VERTEX
  8
0
 10
165.7939
 20
55.8782
  0
VERTEX
  8
0
 10
165.8145
 20
55.8688
  0
VERTEX
  8
0
 10
165.8347
 20
55.8582
  0
VERTEX
  8
0
 10
165.8544
 20
55.8464
  0
VERTEX
  8
0
 10
165.8737
 20
55.8332
  0
VERTEX
  8
0
 10
165.8926
 20
55.8189
  0
VERTEX
  8
0
 10
165.9109
 20
55.8033
  0
VERTEX
  8
0
 10
165.9289
 20
55.7864
  0
VERTEX
  8
0
 10
165.9464
 20
55.7683
  0
VERTEX
  8
0
 10
165.9634
 20
55.749
  0
VERTEX
  8
0
 10
165.98
 20
55.7284
  0
VERTEX
  8
0
 10
165.9961
 20
55.7065
  0
VERTEX
  8
0
 10
166.0118
 20
55.6834
  0
VERTEX
  8
0
 10
166.027
 20
55.6591
  0
VERTEX
  8
0
 10
166.0418
 20
55.6335
  0
VERTEX
  8
0
 10
166.0561
 20
55.6066
  0
VERTEX
  8
0
 10
166.07
 20
55.5785
  0
VERTEX
  8
0
 10
166.0835
 20
55.5492
  0
VERTEX
  8
0
 10
166.0964
 20
55.5186
  0
VERTEX
  8
0
 10
166.109
 20
55.4867
  0
VERTEX
  8
0
 10
166.1211
 20
55.4536
  0
VERTEX
  8
0
 10
166.1327
 20
55.4193
  0
VERTEX
  8
0
 10
166.1439
 20
55.3837
  0
VERTEX
  8
0
 10
166.1546
 20
55.3469
  0
VERTEX
  8
0
 10
166.1649
 20
55.3088
  0
VERTEX
  8
0
 10
166.1851
 20
55.2242
  0
VERTEX
  8
0
 10
166.2029
 20
55.1356
  0
VERTEX
  8
0
 10
166.2183
 20
55.043
  0
VERTEX
  8
0
 10
166.2313
 20
54.9465
  0
VERTEX
  8
0
 10
166.242
 20
54.8461
  0
VERTEX
  8
0
 10
166.2503
 20
54.7417
  0
VERTEX
  8
0
 10
166.2562
 20
54.6333
  0
VERTEX
  8
0
 10
166.2597
 20
54.521
  0
VERTEX
  8
0
 10
166.2609
 20
54.4048
  0
VERTEX
  8
0
 10
166.2609
 20
54.4048
  0
SEQEND
  0
POLYLINE
  8
0
 66
     1
 10
0
 20
0
  0
VERTEX
  8
0
 10
167.2089
 20
56.3968
  0
VERTEX
  8
0
 10
167.2089
 20
53.5088
  0
VERTEX
  8
0
 10
167.211
 20
53.4523
  0
VERTEX
  8
0
 10
167.2152
 20
53.3968
  0
VERTEX
  8
0
 10
167.2216
 20
53.3422
  0
VERTEX
  8
0
 10
167.2302
 20
53.2886
  0
VERTEX
  8
0
 10
167.241
 20
53.2359
  0
VERTEX
  8
0
 10
167.2539
 20
53.1841
  0
VERTEX
  8
0
 10
167.2691
 20
53.1333
  0
VERTEX
  8
0
 10
167.2864
 20
53.0834
  0
VERTEX
  8
0
 10
167.306
 20
53.0344
  0
VERTEX
  8
0
 10
167.3277
 20
52.9864
  0
VERTEX
  8
0
 10
167.3516
 20
52.9394
  0
VERTEX
  8
0
 10
167.3777
 20
52.8933
  0
VERTEX
  8
0
 10
167.4059
 20
52.8481
  0
VERTEX
  8
0
 10
167.4364
 20
52.8039
  0
VERTEX
  8
0
 10
167.4691
 20
52.7606
  0
VERTEX
  8
0
 10
167.5039
 20
52.7182
  0
VERTEX
  8
0
 10
167.5409
 20
52.6768
  0
VERTEX
  8
0
 10
167.5755
 20
52.6411
  0
VERTEX
  8
0
 10
167.6109
 20
52.6074
  0
VERTEX
  8
0
 10
167.6471
 20
52.5756
  0
VERTEX
  8
0
 10
167.6843
 20
52.5457
  0
VERTEX
  8
0
 10
167.7223
 20
52.5177
  0
VERTEX
  8
0
 10
167.7611
 20
52.4917
  0
VERTEX
  8
0
 10
167.8008
 20
52.4676
  0
VERTEX
  8
0
 10
167.8414
 20
52.4454
  0
VERTEX
  8
0
 10
167.8829
 20
52.4252
  0
VERTEX
  8
0
 10
167.9252
 20
52.4069
  0
VERTEX
  8
0
 10
167.9684
 20
52.3905
  0
VERTEX
  8
0
 10
168.0124
 20
52.376
  0
VERTEX
  8
0
 10
168.0573
 20
52.3635
  0
VERTEX
  8
0
 10
168.1031
 20
52.3529
  0
VERTEX
  8
0
 10
168.1497
 20
52.3442
  0
VERTEX
  8
0
 10
168.1972
 20
52.3375
  0
VERTEX
  8
0
 10
168.2456
 20
52.3326
  0
VERTEX
  8
0
 10
168.2948
 20
52.3298
  0
VERTEX
  8
0
 10
168.3449
 20
52.3288
  0
VERTEX
  8
0
 10
168.3938
 20
52.3298
  0
VERTEX
  8
0
 10
168.4419
 20
52.3328
  0
VERTEX
  8
0
 10
168.4891
 20
52.3379
  0
VERTEX
  8
0
 10
168.5356
 20
52.3449
  0
VERTEX
  8
0
 10
168.5813
 20
52.354
  0
VERTEX
  8
0
 10
168.6261
 20
52.3651
  0
VERTEX
  8
0
 10
168.6702
 20
52.3782
  0
VERTEX
  8
0
 10
168.7135
 20
52.3933
  0
VERTEX
  8
0
 10
168.756
 20
52.4105
  0
VERTEX
  8
0
 10
168.7977
 20
52.4296
  0
VERTEX
  8
0
 10
168.8386
 20
52.4508
  0
VERTEX
  8
0
 10
168.8786
 20
52.474
  0
VERTEX
  8
0
 10
168.9179
 20
52.4992
  0
VERTEX
  8
0
 10
168.9564
 20
52.5264
  0
VERTEX
  8
0
 10
168.9941
 20
52.5557
  0
VERTEX
  8
0
 10
169.031
 20
52.5869
  0
VERTEX
  8
0
 10
169.0671
 20
52.6202
  0
VERTEX
  8
0
 10
169.1024
 20
52.6555
  0
VERTEX
  8
0
 10
169.1369
 20
52.6928
  0
VERTEX
  8
0
 10
169.1747
 20
52.7373
  0
VERTEX
  8
0
 10
169.21
 20
52.7827
  0
VERTEX
  8
0
 10
169.243
 20
52.8292
  0
VERTEX
  8
0
 10
169.2734
 20
52.8765
  0
VERTEX
  8
0
 10
169.3015
 20
52.9249
  0
VERTEX
  8
0
 10
169.327
 20
52.9742
  0
VERTEX
  8
0
 10
169.3502
 20
53.0245
  0
VERTEX
  8
0
 10
169.3709
 20
53.0758
  0
VERTEX
  8
0
 10
169.3892
 20
53.128
  0
VERTEX
  8
0
 10
169.405
 20
53.1812
  0
VERTEX
  8
0
 10
169.4185
 20
53.2354
  0
VERTEX
  8
0
 10
169.4294
 20
53.2905
  0
VERTEX
  8
0
 10
169.438
 20
53.3467
  0
VERTEX
  8
0
 10
169.444
 20
53.4037
  0
VERTEX
  8
0
 10
169.4477
 20
53.4618
  0
VERTEX
  8
0
 10
169.4489
 20
53.5208
  0
VERTEX
  8
0
 10
169.4489
 20
56.3968
  0
VERTEX
  8
0
 10
168.8769
 20
56.3968
  0
VERTEX
  8
0
 10
168.8769
 20
53.5328
  0
VERTEX
  8
0
 10
168.8747
 20
53.4654
  0
VERTEX
  8
0
 10
168.8682
 20
53.4013
  0
VERTEX
  8
0
 10
168.8572
 20
53.3404
  0
VERTEX
  8
0
 10
168.8419
 20
53.2828
  0
VERTEX
  8
0
 10
168.8222
 20
53.2284
  0
VERTEX
  8
0
 10
168.7982
 20
53.1773
  0
VERTEX
  8
0
 10
168.7697
 20
53.1294
  0
VERTEX
  8
0
 10
168.7369
 20
53.0848
  0
VERTEX
  8
0
 10
168.7083
 20
53.0515
  0
VERTEX
  8
0
 10
168.6778
 20
53.0213
  0
VERTEX
  8
0
 10
168.6454
 20
52.9943
  0
VERTEX
  8
0
 10
168.611
 20
52.9705
  0
VERTEX
  8
0
 10
168.5748
 20
52.9499
  0
VERTEX
  8
0
 10
168.5366
 20
52.9325
  0
VERTEX
  8
0
 10
168.4965
 20
52.9182
  0
VERTEX
  8
0
 10
168.4545
 20
52.9071
  0
VERTEX
  8
0
 10
168.4105
 20
52.8991
  0
VERTEX
  8
0
 10
168.3647
 20
52.8944
  0
VERTEX
  8
0
 10
168.3169
 20
52.8928
  0
VERTEX
  8
0
 10
168.272
 20
52.8944
  0
VERTEX
  8
0
 10
168.2287
 20
52.8994
  0
VERTEX
  8
0
 10
168.1872
 20
52.9077
  0
VERTEX
  8
0
 10
168.1474
 20
52.9192
  0
VERTEX
  8
0
 10
168.1093
 20
52.9341
  0
VERTEX
  8
0
 10
168.073
 20
52.9523
  0
VERTEX
  8
0
 10
168.0383
 20
52.9738
  0
VERTEX
  8
0
 10
168.0054
 20
52.9986
  0
VERTEX
  8
0
 10
167.9742
 20
53.0267
  0
VERTEX
  8
0
 10
167.9447
 20
53.0581
  0
VERTEX
  8
0
 10
167.9169
 20
53.0928
  0
VERTEX
  8
0
 10
167.8808
 20
53.1459
  0
VERTEX
  8
0
 10
167.8503
 20
53.2022
  0
VERTEX
  8
0
 10
167.8253
 20
53.2618
  0
VERTEX
  8
0
 10
167.8059
 20
53.3246
  0
VERTEX
  8
0
 10
167.792
 20
53.3908
  0
VERTEX
  8
0
 10
167.7837
 20
53.4601
  0
VERTEX
  8
0
 10
167.7809
 20
53.5328
  0
VERTEX
  8
0
 10
167.7809
 20
56.3968
  0
VERTEX
  8
0
 10
167.2089
 20
56.3968
  0
SEQEND
  0
POLYLINE
  8
0
 66
     1
 10
0
 20
0
  0
VERTEX
  8
0
 10
170.4529
 20
52.3968
  0
VERTEX
  8
0
 10
171.0289
 20
52.3968
  0
VERTEX
  8
0
 10
171.0289
 20
55.8648
  0
VERTEX
  8
0
 10
171.7689
 20
55.8648
  0
VERTEX
  8
0
 10
171.7689
 20
56.3968
  0
VERTEX
  8
0
 10
169.7289
 20
56.3968
  0
VERTEX
  8
0
 10
169.7289
 20
55.8648
  0
VERTEX
  8
0
 10
170.4529
 20
55.8648
  0
VERTEX
  8
0
 10
170.4529
 20
52.3968
  0
SEQEND
  0
POLYLINE
  8
0
 66
     1
 10
0
 20
0
  0
VERTEX
  8
0
 10
174.0889
 20
52.9648
  0
VERTEX
  8
0
 10
172.6289
 20
52.9648
  0
VERTEX
  8
0
 10
172.6289
 20
54.2848
  0
VERTEX
  8
0
 10
173.4569
 20
54.2848
  0
VERTEX
  8
0
 10
173.4569
 20
54.8288
  0
VERTEX
  8
0
 10
172.6289
 20
54.8288
  0
VERTEX
  8
0
 10
172.6289
 20
55.8368
  0
VERTEX
  8
0
 10
173.9369
 20
55.8368
  0
VERTEX
  8
0
 10
173.9369
 20
56.3968
  0
VERTEX
  8
0
 10
172.0489
 20
56.3968
  0
VERTEX
  8
0
 10
172.0489
 20
52.3968
  0
VERTEX
  8
0
 10
174.0889
 20
52.3968
  0
VERTEX
  8
0
 10
174.0889
 20
52.9648
  0
SEQEND
  0
ENDSEC
  0
EOF