  0
SECTION
  2
HEADER
  9
$ACADVER
  1
AC1009
  0
ENDSEC
  0
SECTION
  2
TABLES
  0
TABLE
  2
STYLE
 70
   5
  0
STYLE
  2
STANDARD
 70
    64
 40
0.0
 41
1.0
 50
0.0
 71
     0
 42
1.0
  3
txt
  4

  0
STYLE
  2
HIGHWAYEMOD2K
 70
    64
 40
0.0
 41
1.0
 50
0.0
 71
     0
 42
1.0
  3
Highway E Mod 2K
  4

  0
STYLE
  2
HIGHWAYSIGNCADPLUS
 70
    64
 40
0.0
 41
1.0
 50
0.0
 71
     0
 42
1.0
  3
Highway SignCAD Plus
  4

  0
STYLE
  2
HIGHWAYC2K
 70
    64
 40
0.0
 41
1.0
 50
0.0
 71
     0
 42
1.0
  3
Highway C 2K
  4

  0
STYLE
  2
HIGHWAYD2K
 70
    64
 40
0.0
 41
1.0
 50
0.0
 71
     0
 42
1.0
  3
Highway D 2K
  4

  0
ENDTAB
  0
ENDSEC
  0
SECTION
  2
ENTITIES
  0
ARC
  8
0
 10
183.8558
 20
133.6913
 40
2.25
 50
0
 51
90
  0
LINE
  8
0
 10
183.8558
 20
135.9413
 11
152.3558
 21
135.9413
  0
ARC
  8
0
 10
152.3558
 20
133.6913
 40
2.25
 50
90
 51
180
  0
LINE
  8
0
 10
150.1058
 20
133.6913
 11
150.1058
 21
102.1913
  0
ARC
  8
0
 10
152.3558
 20
102.1913
 40
2.25
 50
180
 51
270
  0
LINE
  8
0
 10
152.3558
 20
99.9413
 11
183.8558
 21
99.9413
  0
ARC
  8
0
 10
183.8558
 20
102.1913
 40
2.25
 50
270
 51
360
  0
LINE
  8
0
 10
186.1058
 20
102.1913
 11
186.1058
 21
133.6913
  0
ARC
  8
0
 10
183.8558
 20
133.6913
 40
1.75
 50
0
 51
90
  0
ARC
  8
0
 10
183.8558
 20
133.6913
 40
1
 50
0
 51
90
  0
ARC
  8
0
 10
152.3558
 20
133.6913
 40
1.75
 50
90
 51
180
  0
ARC
  8
0
 10
152.3558
 20
133.6913
 40
1
 50
90
 51
180
  0
ARC
  8
0
 10
152.3558
 20
102.1913
 40
1.75
 50
180
 51
270
  0
ARC
  8
0
 10
152.3558
 20
102.1913
 40
1
 50
180
 51
270
  0
ARC
  8
0
 10
183.8558
 20
102.1913
 40
1.75
 50
270
 51
360
  0
ARC
  8
0
 10
183.8558
 20
102.1913
 40
1
 50
270
 51
360
  0
POLYLINE
  8
0
 66
     1
 10
0
 20
0
  0
VERTEX
  8
0
 10
183.8558
 20
135.4413
  0
VERTEX
  8
0
 10
152.3558
 20
135.4413
  0
SEQEND
  0
POLYLINE
  8
0
 66
     1
 10
0
 20
0
  0
VERTEX
  8
0
 10
152.3558
 20
134.6913
  0
VERTEX
  8
0
 10
183.8558
 20
134.6913
  0
SEQEND
  0
POLYLINE
  8
0
 66
     1
 10
0
 20
0
  0
VERTEX
  8
0
 10
150.6058
 20
133.6913
  0
VERTEX
  8
0
 10
150.6058
 20
102.1913
  0
SEQEND
  0
POLYLINE
  8
0
 66
     1
 10
0
 20
0
  0
VERTEX
  8
0
 10
151.3558
 20
102.1913
  0
VERTEX
  8
0
 10
151.3558
 20
133.6913
  0
SEQEND
  0
POLYLINE
  8
0
 66
     1
 10
0
 20
0
  0
VERTEX
  8
0
 10
152.3558
 20
100.4413
  0
VERTEX
  8
0
 10
183.8558
 20
100.4413
  0
SEQEND
  0
POLYLINE
  8
0
 66
     1
 10
0
 20
0
  0
VERTEX
  8
0
 10
183.8558
 20
101.1913
  0
VERTEX
  8
0
 10
152.3558
 20
101.1913
  0
SEQEND
  0
POLYLINE
  8
0
 66
     1
 10
0
 20
0
  0
VERTEX
  8
0
 10
185.6058
 20
102.1913
  0
VERTEX
  8
0
 10
185.6058
 20
133.6913
  0
SEQEND
  0
POLYLINE
  8
0
 66
     1
 10
0
 20
0
  0
VERTEX
  8
0
 10
184.8558
 20
133.6913
  0
VERTEX
  8
0
 10
184.8558
 20
102.1913
  0
SEQEND
  0
TEXT
  8
0
 10
188.0058
 20
134.1711
 40
0.8
  1
3
 50
90
  7
HIGHWAYSIGNCADPLUS
 72
1
 11
188.0058
 21
134.4413
  0
LINE
  8
0
 10
187.6058
 20
134.9115
 11
187.6058
 21
135.9413
  0
LINE
  8
0
 10
187.7847
 20
135.5835
 11
187.6058
 21
135.9413
  0
LINE
  8
0
 10
187.4269
 20
135.5835
 11
187.6058
 21
135.9413
  0
LINE
  8
0
 10
187.8058
 20
135.9413
 11
186.6058
 21
135.9413
  0
LINE
  8
0
 10
187.6058
 20
133.9711
 11
187.6058
 21
132.9413
  0
LINE
  8
0
 10
187.4269
 20
133.2991
 11
187.6058
 21
132.9413
  0
LINE
  8
0
 10
187.7847
 20
133.2991
 11
187.6058
 21
132.9413
  0
LINE
  8
0
 10
187.8058
 20
132.9413
 11
186.6058
 21
132.9413
  0
TEXT
  8
0
 10
188.0058
 20
117.3507
 40
0.8
  1
30
 50
90
  7
HIGHWAYSIGNCADPLUS
 72
1
 11
188.0058
 21
117.9413
  0
LINE
  8
0
 10
187.6058
 20
118.7319
 11
187.6058
 21
132.9413
  0
LINE
  8
0
 10
187.7847
 20
132.5835
 11
187.6058
 21
132.9413
  0
LINE
  8
0
 10
187.4269
 20
132.5835
 11
187.6058
 21
132.9413
  0
LINE
  8
0
 10
187.6058
 20
117.1507
 11
187.6058
 21
102.9413
  0
LINE
  8
0
 10
187.4269
 20
103.2991
 11
187.6058
 21
102.9413
  0
LINE
  8
0
 10
187.7847
 20
103.2991
 11
187.6058
 21
102.9413
  0
LINE
  8
0
 10
187.8058
 20
102.9413
 11
186.6058
 21
102.9413
  0
TEXT
  8
0
 10
151.3356
 20
98.0413
 40
0.8
  1
3
  7
HIGHWAYSIGNCADPLUS
 72
1
 11
151.6058
 21
98.0413
  0
LINE
  8
0
 10
152.076
 20
98.4413
 11
153.1058
 21
98.4413
  0
LINE
  8
0
 10
152.748
 20
98.2624
 11
153.1058
 21
98.4413
  0
LINE
  8
0
 10
152.748
 20
98.6202
 11
153.1058
 21
98.4413
  0
LINE
  8
0
 10
153.1058
 20
98.2413
 11
153.1058
 21
99.4413
  0
LINE
  8
0
 10
151.1356
 20
98.4413
 11
150.1058
 21
98.4413
  0
LINE
  8
0
 10
150.4636
 20
98.6202
 11
150.1058
 21
98.4413
  0
LINE
  8
0
 10
150.4636
 20
98.2624
 11
150.1058
 21
98.4413
  0
LINE
  8
0
 10
150.1058
 20
98.2413
 11
150.1058
 21
99.4413
  0
TEXT
  8
0
 10
167.5152
 20
98.0413
 40
0.8
  1
30
  7
HIGHWAYSIGNCADPLUS
 72
1
 11
168.1058
 21
98.0413
  0
LINE
  8
0
 10
168.8964
 20
98.4413
 11
183.1058
 21
98.4413
  0
LINE
  8
0
 10
182.748
 20
98.2624
 11
183.1058
 21
98.4413
  0
LINE
  8
0
 10
182.748
 20
98.6202
 11
183.1058
 21
98.4413
  0
LINE
  8
0
 10
183.1058
 20
98.2413
 11
183.1058
 21
99.4413
  0
LINE
  8
0
 10
167.3152
 20
98.4413
 11
153.1058
 21
98.4413
  0
LINE
  8
0
 10
153.4636
 20
98.6202
 11
153.1058
 21
98.4413
  0
LINE
  8
0
 10
153.4636
 20
98.2624
 11
153.1058
 21
98.4413
  0
TEXT
  8
0
 10
184.3356
 20
98.0413
 40
0.8
  1
3
  7
HIGHWAYSIGNCADPLUS
 72
1
 11
184.6058
 21
98.0413
  0
LINE
  8
0
 10
185.076
 20
98.4413
 11
186.1058
 21
98.4413
  0
LINE
  8
0
 10
185.748
 20
98.2624
 11
186.1058
 21
98.4413
  0
LINE
  8
0
 10
185.748
 20
98.6202
 11
186.1058
 21
98.4413
  0
LINE
  8
0
 10
186.1058
 20
98.2413
 11
186.1058
 21
99.4413
  0
LINE
  8
0
 10
184.1356
 20
98.4413
 11
183.1058
 21
98.4413
  0
LINE
  8
0
 10
183.4636
 20
98.6202
 11
183.1058
 21
98.4413
  0
LINE
  8
0
 10
183.4636
 20
98.2624
 11
183.1058
 21
98.4413
  0
LINE
  8
0
 10
183.1058
 20
98.2413
 11
183.1058
 21
99.4413
  0
TEXT
  8
0
 10
188.0058
 20
101.1711
 40
0.8
  1
3
 50
90
  7
HIGHWAYSIGNCADPLUS
 72
1
 11
188.0058
 21
101.4413
  0
LINE
  8
0
 10
187.6058
 20
101.9115
 11
187.6058
 21
102.9413
  0
LINE
  8
0
 10
187.7847
 20
102.5835
 11
187.6058
 21
102.9413
  0
LINE
  8
0
 10
187.4269
 20
102.5835
 11
187.6058
 21
102.9413
  0
LINE
  8
0
 10
187.8058
 20
102.9413
 11
186.6058
 21
102.9413
  0
LINE
  8
0
 10
187.6058
 20
100.9711
 11
187.6058
 21
99.9413
  0
LINE
  8
0
 10
187.4269
 20
100.2991
 11
187.6058
 21
99.9413
  0
LINE
  8
0
 10
187.7847
 20
100.2991
 11
187.6058
 21
99.9413
  0
LINE
  8
0
 10
187.8058
 20
99.9413
 11
186.6058
 21
99.9413
  0
TEXT
  8
0
 10
190.0058
 20
117.3444
 40
0.8
  1
36
 50
90
  7
HIGHWAYSIGNCADPLUS
 72
1
 11
190.0058
 21
117.9413
  0
LINE
  8
0
 10
189.6058
 20
118.7382
 11
189.6058
 21
135.9413
  0
LINE
  8
0
 10
189.7847
 20
135.5835
 11
189.6058
 21
135.9413
  0
LINE
  8
0
 10
189.4269
 20
135.5835
 11
189.6058
 21
135.9413
  0
LINE
  8
0
 10
189.8058
 20
135.9413
 11
186.3058
 21
135.9413
  0
LINE
  8
0
 10
189.6058
 20
117.1444
 11
189.6058
 21
99.9413
  0
LINE
  8
0
 10
189.4269
 20
100.2991
 11
189.6058
 21
99.9413
  0
LINE
  8
0
 10
189.7847
 20
100.2991
 11
189.6058
 21
99.9413
  0
LINE
  8
0
 10
189.8058
 20
99.9413
 11
186.3058
 21
99.9413
  0
TEXT
  8
0
 10
167.5089
 20
96.0413
 40
0.8
  1
36
  7
HIGHWAYSIGNCADPLUS
 72
1
 11
168.1058
 21
96.0413
  0
LINE
  8
0
 10
168.9027
 20
96.4413
 11
186.1058
 21
96.4413
  0
LINE
  8
0
 10
185.748
 20
96.2624
 11
186.1058
 21
96.4413
  0
LINE
  8
0
 10
185.748
 20
96.6202
 11
186.1058
 21
96.4413
  0
LINE
  8
0
 10
186.1058
 20
96.2413
 11
186.1058
 21
99.7413
  0
LINE
  8
0
 10
167.3089
 20
96.4413
 11
150.1058
 21
96.4413
  0
LINE
  8
0
 10
150.4636
 20
96.6202
 11
150.1058
 21
96.4413
  0
LINE
  8
0
 10
150.4636
 20
96.2624
 11
150.1058
 21
96.4413
  0
LINE
  8
0
 10
150.1058
 20
96.2413
 11
150.1058
 21
99.7413
  0
TEXT
  8
0
 10
150.1058
 20
94.8413
 40
0.8
  1
EM-1; 2.25" Radius, 0.75" Border, 0.50" Indent, Blue on White; 
  7
HIGHWAYSIGNCADPLUS
 73
1
 11
150.1058
 21
94.4413
  0
TEXT
  8
0
 10
150.1058
 20
93.2413
 40
0.8
  1
Rounded Rectangle 15.00" Radius; 
  7
HIGHWAYSIGNCADPLUS
 73
1
 11
150.1058
 21
92.8413
  0
ARC
  8
0
 10
168.1058
 20
117.9413
 40
15
 50
180
 51
270
  0
ARC
  8
0
 10
168.1058
 20
117.9413
 40
15
 50
270
 51
360
  0
ARC
  8
0
 10
168.1058
 20
117.9413
 40
15
 50
0
 51
90
  0
ARC
  8
0
 10
168.1058
 20
117.9413
 40
15
 50
90
 51
180
  0
ARC
  8
0
 10
168.5433
 20
128.9413
 40
0.5625
 50
59.0362
 51
200.1658
  0
ARC
  8
0
 10
168.5433
 20
122.9413
 40
0.5625
 50
159.8342
 51
300.9638
  0
POLYLINE
  8
0
 66
     1
 10
0
 20
0
  0
VERTEX
  8
0
 10
174.1058
 20
125.9413
  0
VERTEX
  8
0
 10
168.8327
 20
129.4236
  0
SEQEND
  0
POLYLINE
  8
0
 66
     1
 10
0
 20
0
  0
VERTEX
  8
0
 10
168.0153
 20
128.7474
  0
VERTEX
  8
0
 10
168.5409
 20
127.3163
  0
SEQEND
  0
POLYLINE
  8
0
 66
     1
 10
0
 20
0
  0
VERTEX
  8
0
 10
168.5409
 20
124.5663
  0
VERTEX
  8
0
 10
168.0153
 20
123.1352
  0
SEQEND
  0
POLYLINE
  8
0
 66
     1
 10
0
 20
0
  0
VERTEX
  8
0
 10
168.8327
 20
122.459
  0
VERTEX
  8
0
 10
174.1058
 20
125.9413
  0
SEQEND
  0
POLYLINE
  8
0
 66
     1
 10
0
 20
0
  0
VERTEX
  8
0
 10
162.1058
 20
124.5663
  0
VERTEX
  8
0
 10
162.1058
 20
127.3163
  0
VERTEX
  8
0
 10
168.5409
 20
127.3163
  0
SEQEND
  0
POLYLINE
  8
0
 66
     1
 10
0
 20
0
  0
VERTEX
  8
0
 10
168.5409
 20
124.5663
  0
VERTEX
  8
0
 10
162.1058
 20
124.5663
  0
SEQEND
  0
TEXT
  8
0
 10
156.8408
 20
115.3788
 40
4
  1
E
  7
HIGHWAYC2K
  0
TEXT
  8
0
 10
158.9708
 20
115.3788
 40
4
  1
V
  7
HIGHWAYC2K
  0
TEXT
  8
0
 10
161.5108
 20
115.3788
 40
4
  1
A
  7
HIGHWAYC2K
  0
TEXT
  8
0
 10
164.1908
 20
115.3788
 40
4
  1
C
  7
HIGHWAYC2K
  0
TEXT
  8
0
 10
166.6308
 20
115.3788
 40
4
  1
U
  7
HIGHWAYC2K
  0
TEXT
  8
0
 10
169.0108
 20
115.3788
 40
4
  1
A
  7
HIGHWAYC2K
  0
TEXT
  8
0
 10
171.6308
 20
115.3788
 40
4
  1
T
  7
HIGHWAYC2K
  0
TEXT
  8
0
 10
173.8108
 20
115.3788
 40
4
  1
I
  7
HIGHWAYC2K
  0
TEXT
  8
0
 10
174.5708
 20
115.3788
 40
4
  1
O
  7
HIGHWAYC2K
  0
TEXT
  8
0
 10
177.1308
 20
115.3788
 40
4
  1
N
  7
HIGHWAYC2K
  0
TEXT
  8
0
 10
162.0158
 20
108.3788
 40
4
  1
R
  7
HIGHWAYC2K
  0
TEXT
  8
0
 10
164.5558
 20
108.3788
 40
4
  1
O
  7
HIGHWAYC2K
  0
TEXT
  8
0
 10
167.3158
 20
108.3788
 40
4
  1
U
  7
HIGHWAYC2K
  0
TEXT
  8
0
 10
169.8358
 20
108.3788
 40
4
  1
T
  7
HIGHWAYC2K
  0
TEXT
  8
0
 10
172.1558
 20
108.3788
 40
4
  1
E
  7
HIGHWAYC2K
  0
ENDSEC
  0
EOF