  0
SECTION
  2
HEADER
  9
$ACADVER
  1
AC1009
  0
ENDSEC
  0
SECTION
  2
TABLES
  0
TABLE
  2
STYLE
 70
   5
  0
STYLE
  2
STANDARD
 70
    64
 40
0.0
 41
1.0
 50
0.0
 71
     0
 42
1.0
  3
txt
  4

  0
STYLE
  2
HIGHWAYEMOD2K
 70
    64
 40
0.0
 41
1.0
 50
0.0
 71
     0
 42
1.0
  3
Highway E Mod 2K
  4

  0
STYLE
  2
HIGHWAYSIGNCADPLUS
 70
    64
 40
0.0
 41
1.0
 50
0.0
 71
     0
 42
1.0
  3
Highway SignCAD Plus
  4

  0
STYLE
  2
HIGHWAYC2K
 70
    64
 40
0.0
 41
1.0
 50
0.0
 71
     0
 42
1.0
  3
Highway C 2K
  4

  0
STYLE
  2
HIGHWAYD2K
 70
    64
 40
0.0
 41
1.0
 50
0.0
 71
     0
 42
1.0
  3
Highway D 2K
  4

  0
ENDTAB
  0
ENDSEC
  0
SECTION
  2
ENTITIES
  0
ARC
  8
0
 10
183.9616
 20
185.2413
 40
2.25
 50
0
 51
90
  0
LINE
  8
0
 10
183.9616
 20
187.4913
 11
152.4616
 21
187.4913
  0
ARC
  8
0
 10
152.4616
 20
185.2413
 40
2.25
 50
90
 51
180
  0
LINE
  8
0
 10
150.2116
 20
185.2413
 11
150.2116
 21
153.7413
  0
ARC
  8
0
 10
152.4616
 20
153.7413
 40
2.25
 50
180
 51
270
  0
LINE
  8
0
 10
152.4616
 20
151.4913
 11
183.9616
 21
151.4913
  0
ARC
  8
0
 10
183.9616
 20
153.7413
 40
2.25
 50
270
 51
360
  0
LINE
  8
0
 10
186.2116
 20
153.7413
 11
186.2116
 21
185.2413
  0
ARC
  8
0
 10
183.9616
 20
185.2413
 40
1.75
 50
0
 51
90
  0
ARC
  8
0
 10
183.9616
 20
185.2413
 40
1
 50
0
 51
90
  0
ARC
  8
0
 10
152.4616
 20
185.2413
 40
1.75
 50
90
 51
180
  0
ARC
  8
0
 10
152.4616
 20
185.2413
 40
1
 50
90
 51
180
  0
ARC
  8
0
 10
152.4616
 20
153.7413
 40
1.75
 50
180
 51
270
  0
ARC
  8
0
 10
152.4616
 20
153.7413
 40
1
 50
180
 51
270
  0
ARC
  8
0
 10
183.9616
 20
153.7413
 40
1.75
 50
270
 51
360
  0
ARC
  8
0
 10
183.9616
 20
153.7413
 40
1
 50
270
 51
360
  0
POLYLINE
  8
0
 66
     1
 10
0
 20
0
  0
VERTEX
  8
0
 10
183.9616
 20
186.9913
  0
VERTEX
  8
0
 10
152.4616
 20
186.9913
  0
SEQEND
  0
POLYLINE
  8
0
 66
     1
 10
0
 20
0
  0
VERTEX
  8
0
 10
152.4616
 20
186.2413
  0
VERTEX
  8
0
 10
183.9616
 20
186.2413
  0
SEQEND
  0
POLYLINE
  8
0
 66
     1
 10
0
 20
0
  0
VERTEX
  8
0
 10
150.7116
 20
185.2413
  0
VERTEX
  8
0
 10
150.7116
 20
153.7413
  0
SEQEND
  0
POLYLINE
  8
0
 66
     1
 10
0
 20
0
  0
VERTEX
  8
0
 10
151.4616
 20
153.7413
  0
VERTEX
  8
0
 10
151.4616
 20
185.2413
  0
SEQEND
  0
POLYLINE
  8
0
 66
     1
 10
0
 20
0
  0
VERTEX
  8
0
 10
152.4616
 20
151.9913
  0
VERTEX
  8
0
 10
183.9616
 20
151.9913
  0
SEQEND
  0
POLYLINE
  8
0
 66
     1
 10
0
 20
0
  0
VERTEX
  8
0
 10
183.9616
 20
152.7413
  0
VERTEX
  8
0
 10
152.4616
 20
152.7413
  0
SEQEND
  0
POLYLINE
  8
0
 66
     1
 10
0
 20
0
  0
VERTEX
  8
0
 10
185.7116
 20
153.7413
  0
VERTEX
  8
0
 10
185.7116
 20
185.2413
  0
SEQEND
  0
POLYLINE
  8
0
 66
     1
 10
0
 20
0
  0
VERTEX
  8
0
 10
184.9616
 20
185.2413
  0
VERTEX
  8
0
 10
184.9616
 20
153.7413
  0
SEQEND
  0
TEXT
  8
0
 10
188.1116
 20
185.7211
 40
0.8
  1
3
 50
90
  7
HIGHWAYSIGNCADPLUS
 72
1
 11
188.1116
 21
185.9913
  0
LINE
  8
0
 10
187.7116
 20
186.4615
 11
187.7116
 21
187.4913
  0
LINE
  8
0
 10
187.8905
 20
187.1335
 11
187.7116
 21
187.4913
  0
LINE
  8
0
 10
187.5327
 20
187.1335
 11
187.7116
 21
187.4913
  0
LINE
  8
0
 10
187.9116
 20
187.4913
 11
186.7116
 21
187.4913
  0
LINE
  8
0
 10
187.7116
 20
185.5211
 11
187.7116
 21
184.4913
  0
LINE
  8
0
 10
187.5327
 20
184.8491
 11
187.7116
 21
184.4913
  0
LINE
  8
0
 10
187.8905
 20
184.8491
 11
187.7116
 21
184.4913
  0
LINE
  8
0
 10
187.9116
 20
184.4913
 11
186.7116
 21
184.4913
  0
TEXT
  8
0
 10
188.1116
 20
168.9007
 40
0.8
  1
30
 50
90
  7
HIGHWAYSIGNCADPLUS
 72
1
 11
188.1116
 21
169.4913
  0
LINE
  8
0
 10
187.7116
 20
170.2819
 11
187.7116
 21
184.4913
  0
LINE
  8
0
 10
187.8905
 20
184.1335
 11
187.7116
 21
184.4913
  0
LINE
  8
0
 10
187.5327
 20
184.1335
 11
187.7116
 21
184.4913
  0
LINE
  8
0
 10
187.7116
 20
168.7007
 11
187.7116
 21
154.4913
  0
LINE
  8
0
 10
187.5327
 20
154.8491
 11
187.7116
 21
154.4913
  0
LINE
  8
0
 10
187.8905
 20
154.8491
 11
187.7116
 21
154.4913
  0
LINE
  8
0
 10
187.9116
 20
154.4913
 11
186.7116
 21
154.4913
  0
TEXT
  8
0
 10
151.4415
 20
149.5913
 40
0.8
  1
3
  7
HIGHWAYSIGNCADPLUS
 72
1
 11
151.7116
 21
149.5913
  0
LINE
  8
0
 10
152.1818
 20
149.9913
 11
153.2116
 21
149.9913
  0
LINE
  8
0
 10
152.8538
 20
149.8124
 11
153.2116
 21
149.9913
  0
LINE
  8
0
 10
152.8538
 20
150.1702
 11
153.2116
 21
149.9913
  0
LINE
  8
0
 10
153.2116
 20
149.7913
 11
153.2116
 21
150.9913
  0
LINE
  8
0
 10
151.2415
 20
149.9913
 11
150.2116
 21
149.9913
  0
LINE
  8
0
 10
150.5694
 20
150.1702
 11
150.2116
 21
149.9913
  0
LINE
  8
0
 10
150.5694
 20
149.8124
 11
150.2116
 21
149.9913
  0
LINE
  8
0
 10
150.2116
 20
149.7913
 11
150.2116
 21
150.9913
  0
TEXT
  8
0
 10
167.621
 20
149.5913
 40
0.8
  1
30
  7
HIGHWAYSIGNCADPLUS
 72
1
 11
168.2116
 21
149.5913
  0
LINE
  8
0
 10
169.0022
 20
149.9913
 11
183.2116
 21
149.9913
  0
LINE
  8
0
 10
182.8538
 20
149.8124
 11
183.2116
 21
149.9913
  0
LINE
  8
0
 10
182.8538
 20
150.1702
 11
183.2116
 21
149.9913
  0
LINE
  8
0
 10
183.2116
 20
149.7913
 11
183.2116
 21
150.9913
  0
LINE
  8
0
 10
167.421
 20
149.9913
 11
153.2116
 21
149.9913
  0
LINE
  8
0
 10
153.5694
 20
150.1702
 11
153.2116
 21
149.9913
  0
LINE
  8
0
 10
153.5694
 20
149.8124
 11
153.2116
 21
149.9913
  0
TEXT
  8
0
 10
184.4415
 20
149.5913
 40
0.8
  1
3
  7
HIGHWAYSIGNCADPLUS
 72
1
 11
184.7116
 21
149.5913
  0
LINE
  8
0
 10
185.1818
 20
149.9913
 11
186.2116
 21
149.9913
  0
LINE
  8
0
 10
185.8538
 20
149.8124
 11
186.2116
 21
149.9913
  0
LINE
  8
0
 10
185.8538
 20
150.1702
 11
186.2116
 21
149.9913
  0
LINE
  8
0
 10
186.2116
 20
149.7913
 11
186.2116
 21
150.9913
  0
LINE
  8
0
 10
184.2415
 20
149.9913
 11
183.2116
 21
149.9913
  0
LINE
  8
0
 10
183.5694
 20
150.1702
 11
183.2116
 21
149.9913
  0
LINE
  8
0
 10
183.5694
 20
149.8124
 11
183.2116
 21
149.9913
  0
LINE
  8
0
 10
183.2116
 20
149.7913
 11
183.2116
 21
150.9913
  0
TEXT
  8
0
 10
188.1116
 20
152.7211
 40
0.8
  1
3
 50
90
  7
HIGHWAYSIGNCADPLUS
 72
1
 11
188.1116
 21
152.9913
  0
LINE
  8
0
 10
187.7116
 20
153.4615
 11
187.7116
 21
154.4913
  0
LINE
  8
0
 10
187.8905
 20
154.1335
 11
187.7116
 21
154.4913
  0
LINE
  8
0
 10
187.5327
 20
154.1335
 11
187.7116
 21
154.4913
  0
LINE
  8
0
 10
187.9116
 20
154.4913
 11
186.7116
 21
154.4913
  0
LINE
  8
0
 10
187.7116
 20
152.5211
 11
187.7116
 21
151.4913
  0
LINE
  8
0
 10
187.5327
 20
151.8491
 11
187.7116
 21
151.4913
  0
LINE
  8
0
 10
187.8905
 20
151.8491
 11
187.7116
 21
151.4913
  0
LINE
  8
0
 10
187.9116
 20
151.4913
 11
186.7116
 21
151.4913
  0
TEXT
  8
0
 10
190.1116
 20
168.8944
 40
0.8
  1
36
 50
90
  7
HIGHWAYSIGNCADPLUS
 72
1
 11
190.1116
 21
169.4913
  0
LINE
  8
0
 10
189.7116
 20
170.2882
 11
189.7116
 21
187.4913
  0
LINE
  8
0
 10
189.8905
 20
187.1335
 11
189.7116
 21
187.4913
  0
LINE
  8
0
 10
189.5327
 20
187.1335
 11
189.7116
 21
187.4913
  0
LINE
  8
0
 10
189.9116
 20
187.4913
 11
186.4116
 21
187.4913
  0
LINE
  8
0
 10
189.7116
 20
168.6944
 11
189.7116
 21
151.4913
  0
LINE
  8
0
 10
189.5327
 20
151.8491
 11
189.7116
 21
151.4913
  0
LINE
  8
0
 10
189.8905
 20
151.8491
 11
189.7116
 21
151.4913
  0
LINE
  8
0
 10
189.9116
 20
151.4913
 11
186.4116
 21
151.4913
  0
TEXT
  8
0
 10
167.6147
 20
147.5913
 40
0.8
  1
36
  7
HIGHWAYSIGNCADPLUS
 72
1
 11
168.2116
 21
147.5913
  0
LINE
  8
0
 10
169.0085
 20
147.9913
 11
186.2116
 21
147.9913
  0
LINE
  8
0
 10
185.8538
 20
147.8124
 11
186.2116
 21
147.9913
  0
LINE
  8
0
 10
185.8538
 20
148.1702
 11
186.2116
 21
147.9913
  0
LINE
  8
0
 10
186.2116
 20
147.7913
 11
186.2116
 21
151.2913
  0
LINE
  8
0
 10
167.4147
 20
147.9913
 11
150.2116
 21
147.9913
  0
LINE
  8
0
 10
150.5694
 20
148.1702
 11
150.2116
 21
147.9913
  0
LINE
  8
0
 10
150.5694
 20
147.8124
 11
150.2116
 21
147.9913
  0
LINE
  8
0
 10
150.2116
 20
147.7913
 11
150.2116
 21
151.2913
  0
TEXT
  8
0
 10
150.2116
 20
146.3913
 40
0.8
  1
EM-1; 2.25" Radius, 0.75" Border, 0.50" Indent, Blue on White; 
  7
HIGHWAYSIGNCADPLUS
 73
1
 11
150.2116
 21
145.9913
  0
TEXT
  8
0
 10
150.2116
 20
144.7913
 40
0.8
  1
Rounded Rectangle 15.00" Radius; 
  7
HIGHWAYSIGNCADPLUS
 73
1
 11
150.2116
 21
144.3913
  0
ARC
  8
0
 10
168.2116
 20
169.4913
 40
15
 50
180
 51
270
  0
ARC
  8
0
 10
168.2116
 20
169.4913
 40
15
 50
270
 51
360
  0
ARC
  8
0
 10
168.2116
 20
169.4913
 40
15
 50
0
 51
90
  0
ARC
  8
0
 10
168.2116
 20
169.4913
 40
15
 50
90
 51
180
  0
ARC
  8
0
 10
167.7741
 20
174.4913
 40
0.5625
 50
239.0363
 51
380.1658
  0
ARC
  8
0
 10
167.7741
 20
180.4913
 40
0.5625
 50
339.8343
 51
480.9638
  0
POLYLINE
  8
0
 66
     1
 10
0
 20
0
  0
VERTEX
  8
0
 10
162.2116
 20
177.4913
  0
VERTEX
  8
0
 10
167.4847
 20
174.009
  0
SEQEND
  0
POLYLINE
  8
0
 66
     1
 10
0
 20
0
  0
VERTEX
  8
0
 10
168.3021
 20
174.6852
  0
VERTEX
  8
0
 10
167.7766
 20
176.1163
  0
SEQEND
  0
POLYLINE
  8
0
 66
     1
 10
0
 20
0
  0
VERTEX
  8
0
 10
167.7766
 20
178.8663
  0
VERTEX
  8
0
 10
168.3021
 20
180.2974
  0
SEQEND
  0
POLYLINE
  8
0
 66
     1
 10
0
 20
0
  0
VERTEX
  8
0
 10
167.4847
 20
180.9736
  0
VERTEX
  8
0
 10
162.2116
 20
177.4913
  0
SEQEND
  0
POLYLINE
  8
0
 66
     1
 10
0
 20
0
  0
VERTEX
  8
0
 10
174.2116
 20
178.8663
  0
VERTEX
  8
0
 10
174.2116
 20
176.1163
  0
VERTEX
  8
0
 10
167.7766
 20
176.1163
  0
SEQEND
  0
POLYLINE
  8
0
 66
     1
 10
0
 20
0
  0
VERTEX
  8
0
 10
167.7766
 20
178.8663
  0
VERTEX
  8
0
 10
174.2116
 20
178.8663
  0
SEQEND
  0
TEXT
  8
0
 10
156.9466
 20
166.9288
 40
4
  1
E
  7
HIGHWAYC2K
  0
TEXT
  8
0
 10
159.0766
 20
166.9288
 40
4
  1
V
  7
HIGHWAYC2K
  0
TEXT
  8
0
 10
161.6166
 20
166.9288
 40
4
  1
A
  7
HIGHWAYC2K
  0
TEXT
  8
0
 10
164.2966
 20
166.9288
 40
4
  1
C
  7
HIGHWAYC2K
  0
TEXT
  8
0
 10
166.7366
 20
166.9288
 40
4
  1
U
  7
HIGHWAYC2K
  0
TEXT
  8
0
 10
169.1166
 20
166.9288
 40
4
  1
A
  7
HIGHWAYC2K
  0
TEXT
  8
0
 10
171.7366
 20
166.9288
 40
4
  1
T
  7
HIGHWAYC2K
  0
TEXT
  8
0
 10
173.9166
 20
166.9288
 40
4
  1
I
  7
HIGHWAYC2K
  0
TEXT
  8
0
 10
174.6766
 20
166.9288
 40
4
  1
O
  7
HIGHWAYC2K
  0
TEXT
  8
0
 10
177.2366
 20
166.9288
 40
4
  1
N
  7
HIGHWAYC2K
  0
TEXT
  8
0
 10
162.1216
 20
159.9288
 40
4
  1
R
  7
HIGHWAYC2K
  0
TEXT
  8
0
 10
164.6616
 20
159.9288
 40
4
  1
O
  7
HIGHWAYC2K
  0
TEXT
  8
0
 10
167.4216
 20
159.9288
 40
4
  1
U
  7
HIGHWAYC2K
  0
TEXT
  8
0
 10
169.9416
 20
159.9288
 40
4
  1
T
  7
HIGHWAYC2K
  0
TEXT
  8
0
 10
172.2616
 20
159.9288
 40
4
  1
E
  7
HIGHWAYC2K
  0
ENDSEC
  0
EOF