  0
SECTION
  2
HEADER
  9
$ACADVER
  1
AC1009
  0
ENDSEC
  0
SECTION
  2
TABLES
  0
TABLE
  2
STYLE
 70
   1
  0
STYLE
  2
STANDARD
 70
    64
 40
0.0
 41
1.0
 50
0.0
 71
     0
 42
1.0
  3
txt
  4

  0
ENDTAB
  0
ENDSEC
  0
SECTION
  2
ENTITIES
  0
ARC
  8
0
 10
45.5
 20
20.2
 40
1.5
 50
180
 51
270
  0
ARC
  8
0
 10
60.5
 20
20.2
 40
1.5
 50
270
 51
360
  0
ARC
  8
0
 10
60.5
 20
77.2
 40
1.5
 50
0
 51
90
  0
ARC
  8
0
 10
45.5
 20
77.2
 40
1.5
 50
90
 51
180
  0
LINE
  8
0
 10
45.5
 20
18.7
 11
60.5
 21
18.7
  0
LINE
  8
0
 10
62
 20
20.2
 11
62
 21
77.2
  0
LINE
  8
0
 10
60.5
 20
78.7
 11
45.5
 21
78.7
  0
LINE
  8
0
 10
44
 20
77.2
 11
44
 21
20.2
  0
ARC
  8
0
 10
45.5
 20
20.2
 40
1.5
 50
180
 51
270
  0
ARC
  8
0
 10
45.5
 20
20.2
 40
0.75
 50
180
 51
270
  0
ARC
  8
0
 10
60.5
 20
20.2
 40
1.5
 50
270
 51
360
  0
ARC
  8
0
 10
60.5
 20
20.2
 40
0.75
 50
270
 51
360
  0
ARC
  8
0
 10
60.5
 20
77.2
 40
1.5
 50
0
 51
90
  0
ARC
  8
0
 10
60.5
 20
77.2
 40
0.75
 50
0
 51
90
  0
ARC
  8
0
 10
45.5
 20
77.2
 40
1.5
 50
90
 51
180
  0
ARC
  8
0
 10
45.5
 20
77.2
 40
0.75
 50
90
 51
180
  0
LINE
  8
0
 10
45.5
 20
19.45
 11
60.5
 21
19.45
  0
LINE
  8
0
 10
60.5
 20
18.7
 11
45.5
 21
18.7
  0
LINE
  8
0
 10
61.25
 20
20.2
 11
61.25
 21
77.2
  0
LINE
  8
0
 10
62
 20
77.2
 11
62
 21
20.2
  0
LINE
  8
0
 10
60.5
 20
77.95
 11
45.5
 21
77.95
  0
LINE
  8
0
 10
45.5
 20
78.7
 11
60.5
 21
78.7
  0
LINE
  8
0
 10
44.75
 20
77.2
 11
44.75
 21
20.2
  0
LINE
  8
0
 10
44
 20
20.2
 11
44
 21
77.2
  0
LINE
  8
0
 10
64.071
 20
77.3127
 11
64.071
 21
77.3797
  0
LINE
  8
0
 10
64.071
 20
77.3797
 11
64.9015
 21
77.3797
  0
LINE
  8
0
 10
64.9015
 20
77.3797
 11
64.9015
 21
77.2757
  0
LINE
  8
0
 10
64.9015
 20
77.2757
 11
64.2543
 21
77.2757
  0
LINE
  8
0
 10
64.2543
 20
77.2757
 11
64.323
 21
77.1843
  0
LINE
  8
0
 10
64.323
 20
77.1843
 11
64.3768
 21
77.0726
  0
LINE
  8
0
 10
64.3768
 20
77.0726
 11
64.2786
 21
77.0726
  0
LINE
  8
0
 10
64.2786
 20
77.0726
 11
64.2498
 21
77.1285
  0
LINE
  8
0
 10
64.2498
 20
77.1285
 11
64.2187
 21
77.178
  0
ARC
  8
0
 10
63.8479
 20
76.9254
 40
0.448628
 50
34.2592
 51
54.0312
  0
LINE
  8
0
 10
64.1114
 20
77.2885
 11
64.071
 21
77.3127
  0
LINE
  8
0
 10
64.7858
 20
77.8117
 11
64.9015
 21
77.8117
  0
LINE
  8
0
 10
64.9015
 20
77.8117
 11
64.9015
 21
77.6997
  0
LINE
  8
0
 10
64.9015
 20
77.6997
 11
64.7858
 21
77.6997
  0
LINE
  8
0
 10
64.7858
 20
77.6997
 11
64.7858
 21
77.8117
  0
ARC
  8
0
 10
64.2899
 20
78.1603
 40
0.168682
 50
268.0635
 51
345.0693
  0
ARC
  8
0
 10
64.2836
 20
78.2058
 40
0.214091
 50
173.4363
 51
270.1505
  0
ARC
  8
0
 10
64.3174
 20
78.2404
 40
0.246688
 50
129.4496
 51
182.3541
  0
ARC
  8
0
 10
64.2798
 20
78.2942
 40
0.181337
 50
17.3576
 51
131.0657
  0
ARC
  8
0
 10
64.675
 20
78.2746
 40
0.233992
 50
7.2743
 51
161.6651
  0
ARC
  8
0
 10
64.6566
 20
78.223
 40
0.263364
 50
271.2181
 51
377.9759
  0
ARC
  8
0
 10
64.6535
 20
78.1943
 40
0.234798
 50
243.4498
 51
272.1233
  0
ARC
  8
0
 10
64.6478
 20
78.1567
 40
0.198958
 50
191.5714
 51
240.0755
  0
ARC
  8
0
 10
64.2778
 20
78.2318
 40
0.136154
 50
271.2734
 51
446.3572
  0
ARC
  8
0
 10
64.2889
 20
78.2316
 40
0.136129
 50
91.0061
 51
266.6245
  0
ARC
  8
0
 10
64.666
 20
78.2317
 40
0.168015
 50
268.9119
 51
449.9159
  0
ARC
  8
0
 10
64.6649
 20
78.2317
 40
0.168009
 50
89.5489
 51
269.2788
  0
LINE
  8
0
 10
63.5
 20
77.7875
 11
63.5
 21
78.7
  0
LINE
  8
0
 10
63.6789
 20
78.3422
 11
63.5
 21
78.7
  0
LINE
  8
0
 10
63.3211
 20
78.3422
 11
63.5
 21
78.7
  0
LINE
  8
0
 10
63.7
 20
78.7
 11
62.5
 21
78.7
  0
LINE
  8
0
 10
63.5
 20
77.7875
 11
63.5
 21
76.875
  0
LINE
  8
0
 10
63.3211
 20
77.2328
 11
63.5
 21
76.875
  0
LINE
  8
0
 10
63.6789
 20
77.2328
 11
63.5
 21
76.875
  0
LINE
  8
0
 10
63.7
 20
76.875
 11
62.5
 21
76.875
  0
LINE
  8
0
 10
63.2498
 20
73.3807
 11
63.2577
 21
73.2797
  0
ARC
  8
0
 10
63.2908
 20
73.1463
 40
0.13742
 50
103.9305
 51
187.21
  0
ARC
  8
0
 10
63.3353
 20
73.1268
 40
0.180869
 50
179.2684
 51
256.0903
  0
ARC
  8
0
 10
63.4365
 20
73.3691
 40
0.442257
 50
250.9122
 51
261.9165
  0
LINE
  8
0
 10
63.3743
 20
72.9313
 11
63.4223
 21
72.9259
  0
LINE
  8
0
 10
63.4223
 20
72.9259
 11
63.4749
 21
72.9237
  0
ARC
  8
0
 10
63.6048
 20
73.1254
 40
0.239931
 50
83.2766
 51
237.2179
  0
ARC
  8
0
 10
63.6377
 20
73.0567
 40
0.307073
 50
50.0022
 51
90.8866
  0
ARC
  8
0
 10
63.6645
 20
73.1083
 40
0.250561
 50
354.0856
 51
407.1242
  0
ARC
  8
0
 10
63.6231
 20
73.0973
 40
0.291039
 50
340.2917
 51
357.0746
  0
ARC
  8
0
 10
63.6729
 20
73.0843
 40
0.239813
 50
290.8289
 51
339.1998
  0
ARC
  8
0
 10
63.5956
 20
73.2425
 40
0.415448
 50
283.0518
 51
293.0381
  0
ARC
  8
0
 10
63.5541
 20
73.4084
 40
0.586459
 50
278.0888
 51
283.3393
  0
ARC
  8
0
 10
63.5291
 20
73.5833
 40
0.763096
 50
273.6984
 51
278.1033
  0
LINE
  8
0
 10
63.5783
 20
72.8218
 11
63.547
 21
72.8202
  0
LINE
  8
0
 10
63.547
 20
72.8202
 11
63.5144
 21
72.8197
  0
LINE
  8
0
 10
63.5144
 20
72.8197
 11
63.4486
 21
72.8216
  0
LINE
  8
0
 10
63.4486
 20
72.8216
 11
63.3881
 21
72.8271
  0
LINE
  8
0
 10
63.3881
 20
72.8271
 11
63.3329
 21
72.8364
  0
ARC
  8
0
 10
63.4189
 20
73.2671
 40
0.439154
 50
240.0219
 51
258.7051
  0
ARC
  8
0
 10
63.3592
 20
73.1269
 40
0.288444
 50
123.6991
 51
236.3779
  0
LINE
  8
0
 10
63.1992
 20
73.3669
 11
63.2498
 21
73.3807
  0
ARC
  8
0
 10
63.6616
 20
73.097
 40
0.165271
 50
260.1877
 51
408.4953
  0
ARC
  8
0
 10
63.6422
 20
73.0269
 40
0.232837
 50
56.3749
 51
90.7697
  0
ARC
  8
0
 10
63.6184
 20
73.0972
 40
0.163788
 50
82.7321
 51
275.2882
  0
LINE
  8
0
 10
63.7858
 20
73.6357
 11
63.9015
 21
73.6357
  0
LINE
  8
0
 10
63.9015
 20
73.6357
 11
63.9015
 21
73.5237
  0
LINE
  8
0
 10
63.9015
 20
73.5237
 11
63.7858
 21
73.5237
  0
LINE
  8
0
 10
63.7858
 20
73.5237
 11
63.7858
 21
73.6357
  0
LINE
  8
0
 10
63.2498
 20
74.3447
 11
63.2577
 21
74.2437
  0
ARC
  8
0
 10
63.2908
 20
74.1103
 40
0.13742
 50
103.9305
 51
187.21
  0
ARC
  8
0
 10
63.3353
 20
74.0908
 40
0.180869
 50
179.2684
 51
256.0903
  0
ARC
  8
0
 10
63.4365
 20
74.3331
 40
0.442257
 50
250.9122
 51
261.9165
  0
LINE
  8
0
 10
63.3743
 20
73.8953
 11
63.4223
 21
73.8899
  0
LINE
  8
0
 10
63.4223
 20
73.8899
 11
63.4749
 21
73.8877
  0
ARC
  8
0
 10
63.6048
 20
74.0894
 40
0.239931
 50
83.2766
 51
237.2179
  0
ARC
  8
0
 10
63.6377
 20
74.0207
 40
0.307073
 50
50.0022
 51
90.8866
  0
ARC
  8
0
 10
63.6645
 20
74.0723
 40
0.250561
 50
354.0856
 51
407.1242
  0
ARC
  8
0
 10
63.6231
 20
74.0613
 40
0.291039
 50
340.2917
 51
357.0746
  0
ARC
  8
0
 10
63.6729
 20
74.0483
 40
0.239813
 50
290.8289
 51
339.1998
  0
ARC
  8
0
 10
63.5956
 20
74.2065
 40
0.415448
 50
283.0518
 51
293.0381
  0
ARC
  8
0
 10
63.5541
 20
74.3724
 40
0.586459
 50
278.0888
 51
283.3393
  0
ARC
  8
0
 10
63.5291
 20
74.5473
 40
0.763096
 50
273.6984
 51
278.1033
  0
LINE
  8
0
 10
63.5783
 20
73.7858
 11
63.547
 21
73.7842
  0
LINE
  8
0
 10
63.547
 20
73.7842
 11
63.5144
 21
73.7837
  0
LINE
  8
0
 10
63.5144
 20
73.7837
 11
63.4486
 21
73.7856
  0
LINE
  8
0
 10
63.4486
 20
73.7856
 11
63.3881
 21
73.7911
  0
LINE
  8
0
 10
63.3881
 20
73.7911
 11
63.3329
 21
73.8004
  0
ARC
  8
0
 10
63.4189
 20
74.2311
 40
0.439154
 50
240.0219
 51
258.7051
  0
ARC
  8
0
 10
63.3592
 20
74.0909
 40
0.288444
 50
123.6991
 51
236.3779
  0
LINE
  8
0
 10
63.1992
 20
74.3309
 11
63.2498
 21
74.3447
  0
ARC
  8
0
 10
63.6616
 20
74.061
 40
0.165271
 50
260.1877
 51
408.4953
  0
ARC
  8
0
 10
63.6422
 20
73.9909
 40
0.232837
 50
56.3749
 51
90.7697
  0
ARC
  8
0
 10
63.6184
 20
74.0612
 40
0.163788
 50
82.7321
 51
275.2882
  0
LINE
  8
0
 10
63.5
 20
74.5373
 11
63.5
 21
76.875
  0
LINE
  8
0
 10
63.6789
 20
76.5172
 11
63.5
 21
76.875
  0
LINE
  8
0
 10
63.3211
 20
76.5172
 11
63.5
 21
76.875
  0
LINE
  8
0
 10
63.5
 20
72.6127
 11
63.5
 21
70.275
  0
LINE
  8
0
 10
63.3211
 20
70.6328
 11
63.5
 21
70.275
  0
LINE
  8
0
 10
63.6789
 20
70.6328
 11
63.5
 21
70.275
  0
LINE
  8
0
 10
63.7
 20
70.275
 11
62.5
 21
70.275
  0
LINE
  8
0
 10
44.549
 20
16.9013
 11
44.9535
 21
16.9013
  0
LINE
  8
0
 10
44.9535
 20
16.9013
 11
44.9535
 21
16.8037
  0
LINE
  8
0
 10
44.9535
 20
16.8037
 11
44.4083
 21
16.8037
  0
ARC
  8
0
 10
44.6339
 20
16.8043
 40
0.225673
 50
143.923
 51
180.1572
  0
LINE
  8
0
 10
44.4516
 20
16.9372
 11
44.4867
 21
16.9843
  0
LINE
  8
0
 10
44.4867
 20
16.9843
 11
44.5426
 21
17.0424
  0
LINE
  8
0
 10
44.5426
 20
17.0424
 11
44.6198
 21
17.1095
  0
LINE
  8
0
 10
44.6198
 20
17.1095
 11
44.6673
 21
17.1485
  0
LINE
  8
0
 10
44.6673
 20
17.1485
 11
44.707
 21
17.1831
  0
LINE
  8
0
 10
44.707
 20
17.1831
 11
44.7392
 21
17.2134
  0
LINE
  8
0
 10
44.7392
 20
17.2134
 11
44.7643
 21
17.2393
  0
LINE
  8
0
 10
44.7643
 20
17.2393
 11
44.8015
 21
17.2842
  0
ARC
  8
0
 10
44.6231
 20
17.4247
 40
0.227107
 50
321.8057
 51
355.4952
  0
ARC
  8
0
 10
44.7037
 20
17.4046
 40
0.145822
 50
0.8542
 51
93.8858
  0
ARC
  8
0
 10
44.6832
 20
17.3985
 40
0.151998
 50
85.9977
 51
185.3786
  0
LINE
  8
0
 10
44.5318
 20
17.3843
 11
44.4275
 21
17.395
  0
ARC
  8
0
 10
44.6715
 20
17.3913
 40
0.244088
 50
84.2388
 51
179.1391
  0
ARC
  8
0
 10
44.7017
 20
17.3337
 40
0.300554
 50
65.8119
 51
91.084
  0
ARC
  8
0
 10
44.7255
 20
17.4006
 40
0.229817
 50
320.9483
 51
424.3817
  0
LINE
  8
0
 10
44.904
 20
17.2558
 11
44.8655
 21
17.206
  0
LINE
  8
0
 10
44.8655
 20
17.206
 11
44.8376
 21
17.1762
  0
LINE
  8
0
 10
44.8376
 20
17.1762
 11
44.8026
 21
17.1422
  0
LINE
  8
0
 10
44.8026
 20
17.1422
 11
44.7599
 21
17.1037
  0
LINE
  8
0
 10
44.7599
 20
17.1037
 11
44.7092
 21
17.0604
  0
LINE
  8
0
 10
44.7092
 20
17.0604
 11
44.6759
 21
17.0325
  0
LINE
  8
0
 10
44.6759
 20
17.0325
 11
44.6505
 21
17.011
  0
LINE
  8
0
 10
44.6505
 20
17.011
 11
44.6328
 21
16.9957
  0
LINE
  8
0
 10
44.6328
 20
16.9957
 11
44.6228
 21
16.9865
  0
LINE
  8
0
 10
44.6228
 20
16.9865
 11
44.6004
 21
16.9647
  0
LINE
  8
0
 10
44.6004
 20
16.9647
 11
44.5805
 21
16.9434
  0
LINE
  8
0
 10
44.5805
 20
16.9434
 11
44.5633
 21
16.9223
  0
LINE
  8
0
 10
44.5633
 20
16.9223
 11
44.549
 21
16.9013
  0
LINE
  8
0
 10
45.2335
 20
16.9194
 11
45.2335
 21
16.8037
  0
LINE
  8
0
 10
45.2335
 20
16.8037
 11
45.1215
 21
16.8037
  0
LINE
  8
0
 10
45.1215
 20
16.8037
 11
45.1215
 21
16.9194
  0
LINE
  8
0
 10
45.1215
 20
16.9194
 11
45.2335
 21
16.9194
  0
LINE
  8
0
 10
45.3916
 20
17.0221
 11
45.4932
 21
17.0356
  0
ARC
  8
0
 10
45.7817
 20
17.0876
 40
0.293173
 50
190.2152
 51
208.9749
  0
ARC
  8
0
 10
45.6618
 20
17.0403
 40
0.166279
 50
214.7389
 51
450.3669
  0
LINE
  8
0
 10
45.6608
 20
17.2066
 11
45.6287
 21
17.2037
  0
LINE
  8
0
 10
45.6287
 20
17.2037
 11
45.5891
 21
17.1953
  0
LINE
  8
0
 10
45.5891
 20
17.1953
 11
45.6004
 21
17.2844
  0
ARC
  8
0
 10
45.6145
 20
17.3695
 40
0.0862325
 50
260.6145
 51
271.4952
  0
ARC
  8
0
 10
45.6229
 20
17.4898
 40
0.206674
 50
268.2942
 51
286.2722
  0
ARC
  8
0
 10
45.6545
 20
17.4198
 40
0.130996
 50
281.5807
 51
451.948
  0
ARC
  8
0
 10
45.6433
 20
17.4132
 40
0.137691
 50
87.1947
 51
171.6659
  0
LINE
  8
0
 10
45.5071
 20
17.4331
 11
45.5005
 21
17.4018
  0
LINE
  8
0
 10
45.5005
 20
17.4018
 11
45.399
 21
17.4198
  0
ARC
  8
0
 10
45.6277
 20
17.4264
 40
0.228809
 50
310.2325
 51
541.6416
  0
ARC
  8
0
 10
45.6838
 20
17.0291
 40
0.240745
 50
263.0222
 51
427.6129
  0
ARC
  8
0
 10
45.6392
 20
17.0378
 40
0.248125
 50
183.6311
 51
273.5378
  0
LINE
  8
0
 10
46.337
 20
17
 11
46.337
 21
18.2
  0
LINE
  8
0
 10
44
 20
17
 11
44
 21
18.2
  0
LINE
  8
0
 10
48.1415
 20
17.0018
 11
48.1415
 21
16.8037
  0
LINE
  8
0
 10
48.1415
 20
16.8037
 11
48.0375
 21
16.8037
  0
LINE
  8
0
 10
48.0375
 20
16.8037
 11
48.0375
 21
17.0018
  0
LINE
  8
0
 10
48.0375
 20
17.0018
 11
47.6787
 21
17.0018
  0
LINE
  8
0
 10
47.6787
 20
17.0018
 11
47.6787
 21
17.0948
  0
LINE
  8
0
 10
47.6787
 20
17.0948
 11
48.0565
 21
17.6308
  0
LINE
  8
0
 10
48.0565
 20
17.6308
 11
48.1415
 21
17.6308
  0
LINE
  8
0
 10
48.1415
 20
17.6308
 11
48.1415
 21
17.0948
  0
LINE
  8
0
 10
48.1415
 20
17.0948
 11
48.2532
 21
17.0948
  0
LINE
  8
0
 10
48.2532
 20
17.0948
 11
48.2532
 21
17.0018
  0
LINE
  8
0
 10
48.2532
 20
17.0018
 11
48.1415
 21
17.0018
  0
LINE
  8
0
 10
48.0375
 20
17.4678
 11
47.7785
 21
17.0948
  0
LINE
  8
0
 10
47.7785
 20
17.0948
 11
48.0375
 21
17.0948
  0
LINE
  8
0
 10
48.0375
 20
17.0948
 11
48.0375
 21
17.4678
  0
LINE
  8
0
 10
48.5255
 20
16.9194
 11
48.5255
 21
16.8037
  0
LINE
  8
0
 10
48.5255
 20
16.8037
 11
48.4135
 21
16.8037
  0
LINE
  8
0
 10
48.4135
 20
16.8037
 11
48.4135
 21
16.9194
  0
LINE
  8
0
 10
48.4135
 20
16.9194
 11
48.5255
 21
16.9194
  0
LINE
  8
0
 10
48.6836
 20
17.0221
 11
48.7852
 21
17.0356
  0
ARC
  8
0
 10
49.0737
 20
17.0876
 40
0.293173
 50
190.2152
 51
208.9749
  0
ARC
  8
0
 10
48.9538
 20
17.0403
 40
0.166279
 50
214.7389
 51
450.3669
  0
LINE
  8
0
 10
48.9528
 20
17.2066
 11
48.9207
 21
17.2037
  0
LINE
  8
0
 10
48.9207
 20
17.2037
 11
48.8811
 21
17.1953
  0
LINE
  8
0
 10
48.8811
 20
17.1953
 11
48.8924
 21
17.2844
  0
ARC
  8
0
 10
48.9065
 20
17.3695
 40
0.0862325
 50
260.6145
 51
271.4952
  0
ARC
  8
0
 10
48.9149
 20
17.4898
 40
0.206674
 50
268.2942
 51
286.2722
  0
ARC
  8
0
 10
48.9465
 20
17.4198
 40
0.130996
 50
281.5807
 51
451.948
  0
ARC
  8
0
 10
48.9353
 20
17.4132
 40
0.137691
 50
87.1947
 51
171.6659
  0
LINE
  8
0
 10
48.799
 20
17.4331
 11
48.7925
 21
17.4018
  0
LINE
  8
0
 10
48.7925
 20
17.4018
 11
48.691
 21
17.4198
  0
ARC
  8
0
 10
48.9197
 20
17.4264
 40
0.228809
 50
310.2325
 51
541.6416
  0
ARC
  8
0
 10
48.9758
 20
17.0291
 40
0.240745
 50
263.0222
 51
427.6129
  0
ARC
  8
0
 10
48.9312
 20
17.0378
 40
0.248125
 50
183.6311
 51
273.5378
  0
LINE
  8
0
 10
49.4218
 20
17.2
 11
50.561
 21
17.2
  0
LINE
  8
0
 10
50.2032
 20
17.0211
 11
50.561
 21
17.2
  0
LINE
  8
0
 10
50.2032
 20
17.3789
 11
50.561
 21
17.2
  0
LINE
  8
0
 10
50.561
 20
17
 11
50.561
 21
18.2
  0
LINE
  8
0
 10
47.4762
 20
17.2
 11
46.337
 21
17.2
  0
LINE
  8
0
 10
46.6948
 20
17.3789
 11
46.337
 21
17.2
  0
LINE
  8
0
 10
46.6948
 20
17.0211
 11
46.337
 21
17.2
  0
LINE
  8
0
 10
65.8038
 20
77.1032
 11
65.8038
 21
77.5077
  0
LINE
  8
0
 10
65.8038
 20
77.5077
 11
65.9015
 21
77.5077
  0
LINE
  8
0
 10
65.9015
 20
77.5077
 11
65.9015
 21
76.9625
  0
ARC
  8
0
 10
65.9008
 20
77.1882
 40
0.225673
 50
233.923
 51
270.1572
  0
LINE
  8
0
 10
65.768
 20
77.0058
 11
65.7209
 21
77.0409
  0
LINE
  8
0
 10
65.7209
 20
77.0409
 11
65.6628
 21
77.0968
  0
LINE
  8
0
 10
65.6628
 20
77.0968
 11
65.5956
 21
77.1741
  0
LINE
  8
0
 10
65.5956
 20
77.1741
 11
65.5566
 21
77.2215
  0
LINE
  8
0
 10
65.5566
 20
77.2215
 11
65.522
 21
77.2612
  0
LINE
  8
0
 10
65.522
 20
77.2612
 11
65.4918
 21
77.2935
  0
LINE
  8
0
 10
65.4918
 20
77.2935
 11
65.4659
 21
77.3185
  0
LINE
  8
0
 10
65.4659
 20
77.3185
 11
65.4209
 21
77.3558
  0
ARC
  8
0
 10
65.2805
 20
77.1773
 40
0.227107
 50
51.8057
 51
85.4952
  0
ARC
  8
0
 10
65.3143
 20
77.2452
 40
0.159281
 50
95.745
 51
272.3814
  0
LINE
  8
0
 10
65.3209
 20
77.0861
 11
65.3101
 21
76.9817
  0
ARC
  8
0
 10
65.3138
 20
77.2258
 40
0.244088
 50
174.2388
 51
269.1391
  0
ARC
  8
0
 10
65.3715
 20
77.2559
 40
0.300554
 50
155.8119
 51
181.0841
  0
ARC
  8
0
 10
65.3045
 20
77.2797
 40
0.229817
 50
50.9483
 51
154.3817
  0
LINE
  8
0
 10
65.4493
 20
77.4582
 11
65.4991
 21
77.4197
  0
LINE
  8
0
 10
65.4991
 20
77.4197
 11
65.5289
 21
77.3918
  0
LINE
  8
0
 10
65.5289
 20
77.3918
 11
65.5629
 21
77.3568
  0
LINE
  8
0
 10
65.5629
 20
77.3568
 11
65.6014
 21
77.3141
  0
LINE
  8
0
 10
65.6014
 20
77.3141
 11
65.6448
 21
77.2634
  0
LINE
  8
0
 10
65.6448
 20
77.2634
 11
65.6726
 21
77.2301
  0
LINE
  8
0
 10
65.6726
 20
77.2301
 11
65.6941
 21
77.2047
  0
LINE
  8
0
 10
65.6941
 20
77.2047
 11
65.7094
 21
77.1871
  0
LINE
  8
0
 10
65.7094
 20
77.1871
 11
65.7186
 21
77.1771
  0
LINE
  8
0
 10
65.7186
 20
77.1771
 11
65.7404
 21
77.1546
  0
LINE
  8
0
 10
65.7404
 20
77.1546
 11
65.7618
 21
77.1348
  0
LINE
  8
0
 10
65.7618
 20
77.1348
 11
65.7829
 21
77.1176
  0
LINE
  8
0
 10
65.7829
 20
77.1176
 11
65.8038
 21
77.1032
  0
LINE
  8
0
 10
65.7858
 20
77.7877
 11
65.9015
 21
77.7877
  0
LINE
  8
0
 10
65.9015
 20
77.7877
 11
65.9015
 21
77.6757
  0
LINE
  8
0
 10
65.9015
 20
77.6757
 11
65.7858
 21
77.6757
  0
LINE
  8
0
 10
65.7858
 20
77.6757
 11
65.7858
 21
77.7877
  0
LINE
  8
0
 10
65.071
 20
78.2527
 11
65.071
 21
78.3197
  0
LINE
  8
0
 10
65.071
 20
78.3197
 11
65.9015
 21
78.3197
  0
LINE
  8
0
 10
65.9015
 20
78.3197
 11
65.9015
 21
78.2157
  0
LINE
  8
0
 10
65.9015
 20
78.2157
 11
65.2543
 21
78.2157
  0
LINE
  8
0
 10
65.2543
 20
78.2157
 11
65.323
 21
78.1243
  0
LINE
  8
0
 10
65.323
 20
78.1243
 11
65.3768
 21
78.0126
  0
LINE
  8
0
 10
65.3768
 20
78.0126
 11
65.2786
 21
78.0126
  0
LINE
  8
0
 10
65.2786
 20
78.0126
 11
65.2498
 21
78.0685
  0
LINE
  8
0
 10
65.2498
 20
78.0685
 11
65.2187
 21
78.118
  0
ARC
  8
0
 10
64.8479
 20
77.8654
 40
0.448628
 50
34.2592
 51
54.0312
  0
LINE
  8
0
 10
65.1114
 20
78.2285
 11
65.071
 21
78.2527
  0
LINE
  8
0
 10
65.7
 20
78.7
 11
64.5
 21
78.7
  0
LINE
  8
0
 10
65.7
 20
76.575
 11
64.5
 21
76.575
  0
LINE
  8
0
 10
65.2498
 20
73.8647
 11
65.2577
 21
73.7637
  0
ARC
  8
0
 10
65.2908
 20
73.6303
 40
0.13742
 50
103.9305
 51
187.21
  0
ARC
  8
0
 10
65.3353
 20
73.6108
 40
0.180869
 50
179.2684
 51
256.0903
  0
ARC
  8
0
 10
65.4365
 20
73.8531
 40
0.442257
 50
250.9122
 51
261.9165
  0
LINE
  8
0
 10
65.3743
 20
73.4153
 11
65.4223
 21
73.4099
  0
LINE
  8
0
 10
65.4223
 20
73.4099
 11
65.4749
 21
73.4077
  0
ARC
  8
0
 10
65.6048
 20
73.6094
 40
0.239931
 50
83.2766
 51
237.2179
  0
ARC
  8
0
 10
65.6377
 20
73.5407
 40
0.307073
 50
50.0022
 51
90.8866
  0
ARC
  8
0
 10
65.6645
 20
73.5923
 40
0.250561
 50
354.0856
 51
407.1242
  0
ARC
  8
0
 10
65.6231
 20
73.5813
 40
0.291039
 50
340.2917
 51
357.0746
  0
ARC
  8
0
 10
65.6729
 20
73.5683
 40
0.239813
 50
290.8289
 51
339.1998
  0
ARC
  8
0
 10
65.5956
 20
73.7265
 40
0.415448
 50
283.0518
 51
293.0381
  0
ARC
  8
0
 10
65.5541
 20
73.8924
 40
0.586459
 50
278.0888
 51
283.3393
  0
ARC
  8
0
 10
65.5291
 20
74.0673
 40
0.763096
 50
273.6984
 51
278.1033
  0
LINE
  8
0
 10
65.5783
 20
73.3058
 11
65.547
 21
73.3042
  0
LINE
  8
0
 10
65.547
 20
73.3042
 11
65.5144
 21
73.3037
  0
LINE
  8
0
 10
65.5144
 20
73.3037
 11
65.4486
 21
73.3056
  0
LINE
  8
0
 10
65.4486
 20
73.3056
 11
65.3881
 21
73.3111
  0
LINE
  8
0
 10
65.3881
 20
73.3111
 11
65.3329
 21
73.3204
  0
ARC
  8
0
 10
65.4189
 20
73.7511
 40
0.439154
 50
240.0219
 51
258.7051
  0
ARC
  8
0
 10
65.3592
 20
73.6109
 40
0.288444
 50
123.6991
 51
236.3779
  0
LINE
  8
0
 10
65.1992
 20
73.8509
 11
65.2498
 21
73.8647
  0
ARC
  8
0
 10
65.6616
 20
73.581
 40
0.165271
 50
260.1877
 51
408.4953
  0
ARC
  8
0
 10
65.6422
 20
73.5109
 40
0.232837
 50
56.3749
 51
90.7697
  0
ARC
  8
0
 10
65.6184
 20
73.5812
 40
0.163788
 50
82.7321
 51
275.2882
  0
LINE
  8
0
 10
65.5
 20
74.0556
 11
65.5
 21
76.575
  0
LINE
  8
0
 10
65.6789
 20
76.2172
 11
65.5
 21
76.575
  0
LINE
  8
0
 10
65.3211
 20
76.2172
 11
65.5
 21
76.575
  0
LINE
  8
0
 10
65.5
 20
73.0944
 11
65.5
 21
70.575
  0
LINE
  8
0
 10
65.3211
 20
70.9328
 11
65.5
 21
70.575
  0
LINE
  8
0
 10
65.6789
 20
70.9328
 11
65.5
 21
70.575
  0
LINE
  8
0
 10
65.7
 20
70.575
 11
64.5
 21
70.575
  0
LINE
  8
0
 10
50.2455
 20
16.2116
 11
50.2467
 21
16.265
  0
LINE
  8
0
 10
50.2467
 20
16.265
 11
50.2503
 21
16.3149
  0
LINE
  8
0
 10
50.2503
 20
16.3149
 11
50.2562
 21
16.3612
  0
LINE
  8
0
 10
50.2562
 20
16.3612
 11
50.2646
 21
16.4039
  0
ARC
  8
0
 10
50.6838
 20
16.3097
 40
0.429618
 50
152.0887
 51
167.3317
  0
ARC
  8
0
 10
50.5328
 20
16.3867
 40
0.260175
 50
130.1044
 51
151.5122
  0
ARC
  8
0
 10
50.5151
 20
16.3934
 40
0.243814
 50
16.5572
 51
127.9332
  0
ARC
  8
0
 10
50.2913
 20
16.2847
 40
0.490927
 50
4.4112
 51
21.2762
  0
LINE
  8
0
 10
50.7808
 20
16.3225
 11
50.7855
 21
16.2116
  0
LINE
  8
0
 10
50.7855
 20
16.2116
 11
50.7843
 21
16.1583
  0
LINE
  8
0
 10
50.7843
 20
16.1583
 11
50.7807
 21
16.1086
  0
LINE
  8
0
 10
50.7807
 20
16.1086
 11
50.7747
 21
16.0624
  0
LINE
  8
0
 10
50.7747
 20
16.0624
 11
50.7663
 21
16.0197
  0
ARC
  8
0
 10
50.3481
 20
16.1139
 40
0.428719
 50
332.0553
 51
347.3108
  0
ARC
  8
0
 10
50.4982
 20
16.0372
 40
0.260134
 50
310.0806
 51
331.4784
  0
ARC
  8
0
 10
50.5251
 20
16.0218
 40
0.23133
 50
267.6115
 51
307.4328
  0
ARC
  8
0
 10
50.504
 20
16.0188
 40
0.228404
 50
199.6616
 51
272.8716
  0
ARC
  8
0
 10
50.6706
 20
16.1042
 40
0.414704
 50
196.6891
 51
203.0279
  0
ARC
  8
0
 10
50.7889
 20
16.1398
 40
0.538297
 50
191.3759
 51
196.7026
  0
ARC
  8
0
 10
50.9483
 20
16.1721
 40
0.700921
 50
186.9237
 51
191.3905
  0
LINE
  8
0
 10
50.2525
 20
16.0876
 11
50.2495
 21
16.1165
  0
LINE
  8
0
 10
50.2495
 20
16.1165
 11
50.2473
 21
16.1469
  0
LINE
  8
0
 10
50.2473
 20
16.1469
 11
50.2459
 21
16.1786
  0
LINE
  8
0
 10
50.2459
 20
16.1786
 11
50.2455
 21
16.2116
  0
LINE
  8
0
 10
50.3495
 20
16.2116
 11
50.3519
 21
16.1267
  0
LINE
  8
0
 10
50.3519
 20
16.1267
 11
50.3593
 21
16.0564
  0
LINE
  8
0
 10
50.3593
 20
16.0564
 11
50.3716
 21
16.0006
  0
ARC
  8
0
 10
50.5901
 20
16.0608
 40
0.226627
 50
195.4018
 51
220.0495
  0
ARC
  8
0
 10
50.5149
 20
16.0068
 40
0.134553
 50
223.0483
 51
338.3239
  0
ARC
  8
0
 10
50.3761
 20
16.0847
 40
0.293102
 50
334.2003
 51
342.9907
  0
ARC
  8
0
 10
50.229
 20
16.1302
 40
0.447079
 50
342.9312
 51
349.5636
  0
LINE
  8
0
 10
50.6687
 20
16.0492
 11
50.6733
 21
16.0775
  0
LINE
  8
0
 10
50.6733
 20
16.0775
 11
50.6769
 21
16.1079
  0
LINE
  8
0
 10
50.6769
 20
16.1079
 11
50.6794
 21
16.1404
  0
LINE
  8
0
 10
50.6794
 20
16.1404
 11
50.681
 21
16.1749
  0
LINE
  8
0
 10
50.681
 20
16.1749
 11
50.6815
 21
16.2116
  0
LINE
  8
0
 10
50.6815
 20
16.2116
 11
50.679
 21
16.2965
  0
LINE
  8
0
 10
50.679
 20
16.2965
 11
50.6716
 21
16.3668
  0
ARC
  8
0
 10
50.3607
 20
16.3276
 40
0.313419
 50
7.1912
 51
30.116
  0
ARC
  8
0
 10
50.5173
 20
16.4172
 40
0.132936
 50
30.5759
 51
91.2917
  0
ARC
  8
0
 10
50.5149
 20
16.4085
 40
0.141584
 50
90.225
 51
168.117
  0
LINE
  8
0
 10
50.3763
 20
16.4377
 11
50.3667
 21
16.4031
  0
LINE
  8
0
 10
50.3667
 20
16.4031
 11
50.3591
 21
16.3632
  0
LINE
  8
0
 10
50.3591
 20
16.3632
 11
50.3538
 21
16.318
  0
LINE
  8
0
 10
50.3538
 20
16.318
 11
50.3505
 21
16.2675
  0
LINE
  8
0
 10
50.3505
 20
16.2675
 11
50.3495
 21
16.2116
  0
LINE
  8
0
 10
51.0615
 20
15.9194
 11
51.0615
 21
15.8037
  0
LINE
  8
0
 10
51.0615
 20
15.8037
 11
50.9495
 21
15.8037
  0
LINE
  8
0
 10
50.9495
 20
15.8037
 11
50.9495
 21
15.9194
  0
LINE
  8
0
 10
50.9495
 20
15.9194
 11
51.0615
 21
15.9194
  0
ARC
  8
0
 10
51.4319
 20
16.4347
 40
0.193827
 50
94.4474
 51
250.3095
  0
ARC
  8
0
 10
51.4953
 20
16.4174
 40
0.224711
 50
344.0768
 51
470.4281
  0
ARC
  8
0
 10
51.5507
 20
16.4179
 40
0.172254
 50
285.9379
 51
338.8593
  0
ARC
  8
0
 10
51.5244
 20
16.0301
 40
0.233992
 50
277.2743
 51
431.6651
  0
LINE
  8
0
 10
51.554
 20
15.798
 11
51.4815
 21
15.7907
  0
ARC
  8
0
 10
51.4597
 20
16.0418
 40
0.252003
 50
147.0628
 51
274.959
  0
ARC
  8
0
 10
51.4091
 20
16.0516
 40
0.205063
 50
101.9603
 51
141.6882
  0
ARC
  8
0
 10
51.4792
 20
16.4168
 40
0.133908
 50
176.7834
 51
449.0148
  0
ARC
  8
0
 10
51.4738
 20
16.4225
 40
0.128393
 50
86.5976
 51
179.2006
  0
ARC
  8
0
 10
51.4811
 20
16.0407
 40
0.167603
 50
179.414
 51
450.7374
  0
ARC
  8
0
 10
51.4734
 20
16.0483
 40
0.160067
 50
88.0383
 51
182.113
  0
LINE
  8
0
 10
51.443
 20
17
 11
51.443
 21
18.2
  0
ARC
  8
0
 10
55.0199
 20
17.4347
 40
0.193827
 50
94.4474
 51
250.3095
  0
ARC
  8
0
 10
55.0833
 20
17.4174
 40
0.224711
 50
344.0768
 51
470.4281
  0
ARC
  8
0
 10
55.1387
 20
17.4179
 40
0.172254
 50
285.9379
 51
338.8593
  0
ARC
  8
0
 10
55.1124
 20
17.0301
 40
0.233992
 50
277.2743
 51
431.6651
  0
LINE
  8
0
 10
55.142
 20
16.798
 11
55.0695
 21
16.7907
  0
ARC
  8
0
 10
55.0477
 20
17.0418
 40
0.252003
 50
147.0628
 51
274.959
  0
ARC
  8
0
 10
54.9971
 20
17.0516
 40
0.205063
 50
101.9603
 51
141.6882
  0
ARC
  8
0
 10
55.0672
 20
17.4168
 40
0.133908
 50
176.7834
 51
449.0148
  0
ARC
  8
0
 10
55.0618
 20
17.4225
 40
0.128393
 50
86.5976
 51
179.2006
  0
ARC
  8
0
 10
55.0691
 20
17.0407
 40
0.167603
 50
179.414
 51
450.7374
  0
ARC
  8
0
 10
55.0614
 20
17.0483
 40
0.160067
 50
88.0383
 51
182.113
  0
LINE
  8
0
 10
55.6135
 20
16.9194
 11
55.6135
 21
16.8037
  0
LINE
  8
0
 10
55.6135
 20
16.8037
 11
55.5015
 21
16.8037
  0
LINE
  8
0
 10
55.5015
 20
16.8037
 11
55.5015
 21
16.9194
  0
LINE
  8
0
 10
55.5015
 20
16.9194
 11
55.6135
 21
16.9194
  0
LINE
  8
0
 10
55.7716
 20
17.0221
 11
55.8731
 21
17.0356
  0
ARC
  8
0
 10
56.1617
 20
17.0876
 40
0.293173
 50
190.2152
 51
208.9749
  0
ARC
  8
0
 10
56.0418
 20
17.0403
 40
0.166279
 50
214.7389
 51
450.3669
  0
LINE
  8
0
 10
56.0408
 20
17.2066
 11
56.0087
 21
17.2037
  0
LINE
  8
0
 10
56.0087
 20
17.2037
 11
55.9691
 21
17.1953
  0
LINE
  8
0
 10
55.9691
 20
17.1953
 11
55.9804
 21
17.2844
  0
ARC
  8
0
 10
55.9945
 20
17.3695
 40
0.0862325
 50
260.6145
 51
271.4952
  0
ARC
  8
0
 10
56.0029
 20
17.4898
 40
0.206674
 50
268.2942
 51
286.2722
  0
ARC
  8
0
 10
56.0345
 20
17.4198
 40
0.130996
 50
281.5807
 51
451.948
  0
ARC
  8
0
 10
56.0233
 20
17.4132
 40
0.137691
 50
87.1947
 51
171.6659
  0
LINE
  8
0
 10
55.887
 20
17.4331
 11
55.8805
 21
17.4018
  0
LINE
  8
0
 10
55.8805
 20
17.4018
 11
55.779
 21
17.4198
  0
ARC
  8
0
 10
56.0077
 20
17.4264
 40
0.228809
 50
310.2325
 51
541.6416
  0
ARC
  8
0
 10
56.0638
 20
17.0291
 40
0.240745
 50
263.0222
 51
427.6129
  0
ARC
  8
0
 10
56.0192
 20
17.0378
 40
0.248125
 50
183.6311
 51
273.5378
  0
LINE
  8
0
 10
56.5111
 20
17.2
 11
59.663
 21
17.2
  0
LINE
  8
0
 10
59.3052
 20
17.0211
 11
59.663
 21
17.2
  0
LINE
  8
0
 10
59.3052
 20
17.3789
 11
59.663
 21
17.2
  0
LINE
  8
0
 10
59.663
 20
17
 11
59.663
 21
18.2
  0
LINE
  8
0
 10
54.5949
 20
17.2
 11
51.443
 21
17.2
  0
LINE
  8
0
 10
51.8008
 20
17.3789
 11
51.443
 21
17.2
  0
LINE
  8
0
 10
51.8008
 20
17.0211
 11
51.443
 21
17.2
  0
LINE
  8
0
 10
63.7034
 20
68.4557
 11
63.9015
 21
68.4557
  0
LINE
  8
0
 10
63.9015
 20
68.4557
 11
63.9015
 21
68.3517
  0
LINE
  8
0
 10
63.9015
 20
68.3517
 11
63.7034
 21
68.3517
  0
LINE
  8
0
 10
63.7034
 20
68.3517
 11
63.7034
 21
67.9929
  0
LINE
  8
0
 10
63.7034
 20
67.9929
 11
63.6103
 21
67.9929
  0
LINE
  8
0
 10
63.6103
 20
67.9929
 11
63.0743
 21
68.3708
  0
LINE
  8
0
 10
63.0743
 20
68.3708
 11
63.0743
 21
68.4557
  0
LINE
  8
0
 10
63.0743
 20
68.4557
 11
63.6103
 21
68.4557
  0
LINE
  8
0
 10
63.6103
 20
68.4557
 11
63.6103
 21
68.5674
  0
LINE
  8
0
 10
63.6103
 20
68.5674
 11
63.7034
 21
68.5674
  0
LINE
  8
0
 10
63.7034
 20
68.5674
 11
63.7034
 21
68.4557
  0
LINE
  8
0
 10
63.2374
 20
68.3517
 11
63.6103
 21
68.0928
  0
LINE
  8
0
 10
63.6103
 20
68.0928
 11
63.6103
 21
68.3517
  0
LINE
  8
0
 10
63.6103
 20
68.3517
 11
63.2374
 21
68.3517
  0
LINE
  8
0
 10
63.5
 20
68.7619
 11
63.5
 21
70.275
  0
LINE
  8
0
 10
63.6789
 20
69.9172
 11
63.5
 21
70.275
  0
LINE
  8
0
 10
63.3211
 20
69.9172
 11
63.5
 21
70.275
  0
LINE
  8
0
 10
63.5
 20
67.7881
 11
63.5
 21
66.275
  0
LINE
  8
0
 10
63.3211
 20
66.6328
 11
63.5
 21
66.275
  0
LINE
  8
0
 10
63.6789
 20
66.6328
 11
63.5
 21
66.275
  0
LINE
  8
0
 10
63.7
 20
66.275
 11
62.5
 21
66.275
  0
LINE
  8
0
 10
63.071
 20
59.4647
 11
63.071
 21
59.5317
  0
LINE
  8
0
 10
63.071
 20
59.5317
 11
63.9015
 21
59.5317
  0
LINE
  8
0
 10
63.9015
 20
59.5317
 11
63.9015
 21
59.4277
  0
LINE
  8
0
 10
63.9015
 20
59.4277
 11
63.2543
 21
59.4277
  0
LINE
  8
0
 10
63.2543
 20
59.4277
 11
63.323
 21
59.3363
  0
LINE
  8
0
 10
63.323
 20
59.3363
 11
63.3768
 21
59.2246
  0
LINE
  8
0
 10
63.3768
 20
59.2246
 11
63.2786
 21
59.2246
  0
LINE
  8
0
 10
63.2786
 20
59.2246
 11
63.2498
 21
59.2805
  0
LINE
  8
0
 10
63.2498
 20
59.2805
 11
63.2187
 21
59.33
  0
ARC
  8
0
 10
62.8479
 20
59.0774
 40
0.448628
 50
34.2592
 51
54.0312
  0
LINE
  8
0
 10
63.1114
 20
59.4405
 11
63.071
 21
59.4647
  0
LINE
  8
0
 10
63.6831
 20
59.7978
 11
63.6696
 21
59.8994
  0
ARC
  8
0
 10
63.6176
 20
60.1879
 40
0.293173
 50
280.2152
 51
298.9749
  0
ARC
  8
0
 10
63.6701
 20
60.0684
 40
0.163641
 50
303.1724
 51
453.7412
  0
ARC
  8
0
 10
63.6601
 20
60.0693
 40
0.162345
 50
90.2389
 51
192.2299
  0
LINE
  8
0
 10
63.5014
 20
60.035
 11
63.5099
 21
59.9953
  0
LINE
  8
0
 10
63.5099
 20
59.9953
 11
63.4208
 21
60.0066
  0
ARC
  8
0
 10
63.3357
 20
60.0207
 40
0.0862325
 50
350.6145
 51
361.4952
  0
ARC
  8
0
 10
63.2153
 20
60.0291
 40
0.206674
 50
358.2942
 51
376.2722
  0
ARC
  8
0
 10
63.281
 20
60.0552
 40
0.13647
 50
13.4559
 51
88.8828
  0
ARC
  8
0
 10
63.294
 20
60.0518
 40
0.14026
 50
94.2216
 51
260.9987
  0
LINE
  8
0
 10
63.272
 20
59.9133
 11
63.3034
 21
59.9068
  0
LINE
  8
0
 10
63.3034
 20
59.9068
 11
63.2853
 21
59.8052
  0
ARC
  8
0
 10
63.2788
 20
60.0339
 40
0.228809
 50
40.2324
 51
271.6415
  0
ARC
  8
0
 10
63.6761
 20
60.09
 40
0.240745
 50
353.0222
 51
517.6129
  0
ARC
  8
0
 10
63.6289
 20
60.0548
 40
0.286224
 50
334.6109
 51
361.1844
  0
ARC
  8
0
 10
63.668
 20
60.0434
 40
0.246077
 50
273.5196
 51
333.1051
  0
LINE
  8
0
 10
63.5
 20
60.5321
 11
63.5
 21
66.275
  0
LINE
  8
0
 10
63.6789
 20
65.9172
 11
63.5
 21
66.275
  0
LINE
  8
0
 10
63.3211
 20
65.9172
 11
63.5
 21
66.275
  0
LINE
  8
0
 10
63.5
 20
59.0179
 11
63.5
 21
53.275
  0
LINE
  8
0
 10
63.3211
 20
53.6328
 11
63.5
 21
53.275
  0
LINE
  8
0
 10
63.6789
 20
53.6328
 11
63.5
 21
53.275
  0
LINE
  8
0
 10
63.7
 20
53.275
 11
62.5
 21
53.275
  0
LINE
  8
0
 10
44.633
 20
14.9013
 11
45.0375
 21
14.9013
  0
LINE
  8
0
 10
45.0375
 20
14.9013
 11
45.0375
 21
14.8037
  0
LINE
  8
0
 10
45.0375
 20
14.8037
 11
44.4923
 21
14.8037
  0
ARC
  8
0
 10
44.7179
 20
14.8043
 40
0.225673
 50
143.923
 51
180.1572
  0
LINE
  8
0
 10
44.5356
 20
14.9372
 11
44.5707
 21
14.9843
  0
LINE
  8
0
 10
44.5707
 20
14.9843
 11
44.6266
 21
15.0424
  0
LINE
  8
0
 10
44.6266
 20
15.0424
 11
44.7038
 21
15.1095
  0
LINE
  8
0
 10
44.7038
 20
15.1095
 11
44.7513
 21
15.1485
  0
LINE
  8
0
 10
44.7513
 20
15.1485
 11
44.791
 21
15.1831
  0
LINE
  8
0
 10
44.791
 20
15.1831
 11
44.8232
 21
15.2134
  0
LINE
  8
0
 10
44.8232
 20
15.2134
 11
44.8483
 21
15.2393
  0
LINE
  8
0
 10
44.8483
 20
15.2393
 11
44.8855
 21
15.2842
  0
ARC
  8
0
 10
44.7071
 20
15.4247
 40
0.227107
 50
321.8057
 51
355.4952
  0
ARC
  8
0
 10
44.7877
 20
15.4046
 40
0.145822
 50
0.8542
 51
93.8858
  0
ARC
  8
0
 10
44.7672
 20
15.3985
 40
0.151998
 50
85.9977
 51
185.3786
  0
LINE
  8
0
 10
44.6158
 20
15.3843
 11
44.5115
 21
15.395
  0
ARC
  8
0
 10
44.7555
 20
15.3913
 40
0.244088
 50
84.2388
 51
179.1391
  0
ARC
  8
0
 10
44.7857
 20
15.3337
 40
0.300554
 50
65.8119
 51
91.084
  0
ARC
  8
0
 10
44.8095
 20
15.4006
 40
0.229817
 50
320.9483
 51
424.3817
  0
LINE
  8
0
 10
44.988
 20
15.2558
 11
44.9495
 21
15.206
  0
LINE
  8
0
 10
44.9495
 20
15.206
 11
44.9216
 21
15.1762
  0
LINE
  8
0
 10
44.9216
 20
15.1762
 11
44.8866
 21
15.1422
  0
LINE
  8
0
 10
44.8866
 20
15.1422
 11
44.8439
 21
15.1037
  0
LINE
  8
0
 10
44.8439
 20
15.1037
 11
44.7932
 21
15.0604
  0
LINE
  8
0
 10
44.7932
 20
15.0604
 11
44.7599
 21
15.0325
  0
LINE
  8
0
 10
44.7599
 20
15.0325
 11
44.7345
 21
15.011
  0
LINE
  8
0
 10
44.7345
 20
15.011
 11
44.7168
 21
14.9957
  0
LINE
  8
0
 10
44.7168
 20
14.9957
 11
44.7068
 21
14.9865
  0
LINE
  8
0
 10
44.7068
 20
14.9865
 11
44.6844
 21
14.9647
  0
LINE
  8
0
 10
44.6844
 20
14.9647
 11
44.6645
 21
14.9434
  0
LINE
  8
0
 10
44.6645
 20
14.9434
 11
44.6473
 21
14.9223
  0
LINE
  8
0
 10
44.6473
 20
14.9223
 11
44.633
 21
14.9013
  0
LINE
  8
0
 10
45.3175
 20
14.9194
 11
45.3175
 21
14.8037
  0
LINE
  8
0
 10
45.3175
 20
14.8037
 11
45.2055
 21
14.8037
  0
LINE
  8
0
 10
45.2055
 20
14.8037
 11
45.2055
 21
14.9194
  0
LINE
  8
0
 10
45.2055
 20
14.9194
 11
45.3175
 21
14.9194
  0
LINE
  8
0
 10
45.4688
 20
15.0204
 11
45.5754
 21
15.0294
  0
ARC
  8
0
 10
45.8284
 20
15.0636
 40
0.255299
 50
187.7097
 51
208.3142
  0
ARC
  8
0
 10
45.7424
 20
15.0414
 40
0.170404
 50
215.4719
 51
371.3865
  0
ARC
  8
0
 10
45.7244
 20
15.0847
 40
0.185361
 50
357.014
 51
416.2385
  0
ARC
  8
0
 10
45.7369
 20
15.0772
 40
0.185211
 50
60.7596
 51
91.2551
  0
ARC
  8
0
 10
45.7263
 20
15.0931
 40
0.169438
 50
87.7816
 51
148.2399
  0
LINE
  8
0
 10
45.5822
 20
15.1823
 11
45.4868
 21
15.1947
  0
LINE
  8
0
 10
45.4868
 20
15.1947
 11
45.567
 21
15.6196
  0
LINE
  8
0
 10
45.567
 20
15.6196
 11
45.9759
 21
15.6196
  0
LINE
  8
0
 10
45.9759
 20
15.6196
 11
45.9759
 21
15.5225
  0
LINE
  8
0
 10
45.9759
 20
15.5225
 11
45.6482
 21
15.5225
  0
LINE
  8
0
 10
45.6482
 20
15.5225
 11
45.6037
 21
15.3002
  0
ARC
  8
0
 10
45.7603
 20
15.1007
 40
0.253691
 50
356.266
 51
488.1356
  0
ARC
  8
0
 10
45.7203
 20
15.0738
 40
0.293382
 50
302.7155
 51
362.0126
  0
ARC
  8
0
 10
45.7412
 20
15.0692
 40
0.278547
 50
268.6264
 51
299.6086
  0
ARC
  8
0
 10
45.7138
 20
15.0353
 40
0.245457
 50
183.4781
 51
274.8483
  0
LINE
  8
0
 10
46.5
 20
15
 11
46.5
 21
16.2
  0
LINE
  8
0
 10
44
 20
15
 11
44
 21
16.2
  0
LINE
  8
0
 10
52.6825
 20
15.6342
 11
52.7495
 21
15.6342
  0
LINE
  8
0
 10
52.7495
 20
15.6342
 11
52.7495
 21
14.8037
  0
LINE
  8
0
 10
52.7495
 20
14.8037
 11
52.6455
 21
14.8037
  0
LINE
  8
0
 10
52.6455
 20
14.8037
 11
52.6455
 21
15.4508
  0
LINE
  8
0
 10
52.6455
 20
15.4508
 11
52.5541
 21
15.3821
  0
LINE
  8
0
 10
52.5541
 20
15.3821
 11
52.4423
 21
15.3284
  0
LINE
  8
0
 10
52.4423
 20
15.3284
 11
52.4423
 21
15.4266
  0
LINE
  8
0
 10
52.4423
 20
15.4266
 11
52.4982
 21
15.4554
  0
LINE
  8
0
 10
52.4982
 20
15.4554
 11
52.5478
 21
15.4865
  0
ARC
  8
0
 10
52.2952
 20
15.8573
 40
0.448628
 50
304.2592
 51
324.0313
  0
LINE
  8
0
 10
52.6583
 20
15.5938
 11
52.6825
 21
15.6342
  0
LINE
  8
0
 10
53.0196
 20
15.0221
 11
53.1212
 21
15.0356
  0
ARC
  8
0
 10
53.4097
 20
15.0876
 40
0.293173
 50
190.2152
 51
208.9749
  0
ARC
  8
0
 10
53.2898
 20
15.0403
 40
0.166279
 50
214.7389
 51
450.3669
  0
LINE
  8
0
 10
53.2888
 20
15.2066
 11
53.2567
 21
15.2037
  0
LINE
  8
0
 10
53.2567
 20
15.2037
 11
53.2171
 21
15.1953
  0
LINE
  8
0
 10
53.2171
 20
15.1953
 11
53.2284
 21
15.2844
  0
ARC
  8
0
 10
53.2425
 20
15.3695
 40
0.0862325
 50
260.6145
 51
271.4952
  0
ARC
  8
0
 10
53.2509
 20
15.4898
 40
0.206674
 50
268.2942
 51
286.2722
  0
ARC
  8
0
 10
53.2825
 20
15.4198
 40
0.130996
 50
281.5807
 51
451.948
  0
ARC
  8
0
 10
53.2713
 20
15.4132
 40
0.137691
 50
87.1947
 51
171.6659
  0
LINE
  8
0
 10
53.135
 20
15.4331
 11
53.1285
 21
15.4018
  0
LINE
  8
0
 10
53.1285
 20
15.4018
 11
53.027
 21
15.4198
  0
ARC
  8
0
 10
53.2557
 20
15.4264
 40
0.228809
 50
310.2325
 51
541.6416
  0
ARC
  8
0
 10
53.3118
 20
15.0291
 40
0.240745
 50
263.0222
 51
427.6129
  0
ARC
  8
0
 10
53.2672
 20
15.0378
 40
0.248125
 50
183.6311
 51
273.5378
  0
LINE
  8
0
 10
53.7571
 20
15.2
 11
59.5
 21
15.2
  0
LINE
  8
0
 10
59.1422
 20
15.0211
 11
59.5
 21
15.2
  0
LINE
  8
0
 10
59.1422
 20
15.3789
 11
59.5
 21
15.2
  0
LINE
  8
0
 10
59.5
 20
15
 11
59.5
 21
16.2
  0
LINE
  8
0
 10
52.2429
 20
15.2
 11
46.5
 21
15.2
  0
LINE
  8
0
 10
46.8578
 20
15.3789
 11
46.5
 21
15.2
  0
LINE
  8
0
 10
46.8578
 20
15.0211
 11
46.5
 21
15.2
  0
LINE
  8
0
 10
63.7034
 20
51.4557
 11
63.9015
 21
51.4557
  0
LINE
  8
0
 10
63.9015
 20
51.4557
 11
63.9015
 21
51.3517
  0
LINE
  8
0
 10
63.9015
 20
51.3517
 11
63.7034
 21
51.3517
  0
LINE
  8
0
 10
63.7034
 20
51.3517
 11
63.7034
 21
50.9929
  0
LINE
  8
0
 10
63.7034
 20
50.9929
 11
63.6103
 21
50.9929
  0
LINE
  8
0
 10
63.6103
 20
50.9929
 11
63.0743
 21
51.3708
  0
LINE
  8
0
 10
63.0743
 20
51.3708
 11
63.0743
 21
51.4557
  0
LINE
  8
0
 10
63.0743
 20
51.4557
 11
63.6103
 21
51.4557
  0
LINE
  8
0
 10
63.6103
 20
51.4557
 11
63.6103
 21
51.5674
  0
LINE
  8
0
 10
63.6103
 20
51.5674
 11
63.7034
 21
51.5674
  0
LINE
  8
0
 10
63.7034
 20
51.5674
 11
63.7034
 21
51.4557
  0
LINE
  8
0
 10
63.2374
 20
51.3517
 11
63.6103
 21
51.0928
  0
LINE
  8
0
 10
63.6103
 20
51.0928
 11
63.6103
 21
51.3517
  0
LINE
  8
0
 10
63.6103
 20
51.3517
 11
63.2374
 21
51.3517
  0
LINE
  8
0
 10
63.5
 20
51.7619
 11
63.5
 21
53.275
  0
LINE
  8
0
 10
63.6789
 20
52.9172
 11
63.5
 21
53.275
  0
LINE
  8
0
 10
63.3211
 20
52.9172
 11
63.5
 21
53.275
  0
LINE
  8
0
 10
63.5
 20
50.7881
 11
63.5
 21
49.275
  0
LINE
  8
0
 10
63.3211
 20
49.6328
 11
63.5
 21
49.275
  0
LINE
  8
0
 10
63.6789
 20
49.6328
 11
63.5
 21
49.275
  0
LINE
  8
0
 10
63.7
 20
49.275
 11
62.5
 21
49.275
  0
LINE
  8
0
 10
63.2498
 20
46.5647
 11
63.2577
 21
46.4637
  0
ARC
  8
0
 10
63.2908
 20
46.3303
 40
0.13742
 50
103.9305
 51
187.21
  0
ARC
  8
0
 10
63.3353
 20
46.3108
 40
0.180869
 50
179.2684
 51
256.0903
  0
ARC
  8
0
 10
63.4365
 20
46.5531
 40
0.442257
 50
250.9122
 51
261.9165
  0
LINE
  8
0
 10
63.3743
 20
46.1153
 11
63.4223
 21
46.1099
  0
LINE
  8
0
 10
63.4223
 20
46.1099
 11
63.4749
 21
46.1077
  0
ARC
  8
0
 10
63.6048
 20
46.3094
 40
0.239931
 50
83.2766
 51
237.2179
  0
ARC
  8
0
 10
63.6377
 20
46.2407
 40
0.307073
 50
50.0022
 51
90.8866
  0
ARC
  8
0
 10
63.6645
 20
46.2923
 40
0.250561
 50
354.0856
 51
407.1242
  0
ARC
  8
0
 10
63.6231
 20
46.2813
 40
0.291039
 50
340.2917
 51
357.0746
  0
ARC
  8
0
 10
63.6729
 20
46.2683
 40
0.239813
 50
290.8289
 51
339.1998
  0
ARC
  8
0
 10
63.5956
 20
46.4265
 40
0.415448
 50
283.0518
 51
293.0381
  0
ARC
  8
0
 10
63.5541
 20
46.5924
 40
0.586459
 50
278.0888
 51
283.3393
  0
ARC
  8
0
 10
63.5291
 20
46.7673
 40
0.763096
 50
273.6984
 51
278.1033
  0
LINE
  8
0
 10
63.5783
 20
46.0058
 11
63.547
 21
46.0042
  0
LINE
  8
0
 10
63.547
 20
46.0042
 11
63.5144
 21
46.0037
  0
LINE
  8
0
 10
63.5144
 20
46.0037
 11
63.4486
 21
46.0056
  0
LINE
  8
0
 10
63.4486
 20
46.0056
 11
63.3881
 21
46.0111
  0
LINE
  8
0
 10
63.3881
 20
46.0111
 11
63.3329
 21
46.0204
  0
ARC
  8
0
 10
63.4189
 20
46.4511
 40
0.439154
 50
240.0219
 51
258.7051
  0
ARC
  8
0
 10
63.3592
 20
46.3109
 40
0.288444
 50
123.6991
 51
236.3779
  0
LINE
  8
0
 10
63.1992
 20
46.5509
 11
63.2498
 21
46.5647
  0
ARC
  8
0
 10
63.6616
 20
46.281
 40
0.165271
 50
260.1877
 51
408.4953
  0
ARC
  8
0
 10
63.6422
 20
46.2109
 40
0.232837
 50
56.3749
 51
90.7697
  0
ARC
  8
0
 10
63.6184
 20
46.2812
 40
0.163788
 50
82.7321
 51
275.2882
  0
LINE
  8
0
 10
63.5
 20
46.7556
 11
63.5
 21
49.275
  0
LINE
  8
0
 10
63.6789
 20
48.9172
 11
63.5
 21
49.275
  0
LINE
  8
0
 10
63.3211
 20
48.9172
 11
63.5
 21
49.275
  0
LINE
  8
0
 10
63.5
 20
45.7944
 11
63.5
 21
43.275
  0
LINE
  8
0
 10
63.3211
 20
43.6328
 11
63.5
 21
43.275
  0
LINE
  8
0
 10
63.6789
 20
43.6328
 11
63.5
 21
43.275
  0
LINE
  8
0
 10
63.7
 20
43.275
 11
62.5
 21
43.275
  0
LINE
  8
0
 10
44.4225
 20
12.6342
 11
44.4895
 21
12.6342
  0
LINE
  8
0
 10
44.4895
 20
12.6342
 11
44.4895
 21
11.8037
  0
LINE
  8
0
 10
44.4895
 20
11.8037
 11
44.3855
 21
11.8037
  0
LINE
  8
0
 10
44.3855
 20
11.8037
 11
44.3855
 21
12.4508
  0
LINE
  8
0
 10
44.3855
 20
12.4508
 11
44.2941
 21
12.3821
  0
LINE
  8
0
 10
44.2941
 20
12.3821
 11
44.1823
 21
12.3284
  0
LINE
  8
0
 10
44.1823
 20
12.3284
 11
44.1823
 21
12.4266
  0
LINE
  8
0
 10
44.1823
 20
12.4266
 11
44.2382
 21
12.4554
  0
LINE
  8
0
 10
44.2382
 20
12.4554
 11
44.2878
 21
12.4865
  0
ARC
  8
0
 10
44.0352
 20
12.8573
 40
0.448628
 50
304.2592
 51
324.0313
  0
LINE
  8
0
 10
44.3983
 20
12.5938
 11
44.4225
 21
12.6342
  0
LINE
  8
0
 10
44.9215
 20
11.9194
 11
44.9215
 21
11.8037
  0
LINE
  8
0
 10
44.9215
 20
11.8037
 11
44.8095
 21
11.8037
  0
LINE
  8
0
 10
44.8095
 20
11.8037
 11
44.8095
 21
11.9194
  0
LINE
  8
0
 10
44.8095
 20
11.9194
 11
44.9215
 21
11.9194
  0
ARC
  8
0
 10
45.2919
 20
12.4347
 40
0.193827
 50
94.4474
 51
250.3095
  0
ARC
  8
0
 10
45.3553
 20
12.4174
 40
0.224711
 50
344.0768
 51
470.4281
  0
ARC
  8
0
 10
45.4107
 20
12.4179
 40
0.172254
 50
285.9379
 51
338.8593
  0
ARC
  8
0
 10
45.3844
 20
12.0301
 40
0.233992
 50
277.2743
 51
431.6651
  0
LINE
  8
0
 10
45.414
 20
11.798
 11
45.3415
 21
11.7907
  0
ARC
  8
0
 10
45.3197
 20
12.0418
 40
0.252003
 50
147.0628
 51
274.959
  0
ARC
  8
0
 10
45.2691
 20
12.0516
 40
0.205063
 50
101.9603
 51
141.6882
  0
ARC
  8
0
 10
45.3392
 20
12.4168
 40
0.133908
 50
176.7834
 51
449.0148
  0
ARC
  8
0
 10
45.3338
 20
12.4225
 40
0.128393
 50
86.5976
 51
179.2006
  0
ARC
  8
0
 10
45.3411
 20
12.0407
 40
0.167603
 50
179.414
 51
450.7374
  0
ARC
  8
0
 10
45.3334
 20
12.0483
 40
0.160067
 50
88.0383
 51
182.113
  0
LINE
  8
0
 10
44.9
 20
13.2
 11
45.8
 21
13.2
  0
LINE
  8
0
 10
45.4422
 20
13.0211
 11
45.8
 21
13.2
  0
LINE
  8
0
 10
45.4422
 20
13.3789
 11
45.8
 21
13.2
  0
LINE
  8
0
 10
45.8
 20
13
 11
45.8
 21
14.2
  0
LINE
  8
0
 10
44.9
 20
13.2
 11
44
 21
13.2
  0
LINE
  8
0
 10
44.3578
 20
13.3789
 11
44
 21
13.2
  0
LINE
  8
0
 10
44.3578
 20
13.0211
 11
44
 21
13.2
  0
LINE
  8
0
 10
44
 20
13
 11
44
 21
14.2
  0
LINE
  8
0
 10
52.2065
 20
13.6342
 11
52.2735
 21
13.6342
  0
LINE
  8
0
 10
52.2735
 20
13.6342
 11
52.2735
 21
12.8037
  0
LINE
  8
0
 10
52.2735
 20
12.8037
 11
52.1695
 21
12.8037
  0
LINE
  8
0
 10
52.1695
 20
12.8037
 11
52.1695
 21
13.4508
  0
LINE
  8
0
 10
52.1695
 20
13.4508
 11
52.0781
 21
13.3821
  0
LINE
  8
0
 10
52.0781
 20
13.3821
 11
51.9663
 21
13.3284
  0
LINE
  8
0
 10
51.9663
 20
13.3284
 11
51.9663
 21
13.4266
  0
LINE
  8
0
 10
51.9663
 20
13.4266
 11
52.0222
 21
13.4554
  0
LINE
  8
0
 10
52.0222
 20
13.4554
 11
52.0718
 21
13.4865
  0
ARC
  8
0
 10
51.8192
 20
13.8573
 40
0.448628
 50
304.2592
 51
324.0313
  0
LINE
  8
0
 10
52.1823
 20
13.5938
 11
52.2065
 21
13.6342
  0
LINE
  8
0
 10
52.9615
 20
13.0018
 11
52.9615
 21
12.8037
  0
LINE
  8
0
 10
52.9615
 20
12.8037
 11
52.8575
 21
12.8037
  0
LINE
  8
0
 10
52.8575
 20
12.8037
 11
52.8575
 21
13.0018
  0
LINE
  8
0
 10
52.8575
 20
13.0018
 11
52.4987
 21
13.0018
  0
LINE
  8
0
 10
52.4987
 20
13.0018
 11
52.4987
 21
13.0948
  0
LINE
  8
0
 10
52.4987
 20
13.0948
 11
52.8765
 21
13.6308
  0
LINE
  8
0
 10
52.8765
 20
13.6308
 11
52.9615
 21
13.6308
  0
LINE
  8
0
 10
52.9615
 20
13.6308
 11
52.9615
 21
13.0948
  0
LINE
  8
0
 10
52.9615
 20
13.0948
 11
53.0732
 21
13.0948
  0
LINE
  8
0
 10
53.0732
 20
13.0948
 11
53.0732
 21
13.0018
  0
LINE
  8
0
 10
53.0732
 20
13.0018
 11
52.9615
 21
13.0018
  0
LINE
  8
0
 10
52.8575
 20
13.4678
 11
52.5985
 21
13.0948
  0
LINE
  8
0
 10
52.5985
 20
13.0948
 11
52.8575
 21
13.0948
  0
LINE
  8
0
 10
52.8575
 20
13.0948
 11
52.8575
 21
13.4678
  0
LINE
  8
0
 10
53.3455
 20
12.9194
 11
53.3455
 21
12.8037
  0
LINE
  8
0
 10
53.3455
 20
12.8037
 11
53.2335
 21
12.8037
  0
LINE
  8
0
 10
53.2335
 20
12.8037
 11
53.2335
 21
12.9194
  0
LINE
  8
0
 10
53.2335
 20
12.9194
 11
53.3455
 21
12.9194
  0
LINE
  8
0
 10
53.9255
 20
13.0018
 11
53.9255
 21
12.8037
  0
LINE
  8
0
 10
53.9255
 20
12.8037
 11
53.8215
 21
12.8037
  0
LINE
  8
0
 10
53.8215
 20
12.8037
 11
53.8215
 21
13.0018
  0
LINE
  8
0
 10
53.8215
 20
13.0018
 11
53.4627
 21
13.0018
  0
LINE
  8
0
 10
53.4627
 20
13.0018
 11
53.4627
 21
13.0948
  0
LINE
  8
0
 10
53.4627
 20
13.0948
 11
53.8405
 21
13.6308
  0
LINE
  8
0
 10
53.8405
 20
13.6308
 11
53.9255
 21
13.6308
  0
LINE
  8
0
 10
53.9255
 20
13.6308
 11
53.9255
 21
13.0948
  0
LINE
  8
0
 10
53.9255
 20
13.0948
 11
54.0372
 21
13.0948
  0
LINE
  8
0
 10
54.0372
 20
13.0948
 11
54.0372
 21
13.0018
  0
LINE
  8
0
 10
54.0372
 20
13.0018
 11
53.9255
 21
13.0018
  0
LINE
  8
0
 10
53.8215
 20
13.4678
 11
53.5625
 21
13.0948
  0
LINE
  8
0
 10
53.5625
 20
13.0948
 11
53.8215
 21
13.0948
  0
LINE
  8
0
 10
53.8215
 20
13.0948
 11
53.8215
 21
13.4678
  0
LINE
  8
0
 10
54.2346
 20
13.2
 11
60.2
 21
13.2
  0
LINE
  8
0
 10
59.8422
 20
13.0211
 11
60.2
 21
13.2
  0
LINE
  8
0
 10
59.8422
 20
13.3789
 11
60.2
 21
13.2
  0
LINE
  8
0
 10
60.2
 20
13
 11
60.2
 21
14.2
  0
LINE
  8
0
 10
51.7654
 20
13.2
 11
45.8
 21
13.2
  0
LINE
  8
0
 10
46.1578
 20
13.3789
 11
45.8
 21
13.2
  0
LINE
  8
0
 10
46.1578
 20
13.0211
 11
45.8
 21
13.2
  0
LINE
  8
0
 10
63.8038
 20
42.1472
 11
63.8038
 21
42.5517
  0
LINE
  8
0
 10
63.8038
 20
42.5517
 11
63.9015
 21
42.5517
  0
LINE
  8
0
 10
63.9015
 20
42.5517
 11
63.9015
 21
42.0065
  0
ARC
  8
0
 10
63.9008
 20
42.2322
 40
0.225673
 50
233.923
 51
270.1572
  0
LINE
  8
0
 10
63.768
 20
42.0498
 11
63.7209
 21
42.0849
  0
LINE
  8
0
 10
63.7209
 20
42.0849
 11
63.6628
 21
42.1408
  0
LINE
  8
0
 10
63.6628
 20
42.1408
 11
63.5956
 21
42.2181
  0
LINE
  8
0
 10
63.5956
 20
42.2181
 11
63.5566
 21
42.2655
  0
LINE
  8
0
 10
63.5566
 20
42.2655
 11
63.522
 21
42.3052
  0
LINE
  8
0
 10
63.522
 20
42.3052
 11
63.4918
 21
42.3375
  0
LINE
  8
0
 10
63.4918
 20
42.3375
 11
63.4659
 21
42.3625
  0
LINE
  8
0
 10
63.4659
 20
42.3625
 11
63.4209
 21
42.3998
  0
ARC
  8
0
 10
63.2805
 20
42.2213
 40
0.227107
 50
51.8057
 51
85.4952
  0
ARC
  8
0
 10
63.3143
 20
42.2892
 40
0.159281
 50
95.745
 51
272.3814
  0
LINE
  8
0
 10
63.3209
 20
42.1301
 11
63.3101
 21
42.0257
  0
ARC
  8
0
 10
63.3138
 20
42.2698
 40
0.244088
 50
174.2388
 51
269.1391
  0
ARC
  8
0
 10
63.3715
 20
42.2999
 40
0.300554
 50
155.8119
 51
181.0841
  0
ARC
  8
0
 10
63.3045
 20
42.3237
 40
0.229817
 50
50.9483
 51
154.3817
  0
LINE
  8
0
 10
63.4493
 20
42.5022
 11
63.4991
 21
42.4637
  0
LINE
  8
0
 10
63.4991
 20
42.4637
 11
63.5289
 21
42.4358
  0
LINE
  8
0
 10
63.5289
 20
42.4358
 11
63.5629
 21
42.4008
  0
LINE
  8
0
 10
63.5629
 20
42.4008
 11
63.6014
 21
42.3581
  0
LINE
  8
0
 10
63.6014
 20
42.3581
 11
63.6448
 21
42.3074
  0
LINE
  8
0
 10
63.6448
 20
42.3074
 11
63.6726
 21
42.2741
  0
LINE
  8
0
 10
63.6726
 20
42.2741
 11
63.6941
 21
42.2487
  0
LINE
  8
0
 10
63.6941
 20
42.2487
 11
63.7094
 21
42.2311
  0
LINE
  8
0
 10
63.7094
 20
42.2311
 11
63.7186
 21
42.2211
  0
LINE
  8
0
 10
63.7186
 20
42.2211
 11
63.7404
 21
42.1986
  0
LINE
  8
0
 10
63.7404
 20
42.1986
 11
63.7618
 21
42.1788
  0
LINE
  8
0
 10
63.7618
 20
42.1788
 11
63.7829
 21
42.1616
  0
LINE
  8
0
 10
63.7829
 20
42.1616
 11
63.8038
 21
42.1472
  0
LINE
  8
0
 10
63.5
 20
42.7514
 11
63.5
 21
43.275
  0
LINE
  8
0
 10
63.6789
 20
42.9172
 11
63.5
 21
43.275
  0
LINE
  8
0
 10
63.3211
 20
42.9172
 11
63.5
 21
43.275
  0
LINE
  8
0
 10
63.5
 20
41.7986
 11
63.5
 21
41.275
  0
LINE
  8
0
 10
63.3211
 20
41.6328
 11
63.5
 21
41.275
  0
LINE
  8
0
 10
63.6789
 20
41.6328
 11
63.5
 21
41.275
  0
LINE
  8
0
 10
63.7
 20
41.275
 11
62.5
 21
41.275
  0
ARC
  8
0
 10
63.2899
 20
37.2083
 40
0.168682
 50
268.0635
 51
345.0693
  0
ARC
  8
0
 10
63.2836
 20
37.2538
 40
0.214091
 50
173.4363
 51
270.1505
  0
ARC
  8
0
 10
63.3174
 20
37.2884
 40
0.246688
 50
129.4496
 51
182.3541
  0
ARC
  8
0
 10
63.2798
 20
37.3422
 40
0.181337
 50
17.3576
 51
131.0657
  0
ARC
  8
0
 10
63.675
 20
37.3226
 40
0.233992
 50
7.2743
 51
161.6651
  0
ARC
  8
0
 10
63.6566
 20
37.271
 40
0.263364
 50
271.2181
 51
377.9759
  0
ARC
  8
0
 10
63.6535
 20
37.2423
 40
0.234798
 50
243.4498
 51
272.1233
  0
ARC
  8
0
 10
63.6478
 20
37.2047
 40
0.198958
 50
191.5714
 51
240.0755
  0
ARC
  8
0
 10
63.2778
 20
37.2798
 40
0.136154
 50
271.2734
 51
446.3572
  0
ARC
  8
0
 10
63.2889
 20
37.2796
 40
0.136129
 50
91.0061
 51
266.6245
  0
ARC
  8
0
 10
63.666
 20
37.2797
 40
0.168015
 50
268.9119
 51
449.9159
  0
ARC
  8
0
 10
63.6649
 20
37.2797
 40
0.168009
 50
89.5489
 51
269.2788
  0
LINE
  8
0
 10
63.5
 20
37.7514
 11
63.5
 21
41.275
  0
LINE
  8
0
 10
63.6789
 20
40.9172
 11
63.5
 21
41.275
  0
LINE
  8
0
 10
63.3211
 20
40.9172
 11
63.5
 21
41.275
  0
LINE
  8
0
 10
63.5
 20
36.7986
 11
63.5
 21
33.275
  0
LINE
  8
0
 10
63.3211
 20
33.6328
 11
63.5
 21
33.275
  0
LINE
  8
0
 10
63.6789
 20
33.6328
 11
63.5
 21
33.275
  0
LINE
  8
0
 10
63.7
 20
33.275
 11
62.5
 21
33.275
  0
LINE
  8
0
 10
45.1316
 20
11.0221
 11
45.2332
 21
11.0356
  0
ARC
  8
0
 10
45.5217
 20
11.0876
 40
0.293173
 50
190.2152
 51
208.9749
  0
ARC
  8
0
 10
45.4018
 20
11.0403
 40
0.166279
 50
214.7389
 51
450.3669
  0
LINE
  8
0
 10
45.4008
 20
11.2066
 11
45.3687
 21
11.2037
  0
LINE
  8
0
 10
45.3687
 20
11.2037
 11
45.3291
 21
11.1953
  0
LINE
  8
0
 10
45.3291
 20
11.1953
 11
45.3404
 21
11.2844
  0
ARC
  8
0
 10
45.3545
 20
11.3695
 40
0.0862325
 50
260.6145
 51
271.4952
  0
ARC
  8
0
 10
45.3629
 20
11.4898
 40
0.206674
 50
268.2942
 51
286.2722
  0
ARC
  8
0
 10
45.3945
 20
11.4198
 40
0.130996
 50
281.5807
 51
451.948
  0
ARC
  8
0
 10
45.3833
 20
11.4132
 40
0.137691
 50
87.1947
 51
171.6659
  0
LINE
  8
0
 10
45.2471
 20
11.4331
 11
45.2405
 21
11.4018
  0
LINE
  8
0
 10
45.2405
 20
11.4018
 11
45.139
 21
11.4198
  0
ARC
  8
0
 10
45.3677
 20
11.4264
 40
0.228809
 50
310.2325
 51
541.6416
  0
ARC
  8
0
 10
45.4238
 20
11.0291
 40
0.240745
 50
263.0222
 51
427.6129
  0
ARC
  8
0
 10
45.3792
 20
11.0378
 40
0.248125
 50
183.6311
 51
273.5378
  0
LINE
  8
0
 10
45.9375
 20
10.9194
 11
45.9375
 21
10.8037
  0
LINE
  8
0
 10
45.9375
 20
10.8037
 11
45.8255
 21
10.8037
  0
LINE
  8
0
 10
45.8255
 20
10.8037
 11
45.8255
 21
10.9194
  0
LINE
  8
0
 10
45.8255
 20
10.9194
 11
45.9375
 21
10.9194
  0
ARC
  8
0
 10
46.3079
 20
11.4347
 40
0.193827
 50
94.4474
 51
250.3095
  0
ARC
  8
0
 10
46.3713
 20
11.4174
 40
0.224711
 50
344.0768
 51
470.4281
  0
ARC
  8
0
 10
46.4267
 20
11.4179
 40
0.172254
 50
285.9379
 51
338.8593
  0
ARC
  8
0
 10
46.4004
 20
11.0301
 40
0.233992
 50
277.2743
 51
431.6651
  0
LINE
  8
0
 10
46.43
 20
10.798
 11
46.3575
 21
10.7907
  0
ARC
  8
0
 10
46.3357
 20
11.0418
 40
0.252003
 50
147.0628
 51
274.959
  0
ARC
  8
0
 10
46.2851
 20
11.0516
 40
0.205063
 50
101.9603
 51
141.6882
  0
ARC
  8
0
 10
46.3552
 20
11.4168
 40
0.133908
 50
176.7834
 51
449.0148
  0
ARC
  8
0
 10
46.3498
 20
11.4225
 40
0.128393
 50
86.5976
 51
179.2006
  0
ARC
  8
0
 10
46.3571
 20
11.0407
 40
0.167603
 50
179.414
 51
450.7374
  0
ARC
  8
0
 10
46.3494
 20
11.0483
 40
0.160067
 50
88.0383
 51
182.113
  0
LINE
  8
0
 10
46.8339
 20
11.2
 11
47.76
 21
11.2
  0
LINE
  8
0
 10
47.4022
 20
11.0211
 11
47.76
 21
11.2
  0
LINE
  8
0
 10
47.4022
 20
11.3789
 11
47.76
 21
11.2
  0
LINE
  8
0
 10
47.76
 20
11
 11
47.76
 21
12.2
  0
LINE
  8
0
 10
44.9261
 20
11.2
 11
44
 21
11.2
  0
LINE
  8
0
 10
44.3578
 20
11.3789
 11
44
 21
11.2
  0
LINE
  8
0
 10
44.3578
 20
11.0211
 11
44
 21
11.2
  0
LINE
  8
0
 10
44
 20
11
 11
44
 21
12.2
  0
LINE
  8
0
 10
52.2065
 20
11.6342
 11
52.2735
 21
11.6342
  0
LINE
  8
0
 10
52.2735
 20
11.6342
 11
52.2735
 21
10.8037
  0
LINE
  8
0
 10
52.2735
 20
10.8037
 11
52.1695
 21
10.8037
  0
LINE
  8
0
 10
52.1695
 20
10.8037
 11
52.1695
 21
11.4508
  0
LINE
  8
0
 10
52.1695
 20
11.4508
 11
52.0781
 21
11.3821
  0
LINE
  8
0
 10
52.0781
 20
11.3821
 11
51.9663
 21
11.3284
  0
LINE
  8
0
 10
51.9663
 20
11.3284
 11
51.9663
 21
11.4266
  0
LINE
  8
0
 10
51.9663
 20
11.4266
 11
52.0222
 21
11.4554
  0
LINE
  8
0
 10
52.0222
 20
11.4554
 11
52.0718
 21
11.4865
  0
ARC
  8
0
 10
51.8192
 20
11.8573
 40
0.448628
 50
304.2592
 51
324.0313
  0
LINE
  8
0
 10
52.1823
 20
11.5938
 11
52.2065
 21
11.6342
  0
LINE
  8
0
 10
52.5295
 20
11.2116
 11
52.5307
 21
11.265
  0
LINE
  8
0
 10
52.5307
 20
11.265
 11
52.5343
 21
11.3149
  0
LINE
  8
0
 10
52.5343
 20
11.3149
 11
52.5402
 21
11.3612
  0
LINE
  8
0
 10
52.5402
 20
11.3612
 11
52.5486
 21
11.4039
  0
ARC
  8
0
 10
52.9678
 20
11.3097
 40
0.429618
 50
152.0887
 51
167.3317
  0
ARC
  8
0
 10
52.8168
 20
11.3867
 40
0.260175
 50
130.1044
 51
151.5122
  0
ARC
  8
0
 10
52.7991
 20
11.3934
 40
0.243814
 50
16.5572
 51
127.9332
  0
ARC
  8
0
 10
52.5753
 20
11.2847
 40
0.490927
 50
4.4112
 51
21.2762
  0
LINE
  8
0
 10
53.0648
 20
11.3225
 11
53.0695
 21
11.2116
  0
LINE
  8
0
 10
53.0695
 20
11.2116
 11
53.0683
 21
11.1583
  0
LINE
  8
0
 10
53.0683
 20
11.1583
 11
53.0647
 21
11.1086
  0
LINE
  8
0
 10
53.0647
 20
11.1086
 11
53.0587
 21
11.0624
  0
LINE
  8
0
 10
53.0587
 20
11.0624
 11
53.0503
 21
11.0197
  0
ARC
  8
0
 10
52.6321
 20
11.1139
 40
0.428719
 50
332.0553
 51
347.3108
  0
ARC
  8
0
 10
52.7822
 20
11.0372
 40
0.260134
 50
310.0806
 51
331.4784
  0
ARC
  8
0
 10
52.8091
 20
11.0218
 40
0.23133
 50
267.6115
 51
307.4328
  0
ARC
  8
0
 10
52.788
 20
11.0188
 40
0.228404
 50
199.6616
 51
272.8716
  0
ARC
  8
0
 10
52.9546
 20
11.1042
 40
0.414704
 50
196.6891
 51
203.0279
  0
ARC
  8
0
 10
53.0729
 20
11.1398
 40
0.538297
 50
191.3759
 51
196.7026
  0
ARC
  8
0
 10
53.2323
 20
11.1721
 40
0.700921
 50
186.9237
 51
191.3905
  0
LINE
  8
0
 10
52.5365
 20
11.0876
 11
52.5335
 21
11.1165
  0
LINE
  8
0
 10
52.5335
 20
11.1165
 11
52.5313
 21
11.1469
  0
LINE
  8
0
 10
52.5313
 20
11.1469
 11
52.5299
 21
11.1786
  0
LINE
  8
0
 10
52.5299
 20
11.1786
 11
52.5295
 21
11.2116
  0
LINE
  8
0
 10
52.6335
 20
11.2116
 11
52.6359
 21
11.1267
  0
LINE
  8
0
 10
52.6359
 20
11.1267
 11
52.6433
 21
11.0564
  0
LINE
  8
0
 10
52.6433
 20
11.0564
 11
52.6556
 21
11.0006
  0
ARC
  8
0
 10
52.8741
 20
11.0608
 40
0.226627
 50
195.4018
 51
220.0495
  0
ARC
  8
0
 10
52.7989
 20
11.0068
 40
0.134553
 50
223.0483
 51
338.3239
  0
ARC
  8
0
 10
52.6601
 20
11.0847
 40
0.293102
 50
334.2003
 51
342.9907
  0
ARC
  8
0
 10
52.513
 20
11.1302
 40
0.447079
 50
342.9312
 51
349.5636
  0
LINE
  8
0
 10
52.9527
 20
11.0492
 11
52.9573
 21
11.0775
  0
LINE
  8
0
 10
52.9573
 20
11.0775
 11
52.9609
 21
11.1079
  0
LINE
  8
0
 10
52.9609
 20
11.1079
 11
52.9634
 21
11.1404
  0
LINE
  8
0
 10
52.9634
 20
11.1404
 11
52.965
 21
11.1749
  0
LINE
  8
0
 10
52.965
 20
11.1749
 11
52.9655
 21
11.2116
  0
LINE
  8
0
 10
52.9655
 20
11.2116
 11
52.963
 21
11.2965
  0
LINE
  8
0
 10
52.963
 20
11.2965
 11
52.9556
 21
11.3668
  0
ARC
  8
0
 10
52.6447
 20
11.3276
 40
0.313419
 50
7.1912
 51
30.116
  0
ARC
  8
0
 10
52.8013
 20
11.4172
 40
0.132936
 50
30.5759
 51
91.2917
  0
ARC
  8
0
 10
52.7989
 20
11.4085
 40
0.141584
 50
90.225
 51
168.117
  0
LINE
  8
0
 10
52.6603
 20
11.4377
 11
52.6507
 21
11.4031
  0
LINE
  8
0
 10
52.6507
 20
11.4031
 11
52.6431
 21
11.3632
  0
LINE
  8
0
 10
52.6431
 20
11.3632
 11
52.6378
 21
11.318
  0
LINE
  8
0
 10
52.6378
 20
11.318
 11
52.6345
 21
11.2675
  0
LINE
  8
0
 10
52.6345
 20
11.2675
 11
52.6335
 21
11.2116
  0
LINE
  8
0
 10
53.3455
 20
10.9194
 11
53.3455
 21
10.8037
  0
LINE
  8
0
 10
53.3455
 20
10.8037
 11
53.2335
 21
10.8037
  0
LINE
  8
0
 10
53.2335
 20
10.8037
 11
53.2335
 21
10.9194
  0
LINE
  8
0
 10
53.2335
 20
10.9194
 11
53.3455
 21
10.9194
  0
LINE
  8
0
 10
53.9255
 20
11.0018
 11
53.9255
 21
10.8037
  0
LINE
  8
0
 10
53.9255
 20
10.8037
 11
53.8215
 21
10.8037
  0
LINE
  8
0
 10
53.8215
 20
10.8037
 11
53.8215
 21
11.0018
  0
LINE
  8
0
 10
53.8215
 20
11.0018
 11
53.4627
 21
11.0018
  0
LINE
  8
0
 10
53.4627
 20
11.0018
 11
53.4627
 21
11.0948
  0
LINE
  8
0
 10
53.4627
 20
11.0948
 11
53.8405
 21
11.6308
  0
LINE
  8
0
 10
53.8405
 20
11.6308
 11
53.9255
 21
11.6308
  0
LINE
  8
0
 10
53.9255
 20
11.6308
 11
53.9255
 21
11.0948
  0
LINE
  8
0
 10
53.9255
 20
11.0948
 11
54.0372
 21
11.0948
  0
LINE
  8
0
 10
54.0372
 20
11.0948
 11
54.0372
 21
11.0018
  0
LINE
  8
0
 10
54.0372
 20
11.0018
 11
53.9255
 21
11.0018
  0
LINE
  8
0
 10
53.8215
 20
11.4678
 11
53.5625
 21
11.0948
  0
LINE
  8
0
 10
53.5625
 20
11.0948
 11
53.8215
 21
11.0948
  0
LINE
  8
0
 10
53.8215
 20
11.0948
 11
53.8215
 21
11.4678
  0
LINE
  8
0
 10
54.2346
 20
11.2
 11
58.24
 21
11.2
  0
LINE
  8
0
 10
57.8822
 20
11.0211
 11
58.24
 21
11.2
  0
LINE
  8
0
 10
57.8822
 20
11.3789
 11
58.24
 21
11.2
  0
LINE
  8
0
 10
58.24
 20
11
 11
58.24
 21
12.2
  0
LINE
  8
0
 10
51.7654
 20
11.2
 11
47.76
 21
11.2
  0
LINE
  8
0
 10
48.1178
 20
11.3789
 11
47.76
 21
11.2
  0
LINE
  8
0
 10
48.1178
 20
11.0211
 11
47.76
 21
11.2
  0
LINE
  8
0
 10
63.8038
 20
32.1472
 11
63.8038
 21
32.5517
  0
LINE
  8
0
 10
63.8038
 20
32.5517
 11
63.9015
 21
32.5517
  0
LINE
  8
0
 10
63.9015
 20
32.5517
 11
63.9015
 21
32.0065
  0
ARC
  8
0
 10
63.9008
 20
32.2322
 40
0.225673
 50
233.923
 51
270.1572
  0
LINE
  8
0
 10
63.768
 20
32.0498
 11
63.7209
 21
32.0849
  0
LINE
  8
0
 10
63.7209
 20
32.0849
 11
63.6628
 21
32.1408
  0
LINE
  8
0
 10
63.6628
 20
32.1408
 11
63.5956
 21
32.2181
  0
LINE
  8
0
 10
63.5956
 20
32.2181
 11
63.5566
 21
32.2655
  0
LINE
  8
0
 10
63.5566
 20
32.2655
 11
63.522
 21
32.3052
  0
LINE
  8
0
 10
63.522
 20
32.3052
 11
63.4918
 21
32.3375
  0
LINE
  8
0
 10
63.4918
 20
32.3375
 11
63.4659
 21
32.3625
  0
LINE
  8
0
 10
63.4659
 20
32.3625
 11
63.4209
 21
32.3998
  0
ARC
  8
0
 10
63.2805
 20
32.2213
 40
0.227107
 50
51.8057
 51
85.4952
  0
ARC
  8
0
 10
63.3143
 20
32.2892
 40
0.159281
 50
95.745
 51
272.3814
  0
LINE
  8
0
 10
63.3209
 20
32.1301
 11
63.3101
 21
32.0257
  0
ARC
  8
0
 10
63.3138
 20
32.2698
 40
0.244088
 50
174.2388
 51
269.1391
  0
ARC
  8
0
 10
63.3715
 20
32.2999
 40
0.300554
 50
155.8119
 51
181.0841
  0
ARC
  8
0
 10
63.3045
 20
32.3237
 40
0.229817
 50
50.9483
 51
154.3817
  0
LINE
  8
0
 10
63.4493
 20
32.5022
 11
63.4991
 21
32.4637
  0
LINE
  8
0
 10
63.4991
 20
32.4637
 11
63.5289
 21
32.4358
  0
LINE
  8
0
 10
63.5289
 20
32.4358
 11
63.5629
 21
32.4008
  0
LINE
  8
0
 10
63.5629
 20
32.4008
 11
63.6014
 21
32.3581
  0
LINE
  8
0
 10
63.6014
 20
32.3581
 11
63.6448
 21
32.3074
  0
LINE
  8
0
 10
63.6448
 20
32.3074
 11
63.6726
 21
32.2741
  0
LINE
  8
0
 10
63.6726
 20
32.2741
 11
63.6941
 21
32.2487
  0
LINE
  8
0
 10
63.6941
 20
32.2487
 11
63.7094
 21
32.2311
  0
LINE
  8
0
 10
63.7094
 20
32.2311
 11
63.7186
 21
32.2211
  0
LINE
  8
0
 10
63.7186
 20
32.2211
 11
63.7404
 21
32.1986
  0
LINE
  8
0
 10
63.7404
 20
32.1986
 11
63.7618
 21
32.1788
  0
LINE
  8
0
 10
63.7618
 20
32.1788
 11
63.7829
 21
32.1616
  0
LINE
  8
0
 10
63.7829
 20
32.1616
 11
63.8038
 21
32.1472
  0
LINE
  8
0
 10
63.5
 20
32.7514
 11
63.5
 21
33.275
  0
LINE
  8
0
 10
63.6789
 20
32.9172
 11
63.5
 21
33.275
  0
LINE
  8
0
 10
63.3211
 20
32.9172
 11
63.5
 21
33.275
  0
LINE
  8
0
 10
63.5
 20
31.7986
 11
63.5
 21
31.275
  0
LINE
  8
0
 10
63.3211
 20
31.6328
 11
63.5
 21
31.275
  0
LINE
  8
0
 10
63.6789
 20
31.6328
 11
63.5
 21
31.275
  0
LINE
  8
0
 10
63.7
 20
31.275
 11
62.5
 21
31.275
  0
LINE
  8
0
 10
64.4935
 20
30.1477
 11
64.4401
 21
30.1489
  0
LINE
  8
0
 10
64.4401
 20
30.1489
 11
64.3903
 21
30.1525
  0
LINE
  8
0
 10
64.3903
 20
30.1525
 11
64.344
 21
30.1585
  0
LINE
  8
0
 10
64.344
 20
30.1585
 11
64.3013
 21
30.1669
  0
ARC
  8
0
 10
64.3955
 20
30.586
 40
0.429618
 50
242.0887
 51
257.3317
  0
ARC
  8
0
 10
64.3185
 20
30.435
 40
0.260175
 50
220.1044
 51
241.5122
  0
ARC
  8
0
 10
64.3118
 20
30.4173
 40
0.243814
 50
106.5572
 51
217.9332
  0
ARC
  8
0
 10
64.4204
 20
30.1936
 40
0.490927
 50
94.4112
 51
111.2762
  0
LINE
  8
0
 10
64.3827
 20
30.683
 11
64.4935
 21
30.6877
  0
LINE
  8
0
 10
64.4935
 20
30.6877
 11
64.5468
 21
30.6865
  0
LINE
  8
0
 10
64.5468
 20
30.6865
 11
64.5966
 21
30.6829
  0
LINE
  8
0
 10
64.5966
 20
30.6829
 11
64.6428
 21
30.6769
  0
LINE
  8
0
 10
64.6428
 20
30.6769
 11
64.6855
 21
30.6685
  0
ARC
  8
0
 10
64.5913
 20
30.2503
 40
0.428719
 50
62.0553
 51
77.3108
  0
ARC
  8
0
 10
64.668
 20
30.4005
 40
0.260134
 50
40.0805
 51
61.4784
  0
ARC
  8
0
 10
64.6833
 20
30.4273
 40
0.23133
 50
357.6115
 51
397.4328
  0
ARC
  8
0
 10
64.6608
 20
30.4118
 40
0.253746
 50
334.8215
 51
361.33
  0
ARC
  8
0
 10
64.6857
 20
30.4089
 40
0.230065
 50
294.9421
 51
332.8455
  0
ARC
  8
0
 10
64.6123
 20
30.5415
 40
0.381414
 50
286.4122
 51
296.5417
  0
ARC
  8
0
 10
64.5654
 20
30.6912
 40
0.538297
 50
281.3759
 51
286.7026
  0
ARC
  8
0
 10
64.5331
 20
30.8506
 40
0.700921
 50
276.9237
 51
281.3906
  0
LINE
  8
0
 10
64.6176
 20
30.1548
 11
64.5886
 21
30.1517
  0
LINE
  8
0
 10
64.5886
 20
30.1517
 11
64.5583
 21
30.1495
  0
LINE
  8
0
 10
64.5583
 20
30.1495
 11
64.5266
 21
30.1482
  0
LINE
  8
0
 10
64.5266
 20
30.1482
 11
64.4935
 21
30.1477
  0
LINE
  8
0
 10
64.4935
 20
30.2517
 11
64.5784
 21
30.2542
  0
LINE
  8
0
 10
64.5784
 20
30.2542
 11
64.6487
 21
30.2615
  0
LINE
  8
0
 10
64.6487
 20
30.2615
 11
64.7045
 21
30.2738
  0
ARC
  8
0
 10
64.6443
 20
30.4923
 40
0.226627
 50
285.4018
 51
310.0495
  0
ARC
  8
0
 10
64.6983
 20
30.4172
 40
0.134553
 50
313.0483
 51
428.3239
  0
ARC
  8
0
 10
64.6204
 20
30.2783
 40
0.293102
 50
64.2003
 51
72.9907
  0
ARC
  8
0
 10
64.575
 20
30.1312
 40
0.447079
 50
72.9312
 51
79.5635
  0
LINE
  8
0
 10
64.6559
 20
30.5709
 11
64.6277
 21
30.5755
  0
LINE
  8
0
 10
64.6277
 20
30.5755
 11
64.5973
 21
30.5791
  0
LINE
  8
0
 10
64.5973
 20
30.5791
 11
64.5648
 21
30.5816
  0
LINE
  8
0
 10
64.5648
 20
30.5816
 11
64.5302
 21
30.5832
  0
LINE
  8
0
 10
64.5302
 20
30.5832
 11
64.4935
 21
30.5837
  0
LINE
  8
0
 10
64.4935
 20
30.5837
 11
64.4087
 21
30.5812
  0
LINE
  8
0
 10
64.4087
 20
30.5812
 11
64.3383
 21
30.5739
  0
ARC
  8
0
 10
64.3776
 20
30.2629
 40
0.313419
 50
97.1912
 51
120.116
  0
ARC
  8
0
 10
64.2949
 20
30.4157
 40
0.139846
 50
122.2204
 51
258.6948
  0
LINE
  8
0
 10
64.2675
 20
30.2786
 11
64.302
 21
30.2689
  0
LINE
  8
0
 10
64.302
 20
30.2689
 11
64.3419
 21
30.2614
  0
LINE
  8
0
 10
64.3419
 20
30.2614
 11
64.3871
 21
30.256
  0
LINE
  8
0
 10
64.3871
 20
30.256
 11
64.4377
 21
30.2528
  0
LINE
  8
0
 10
64.4377
 20
30.2528
 11
64.4935
 21
30.2517
  0
LINE
  8
0
 10
64.7858
 20
30.9637
 11
64.9015
 21
30.9637
  0
LINE
  8
0
 10
64.9015
 20
30.9637
 11
64.9015
 21
30.8517
  0
LINE
  8
0
 10
64.9015
 20
30.8517
 11
64.7858
 21
30.8517
  0
LINE
  8
0
 10
64.7858
 20
30.8517
 11
64.7858
 21
30.9637
  0
ARC
  8
0
 10
64.2899
 20
31.3123
 40
0.168682
 50
268.0635
 51
345.0693
  0
ARC
  8
0
 10
64.2836
 20
31.3578
 40
0.214091
 50
173.4363
 51
270.1505
  0
ARC
  8
0
 10
64.3174
 20
31.3924
 40
0.246688
 50
129.4496
 51
182.3541
  0
ARC
  8
0
 10
64.2798
 20
31.4462
 40
0.181337
 50
17.3576
 51
131.0657
  0
ARC
  8
0
 10
64.675
 20
31.4266
 40
0.233992
 50
7.2743
 51
161.6651
  0
ARC
  8
0
 10
64.6566
 20
31.375
 40
0.263364
 50
271.2181
 51
377.9759
  0
ARC
  8
0
 10
64.6535
 20
31.3463
 40
0.234798
 50
243.4498
 51
272.1233
  0
ARC
  8
0
 10
64.6478
 20
31.3087
 40
0.198958
 50
191.5714
 51
240.0755
  0
ARC
  8
0
 10
64.2778
 20
31.3838
 40
0.136154
 50
271.2734
 51
446.3572
  0
ARC
  8
0
 10
64.2889
 20
31.3836
 40
0.136129
 50
91.0061
 51
266.6245
  0
ARC
  8
0
 10
64.666
 20
31.3837
 40
0.168015
 50
268.9119
 51
449.9159
  0
ARC
  8
0
 10
64.6649
 20
31.3837
 40
0.168009
 50
89.5489
 51
269.2788
  0
LINE
  8
0
 10
63.7
 20
30.525
 11
62.5
 21
30.525
  0
LINE
  8
0
 10
43.6175
 20
8.2116
 11
43.6187
 21
8.265
  0
LINE
  8
0
 10
43.6187
 20
8.265
 11
43.6223
 21
8.3149
  0
LINE
  8
0
 10
43.6223
 20
8.3149
 11
43.6282
 21
8.3612
  0
LINE
  8
0
 10
43.6282
 20
8.3612
 11
43.6366
 21
8.4039
  0
ARC
  8
0
 10
44.0558
 20
8.3097
 40
0.429618
 50
152.0887
 51
167.3317
  0
ARC
  8
0
 10
43.9048
 20
8.3867
 40
0.260175
 50
130.1044
 51
151.5122
  0
ARC
  8
0
 10
43.8871
 20
8.3934
 40
0.243814
 50
16.5572
 51
127.9332
  0
ARC
  8
0
 10
43.6633
 20
8.2847
 40
0.490927
 50
4.4112
 51
21.2762
  0
LINE
  8
0
 10
44.1528
 20
8.3225
 11
44.1575
 21
8.2116
  0
LINE
  8
0
 10
44.1575
 20
8.2116
 11
44.1563
 21
8.1583
  0
LINE
  8
0
 10
44.1563
 20
8.1583
 11
44.1527
 21
8.1086
  0
LINE
  8
0
 10
44.1527
 20
8.1086
 11
44.1467
 21
8.0624
  0
LINE
  8
0
 10
44.1467
 20
8.0624
 11
44.1383
 21
8.0197
  0
ARC
  8
0
 10
43.7201
 20
8.1139
 40
0.428719
 50
332.0553
 51
347.3108
  0
ARC
  8
0
 10
43.8702
 20
8.0372
 40
0.260134
 50
310.0806
 51
331.4784
  0
ARC
  8
0
 10
43.8971
 20
8.0218
 40
0.23133
 50
267.6115
 51
307.4328
  0
ARC
  8
0
 10
43.876
 20
8.0188
 40
0.228404
 50
199.6616
 51
272.8716
  0
ARC
  8
0
 10
44.0426
 20
8.1042
 40
0.414704
 50
196.6891
 51
203.0279
  0
ARC
  8
0
 10
44.1609
 20
8.1398
 40
0.538297
 50
191.3759
 51
196.7026
  0
ARC
  8
0
 10
44.3203
 20
8.1721
 40
0.700921
 50
186.9237
 51
191.3905
  0
LINE
  8
0
 10
43.6245
 20
8.0876
 11
43.6215
 21
8.1165
  0
LINE
  8
0
 10
43.6215
 20
8.1165
 11
43.6193
 21
8.1469
  0
LINE
  8
0
 10
43.6193
 20
8.1469
 11
43.6179
 21
8.1786
  0
LINE
  8
0
 10
43.6179
 20
8.1786
 11
43.6175
 21
8.2116
  0
LINE
  8
0
 10
43.7215
 20
8.2116
 11
43.7239
 21
8.1267
  0
LINE
  8
0
 10
43.7239
 20
8.1267
 11
43.7313
 21
8.0564
  0
LINE
  8
0
 10
43.7313
 20
8.0564
 11
43.7436
 21
8.0006
  0
ARC
  8
0
 10
43.9621
 20
8.0608
 40
0.226627
 50
195.4018
 51
220.0495
  0
ARC
  8
0
 10
43.8869
 20
8.0068
 40
0.134553
 50
223.0483
 51
338.3239
  0
ARC
  8
0
 10
43.7481
 20
8.0847
 40
0.293102
 50
334.2003
 51
342.9907
  0
ARC
  8
0
 10
43.601
 20
8.1302
 40
0.447079
 50
342.9312
 51
349.5636
  0
LINE
  8
0
 10
44.0407
 20
8.0492
 11
44.0453
 21
8.0775
  0
LINE
  8
0
 10
44.0453
 20
8.0775
 11
44.0489
 21
8.1079
  0
LINE
  8
0
 10
44.0489
 20
8.1079
 11
44.0514
 21
8.1404
  0
LINE
  8
0
 10
44.0514
 20
8.1404
 11
44.053
 21
8.1749
  0
LINE
  8
0
 10
44.053
 20
8.1749
 11
44.0535
 21
8.2116
  0
LINE
  8
0
 10
44.0535
 20
8.2116
 11
44.051
 21
8.2965
  0
LINE
  8
0
 10
44.051
 20
8.2965
 11
44.0436
 21
8.3668
  0
ARC
  8
0
 10
43.7327
 20
8.3276
 40
0.313419
 50
7.1912
 51
30.116
  0
ARC
  8
0
 10
43.8893
 20
8.4172
 40
0.132936
 50
30.5759
 51
91.2917
  0
ARC
  8
0
 10
43.8869
 20
8.4085
 40
0.141584
 50
90.225
 51
168.117
  0
LINE
  8
0
 10
43.7483
 20
8.4377
 11
43.7387
 21
8.4031
  0
LINE
  8
0
 10
43.7387
 20
8.4031
 11
43.7311
 21
8.3632
  0
LINE
  8
0
 10
43.7311
 20
8.3632
 11
43.7258
 21
8.318
  0
LINE
  8
0
 10
43.7258
 20
8.318
 11
43.7225
 21
8.2675
  0
LINE
  8
0
 10
43.7225
 20
8.2675
 11
43.7215
 21
8.2116
  0
LINE
  8
0
 10
44.4335
 20
7.9194
 11
44.4335
 21
7.8037
  0
LINE
  8
0
 10
44.4335
 20
7.8037
 11
44.3215
 21
7.8037
  0
LINE
  8
0
 10
44.3215
 20
7.8037
 11
44.3215
 21
7.9194
  0
LINE
  8
0
 10
44.3215
 20
7.9194
 11
44.4335
 21
7.9194
  0
ARC
  8
0
 10
44.8039
 20
8.4348
 40
0.193827
 50
94.4474
 51
250.3095
  0
ARC
  8
0
 10
44.8673
 20
8.4174
 40
0.224711
 50
344.0768
 51
470.4281
  0
ARC
  8
0
 10
44.9227
 20
8.4179
 40
0.172254
 50
285.9379
 51
338.8593
  0
ARC
  8
0
 10
44.8964
 20
8.0301
 40
0.233992
 50
277.2743
 51
431.6651
  0
LINE
  8
0
 10
44.926
 20
7.798
 11
44.8535
 21
7.7907
  0
ARC
  8
0
 10
44.8317
 20
8.0418
 40
0.252003
 50
147.0628
 51
274.959
  0
ARC
  8
0
 10
44.7811
 20
8.0516
 40
0.205063
 50
101.9603
 51
141.6882
  0
ARC
  8
0
 10
44.8512
 20
8.4168
 40
0.133908
 50
176.7834
 51
449.0148
  0
ARC
  8
0
 10
44.8458
 20
8.4225
 40
0.128393
 50
86.5976
 51
179.2006
  0
ARC
  8
0
 10
44.8531
 20
8.0407
 40
0.167603
 50
179.414
 51
450.7374
  0
ARC
  8
0
 10
44.8454
 20
8.0483
 40
0.160067
 50
88.0383
 51
182.113
  0
LINE
  8
0
 10
44.75
 20
9
 11
44.75
 21
10.2
  0
LINE
  8
0
 10
44
 20
9
 11
44
 21
10.2
  0
LINE
  8
0
 10
52.2025
 20
9.6342
 11
52.2695
 21
9.6342
  0
LINE
  8
0
 10
52.2695
 20
9.6342
 11
52.2695
 21
8.8037
  0
LINE
  8
0
 10
52.2695
 20
8.8037
 11
52.1655
 21
8.8037
  0
LINE
  8
0
 10
52.1655
 20
8.8037
 11
52.1655
 21
9.4508
  0
LINE
  8
0
 10
52.1655
 20
9.4508
 11
52.0741
 21
9.3821
  0
LINE
  8
0
 10
52.0741
 20
9.3821
 11
51.9623
 21
9.3284
  0
LINE
  8
0
 10
51.9623
 20
9.3284
 11
51.9623
 21
9.4266
  0
LINE
  8
0
 10
51.9623
 20
9.4266
 11
52.0182
 21
9.4554
  0
LINE
  8
0
 10
52.0182
 20
9.4554
 11
52.0678
 21
9.4865
  0
ARC
  8
0
 10
51.8152
 20
9.8573
 40
0.448628
 50
304.2592
 51
324.0313
  0
LINE
  8
0
 10
52.1783
 20
9.5938
 11
52.2025
 21
9.6342
  0
LINE
  8
0
 10
53.0865
 20
9.4554
 11
52.9855
 21
9.4474
  0
ARC
  8
0
 10
52.8521
 20
9.4144
 40
0.13742
 50
13.9305
 51
97.21
  0
ARC
  8
0
 10
52.825
 20
9.3853
 40
0.16568
 50
86.6054
 51
157.8702
  0
ARC
  8
0
 10
52.979
 20
9.297
 40
0.342398
 50
153.8883
 51
166.9433
  0
LINE
  8
0
 10
52.6455
 20
9.3744
 11
52.637
 21
9.3309
  0
LINE
  8
0
 10
52.637
 20
9.3309
 11
52.6317
 21
9.2828
  0
LINE
  8
0
 10
52.6317
 20
9.2828
 11
52.6295
 21
9.2303
  0
ARC
  8
0
 10
52.8312
 20
9.1003
 40
0.239931
 50
353.2766
 51
507.2179
  0
ARC
  8
0
 10
52.7624
 20
9.0675
 40
0.307073
 50
320.0023
 51
360.8866
  0
ARC
  8
0
 10
52.8213
 20
9.0255
 40
0.235017
 50
267.6072
 51
318.6146
  0
ARC
  8
0
 10
52.8076
 20
9.1027
 40
0.312071
 50
250.7836
 51
270.7119
  0
ARC
  8
0
 10
52.7901
 20
9.0322
 40
0.239813
 50
200.8289
 51
249.1998
  0
ARC
  8
0
 10
52.9483
 20
9.1096
 40
0.415448
 50
193.0518
 51
203.0381
  0
ARC
  8
0
 10
53.1142
 20
9.151
 40
0.586459
 50
188.0888
 51
193.3393
  0
ARC
  8
0
 10
53.289
 20
9.1761
 40
0.763096
 50
183.6983
 51
188.1033
  0
LINE
  8
0
 10
52.5275
 20
9.1269
 11
52.526
 21
9.1581
  0
LINE
  8
0
 10
52.526
 20
9.1581
 11
52.5255
 21
9.1908
  0
LINE
  8
0
 10
52.5255
 20
9.1908
 11
52.5273
 21
9.2566
  0
LINE
  8
0
 10
52.5273
 20
9.2566
 11
52.5329
 21
9.3171
  0
LINE
  8
0
 10
52.5329
 20
9.3171
 11
52.5422
 21
9.3722
  0
ARC
  8
0
 10
52.9729
 20
9.2862
 40
0.439154
 50
150.0219
 51
168.7051
  0
ARC
  8
0
 10
52.8326
 20
9.3459
 40
0.288444
 50
33.6991
 51
146.3779
  0
LINE
  8
0
 10
53.0726
 20
9.506
 11
53.0865
 21
9.4554
  0
ARC
  8
0
 10
52.8028
 20
9.0435
 40
0.165271
 50
170.1877
 51
318.4953
  0
ARC
  8
0
 10
52.7788
 20
9.0589
 40
0.193453
 50
319.8059
 51
442.307
  0
ARC
  8
0
 10
52.8029
 20
9.0869
 40
0.16367
 50
89.3739
 51
185.3339
  0
LINE
  8
0
 10
53.3415
 20
8.9194
 11
53.3415
 21
8.8037
  0
LINE
  8
0
 10
53.3415
 20
8.8037
 11
53.2295
 21
8.8037
  0
LINE
  8
0
 10
53.2295
 20
8.8037
 11
53.2295
 21
8.9194
  0
LINE
  8
0
 10
53.2295
 20
8.9194
 11
53.3415
 21
8.9194
  0
LINE
  8
0
 10
53.4928
 20
9.0204
 11
53.5994
 21
9.0294
  0
ARC
  8
0
 10
53.8524
 20
9.0636
 40
0.255299
 50
187.7097
 51
208.3142
  0
ARC
  8
0
 10
53.7664
 20
9.0414
 40
0.170404
 50
215.4719
 51
371.3865
  0
ARC
  8
0
 10
53.7484
 20
9.0847
 40
0.185361
 50
357.014
 51
416.2385
  0
ARC
  8
0
 10
53.7609
 20
9.0772
 40
0.185211
 50
60.7596
 51
91.2551
  0
ARC
  8
0
 10
53.7503
 20
9.0931
 40
0.169438
 50
87.7816
 51
148.2399
  0
LINE
  8
0
 10
53.6062
 20
9.1823
 11
53.5108
 21
9.1947
  0
LINE
  8
0
 10
53.5108
 20
9.1947
 11
53.591
 21
9.6196
  0
LINE
  8
0
 10
53.591
 20
9.6196
 11
53.9999
 21
9.6196
  0
LINE
  8
0
 10
53.9999
 20
9.6196
 11
53.9999
 21
9.5225
  0
LINE
  8
0
 10
53.9999
 20
9.5225
 11
53.6722
 21
9.5225
  0
LINE
  8
0
 10
53.6722
 20
9.5225
 11
53.6277
 21
9.3002
  0
ARC
  8
0
 10
53.7843
 20
9.1007
 40
0.253691
 50
356.266
 51
488.1356
  0
ARC
  8
0
 10
53.7443
 20
9.0738
 40
0.293382
 50
302.7155
 51
362.0126
  0
ARC
  8
0
 10
53.7652
 20
9.0692
 40
0.278547
 50
268.6264
 51
299.6086
  0
ARC
  8
0
 10
53.7378
 20
9.0353
 40
0.245457
 50
183.4781
 51
274.8483
  0
LINE
  8
0
 10
54.2387
 20
9.2
 11
61.25
 21
9.2
  0
LINE
  8
0
 10
60.8922
 20
9.0211
 11
61.25
 21
9.2
  0
LINE
  8
0
 10
60.8922
 20
9.3789
 11
61.25
 21
9.2
  0
LINE
  8
0
 10
61.25
 20
9
 11
61.25
 21
10.2
  0
LINE
  8
0
 10
51.7613
 20
9.2
 11
44.75
 21
9.2
  0
LINE
  8
0
 10
45.1078
 20
9.3789
 11
44.75
 21
9.2
  0
LINE
  8
0
 10
45.1078
 20
9.0211
 11
44.75
 21
9.2
  0
LINE
  8
0
 10
63.8038
 20
29.3952
 11
63.8038
 21
29.7997
  0
LINE
  8
0
 10
63.8038
 20
29.7997
 11
63.9015
 21
29.7997
  0
LINE
  8
0
 10
63.9015
 20
29.7997
 11
63.9015
 21
29.2545
  0
ARC
  8
0
 10
63.9008
 20
29.4802
 40
0.225673
 50
233.923
 51
270.1572
  0
LINE
  8
0
 10
63.768
 20
29.2978
 11
63.7209
 21
29.3329
  0
LINE
  8
0
 10
63.7209
 20
29.3329
 11
63.6628
 21
29.3888
  0
LINE
  8
0
 10
63.6628
 20
29.3888
 11
63.5956
 21
29.4661
  0
LINE
  8
0
 10
63.5956
 20
29.4661
 11
63.5566
 21
29.5135
  0
LINE
  8
0
 10
63.5566
 20
29.5135
 11
63.522
 21
29.5532
  0
LINE
  8
0
 10
63.522
 20
29.5532
 11
63.4918
 21
29.5855
  0
LINE
  8
0
 10
63.4918
 20
29.5855
 11
63.4659
 21
29.6105
  0
LINE
  8
0
 10
63.4659
 20
29.6105
 11
63.4209
 21
29.6478
  0
ARC
  8
0
 10
63.2805
 20
29.4693
 40
0.227107
 50
51.8057
 51
85.4952
  0
ARC
  8
0
 10
63.3143
 20
29.5372
 40
0.159281
 50
95.745
 51
272.3814
  0
LINE
  8
0
 10
63.3209
 20
29.3781
 11
63.3101
 21
29.2737
  0
ARC
  8
0
 10
63.3138
 20
29.5178
 40
0.244088
 50
174.2388
 51
269.1391
  0
ARC
  8
0
 10
63.3715
 20
29.5479
 40
0.300554
 50
155.8119
 51
181.0841
  0
ARC
  8
0
 10
63.3045
 20
29.5717
 40
0.229817
 50
50.9483
 51
154.3817
  0
LINE
  8
0
 10
63.4493
 20
29.7502
 11
63.4991
 21
29.7117
  0
LINE
  8
0
 10
63.4991
 20
29.7117
 11
63.5289
 21
29.6838
  0
LINE
  8
0
 10
63.5289
 20
29.6838
 11
63.5629
 21
29.6488
  0
LINE
  8
0
 10
63.5629
 20
29.6488
 11
63.6014
 21
29.6061
  0
LINE
  8
0
 10
63.6014
 20
29.6061
 11
63.6448
 21
29.5554
  0
LINE
  8
0
 10
63.6448
 20
29.5554
 11
63.6726
 21
29.5221
  0
LINE
  8
0
 10
63.6726
 20
29.5221
 11
63.6941
 21
29.4967
  0
LINE
  8
0
 10
63.6941
 20
29.4967
 11
63.7094
 21
29.4791
  0
LINE
  8
0
 10
63.7094
 20
29.4791
 11
63.7186
 21
29.4691
  0
LINE
  8
0
 10
63.7186
 20
29.4691
 11
63.7404
 21
29.4466
  0
LINE
  8
0
 10
63.7404
 20
29.4466
 11
63.7618
 21
29.4268
  0
LINE
  8
0
 10
63.7618
 20
29.4268
 11
63.7829
 21
29.4096
  0
LINE
  8
0
 10
63.7829
 20
29.4096
 11
63.8038
 21
29.3952
  0
LINE
  8
0
 10
63.5
 20
30.0014
 11
63.5
 21
30.525
  0
LINE
  8
0
 10
63.6789
 20
30.1672
 11
63.5
 21
30.525
  0
LINE
  8
0
 10
63.3211
 20
30.1672
 11
63.5
 21
30.525
  0
LINE
  8
0
 10
63.5
 20
29.0486
 11
63.5
 21
28.525
  0
LINE
  8
0
 10
63.3211
 20
28.8828
 11
63.5
 21
28.525
  0
LINE
  8
0
 10
63.6789
 20
28.8828
 11
63.5
 21
28.525
  0
LINE
  8
0
 10
63.7
 20
28.525
 11
62.5
 21
28.525
  0
ARC
  8
0
 10
63.2899
 20
24.4563
 40
0.168682
 50
268.0635
 51
345.0693
  0
ARC
  8
0
 10
63.2836
 20
24.5018
 40
0.214091
 50
173.4363
 51
270.1505
  0
ARC
  8
0
 10
63.3174
 20
24.5364
 40
0.246688
 50
129.4496
 51
182.3541
  0
ARC
  8
0
 10
63.2798
 20
24.5902
 40
0.181337
 50
17.3576
 51
131.0657
  0
ARC
  8
0
 10
63.675
 20
24.5706
 40
0.233992
 50
7.2743
 51
161.6651
  0
ARC
  8
0
 10
63.6566
 20
24.519
 40
0.263364
 50
271.2181
 51
377.9759
  0
ARC
  8
0
 10
63.6535
 20
24.4903
 40
0.234798
 50
243.4498
 51
272.1233
  0
ARC
  8
0
 10
63.6478
 20
24.4527
 40
0.198958
 50
191.5714
 51
240.0755
  0
ARC
  8
0
 10
63.2778
 20
24.5278
 40
0.136154
 50
271.2734
 51
446.3572
  0
ARC
  8
0
 10
63.2889
 20
24.5276
 40
0.136129
 50
91.0061
 51
266.6245
  0
ARC
  8
0
 10
63.666
 20
24.5277
 40
0.168015
 50
268.9119
 51
449.9159
  0
ARC
  8
0
 10
63.6649
 20
24.5277
 40
0.168009
 50
89.5489
 51
269.2788
  0
LINE
  8
0
 10
63.5
 20
25.0014
 11
63.5
 21
28.525
  0
LINE
  8
0
 10
63.6789
 20
28.1672
 11
63.5
 21
28.525
  0
LINE
  8
0
 10
63.3211
 20
28.1672
 11
63.5
 21
28.525
  0
LINE
  8
0
 10
63.5
 20
24.0486
 11
63.5
 21
20.525
  0
LINE
  8
0
 10
63.3211
 20
20.8828
 11
63.5
 21
20.525
  0
LINE
  8
0
 10
63.6789
 20
20.8828
 11
63.5
 21
20.525
  0
LINE
  8
0
 10
63.7
 20
20.525
 11
62.5
 21
20.525
  0
LINE
  8
0
 10
46.1088
 20
7.0204
 11
46.2154
 21
7.0294
  0
ARC
  8
0
 10
46.4684
 20
7.0636
 40
0.255299
 50
187.7097
 51
208.3142
  0
ARC
  8
0
 10
46.3824
 20
7.0414
 40
0.170404
 50
215.4719
 51
371.3865
  0
ARC
  8
0
 10
46.3644
 20
7.0847
 40
0.185361
 50
357.014
 51
416.2385
  0
ARC
  8
0
 10
46.3769
 20
7.0772
 40
0.185211
 50
60.7596
 51
91.2551
  0
ARC
  8
0
 10
46.3663
 20
7.0931
 40
0.169438
 50
87.7816
 51
148.2399
  0
LINE
  8
0
 10
46.2222
 20
7.1823
 11
46.1268
 21
7.1947
  0
LINE
  8
0
 10
46.1268
 20
7.1947
 11
46.207
 21
7.6196
  0
LINE
  8
0
 10
46.207
 20
7.6196
 11
46.6159
 21
7.6196
  0
LINE
  8
0
 10
46.6159
 20
7.6196
 11
46.6159
 21
7.5225
  0
LINE
  8
0
 10
46.6159
 20
7.5225
 11
46.2882
 21
7.5225
  0
LINE
  8
0
 10
46.2882
 20
7.5225
 11
46.2437
 21
7.3002
  0
ARC
  8
0
 10
46.4003
 20
7.1007
 40
0.253691
 50
356.266
 51
488.1356
  0
ARC
  8
0
 10
46.3603
 20
7.0738
 40
0.293382
 50
302.7155
 51
362.0126
  0
ARC
  8
0
 10
46.3812
 20
7.0692
 40
0.278547
 50
268.6264
 51
299.6086
  0
ARC
  8
0
 10
46.3538
 20
7.0353
 40
0.245457
 50
183.4781
 51
274.8483
  0
LINE
  8
0
 10
46.9215
 20
6.9194
 11
46.9215
 21
6.8037
  0
LINE
  8
0
 10
46.9215
 20
6.8037
 11
46.8095
 21
6.8037
  0
LINE
  8
0
 10
46.8095
 20
6.8037
 11
46.8095
 21
6.9194
  0
LINE
  8
0
 10
46.8095
 20
6.9194
 11
46.9215
 21
6.9194
  0
LINE
  8
0
 10
47.4825
 20
7.5225
 11
47.0778
 21
7.5225
  0
LINE
  8
0
 10
47.0778
 20
7.5225
 11
47.0778
 21
7.6201
  0
LINE
  8
0
 10
47.0778
 20
7.6201
 11
47.6129
 21
7.6201
  0
LINE
  8
0
 10
47.6129
 20
7.6201
 11
47.6129
 21
7.5411
  0
LINE
  8
0
 10
47.6129
 20
7.5411
 11
47.5336
 21
7.4427
  0
LINE
  8
0
 10
47.5336
 20
7.4427
 11
47.456
 21
7.3177
  0
ARC
  8
0
 10
48.6285
 20
6.6601
 40
1.34431
 50
150.7129
 51
163.98
  0
ARC
  8
0
 10
48.3717
 20
6.7367
 40
1.07636
 50
164.1309
 51
176.4341
  0
LINE
  8
0
 10
47.2975
 20
6.8037
 11
47.1935
 21
6.8037
  0
LINE
  8
0
 10
47.1935
 20
6.8037
 11
47.206
 21
6.9264
  0
ARC
  8
0
 10
48.4839
 20
6.6987
 40
1.29808
 50
148.9649
 51
169.8981
  0
LINE
  8
0
 10
47.3717
 20
7.368
 11
47.4075
 21
7.4246
  0
LINE
  8
0
 10
47.4075
 20
7.4246
 11
47.4443
 21
7.476
  0
LINE
  8
0
 10
47.4443
 20
7.476
 11
47.4825
 21
7.5225
  0
LINE
  8
0
 10
47.8139
 20
7.2
 11
49.72
 21
7.2
  0
LINE
  8
0
 10
49.3622
 20
7.0211
 11
49.72
 21
7.2
  0
LINE
  8
0
 10
49.3622
 20
7.3789
 11
49.72
 21
7.2
  0
LINE
  8
0
 10
49.72
 20
7
 11
49.72
 21
8.2
  0
LINE
  8
0
 10
45.9061
 20
7.2
 11
44
 21
7.2
  0
LINE
  8
0
 10
44.3578
 20
7.3789
 11
44
 21
7.2
  0
LINE
  8
0
 10
44.3578
 20
7.0211
 11
44
 21
7.2
  0
LINE
  8
0
 10
44
 20
7
 11
44
 21
8.2
  0
LINE
  8
0
 10
52.8025
 20
7.4554
 11
52.7015
 21
7.4474
  0
ARC
  8
0
 10
52.5681
 20
7.4144
 40
0.13742
 50
13.9305
 51
97.21
  0
ARC
  8
0
 10
52.541
 20
7.3853
 40
0.16568
 50
86.6054
 51
157.8702
  0
ARC
  8
0
 10
52.695
 20
7.297
 40
0.342398
 50
153.8883
 51
166.9433
  0
LINE
  8
0
 10
52.3615
 20
7.3744
 11
52.353
 21
7.3309
  0
LINE
  8
0
 10
52.353
 20
7.3309
 11
52.3477
 21
7.2828
  0
LINE
  8
0
 10
52.3477
 20
7.2828
 11
52.3455
 21
7.2303
  0
ARC
  8
0
 10
52.5472
 20
7.1003
 40
0.239931
 50
353.2766
 51
507.2179
  0
ARC
  8
0
 10
52.4784
 20
7.0675
 40
0.307073
 50
320.0023
 51
360.8866
  0
ARC
  8
0
 10
52.5373
 20
7.0255
 40
0.235017
 50
267.6072
 51
318.6146
  0
ARC
  8
0
 10
52.5236
 20
7.1027
 40
0.312071
 50
250.7836
 51
270.7119
  0
ARC
  8
0
 10
52.5061
 20
7.0322
 40
0.239813
 50
200.8289
 51
249.1998
  0
ARC
  8
0
 10
52.6643
 20
7.1096
 40
0.415448
 50
193.0518
 51
203.0381
  0
ARC
  8
0
 10
52.8302
 20
7.151
 40
0.586459
 50
188.0888
 51
193.3393
  0
ARC
  8
0
 10
53.005
 20
7.1761
 40
0.763096
 50
183.6983
 51
188.1033
  0
LINE
  8
0
 10
52.2435
 20
7.1269
 11
52.242
 21
7.1581
  0
LINE
  8
0
 10
52.242
 20
7.1581
 11
52.2415
 21
7.1908
  0
LINE
  8
0
 10
52.2415
 20
7.1908
 11
52.2433
 21
7.2566
  0
LINE
  8
0
 10
52.2433
 20
7.2566
 11
52.2489
 21
7.3171
  0
LINE
  8
0
 10
52.2489
 20
7.3171
 11
52.2582
 21
7.3722
  0
ARC
  8
0
 10
52.6889
 20
7.2862
 40
0.439154
 50
150.0219
 51
168.7051
  0
ARC
  8
0
 10
52.5486
 20
7.3459
 40
0.288444
 50
33.6991
 51
146.3779
  0
LINE
  8
0
 10
52.7886
 20
7.506
 11
52.8025
 21
7.4554
  0
ARC
  8
0
 10
52.5188
 20
7.0435
 40
0.165271
 50
170.1877
 51
318.4953
  0
ARC
  8
0
 10
52.4948
 20
7.0589
 40
0.193453
 50
319.8059
 51
442.307
  0
ARC
  8
0
 10
52.5189
 20
7.0869
 40
0.16367
 50
89.3739
 51
185.3339
  0
LINE
  8
0
 10
53.0575
 20
6.9194
 11
53.0575
 21
6.8037
  0
LINE
  8
0
 10
53.0575
 20
6.8037
 11
52.9455
 21
6.8037
  0
LINE
  8
0
 10
52.9455
 20
6.8037
 11
52.9455
 21
6.9194
  0
LINE
  8
0
 10
52.9455
 20
6.9194
 11
53.0575
 21
6.9194
  0
LINE
  8
0
 10
53.7665
 20
7.4554
 11
53.6655
 21
7.4474
  0
ARC
  8
0
 10
53.5321
 20
7.4144
 40
0.13742
 50
13.9305
 51
97.21
  0
ARC
  8
0
 10
53.505
 20
7.3853
 40
0.16568
 50
86.6054
 51
157.8702
  0
ARC
  8
0
 10
53.659
 20
7.297
 40
0.342398
 50
153.8883
 51
166.9433
  0
LINE
  8
0
 10
53.3255
 20
7.3744
 11
53.317
 21
7.3309
  0
LINE
  8
0
 10
53.317
 20
7.3309
 11
53.3117
 21
7.2828
  0
LINE
  8
0
 10
53.3117
 20
7.2828
 11
53.3095
 21
7.2303
  0
ARC
  8
0
 10
53.5112
 20
7.1003
 40
0.239931
 50
353.2766
 51
507.2179
  0
ARC
  8
0
 10
53.4424
 20
7.0675
 40
0.307073
 50
320.0023
 51
360.8866
  0
ARC
  8
0
 10
53.5013
 20
7.0255
 40
0.235017
 50
267.6072
 51
318.6146
  0
ARC
  8
0
 10
53.4876
 20
7.1027
 40
0.312071
 50
250.7836
 51
270.7119
  0
ARC
  8
0
 10
53.4701
 20
7.0322
 40
0.239813
 50
200.8289
 51
249.1998
  0
ARC
  8
0
 10
53.6283
 20
7.1096
 40
0.415448
 50
193.0518
 51
203.0381
  0
ARC
  8
0
 10
53.7942
 20
7.151
 40
0.586459
 50
188.0888
 51
193.3393
  0
ARC
  8
0
 10
53.969
 20
7.1761
 40
0.763096
 50
183.6983
 51
188.1033
  0
LINE
  8
0
 10
53.2075
 20
7.1269
 11
53.206
 21
7.1581
  0
LINE
  8
0
 10
53.206
 20
7.1581
 11
53.2055
 21
7.1908
  0
LINE
  8
0
 10
53.2055
 20
7.1908
 11
53.2073
 21
7.2566
  0
LINE
  8
0
 10
53.2073
 20
7.2566
 11
53.2129
 21
7.3171
  0
LINE
  8
0
 10
53.2129
 20
7.3171
 11
53.2222
 21
7.3722
  0
ARC
  8
0
 10
53.6529
 20
7.2862
 40
0.439154
 50
150.0219
 51
168.7051
  0
ARC
  8
0
 10
53.5126
 20
7.3459
 40
0.288444
 50
33.6991
 51
146.3779
  0
LINE
  8
0
 10
53.7526
 20
7.506
 11
53.7665
 21
7.4554
  0
ARC
  8
0
 10
53.4828
 20
7.0435
 40
0.165271
 50
170.1877
 51
318.4953
  0
ARC
  8
0
 10
53.4588
 20
7.0589
 40
0.193453
 50
319.8059
 51
442.307
  0
ARC
  8
0
 10
53.4829
 20
7.0869
 40
0.16367
 50
89.3739
 51
185.3339
  0
LINE
  8
0
 10
53.9623
 20
7.2
 11
56.28
 21
7.2
  0
LINE
  8
0
 10
55.9222
 20
7.0211
 11
56.28
 21
7.2
  0
LINE
  8
0
 10
55.9222
 20
7.3789
 11
56.28
 21
7.2
  0
LINE
  8
0
 10
56.28
 20
7
 11
56.28
 21
8.2
  0
LINE
  8
0
 10
52.0377
 20
7.2
 11
49.72
 21
7.2
  0
LINE
  8
0
 10
50.0778
 20
7.3789
 11
49.72
 21
7.2
  0
LINE
  8
0
 10
50.0778
 20
7.0211
 11
49.72
 21
7.2
  0
LINE
  8
0
 10
60.213
 20
16.9013
 11
60.6175
 21
16.9013
  0
LINE
  8
0
 10
60.6175
 20
16.9013
 11
60.6175
 21
16.8037
  0
LINE
  8
0
 10
60.6175
 20
16.8037
 11
60.0723
 21
16.8037
  0
ARC
  8
0
 10
60.2979
 20
16.8043
 40
0.225673
 50
143.923
 51
180.1572
  0
LINE
  8
0
 10
60.1156
 20
16.9372
 11
60.1507
 21
16.9843
  0
LINE
  8
0
 10
60.1507
 20
16.9843
 11
60.2066
 21
17.0424
  0
LINE
  8
0
 10
60.2066
 20
17.0424
 11
60.2838
 21
17.1095
  0
LINE
  8
0
 10
60.2838
 20
17.1095
 11
60.3313
 21
17.1485
  0
LINE
  8
0
 10
60.3313
 20
17.1485
 11
60.371
 21
17.1831
  0
LINE
  8
0
 10
60.371
 20
17.1831
 11
60.4032
 21
17.2134
  0
LINE
  8
0
 10
60.4032
 20
17.2134
 11
60.4283
 21
17.2393
  0
LINE
  8
0
 10
60.4283
 20
17.2393
 11
60.4655
 21
17.2842
  0
ARC
  8
0
 10
60.2871
 20
17.4247
 40
0.227107
 50
321.8057
 51
355.4952
  0
ARC
  8
0
 10
60.3677
 20
17.4046
 40
0.145822
 50
0.8542
 51
93.8858
  0
ARC
  8
0
 10
60.3472
 20
17.3985
 40
0.151998
 50
85.9977
 51
185.3786
  0
LINE
  8
0
 10
60.1958
 20
17.3843
 11
60.0915
 21
17.395
  0
ARC
  8
0
 10
60.3355
 20
17.3913
 40
0.244088
 50
84.2388
 51
179.1391
  0
ARC
  8
0
 10
60.3657
 20
17.3337
 40
0.300554
 50
65.8119
 51
91.084
  0
ARC
  8
0
 10
60.3895
 20
17.4006
 40
0.229817
 50
320.9483
 51
424.3817
  0
LINE
  8
0
 10
60.568
 20
17.2558
 11
60.5295
 21
17.206
  0
LINE
  8
0
 10
60.5295
 20
17.206
 11
60.5016
 21
17.1762
  0
LINE
  8
0
 10
60.5016
 20
17.1762
 11
60.4666
 21
17.1422
  0
LINE
  8
0
 10
60.4666
 20
17.1422
 11
60.4239
 21
17.1037
  0
LINE
  8
0
 10
60.4239
 20
17.1037
 11
60.3731
 21
17.0604
  0
LINE
  8
0
 10
60.3731
 20
17.0604
 11
60.3399
 21
17.0325
  0
LINE
  8
0
 10
60.3399
 20
17.0325
 11
60.3145
 21
17.011
  0
LINE
  8
0
 10
60.3145
 20
17.011
 11
60.2968
 21
16.9957
  0
LINE
  8
0
 10
60.2968
 20
16.9957
 11
60.2868
 21
16.9865
  0
LINE
  8
0
 10
60.2868
 20
16.9865
 11
60.2644
 21
16.9647
  0
LINE
  8
0
 10
60.2644
 20
16.9647
 11
60.2445
 21
16.9434
  0
LINE
  8
0
 10
60.2445
 20
16.9434
 11
60.2273
 21
16.9223
  0
LINE
  8
0
 10
60.2273
 20
16.9223
 11
60.213
 21
16.9013
  0
LINE
  8
0
 10
60.8975
 20
16.9194
 11
60.8975
 21
16.8037
  0
LINE
  8
0
 10
60.8975
 20
16.8037
 11
60.7855
 21
16.8037
  0
LINE
  8
0
 10
60.7855
 20
16.8037
 11
60.7855
 21
16.9194
  0
LINE
  8
0
 10
60.7855
 20
16.9194
 11
60.8975
 21
16.9194
  0
LINE
  8
0
 10
61.0556
 20
17.0221
 11
61.1571
 21
17.0356
  0
ARC
  8
0
 10
61.4457
 20
17.0876
 40
0.293173
 50
190.2152
 51
208.9749
  0
ARC
  8
0
 10
61.3258
 20
17.0403
 40
0.166279
 50
214.7389
 51
450.3669
  0
LINE
  8
0
 10
61.3248
 20
17.2066
 11
61.2927
 21
17.2037
  0
LINE
  8
0
 10
61.2927
 20
17.2037
 11
61.2531
 21
17.1953
  0
LINE
  8
0
 10
61.2531
 20
17.1953
 11
61.2644
 21
17.2844
  0
ARC
  8
0
 10
61.2785
 20
17.3695
 40
0.0862325
 50
260.6145
 51
271.4952
  0
ARC
  8
0
 10
61.2869
 20
17.4898
 40
0.206674
 50
268.2942
 51
286.2722
  0
ARC
  8
0
 10
61.3185
 20
17.4198
 40
0.130996
 50
281.5807
 51
451.948
  0
ARC
  8
0
 10
61.3073
 20
17.4132
 40
0.137691
 50
87.1947
 51
171.6659
  0
LINE
  8
0
 10
61.171
 20
17.4331
 11
61.1645
 21
17.4018
  0
LINE
  8
0
 10
61.1645
 20
17.4018
 11
61.063
 21
17.4198
  0
ARC
  8
0
 10
61.2917
 20
17.4264
 40
0.228809
 50
310.2325
 51
541.6416
  0
ARC
  8
0
 10
61.3478
 20
17.0291
 40
0.240745
 50
263.0222
 51
427.6129
  0
ARC
  8
0
 10
61.3032
 20
17.0378
 40
0.248125
 50
183.6311
 51
273.5378
  0
LINE
  8
0
 10
62
 20
17
 11
62
 21
18.2
  0
LINE
  8
0
 10
59.663
 20
17
 11
59.663
 21
18.2
  0
LINE
  8
0
 10
60.133
 20
14.9013
 11
60.5375
 21
14.9013
  0
LINE
  8
0
 10
60.5375
 20
14.9013
 11
60.5375
 21
14.8037
  0
LINE
  8
0
 10
60.5375
 20
14.8037
 11
59.9923
 21
14.8037
  0
ARC
  8
0
 10
60.2179
 20
14.8043
 40
0.225673
 50
143.923
 51
180.1572
  0
LINE
  8
0
 10
60.0356
 20
14.9372
 11
60.0707
 21
14.9843
  0
LINE
  8
0
 10
60.0707
 20
14.9843
 11
60.1266
 21
15.0424
  0
LINE
  8
0
 10
60.1266
 20
15.0424
 11
60.2038
 21
15.1095
  0
LINE
  8
0
 10
60.2038
 20
15.1095
 11
60.2513
 21
15.1485
  0
LINE
  8
0
 10
60.2513
 20
15.1485
 11
60.291
 21
15.1831
  0
LINE
  8
0
 10
60.291
 20
15.1831
 11
60.3232
 21
15.2134
  0
LINE
  8
0
 10
60.3232
 20
15.2134
 11
60.3483
 21
15.2393
  0
LINE
  8
0
 10
60.3483
 20
15.2393
 11
60.3855
 21
15.2842
  0
ARC
  8
0
 10
60.2071
 20
15.4247
 40
0.227107
 50
321.8057
 51
355.4952
  0
ARC
  8
0
 10
60.2877
 20
15.4046
 40
0.145822
 50
0.8542
 51
93.8858
  0
ARC
  8
0
 10
60.2672
 20
15.3985
 40
0.151998
 50
85.9977
 51
185.3786
  0
LINE
  8
0
 10
60.1158
 20
15.3843
 11
60.0115
 21
15.395
  0
ARC
  8
0
 10
60.2555
 20
15.3913
 40
0.244088
 50
84.2388
 51
179.1391
  0
ARC
  8
0
 10
60.2857
 20
15.3337
 40
0.300554
 50
65.8119
 51
91.084
  0
ARC
  8
0
 10
60.3095
 20
15.4006
 40
0.229817
 50
320.9483
 51
424.3817
  0
LINE
  8
0
 10
60.488
 20
15.2558
 11
60.4495
 21
15.206
  0
LINE
  8
0
 10
60.4495
 20
15.206
 11
60.4216
 21
15.1762
  0
LINE
  8
0
 10
60.4216
 20
15.1762
 11
60.3866
 21
15.1422
  0
LINE
  8
0
 10
60.3866
 20
15.1422
 11
60.3439
 21
15.1037
  0
LINE
  8
0
 10
60.3439
 20
15.1037
 11
60.2931
 21
15.0604
  0
LINE
  8
0
 10
60.2931
 20
15.0604
 11
60.2599
 21
15.0325
  0
LINE
  8
0
 10
60.2599
 20
15.0325
 11
60.2345
 21
15.011
  0
LINE
  8
0
 10
60.2345
 20
15.011
 11
60.2168
 21
14.9957
  0
LINE
  8
0
 10
60.2168
 20
14.9957
 11
60.2068
 21
14.9865
  0
LINE
  8
0
 10
60.2068
 20
14.9865
 11
60.1844
 21
14.9647
  0
LINE
  8
0
 10
60.1844
 20
14.9647
 11
60.1645
 21
14.9434
  0
LINE
  8
0
 10
60.1645
 20
14.9434
 11
60.1473
 21
14.9223
  0
LINE
  8
0
 10
60.1473
 20
14.9223
 11
60.133
 21
14.9013
  0
LINE
  8
0
 10
60.8175
 20
14.9194
 11
60.8175
 21
14.8037
  0
LINE
  8
0
 10
60.8175
 20
14.8037
 11
60.7055
 21
14.8037
  0
LINE
  8
0
 10
60.7055
 20
14.8037
 11
60.7055
 21
14.9194
  0
LINE
  8
0
 10
60.7055
 20
14.9194
 11
60.8175
 21
14.9194
  0
LINE
  8
0
 10
60.9688
 20
15.0204
 11
61.0754
 21
15.0294
  0
ARC
  8
0
 10
61.3284
 20
15.0636
 40
0.255299
 50
187.7097
 51
208.3142
  0
ARC
  8
0
 10
61.2424
 20
15.0414
 40
0.170404
 50
215.4719
 51
371.3865
  0
ARC
  8
0
 10
61.2244
 20
15.0847
 40
0.185361
 50
357.014
 51
416.2385
  0
ARC
  8
0
 10
61.2369
 20
15.0772
 40
0.185211
 50
60.7596
 51
91.2551
  0
ARC
  8
0
 10
61.2263
 20
15.0931
 40
0.169438
 50
87.7816
 51
148.2399
  0
LINE
  8
0
 10
61.0822
 20
15.1823
 11
60.9868
 21
15.1947
  0
LINE
  8
0
 10
60.9868
 20
15.1947
 11
61.067
 21
15.6196
  0
LINE
  8
0
 10
61.067
 20
15.6196
 11
61.4759
 21
15.6196
  0
LINE
  8
0
 10
61.4759
 20
15.6196
 11
61.4759
 21
15.5225
  0
LINE
  8
0
 10
61.4759
 20
15.5225
 11
61.1482
 21
15.5225
  0
LINE
  8
0
 10
61.1482
 20
15.5225
 11
61.1036
 21
15.3002
  0
ARC
  8
0
 10
61.2603
 20
15.1007
 40
0.253691
 50
356.266
 51
488.1356
  0
ARC
  8
0
 10
61.2203
 20
15.0738
 40
0.293382
 50
302.7155
 51
362.0126
  0
ARC
  8
0
 10
61.2412
 20
15.0692
 40
0.278547
 50
268.6264
 51
299.6086
  0
ARC
  8
0
 10
61.2138
 20
15.0353
 40
0.245457
 50
183.4781
 51
274.8483
  0
LINE
  8
0
 10
62
 20
15
 11
62
 21
16.2
  0
LINE
  8
0
 10
59.5
 20
15
 11
59.5
 21
16.2
  0
LINE
  8
0
 10
60.6225
 20
12.6342
 11
60.6895
 21
12.6342
  0
LINE
  8
0
 10
60.6895
 20
12.6342
 11
60.6895
 21
11.8037
  0
LINE
  8
0
 10
60.6895
 20
11.8037
 11
60.5855
 21
11.8037
  0
LINE
  8
0
 10
60.5855
 20
11.8037
 11
60.5855
 21
12.4508
  0
LINE
  8
0
 10
60.5855
 20
12.4508
 11
60.4941
 21
12.3821
  0
LINE
  8
0
 10
60.4941
 20
12.3821
 11
60.3823
 21
12.3284
  0
LINE
  8
0
 10
60.3823
 20
12.3284
 11
60.3823
 21
12.4266
  0
LINE
  8
0
 10
60.3823
 20
12.4266
 11
60.4382
 21
12.4554
  0
LINE
  8
0
 10
60.4382
 20
12.4554
 11
60.4878
 21
12.4865
  0
ARC
  8
0
 10
60.2352
 20
12.8573
 40
0.448628
 50
304.2592
 51
324.0313
  0
LINE
  8
0
 10
60.5983
 20
12.5938
 11
60.6225
 21
12.6342
  0
LINE
  8
0
 10
61.1215
 20
11.9194
 11
61.1215
 21
11.8037
  0
LINE
  8
0
 10
61.1215
 20
11.8037
 11
61.0095
 21
11.8037
  0
LINE
  8
0
 10
61.0095
 20
11.8037
 11
61.0095
 21
11.9194
  0
LINE
  8
0
 10
61.0095
 20
11.9194
 11
61.1215
 21
11.9194
  0
ARC
  8
0
 10
61.4919
 20
12.4347
 40
0.193827
 50
94.4474
 51
250.3095
  0
ARC
  8
0
 10
61.5553
 20
12.4174
 40
0.224711
 50
344.0768
 51
470.4281
  0
ARC
  8
0
 10
61.6107
 20
12.4179
 40
0.172254
 50
285.9379
 51
338.8593
  0
ARC
  8
0
 10
61.5844
 20
12.0301
 40
0.233992
 50
277.2743
 51
431.6651
  0
LINE
  8
0
 10
61.614
 20
11.798
 11
61.5415
 21
11.7907
  0
ARC
  8
0
 10
61.5197
 20
12.0418
 40
0.252003
 50
147.0628
 51
274.959
  0
ARC
  8
0
 10
61.4691
 20
12.0516
 40
0.205063
 50
101.9603
 51
141.6882
  0
ARC
  8
0
 10
61.5392
 20
12.4168
 40
0.133908
 50
176.7834
 51
449.0148
  0
ARC
  8
0
 10
61.5338
 20
12.4225
 40
0.128393
 50
86.5976
 51
179.2006
  0
ARC
  8
0
 10
61.5411
 20
12.0407
 40
0.167603
 50
179.414
 51
450.7374
  0
ARC
  8
0
 10
61.5334
 20
12.0483
 40
0.160067
 50
88.0383
 51
182.113
  0
LINE
  8
0
 10
61.1
 20
13.2
 11
62
 21
13.2
  0
LINE
  8
0
 10
61.6422
 20
13.0211
 11
62
 21
13.2
  0
LINE
  8
0
 10
61.6422
 20
13.3789
 11
62
 21
13.2
  0
LINE
  8
0
 10
62
 20
13
 11
62
 21
14.2
  0
LINE
  8
0
 10
61.1
 20
13.2
 11
60.2
 21
13.2
  0
LINE
  8
0
 10
60.5578
 20
13.3789
 11
60.2
 21
13.2
  0
LINE
  8
0
 10
60.5578
 20
13.0211
 11
60.2
 21
13.2
  0
LINE
  8
0
 10
60.2
 20
13
 11
60.2
 21
14.2
  0
LINE
  8
0
 10
59.3716
 20
11.0221
 11
59.4731
 21
11.0356
  0
ARC
  8
0
 10
59.7617
 20
11.0876
 40
0.293173
 50
190.2152
 51
208.9749
  0
ARC
  8
0
 10
59.6418
 20
11.0403
 40
0.166279
 50
214.7389
 51
450.3669
  0
LINE
  8
0
 10
59.6408
 20
11.2066
 11
59.6087
 21
11.2037
  0
LINE
  8
0
 10
59.6087
 20
11.2037
 11
59.5691
 21
11.1953
  0
LINE
  8
0
 10
59.5691
 20
11.1953
 11
59.5804
 21
11.2844
  0
ARC
  8
0
 10
59.5945
 20
11.3695
 40
0.0862325
 50
260.6145
 51
271.4952
  0
ARC
  8
0
 10
59.6029
 20
11.4898
 40
0.206674
 50
268.2942
 51
286.2722
  0
ARC
  8
0
 10
59.6345
 20
11.4198
 40
0.130996
 50
281.5807
 51
451.948
  0
ARC
  8
0
 10
59.6233
 20
11.4132
 40
0.137691
 50
87.1947
 51
171.6659
  0
LINE
  8
0
 10
59.487
 20
11.4331
 11
59.4805
 21
11.4018
  0
LINE
  8
0
 10
59.4805
 20
11.4018
 11
59.379
 21
11.4198
  0
ARC
  8
0
 10
59.6077
 20
11.4264
 40
0.228809
 50
310.2325
 51
541.6416
  0
ARC
  8
0
 10
59.6638
 20
11.0291
 40
0.240745
 50
263.0222
 51
427.6129
  0
ARC
  8
0
 10
59.6192
 20
11.0378
 40
0.248125
 50
183.6311
 51
273.5378
  0
LINE
  8
0
 10
60.1775
 20
10.9194
 11
60.1775
 21
10.8037
  0
LINE
  8
0
 10
60.1775
 20
10.8037
 11
60.0655
 21
10.8037
  0
LINE
  8
0
 10
60.0655
 20
10.8037
 11
60.0655
 21
10.9194
  0
LINE
  8
0
 10
60.0655
 20
10.9194
 11
60.1775
 21
10.9194
  0
ARC
  8
0
 10
60.5479
 20
11.4347
 40
0.193827
 50
94.4474
 51
250.3095
  0
ARC
  8
0
 10
60.6113
 20
11.4174
 40
0.224711
 50
344.0768
 51
470.4281
  0
ARC
  8
0
 10
60.6667
 20
11.4179
 40
0.172254
 50
285.9379
 51
338.8593
  0
ARC
  8
0
 10
60.6404
 20
11.0301
 40
0.233992
 50
277.2743
 51
431.6651
  0
LINE
  8
0
 10
60.67
 20
10.798
 11
60.5975
 21
10.7907
  0
ARC
  8
0
 10
60.5757
 20
11.0418
 40
0.252003
 50
147.0628
 51
274.959
  0
ARC
  8
0
 10
60.5251
 20
11.0516
 40
0.205063
 50
101.9603
 51
141.6882
  0
ARC
  8
0
 10
60.5952
 20
11.4168
 40
0.133908
 50
176.7834
 51
449.0148
  0
ARC
  8
0
 10
60.5898
 20
11.4225
 40
0.128393
 50
86.5976
 51
179.2006
  0
ARC
  8
0
 10
60.5971
 20
11.0407
 40
0.167603
 50
179.414
 51
450.7374
  0
ARC
  8
0
 10
60.5894
 20
11.0483
 40
0.160067
 50
88.0383
 51
182.113
  0
LINE
  8
0
 10
61.0739
 20
11.2
 11
62
 21
11.2
  0
LINE
  8
0
 10
61.6422
 20
11.0211
 11
62
 21
11.2
  0
LINE
  8
0
 10
61.6422
 20
11.3789
 11
62
 21
11.2
  0
LINE
  8
0
 10
62
 20
11
 11
62
 21
12.2
  0
LINE
  8
0
 10
59.1661
 20
11.2
 11
58.24
 21
11.2
  0
LINE
  8
0
 10
58.5978
 20
11.3789
 11
58.24
 21
11.2
  0
LINE
  8
0
 10
58.5978
 20
11.0211
 11
58.24
 21
11.2
  0
LINE
  8
0
 10
58.24
 20
11
 11
58.24
 21
12.2
  0
LINE
  8
0
 10
60.8695
 20
8.2116
 11
60.8707
 21
8.265
  0
LINE
  8
0
 10
60.8707
 20
8.265
 11
60.8743
 21
8.3149
  0
LINE
  8
0
 10
60.8743
 20
8.3149
 11
60.8802
 21
8.3612
  0
LINE
  8
0
 10
60.8802
 20
8.3612
 11
60.8886
 21
8.4039
  0
ARC
  8
0
 10
61.3078
 20
8.3097
 40
0.429618
 50
152.0887
 51
167.3317
  0
ARC
  8
0
 10
61.1568
 20
8.3867
 40
0.260175
 50
130.1044
 51
151.5122
  0
ARC
  8
0
 10
61.1391
 20
8.3934
 40
0.243814
 50
16.5572
 51
127.9332
  0
ARC
  8
0
 10
60.9153
 20
8.2847
 40
0.490927
 50
4.4112
 51
21.2762
  0
LINE
  8
0
 10
61.4048
 20
8.3225
 11
61.4095
 21
8.2116
  0
LINE
  8
0
 10
61.4095
 20
8.2116
 11
61.4083
 21
8.1583
  0
LINE
  8
0
 10
61.4083
 20
8.1583
 11
61.4047
 21
8.1086
  0
LINE
  8
0
 10
61.4047
 20
8.1086
 11
61.3987
 21
8.0624
  0
LINE
  8
0
 10
61.3987
 20
8.0624
 11
61.3903
 21
8.0197
  0
ARC
  8
0
 10
60.9721
 20
8.1139
 40
0.428719
 50
332.0553
 51
347.3108
  0
ARC
  8
0
 10
61.1222
 20
8.0372
 40
0.260134
 50
310.0806
 51
331.4784
  0
ARC
  8
0
 10
61.1491
 20
8.0218
 40
0.23133
 50
267.6115
 51
307.4328
  0
ARC
  8
0
 10
61.128
 20
8.0188
 40
0.228404
 50
199.6616
 51
272.8716
  0
ARC
  8
0
 10
61.2946
 20
8.1042
 40
0.414704
 50
196.6891
 51
203.0279
  0
ARC
  8
0
 10
61.4129
 20
8.1398
 40
0.538297
 50
191.3759
 51
196.7026
  0
ARC
  8
0
 10
61.5723
 20
8.1721
 40
0.700921
 50
186.9237
 51
191.3905
  0
LINE
  8
0
 10
60.8765
 20
8.0876
 11
60.8735
 21
8.1165
  0
LINE
  8
0
 10
60.8735
 20
8.1165
 11
60.8713
 21
8.1469
  0
LINE
  8
0
 10
60.8713
 20
8.1469
 11
60.8699
 21
8.1786
  0
LINE
  8
0
 10
60.8699
 20
8.1786
 11
60.8695
 21
8.2116
  0
LINE
  8
0
 10
60.9735
 20
8.2116
 11
60.9759
 21
8.1267
  0
LINE
  8
0
 10
60.9759
 20
8.1267
 11
60.9833
 21
8.0564
  0
LINE
  8
0
 10
60.9833
 20
8.0564
 11
60.9956
 21
8.0006
  0
ARC
  8
0
 10
61.2141
 20
8.0608
 40
0.226627
 50
195.4018
 51
220.0495
  0
ARC
  8
0
 10
61.1389
 20
8.0068
 40
0.134553
 50
223.0483
 51
338.3239
  0
ARC
  8
0
 10
61.0001
 20
8.0847
 40
0.293102
 50
334.2003
 51
342.9907
  0
ARC
  8
0
 10
60.853
 20
8.1302
 40
0.447079
 50
342.9312
 51
349.5636
  0
LINE
  8
0
 10
61.2927
 20
8.0492
 11
61.2973
 21
8.0775
  0
LINE
  8
0
 10
61.2973
 20
8.0775
 11
61.3009
 21
8.1079
  0
LINE
  8
0
 10
61.3009
 20
8.1079
 11
61.3034
 21
8.1404
  0
LINE
  8
0
 10
61.3034
 20
8.1404
 11
61.3049
 21
8.1749
  0
LINE
  8
0
 10
61.3049
 20
8.1749
 11
61.3055
 21
8.2116
  0
LINE
  8
0
 10
61.3055
 20
8.2116
 11
61.303
 21
8.2965
  0
LINE
  8
0
 10
61.303
 20
8.2965
 11
61.2956
 21
8.3668
  0
ARC
  8
0
 10
60.9847
 20
8.3276
 40
0.313419
 50
7.1912
 51
30.116
  0
ARC
  8
0
 10
61.1413
 20
8.4172
 40
0.132936
 50
30.5759
 51
91.2917
  0
ARC
  8
0
 10
61.1389
 20
8.4085
 40
0.141584
 50
90.225
 51
168.117
  0
LINE
  8
0
 10
61.0003
 20
8.4377
 11
60.9907
 21
8.4031
  0
LINE
  8
0
 10
60.9907
 20
8.4031
 11
60.9831
 21
8.3632
  0
LINE
  8
0
 10
60.9831
 20
8.3632
 11
60.9778
 21
8.318
  0
LINE
  8
0
 10
60.9778
 20
8.318
 11
60.9745
 21
8.2675
  0
LINE
  8
0
 10
60.9745
 20
8.2675
 11
60.9735
 21
8.2116
  0
LINE
  8
0
 10
61.6855
 20
7.9194
 11
61.6855
 21
7.8037
  0
LINE
  8
0
 10
61.6855
 20
7.8037
 11
61.5735
 21
7.8037
  0
LINE
  8
0
 10
61.5735
 20
7.8037
 11
61.5735
 21
7.9194
  0
LINE
  8
0
 10
61.5735
 20
7.9194
 11
61.6855
 21
7.9194
  0
LINE
  8
0
 10
62.2465
 20
8.5225
 11
61.8418
 21
8.5225
  0
LINE
  8
0
 10
61.8418
 20
8.5225
 11
61.8418
 21
8.6201
  0
LINE
  8
0
 10
61.8418
 20
8.6201
 11
62.3769
 21
8.6201
  0
LINE
  8
0
 10
62.3769
 20
8.6201
 11
62.3769
 21
8.5411
  0
LINE
  8
0
 10
62.3769
 20
8.5411
 11
62.2976
 21
8.4427
  0
LINE
  8
0
 10
62.2976
 20
8.4427
 11
62.22
 21
8.3177
  0
ARC
  8
0
 10
63.3925
 20
7.6601
 40
1.34431
 50
150.7129
 51
163.98
  0
ARC
  8
0
 10
63.1357
 20
7.7367
 40
1.07636
 50
164.1309
 51
176.4341
  0
LINE
  8
0
 10
62.0615
 20
7.8037
 11
61.9575
 21
7.8037
  0
LINE
  8
0
 10
61.9575
 20
7.8037
 11
61.97
 21
7.9264
  0
ARC
  8
0
 10
63.2479
 20
7.6987
 40
1.29808
 50
148.9649
 51
169.8981
  0
LINE
  8
0
 10
62.1357
 20
8.368
 11
62.1715
 21
8.4246
  0
LINE
  8
0
 10
62.1715
 20
8.4246
 11
62.2083
 21
8.476
  0
LINE
  8
0
 10
62.2083
 20
8.476
 11
62.2465
 21
8.5225
  0
LINE
  8
0
 10
62
 20
9
 11
62
 21
10.2
  0
LINE
  8
0
 10
61.25
 20
9
 11
61.25
 21
10.2
  0
LINE
  8
0
 10
58.3888
 20
7.0204
 11
58.4954
 21
7.0294
  0
ARC
  8
0
 10
58.7484
 20
7.0636
 40
0.255299
 50
187.7097
 51
208.3142
  0
ARC
  8
0
 10
58.6624
 20
7.0414
 40
0.170404
 50
215.4719
 51
371.3865
  0
ARC
  8
0
 10
58.6444
 20
7.0847
 40
0.185361
 50
357.014
 51
416.2385
  0
ARC
  8
0
 10
58.6569
 20
7.0772
 40
0.185211
 50
60.7596
 51
91.2551
  0
ARC
  8
0
 10
58.6463
 20
7.0931
 40
0.169438
 50
87.7816
 51
148.2399
  0
LINE
  8
0
 10
58.5022
 20
7.1823
 11
58.4068
 21
7.1947
  0
LINE
  8
0
 10
58.4068
 20
7.1947
 11
58.487
 21
7.6196
  0
LINE
  8
0
 10
58.487
 20
7.6196
 11
58.8959
 21
7.6196
  0
LINE
  8
0
 10
58.8959
 20
7.6196
 11
58.8959
 21
7.5225
  0
LINE
  8
0
 10
58.8959
 20
7.5225
 11
58.5682
 21
7.5225
  0
LINE
  8
0
 10
58.5682
 20
7.5225
 11
58.5236
 21
7.3002
  0
ARC
  8
0
 10
58.6803
 20
7.1007
 40
0.253691
 50
356.266
 51
488.1356
  0
ARC
  8
0
 10
58.6403
 20
7.0738
 40
0.293382
 50
302.7155
 51
362.0126
  0
ARC
  8
0
 10
58.6612
 20
7.0692
 40
0.278547
 50
268.6264
 51
299.6086
  0
ARC
  8
0
 10
58.6338
 20
7.0353
 40
0.245457
 50
183.4781
 51
274.8483
  0
LINE
  8
0
 10
59.2015
 20
6.9194
 11
59.2015
 21
6.8037
  0
LINE
  8
0
 10
59.2015
 20
6.8037
 11
59.0895
 21
6.8037
  0
LINE
  8
0
 10
59.0895
 20
6.8037
 11
59.0895
 21
6.9194
  0
LINE
  8
0
 10
59.0895
 20
6.9194
 11
59.2015
 21
6.9194
  0
LINE
  8
0
 10
59.7625
 20
7.5225
 11
59.3578
 21
7.5225
  0
LINE
  8
0
 10
59.3578
 20
7.5225
 11
59.3578
 21
7.6201
  0
LINE
  8
0
 10
59.3578
 20
7.6201
 11
59.8929
 21
7.6201
  0
LINE
  8
0
 10
59.8929
 20
7.6201
 11
59.8929
 21
7.5411
  0
LINE
  8
0
 10
59.8929
 20
7.5411
 11
59.8136
 21
7.4427
  0
LINE
  8
0
 10
59.8136
 20
7.4427
 11
59.736
 21
7.3177
  0
ARC
  8
0
 10
60.9085
 20
6.6601
 40
1.34431
 50
150.7129
 51
163.98
  0
ARC
  8
0
 10
60.6517
 20
6.7367
 40
1.07636
 50
164.1309
 51
176.4341
  0
LINE
  8
0
 10
59.5775
 20
6.8037
 11
59.4735
 21
6.8037
  0
LINE
  8
0
 10
59.4735
 20
6.8037
 11
59.486
 21
6.9264
  0
ARC
  8
0
 10
60.7639
 20
6.6987
 40
1.29808
 50
148.9649
 51
169.8981
  0
LINE
  8
0
 10
59.6517
 20
7.368
 11
59.6875
 21
7.4246
  0
LINE
  8
0
 10
59.6875
 20
7.4246
 11
59.7243
 21
7.476
  0
LINE
  8
0
 10
59.7243
 20
7.476
 11
59.7625
 21
7.5225
  0
LINE
  8
0
 10
60.0939
 20
7.2
 11
62
 21
7.2
  0
LINE
  8
0
 10
61.6422
 20
7.0211
 11
62
 21
7.2
  0
LINE
  8
0
 10
61.6422
 20
7.3789
 11
62
 21
7.2
  0
LINE
  8
0
 10
62
 20
7
 11
62
 21
8.2
  0
LINE
  8
0
 10
58.1861
 20
7.2
 11
56.28
 21
7.2
  0
LINE
  8
0
 10
56.6378
 20
7.3789
 11
56.28
 21
7.2
  0
LINE
  8
0
 10
56.6378
 20
7.0211
 11
56.28
 21
7.2
  0
LINE
  8
0
 10
56.28
 20
7
 11
56.28
 21
8.2
  0
LINE
  8
0
 10
64.071
 20
19.1407
 11
64.071
 21
19.2077
  0
LINE
  8
0
 10
64.071
 20
19.2077
 11
64.9015
 21
19.2077
  0
LINE
  8
0
 10
64.9015
 20
19.2077
 11
64.9015
 21
19.1037
  0
LINE
  8
0
 10
64.9015
 20
19.1037
 11
64.2543
 21
19.1037
  0
LINE
  8
0
 10
64.2543
 20
19.1037
 11
64.323
 21
19.0123
  0
LINE
  8
0
 10
64.323
 20
19.0123
 11
64.3768
 21
18.9006
  0
LINE
  8
0
 10
64.3768
 20
18.9006
 11
64.2786
 21
18.9006
  0
LINE
  8
0
 10
64.2786
 20
18.9006
 11
64.2498
 21
18.9565
  0
LINE
  8
0
 10
64.2498
 20
18.9565
 11
64.2187
 21
19.006
  0
ARC
  8
0
 10
63.8479
 20
18.7535
 40
0.448628
 50
34.2592
 51
54.0312
  0
LINE
  8
0
 10
64.1114
 20
19.1165
 11
64.071
 21
19.1407
  0
LINE
  8
0
 10
64.7858
 20
19.6397
 11
64.9015
 21
19.6397
  0
LINE
  8
0
 10
64.9015
 20
19.6397
 11
64.9015
 21
19.5277
  0
LINE
  8
0
 10
64.9015
 20
19.5277
 11
64.7858
 21
19.5277
  0
LINE
  8
0
 10
64.7858
 20
19.5277
 11
64.7858
 21
19.6397
  0
ARC
  8
0
 10
64.2899
 20
19.9883
 40
0.168682
 50
268.0635
 51
345.0693
  0
ARC
  8
0
 10
64.2836
 20
20.0338
 40
0.214091
 50
173.4363
 51
270.1505
  0
ARC
  8
0
 10
64.3174
 20
20.0684
 40
0.246688
 50
129.4496
 51
182.3541
  0
ARC
  8
0
 10
64.2798
 20
20.1222
 40
0.181337
 50
17.3576
 51
131.0657
  0
ARC
  8
0
 10
64.675
 20
20.1026
 40
0.233992
 50
7.2743
 51
161.6651
  0
ARC
  8
0
 10
64.6566
 20
20.051
 40
0.263364
 50
271.2181
 51
377.9759
  0
ARC
  8
0
 10
64.6535
 20
20.0223
 40
0.234798
 50
243.4498
 51
272.1233
  0
ARC
  8
0
 10
64.6478
 20
19.9847
 40
0.198958
 50
191.5714
 51
240.0755
  0
ARC
  8
0
 10
64.2778
 20
20.0598
 40
0.136154
 50
271.2734
 51
446.3572
  0
ARC
  8
0
 10
64.2889
 20
20.0596
 40
0.136129
 50
91.0061
 51
266.6245
  0
ARC
  8
0
 10
64.666
 20
20.0597
 40
0.168015
 50
268.9119
 51
449.9159
  0
ARC
  8
0
 10
64.6649
 20
20.0597
 40
0.168009
 50
89.5489
 51
269.2788
  0
LINE
  8
0
 10
63.5
 20
19.6125
 11
63.5
 21
20.525
  0
LINE
  8
0
 10
63.6789
 20
20.1672
 11
63.5
 21
20.525
  0
LINE
  8
0
 10
63.3211
 20
20.1672
 11
63.5
 21
20.525
  0
LINE
  8
0
 10
63.7
 20
20.525
 11
62.5
 21
20.525
  0
LINE
  8
0
 10
63.5
 20
19.6125
 11
63.5
 21
18.7
  0
LINE
  8
0
 10
63.3211
 20
19.0578
 11
63.5
 21
18.7
  0
LINE
  8
0
 10
63.6789
 20
19.0578
 11
63.5
 21
18.7
  0
LINE
  8
0
 10
63.7
 20
18.7
 11
62.5
 21
18.7
  0
LINE
  8
0
 10
65.6848
 20
43.567
 11
65.6758
 21
43.6736
  0
ARC
  8
0
 10
65.6415
 20
43.9266
 40
0.255299
 50
277.7097
 51
298.3142
  0
ARC
  8
0
 10
65.6637
 20
43.8406
 40
0.170404
 50
305.4719
 51
461.3865
  0
ARC
  8
0
 10
65.6189
 20
43.8302
 40
0.177866
 50
86.3923
 51
237.3364
  0
LINE
  8
0
 10
65.5229
 20
43.6804
 11
65.5105
 21
43.5851
  0
LINE
  8
0
 10
65.5105
 20
43.5851
 11
65.0856
 21
43.6652
  0
LINE
  8
0
 10
65.0856
 20
43.6652
 11
65.0856
 21
44.0741
  0
LINE
  8
0
 10
65.0856
 20
44.0741
 11
65.1826
 21
44.0741
  0
LINE
  8
0
 10
65.1826
 20
44.0741
 11
65.1826
 21
43.7464
  0
LINE
  8
0
 10
65.1826
 20
43.7464
 11
65.405
 21
43.7019
  0
ARC
  8
0
 10
65.6045
 20
43.8585
 40
0.253691
 50
86.2659
 51
218.1356
  0
ARC
  8
0
 10
65.6313
 20
43.8185
 40
0.293382
 50
32.7155
 51
92.0126
  0
ARC
  8
0
 10
65.636
 20
43.8394
 40
0.278547
 50
358.6264
 51
389.6086
  0
ARC
  8
0
 10
65.631
 20
43.8247
 40
0.283608
 50
322.2493
 51
361.6275
  0
ARC
  8
0
 10
65.6721
 20
43.8075
 40
0.240777
 50
273.0098
 51
319.4968
  0
LINE
  8
0
 10
65.071
 20
44.5207
 11
65.071
 21
44.5877
  0
LINE
  8
0
 10
65.071
 20
44.5877
 11
65.9015
 21
44.5877
  0
LINE
  8
0
 10
65.9015
 20
44.5877
 11
65.9015
 21
44.4837
  0
LINE
  8
0
 10
65.9015
 20
44.4837
 11
65.2543
 21
44.4837
  0
LINE
  8
0
 10
65.2543
 20
44.4837
 11
65.323
 21
44.3923
  0
LINE
  8
0
 10
65.323
 20
44.3923
 11
65.3768
 21
44.2806
  0
LINE
  8
0
 10
65.3768
 20
44.2806
 11
65.2786
 21
44.2806
  0
LINE
  8
0
 10
65.2786
 20
44.2806
 11
65.2498
 21
44.3365
  0
LINE
  8
0
 10
65.2498
 20
44.3365
 11
65.2187
 21
44.386
  0
ARC
  8
0
 10
64.8479
 20
44.1334
 40
0.448628
 50
34.2592
 51
54.0312
  0
LINE
  8
0
 10
65.1114
 20
44.4965
 11
65.071
 21
44.5207
  0
LINE
  8
0
 10
65.7858
 20
45.0197
 11
65.9015
 21
45.0197
  0
LINE
  8
0
 10
65.9015
 20
45.0197
 11
65.9015
 21
44.9077
  0
LINE
  8
0
 10
65.9015
 20
44.9077
 11
65.7858
 21
44.9077
  0
LINE
  8
0
 10
65.7858
 20
44.9077
 11
65.7858
 21
45.0197
  0
LINE
  8
0
 10
65.7548
 20
45.1717
 11
65.7457
 21
45.2677
  0
ARC
  8
0
 10
65.7067
 20
45.3899
 40
0.128228
 50
287.6941
 51
372.1668
  0
ARC
  8
0
 10
65.664
 20
45.4174
 40
0.168059
 50
359.833
 51
434.5655
  0
ARC
  8
0
 10
65.537
 20
45.1394
 40
0.472304
 50
68.6722
 51
90.5477
  0
LINE
  8
0
 10
65.5325
 20
45.6117
 11
65.527
 21
45.6117
  0
LINE
  8
0
 10
65.527
 20
45.6117
 11
65.5217
 21
45.6117
  0
LINE
  8
0
 10
65.5217
 20
45.6117
 11
65.5168
 21
45.6117
  0
LINE
  8
0
 10
65.5168
 20
45.6117
 11
65.5121
 21
45.6117
  0
ARC
  8
0
 10
65.3781
 20
45.4091
 40
0.242966
 50
263.4091
 51
416.5147
  0
ARC
  8
0
 10
65.3338
 20
45.4327
 40
0.265473
 50
111.0344
 51
273.5421
  0
LINE
  8
0
 10
65.2385
 20
45.6804
 11
65.3007
 21
45.7
  0
LINE
  8
0
 10
65.3007
 20
45.7
 11
65.3782
 21
45.7118
  0
ARC
  8
0
 10
65.4718
 20
44.5963
 40
1.11934
 50
85.2524
 51
94.7946
  0
LINE
  8
0
 10
65.5644
 20
45.7119
 11
65.607
 21
45.7071
  0
LINE
  8
0
 10
65.607
 20
45.7071
 11
65.6468
 21
45.7003
  0
ARC
  8
0
 10
65.5514
 20
45.2067
 40
0.502782
 50
66.7506
 51
79.0549
  0
ARC
  8
0
 10
65.6238
 20
45.3803
 40
0.314684
 50
49.5275
 51
66.3929
  0
ARC
  8
0
 10
65.6599
 20
45.4282
 40
0.25483
 50
357.4604
 51
408.7024
  0
ARC
  8
0
 10
65.4795
 20
45.4093
 40
0.435009
 50
347.2987
 51
361.0038
  0
ARC
  8
0
 10
65.7173
 20
45.3603
 40
0.192295
 50
281.2292
 51
345.9665
  0
ARC
  8
0
 10
65.3163
 20
45.4399
 40
0.161054
 50
79.675
 51
257.0291
  0
ARC
  8
0
 10
65.3615
 20
45.43
 40
0.167979
 50
241.0311
 51
430.5709
  0
LINE
  8
0
 10
65.4174
 20
45.5884
 11
65.3451
 21
45.5984
  0
LINE
  8
0
 10
65.5
 20
45.9139
 11
65.5
 21
70.575
  0
LINE
  8
0
 10
65.6789
 20
70.2172
 11
65.5
 21
70.575
  0
LINE
  8
0
 10
65.3211
 20
70.2172
 11
65.5
 21
70.575
  0
LINE
  8
0
 10
65.7
 20
70.575
 11
64.5
 21
70.575
  0
LINE
  8
0
 10
65.5
 20
43.3611
 11
65.5
 21
18.7
  0
LINE
  8
0
 10
65.3211
 20
19.0578
 11
65.5
 21
18.7
  0
LINE
  8
0
 10
65.6789
 20
19.0578
 11
65.5
 21
18.7
  0
LINE
  8
0
 10
65.7
 20
18.7
 11
64.5
 21
18.7
  0
LINE
  8
0
 10
67.2498
 20
48.6727
 11
67.2577
 21
48.5717
  0
ARC
  8
0
 10
67.2908
 20
48.4383
 40
0.13742
 50
103.9305
 51
187.21
  0
ARC
  8
0
 10
67.3353
 20
48.4188
 40
0.180869
 50
179.2684
 51
256.0903
  0
ARC
  8
0
 10
67.4365
 20
48.6611
 40
0.442257
 50
250.9122
 51
261.9165
  0
LINE
  8
0
 10
67.3743
 20
48.2233
 11
67.4223
 21
48.2179
  0
LINE
  8
0
 10
67.4223
 20
48.2179
 11
67.4749
 21
48.2157
  0
ARC
  8
0
 10
67.6048
 20
48.4174
 40
0.239931
 50
83.2766
 51
237.2179
  0
ARC
  8
0
 10
67.6377
 20
48.3487
 40
0.307073
 50
50.0022
 51
90.8866
  0
ARC
  8
0
 10
67.6645
 20
48.4003
 40
0.250561
 50
354.0856
 51
407.1242
  0
ARC
  8
0
 10
67.6231
 20
48.3893
 40
0.291039
 50
340.2917
 51
357.0746
  0
ARC
  8
0
 10
67.6729
 20
48.3763
 40
0.239813
 50
290.8289
 51
339.1998
  0
ARC
  8
0
 10
67.5956
 20
48.5345
 40
0.415448
 50
283.0518
 51
293.0381
  0
ARC
  8
0
 10
67.5541
 20
48.7004
 40
0.586459
 50
278.0888
 51
283.3393
  0
ARC
  8
0
 10
67.5291
 20
48.8753
 40
0.763096
 50
273.6984
 51
278.1033
  0
LINE
  8
0
 10
67.5783
 20
48.1138
 11
67.547
 21
48.1122
  0
LINE
  8
0
 10
67.547
 20
48.1122
 11
67.5144
 21
48.1117
  0
LINE
  8
0
 10
67.5144
 20
48.1117
 11
67.4486
 21
48.1136
  0
LINE
  8
0
 10
67.4486
 20
48.1136
 11
67.3881
 21
48.1191
  0
LINE
  8
0
 10
67.3881
 20
48.1191
 11
67.3329
 21
48.1284
  0
ARC
  8
0
 10
67.4189
 20
48.5591
 40
0.439154
 50
240.0219
 51
258.7051
  0
ARC
  8
0
 10
67.3592
 20
48.4189
 40
0.288444
 50
123.6991
 51
236.3779
  0
LINE
  8
0
 10
67.1992
 20
48.6589
 11
67.2498
 21
48.6727
  0
ARC
  8
0
 10
67.6616
 20
48.389
 40
0.165271
 50
260.1877
 51
408.4953
  0
ARC
  8
0
 10
67.6422
 20
48.3189
 40
0.232837
 50
56.3749
 51
90.7697
  0
ARC
  8
0
 10
67.6184
 20
48.3892
 40
0.163788
 50
82.7321
 51
275.2882
  0
LINE
  8
0
 10
67.4935
 20
48.7557
 11
67.4401
 21
48.7569
  0
LINE
  8
0
 10
67.4401
 20
48.7569
 11
67.3903
 21
48.7605
  0
LINE
  8
0
 10
67.3903
 20
48.7605
 11
67.344
 21
48.7665
  0
LINE
  8
0
 10
67.344
 20
48.7665
 11
67.3013
 21
48.7749
  0
ARC
  8
0
 10
67.3955
 20
49.194
 40
0.429618
 50
242.0887
 51
257.3317
  0
ARC
  8
0
 10
67.3185
 20
49.043
 40
0.260175
 50
220.1044
 51
241.5122
  0
ARC
  8
0
 10
67.3118
 20
49.0253
 40
0.243814
 50
106.5572
 51
217.9332
  0
ARC
  8
0
 10
67.4204
 20
48.8016
 40
0.490927
 50
94.4112
 51
111.2762
  0
LINE
  8
0
 10
67.3827
 20
49.291
 11
67.4935
 21
49.2957
  0
LINE
  8
0
 10
67.4935
 20
49.2957
 11
67.5468
 21
49.2945
  0
LINE
  8
0
 10
67.5468
 20
49.2945
 11
67.5966
 21
49.2909
  0
LINE
  8
0
 10
67.5966
 20
49.2909
 11
67.6428
 21
49.2849
  0
LINE
  8
0
 10
67.6428
 20
49.2849
 11
67.6855
 21
49.2765
  0
ARC
  8
0
 10
67.5913
 20
48.8583
 40
0.428719
 50
62.0553
 51
77.3108
  0
ARC
  8
0
 10
67.668
 20
49.0085
 40
0.260134
 50
40.0805
 51
61.4784
  0
ARC
  8
0
 10
67.6833
 20
49.0353
 40
0.23133
 50
357.6115
 51
397.4328
  0
ARC
  8
0
 10
67.6608
 20
49.0198
 40
0.253746
 50
334.8215
 51
361.33
  0
ARC
  8
0
 10
67.6857
 20
49.0168
 40
0.230065
 50
294.9421
 51
332.8455
  0
ARC
  8
0
 10
67.6123
 20
49.1495
 40
0.381414
 50
286.4122
 51
296.5417
  0
ARC
  8
0
 10
67.5654
 20
49.2992
 40
0.538297
 50
281.3759
 51
286.7026
  0
ARC
  8
0
 10
67.5331
 20
49.4586
 40
0.700921
 50
276.9237
 51
281.3906
  0
LINE
  8
0
 10
67.6176
 20
48.7628
 11
67.5886
 21
48.7597
  0
LINE
  8
0
 10
67.5886
 20
48.7597
 11
67.5583
 21
48.7575
  0
LINE
  8
0
 10
67.5583
 20
48.7575
 11
67.5266
 21
48.7562
  0
LINE
  8
0
 10
67.5266
 20
48.7562
 11
67.4935
 21
48.7557
  0
LINE
  8
0
 10
67.4935
 20
48.8597
 11
67.5784
 21
48.8622
  0
LINE
  8
0
 10
67.5784
 20
48.8622
 11
67.6487
 21
48.8695
  0
LINE
  8
0
 10
67.6487
 20
48.8695
 11
67.7045
 21
48.8818
  0
ARC
  8
0
 10
67.6443
 20
49.1003
 40
0.226627
 50
285.4018
 51
310.0495
  0
ARC
  8
0
 10
67.6983
 20
49.0252
 40
0.134553
 50
313.0483
 51
428.3239
  0
ARC
  8
0
 10
67.6204
 20
48.8863
 40
0.293102
 50
64.2003
 51
72.9907
  0
ARC
  8
0
 10
67.575
 20
48.7392
 40
0.447079
 50
72.9312
 51
79.5635
  0
LINE
  8
0
 10
67.6559
 20
49.1789
 11
67.6277
 21
49.1835
  0
LINE
  8
0
 10
67.6277
 20
49.1835
 11
67.5973
 21
49.1871
  0
LINE
  8
0
 10
67.5973
 20
49.1871
 11
67.5648
 21
49.1896
  0
LINE
  8
0
 10
67.5648
 20
49.1896
 11
67.5302
 21
49.1912
  0
LINE
  8
0
 10
67.5302
 20
49.1912
 11
67.4935
 21
49.1917
  0
LINE
  8
0
 10
67.4935
 20
49.1917
 11
67.4087
 21
49.1892
  0
LINE
  8
0
 10
67.4087
 20
49.1892
 11
67.3383
 21
49.1819
  0
ARC
  8
0
 10
67.3776
 20
48.8709
 40
0.313419
 50
97.1912
 51
120.116
  0
ARC
  8
0
 10
67.2949
 20
49.0237
 40
0.139846
 50
122.2204
 51
258.6948
  0
LINE
  8
0
 10
67.2675
 20
48.8866
 11
67.302
 21
48.8769
  0
LINE
  8
0
 10
67.302
 20
48.8769
 11
67.3419
 21
48.8694
  0
LINE
  8
0
 10
67.3419
 20
48.8694
 11
67.3871
 21
48.864
  0
LINE
  8
0
 10
67.3871
 20
48.864
 11
67.4377
 21
48.8608
  0
LINE
  8
0
 10
67.4377
 20
48.8608
 11
67.4935
 21
48.8597
  0
LINE
  8
0
 10
67.5
 20
49.4948
 11
67.5
 21
78.7
  0
LINE
  8
0
 10
67.6789
 20
78.3422
 11
67.5
 21
78.7
  0
LINE
  8
0
 10
67.3211
 20
78.3422
 11
67.5
 21
78.7
  0
LINE
  8
0
 10
67.7
 20
78.7
 11
62.2
 21
78.7
  0
LINE
  8
0
 10
67.5
 20
47.9052
 11
67.5
 21
18.7
  0
LINE
  8
0
 10
67.3211
 20
19.0578
 11
67.5
 21
18.7
  0
LINE
  8
0
 10
67.6789
 20
19.0578
 11
67.5
 21
18.7
  0
LINE
  8
0
 10
67.7
 20
18.7
 11
62.2
 21
18.7
  0
LINE
  8
0
 10
52.6825
 20
5.6342
 11
52.7495
 21
5.6342
  0
LINE
  8
0
 10
52.7495
 20
5.6342
 11
52.7495
 21
4.8037
  0
LINE
  8
0
 10
52.7495
 20
4.8037
 11
52.6455
 21
4.8037
  0
LINE
  8
0
 10
52.6455
 20
4.8037
 11
52.6455
 21
5.4508
  0
LINE
  8
0
 10
52.6455
 20
5.4508
 11
52.5541
 21
5.3821
  0
LINE
  8
0
 10
52.5541
 20
5.3821
 11
52.4423
 21
5.3284
  0
LINE
  8
0
 10
52.4423
 20
5.3284
 11
52.4423
 21
5.4266
  0
LINE
  8
0
 10
52.4423
 20
5.4266
 11
52.4982
 21
5.4554
  0
LINE
  8
0
 10
52.4982
 20
5.4554
 11
52.5478
 21
5.4865
  0
ARC
  8
0
 10
52.2952
 20
5.8573
 40
0.448628
 50
304.2592
 51
324.0313
  0
LINE
  8
0
 10
52.6583
 20
5.5938
 11
52.6825
 21
5.6342
  0
ARC
  8
0
 10
53.2319
 20
5.4348
 40
0.193827
 50
94.4474
 51
250.3095
  0
ARC
  8
0
 10
53.2953
 20
5.4174
 40
0.224711
 50
344.0768
 51
470.4281
  0
ARC
  8
0
 10
53.3507
 20
5.4179
 40
0.172254
 50
285.9379
 51
338.8593
  0
ARC
  8
0
 10
53.3244
 20
5.0301
 40
0.233992
 50
277.2743
 51
431.6651
  0
LINE
  8
0
 10
53.354
 20
4.798
 11
53.2815
 21
4.7907
  0
ARC
  8
0
 10
53.2597
 20
5.0418
 40
0.252003
 50
147.0628
 51
274.959
  0
ARC
  8
0
 10
53.2091
 20
5.0516
 40
0.205063
 50
101.9603
 51
141.6882
  0
ARC
  8
0
 10
53.2792
 20
5.4168
 40
0.133908
 50
176.7834
 51
449.0148
  0
ARC
  8
0
 10
53.2738
 20
5.4225
 40
0.128393
 50
86.5976
 51
179.2006
  0
ARC
  8
0
 10
53.2811
 20
5.0407
 40
0.167603
 50
179.414
 51
450.7374
  0
ARC
  8
0
 10
53.2734
 20
5.0483
 40
0.160067
 50
88.0383
 51
182.113
  0
LINE
  8
0
 10
53.7571
 20
5.2
 11
62
 21
5.2
  0
LINE
  8
0
 10
61.6422
 20
5.0211
 11
62
 21
5.2
  0
LINE
  8
0
 10
61.6422
 20
5.3789
 11
62
 21
5.2
  0
LINE
  8
0
 10
62
 20
5
 11
62
 21
18.5
  0
LINE
  8
0
 10
52.2429
 20
5.2
 11
44
 21
5.2
  0
LINE
  8
0
 10
44.3578
 20
5.3789
 11
44
 21
5.2
  0
LINE
  8
0
 10
44.3578
 20
5.0211
 11
44
 21
5.2
  0
LINE
  8
0
 10
44
 20
5
 11
44
 21
18.5
  0
LINE
  8
0
 10
44.2425
 20
4.3062
 11
44.3095
 21
4.3062
  0
LINE
  8
0
 10
44.3095
 20
4.3062
 11
44.3095
 21
3.4757
  0
LINE
  8
0
 10
44.3095
 20
3.4757
 11
44.2055
 21
3.4757
  0
LINE
  8
0
 10
44.2055
 20
3.4757
 11
44.2055
 21
4.1228
  0
LINE
  8
0
 10
44.2055
 20
4.1228
 11
44.1141
 21
4.0541
  0
LINE
  8
0
 10
44.1141
 20
4.0541
 11
44.0023
 21
4.0004
  0
LINE
  8
0
 10
44.0023
 20
4.0004
 11
44.0023
 21
4.0986
  0
LINE
  8
0
 10
44.0023
 20
4.0986
 11
44.0582
 21
4.1274
  0
LINE
  8
0
 10
44.0582
 20
4.1274
 11
44.1078
 21
4.1585
  0
ARC
  8
0
 10
43.8552
 20
4.5293
 40
0.448628
 50
304.2592
 51
324.0313
  0
LINE
  8
0
 10
44.2183
 20
4.2658
 11
44.2425
 21
4.3062
  0
LINE
  8
0
 10
44.7415
 20
3.5914
 11
44.7415
 21
3.4757
  0
LINE
  8
0
 10
44.7415
 20
3.4757
 11
44.6295
 21
3.4757
  0
LINE
  8
0
 10
44.6295
 20
3.4757
 11
44.6295
 21
3.5914
  0
LINE
  8
0
 10
44.6295
 20
3.5914
 11
44.7415
 21
3.5914
  0
LINE
  8
0
 10
44.8928
 20
3.6924
 11
44.9994
 21
3.7014
  0
ARC
  8
0
 10
45.2524
 20
3.7356
 40
0.255299
 50
187.7097
 51
208.3142
  0
ARC
  8
0
 10
45.1664
 20
3.7134
 40
0.170404
 50
215.4719
 51
371.3865
  0
ARC
  8
0
 10
45.1484
 20
3.7567
 40
0.185361
 50
357.014
 51
416.2385
  0
ARC
  8
0
 10
45.1609
 20
3.7492
 40
0.185211
 50
60.7596
 51
91.2551
  0
ARC
  8
0
 10
45.1503
 20
3.7651
 40
0.169438
 50
87.7816
 51
148.2399
  0
LINE
  8
0
 10
45.0062
 20
3.8543
 11
44.9108
 21
3.8667
  0
LINE
  8
0
 10
44.9108
 20
3.8667
 11
44.991
 21
4.2916
  0
LINE
  8
0
 10
44.991
 20
4.2916
 11
45.3999
 21
4.2916
  0
LINE
  8
0
 10
45.3999
 20
4.2916
 11
45.3999
 21
4.1945
  0
LINE
  8
0
 10
45.3999
 20
4.1945
 11
45.0722
 21
4.1945
  0
LINE
  8
0
 10
45.0722
 20
4.1945
 11
45.0277
 21
3.9722
  0
ARC
  8
0
 10
45.1843
 20
3.7727
 40
0.253691
 50
356.266
 51
488.1356
  0
ARC
  8
0
 10
45.1443
 20
3.7458
 40
0.293382
 50
302.7155
 51
362.0126
  0
ARC
  8
0
 10
45.1652
 20
3.7412
 40
0.278547
 50
268.6264
 51
299.6086
  0
ARC
  8
0
 10
45.1378
 20
3.7073
 40
0.245457
 50
183.4781
 51
274.8483
  0
LINE
  8
0
 10
45.6455
 20
4.1674
 11
45.6209
 21
4.01
  0
LINE
  8
0
 10
45.6209
 20
4.01
 11
45.5608
 21
4.01
  0
LINE
  8
0
 10
45.5608
 20
4.01
 11
45.5335
 21
4.1674
  0
LINE
  8
0
 10
45.5335
 20
4.1674
 11
45.5335
 21
4.3028
  0
LINE
  8
0
 10
45.5335
 20
4.3028
 11
45.6455
 21
4.3028
  0
LINE
  8
0
 10
45.6455
 20
4.3028
 11
45.6455
 21
4.1674
  0
LINE
  8
0
 10
45.8335
 20
4.1674
 11
45.8072
 21
4.01
  0
LINE
  8
0
 10
45.8072
 20
4.01
 11
45.7482
 21
4.01
  0
LINE
  8
0
 10
45.7482
 20
4.01
 11
45.7215
 21
4.1674
  0
LINE
  8
0
 10
45.7215
 20
4.1674
 11
45.7215
 21
4.3028
  0
LINE
  8
0
 10
45.7215
 20
4.3028
 11
45.8335
 21
4.3028
  0
LINE
  8
0
 10
45.8335
 20
4.3028
 11
45.8335
 21
4.1674
  0
LINE
  8
0
 10
46.6335
 20
3.843
 11
46.6335
 21
3.4757
  0
LINE
  8
0
 10
46.6335
 20
3.4757
 11
46.5215
 21
3.4757
  0
LINE
  8
0
 10
46.5215
 20
3.4757
 11
46.5215
 21
4.3028
  0
LINE
  8
0
 10
46.5215
 20
4.3028
 11
46.8875
 21
4.3028
  0
LINE
  8
0
 10
46.8875
 20
4.3028
 11
46.971
 21
4.299
  0
ARC
  8
0
 10
46.9668
 20
4.0802
 40
0.218843
 50
289.0714
 51
448.902
  0
ARC
  8
0
 10
46.9034
 20
4.2485
 40
0.398626
 50
281.24
 51
289.7796
  0
LINE
  8
0
 10
46.9811
 20
3.8575
 11
46.9489
 21
3.852
  0
ARC
  8
0
 10
46.8106
 20
3.5523
 40
0.330071
 50
54.3848
 51
65.2242
  0
LINE
  8
0
 10
47.0028
 20
3.8206
 11
47.0149
 21
3.8108
  0
LINE
  8
0
 10
47.0149
 20
3.8108
 11
47.0633
 21
3.7594
  0
LINE
  8
0
 10
47.0633
 20
3.7594
 11
47.1058
 21
3.7008
  0
LINE
  8
0
 10
47.1058
 20
3.7008
 11
47.2497
 21
3.4757
  0
LINE
  8
0
 10
47.2497
 20
3.4757
 11
47.112
 21
3.4757
  0
LINE
  8
0
 10
47.112
 20
3.4757
 11
47.0025
 21
3.6478
  0
LINE
  8
0
 10
47.0025
 20
3.6478
 11
46.9843
 21
3.6762
  0
LINE
  8
0
 10
46.9843
 20
3.6762
 11
46.9681
 21
3.7005
  0
LINE
  8
0
 10
46.9681
 20
3.7005
 11
46.9539
 21
3.7212
  0
LINE
  8
0
 10
46.9539
 20
3.7212
 11
46.9417
 21
3.7386
  0
LINE
  8
0
 10
46.9417
 20
3.7386
 11
46.9019
 21
3.7879
  0
ARC
  8
0
 10
46.7857
 20
3.6914
 40
0.15101
 50
39.6929
 51
85.7887
  0
LINE
  8
0
 10
46.7968
 20
3.842
 11
46.7591
 21
3.843
  0
LINE
  8
0
 10
46.7591
 20
3.843
 11
46.6335
 21
3.843
  0
LINE
  8
0
 10
46.8935
 20
4.2114
 11
46.6335
 21
4.2114
  0
LINE
  8
0
 10
46.6335
 20
4.2114
 11
46.6335
 21
3.9378
  0
LINE
  8
0
 10
46.6335
 20
3.9378
 11
46.8672
 21
3.9378
  0
LINE
  8
0
 10
46.8672
 20
3.9378
 11
46.919
 21
3.9404
  0
ARC
  8
0
 10
46.9044
 20
4.1508
 40
0.211001
 50
273.9711
 51
305.6155
  0
ARC
  8
0
 10
46.9316
 20
4.0788
 40
0.138018
 50
313.873
 51
466.0561
  0
ARC
  8
0
 10
47.505
 20
3.7996
 40
0.3364
 50
270.481
 51
311.9951
  0
ARC
  8
0
 10
47.4739
 20
3.6323
 40
0.172418
 50
112.3515
 51
281.3393
  0
ARC
  8
0
 10
47.5281
 20
3.5144
 40
0.302119
 50
98.149
 51
113.3699
  0
LINE
  8
0
 10
47.4853
 20
3.8135
 11
47.539
 21
3.821
  0
LINE
  8
0
 10
47.539
 20
3.821
 11
47.6144
 21
3.8316
  0
LINE
  8
0
 10
47.6144
 20
3.8316
 11
47.6752
 21
3.8433
  0
LINE
  8
0
 10
47.6752
 20
3.8433
 11
47.7215
 21
3.8559
  0
LINE
  8
0
 10
47.7215
 20
3.8559
 11
47.7215
 21
3.8745
  0
LINE
  8
0
 10
47.7215
 20
3.8745
 11
47.7215
 21
3.8825
  0
LINE
  8
0
 10
47.7215
 20
3.8825
 11
47.7143
 21
3.9354
  0
LINE
  8
0
 10
47.7143
 20
3.9354
 11
47.6927
 21
3.9699
  0
LINE
  8
0
 10
47.6927
 20
3.9699
 11
47.6443
 21
3.9955
  0
LINE
  8
0
 10
47.6443
 20
3.9955
 11
47.577
 21
4.0044
  0
ARC
  8
0
 10
47.5528
 20
3.8736
 40
0.133053
 50
79.4925
 51
172.7365
  0
LINE
  8
0
 10
47.4208
 20
3.8904
 11
47.3215
 21
3.9039
  0
ARC
  8
0
 10
47.5322
 20
3.8697
 40
0.213531
 50
93.7222
 51
170.7735
  0
ARC
  8
0
 10
47.5953
 20
3.5568
 40
0.531629
 50
84.6548
 51
98.3221
  0
ARC
  8
0
 10
47.6261
 20
3.8261
 40
0.260629
 50
58.2837
 51
85.8847
  0
ARC
  8
0
 10
47.6733
 20
3.9261
 40
0.151268
 50
357.9948
 51
413.5529
  0
LINE
  8
0
 10
47.8245
 20
3.9209
 11
47.8255
 21
3.8622
  0
LINE
  8
0
 10
47.8255
 20
3.8622
 11
47.8255
 21
3.7268
  0
LINE
  8
0
 10
47.8255
 20
3.7268
 11
47.8255
 21
3.6727
  0
LINE
  8
0
 10
47.8255
 20
3.6727
 11
47.8255
 21
3.6334
  0
LINE
  8
0
 10
47.8255
 20
3.6334
 11
47.8255
 21
3.6086
  0
ARC
  8
0
 10
48.0986
 20
3.6034
 40
0.273199
 50
178.8989
 51
207.8643
  0
LINE
  8
0
 10
47.8571
 20
3.4757
 11
47.7505
 21
3.4757
  0
LINE
  8
0
 10
47.7505
 20
3.4757
 11
47.7377
 21
3.51
  0
LINE
  8
0
 10
47.7377
 20
3.51
 11
47.73
 21
3.5496
  0
LINE
  8
0
 10
47.7215
 20
3.7392
 11
47.7215
 21
3.7764
  0
LINE
  8
0
 10
47.7215
 20
3.7764
 11
47.6897
 21
3.7656
  0
LINE
  8
0
 10
47.6897
 20
3.7656
 11
47.6513
 21
3.7555
  0
LINE
  8
0
 10
47.6513
 20
3.7555
 11
47.6061
 21
3.7464
  0
LINE
  8
0
 10
47.6061
 20
3.7464
 11
47.5538
 21
3.7381
  0
LINE
  8
0
 10
47.5538
 20
3.7381
 11
47.5096
 21
3.7307
  0
ARC
  8
0
 10
47.506
 20
3.6345
 40
0.0962864
 50
87.8987
 51
204.5545
  0
ARC
  8
0
 10
47.5161
 20
3.6562
 40
0.115534
 50
212.2907
 51
277.666
  0
ARC
  8
0
 10
47.5505
 20
3.7135
 40
0.172893
 50
263.7048
 51
368.5317
  0
LINE
  8
0
 10
48.4695
 20
4.3028
 11
48.4695
 21
3.4757
  0
LINE
  8
0
 10
48.4695
 20
3.4757
 11
48.3735
 21
3.4757
  0
LINE
  8
0
 10
48.3735
 20
3.4757
 11
48.3725
 21
3.5513
  0
ARC
  8
0
 10
48.2138
 20
3.6497
 40
0.186664
 50
267.0707
 51
328.2022
  0
ARC
  8
0
 10
48.2066
 20
3.718
 40
0.254732
 50
187.065
 51
269.4743
  0
ARC
  8
0
 10
48.4672
 20
3.7798
 40
0.521712
 50
170.5353
 51
190.2804
  0
ARC
  8
0
 10
48.2827
 20
3.8098
 40
0.33483
 50
156.8186
 51
170.4157
  0
ARC
  8
0
 10
48.1897
 20
3.8554
 40
0.231461
 50
40.6018
 51
158.1444
  0
LINE
  8
0
 10
48.3655
 20
4.0061
 11
48.3655
 21
4.3028
  0
LINE
  8
0
 10
48.3655
 20
4.3028
 11
48.4695
 21
4.3028
  0
ARC
  8
0
 10
48.3287
 20
3.7619
 40
0.279493
 50
177.3586
 51
218.288
  0
ARC
  8
0
 10
48.2145
 20
3.6947
 40
0.149377
 50
225.1949
 51
356.2382
  0
ARC
  8
0
 10
47.9799
 20
3.7666
 40
0.3923
 50
347.9742
 51
383.7824
  0
ARC
  8
0
 10
48.2123
 20
3.864
 40
0.140456
 50
25.6631
 51
91.7438
  0
ARC
  8
0
 10
48.2065
 20
3.8554
 40
0.149019
 50
89.4011
 51
178.3554
  0
LINE
  8
0
 10
48.0575
 20
3.8596
 11
48.0495
 21
3.7748
  0
LINE
  8
0
 10
48.7255
 20
4.3028
 11
48.7255
 21
4.186
  0
LINE
  8
0
 10
48.7255
 20
4.186
 11
48.6215
 21
4.186
  0
LINE
  8
0
 10
48.6215
 20
4.186
 11
48.6215
 21
4.3028
  0
LINE
  8
0
 10
48.6215
 20
4.3028
 11
48.7255
 21
4.3028
  0
LINE
  8
0
 10
48.7255
 20
4.0749
 11
48.7255
 21
3.4757
  0
LINE
  8
0
 10
48.7255
 20
3.4757
 11
48.6215
 21
3.4757
  0
LINE
  8
0
 10
48.6215
 20
3.4757
 11
48.6215
 21
4.0749
  0
LINE
  8
0
 10
48.6215
 20
4.0749
 11
48.7255
 21
4.0749
  0
LINE
  8
0
 10
49.3615
 20
4.0749
 11
49.3615
 21
3.4757
  0
LINE
  8
0
 10
49.3615
 20
3.4757
 11
49.2685
 21
3.4757
  0
LINE
  8
0
 10
49.2685
 20
3.4757
 11
49.2685
 21
3.5637
  0
ARC
  8
0
 10
49.0841
 20
3.6824
 40
0.219298
 50
268.2002
 51
327.2135
  0
ARC
  8
0
 10
49.0762
 20
3.7163
 40
0.253089
 50
237.4906
 51
270.2325
  0
ARC
  8
0
 10
49.0357
 20
3.631
 40
0.159771
 50
187.9742
 51
233.2822
  0
LINE
  8
0
 10
48.8775
 20
3.6088
 11
48.8742
 21
3.6262
  0
LINE
  8
0
 10
48.8742
 20
3.6262
 11
48.8717
 21
3.6478
  0
LINE
  8
0
 10
48.8717
 20
3.6478
 11
48.87
 21
3.6736
  0
LINE
  8
0
 10
48.87
 20
3.6736
 11
48.8695
 21
3.7036
  0
LINE
  8
0
 10
48.8695
 20
3.7036
 11
48.8695
 21
4.0749
  0
LINE
  8
0
 10
48.8695
 20
4.0749
 11
48.9735
 21
4.0749
  0
LINE
  8
0
 10
48.9735
 20
4.0749
 11
48.9735
 21
3.7426
  0
LINE
  8
0
 10
48.9735
 20
3.7426
 11
48.974
 21
3.7054
  0
LINE
  8
0
 10
48.974
 20
3.7054
 11
48.9757
 21
3.6751
  0
ARC
  8
0
 10
49.1686
 20
3.6844
 40
0.193136
 50
182.7412
 51
204.3646
  0
ARC
  8
0
 10
49.1072
 20
3.6957
 40
0.146344
 50
218.4659
 51
356.2477
  0
LINE
  8
0
 10
49.2532
 20
3.6861
 11
49.2575
 21
3.7538
  0
LINE
  8
0
 10
49.2575
 20
3.7538
 11
49.2575
 21
4.0749
  0
LINE
  8
0
 10
49.2575
 20
4.0749
 11
49.3615
 21
4.0749
  0
LINE
  8
0
 10
49.4762
 20
3.6546
 11
49.5767
 21
3.6703
  0
ARC
  8
0
 10
49.7129
 20
3.681
 40
0.13664
 50
184.4656
 51
277.9507
  0
ARC
  8
0
 10
49.7378
 20
3.7344
 40
0.188831
 50
268.1645
 51
296.8849
  0
LINE
  8
0
 10
49.8232
 20
3.5659
 11
49.8579
 21
3.5969
  0
LINE
  8
0
 10
49.8579
 20
3.5969
 11
49.8695
 21
3.641
  0
LINE
  8
0
 10
49.8695
 20
3.641
 11
49.862
 21
3.6718
  0
LINE
  8
0
 10
49.862
 20
3.6718
 11
49.8396
 21
3.6952
  0
LINE
  8
0
 10
49.8396
 20
3.6952
 11
49.819
 21
3.705
  0
LINE
  8
0
 10
49.819
 20
3.705
 11
49.7844
 21
3.7165
  0
LINE
  8
0
 10
49.7844
 20
3.7165
 11
49.7358
 21
3.7296
  0
LINE
  8
0
 10
49.7358
 20
3.7296
 11
49.6928
 21
3.7402
  0
LINE
  8
0
 10
49.6928
 20
3.7402
 11
49.6584
 21
3.7496
  0
LINE
  8
0
 10
49.6584
 20
3.7496
 11
49.6324
 21
3.7575
  0
ARC
  8
0
 10
49.7016
 20
3.998
 40
0.250324
 50
227.3903
 51
253.94
  0
ARC
  8
0
 10
49.6546
 20
3.9185
 40
0.161113
 50
98.8575
 51
220.5558
  0
ARC
  8
0
 10
49.7183
 20
3.7173
 40
0.371183
 50
70.9536
 51
103.8079
  0
ARC
  8
0
 10
49.7866
 20
3.9093
 40
0.167401
 50
37.7109
 51
71.5893
  0
ARC
  8
0
 10
49.7406
 20
3.8923
 40
0.214708
 50
7.5065
 51
33.7945
  0
LINE
  8
0
 10
49.9535
 20
3.9203
 11
49.8542
 21
3.9068
  0
ARC
  8
0
 10
49.7424
 20
3.8941
 40
0.112506
 50
6.4753
 51
99.7674
  0
LINE
  8
0
 10
49.7233
 20
4.0049
 11
49.689
 21
4.0036
  0
ARC
  8
0
 10
49.6864
 20
3.8955
 40
0.108192
 50
88.6253
 51
139.3522
  0
ARC
  8
0
 10
49.6625
 20
3.9289
 40
0.0690389
 50
147.4981
 51
267.7777
  0
LINE
  8
0
 10
49.6598
 20
3.8599
 11
49.6895
 21
3.8512
  0
LINE
  8
0
 10
49.6895
 20
3.8512
 11
49.7336
 21
3.8391
  0
LINE
  8
0
 10
49.7336
 20
3.8391
 11
49.798
 21
3.8205
  0
LINE
  8
0
 10
49.798
 20
3.8205
 11
49.8477
 21
3.8047
  0
LINE
  8
0
 10
49.8477
 20
3.8047
 11
49.8827
 21
3.7916
  0
ARC
  8
0
 10
49.8051
 20
3.6418
 40
0.1687
 50
275.9396
 51
422.6153
  0
ARC
  8
0
 10
49.7337
 20
3.8341
 40
0.370893
 50
269.7878
 51
283.8525
  0
ARC
  8
0
 10
49.7284
 20
3.8593
 40
0.396071
 50
257.0927
 51
270.5635
  0
ARC
  8
0
 10
49.6884
 20
3.6884
 40
0.220488
 50
230.4073
 51
257.3168
  0
ARC
  8
0
 10
49.6847
 20
3.6749
 40
0.207857
 50
193.5612
 51
228.8363
  0
LINE
  8
0
 10
49.4826
 20
3.6262
 11
49.4762
 21
3.6546
  0
LINE
  8
0
 10
50.1815
 20
3.4757
 11
50.1239
 21
3.4757
  0
LINE
  8
0
 10
50.1239
 20
3.4757
 11
50.1239
 21
3.5914
  0
LINE
  8
0
 10
50.1239
 20
3.5914
 11
50.2415
 21
3.5914
  0
LINE
  8
0
 10
50.2415
 20
3.5914
 11
50.2415
 21
3.4757
  0
ARC
  8
0
 10
50.0822
 20
3.4602
 40
0.160028
 50
293.2438
 51
365.5443
  0
LINE
  8
0
 10
50.1453
 20
3.3132
 11
50.1172
 21
3.3566
  0
ARC
  8
0
 10
50.0637
 20
3.4624
 40
0.118471
 50
296.7958
 51
366.4522
  0
LINE
  8
0
 10
50.9255
 20
3.8836
 11
50.9267
 21
3.937
  0
LINE
  8
0
 10
50.9267
 20
3.937
 11
50.9303
 21
3.9869
  0
LINE
  8
0
 10
50.9303
 20
3.9869
 11
50.9362
 21
4.0332
  0
LINE
  8
0
 10
50.9362
 20
4.0332
 11
50.9446
 21
4.0759
  0
ARC
  8
0
 10
51.3638
 20
3.9817
 40
0.429618
 50
152.0887
 51
167.3317
  0
ARC
  8
0
 10
51.2128
 20
4.0587
 40
0.260175
 50
130.1044
 51
151.5122
  0
ARC
  8
0
 10
51.1951
 20
4.0654
 40
0.243814
 50
16.5572
 51
127.9332
  0
ARC
  8
0
 10
50.9713
 20
3.9567
 40
0.490927
 50
4.4112
 51
21.2762
  0
LINE
  8
0
 10
51.4608
 20
3.9945
 11
51.4655
 21
3.8836
  0
LINE
  8
0
 10
51.4655
 20
3.8836
 11
51.4643
 21
3.8303
  0
LINE
  8
0
 10
51.4643
 20
3.8303
 11
51.4607
 21
3.7806
  0
LINE
  8
0
 10
51.4607
 20
3.7806
 11
51.4547
 21
3.7344
  0
LINE
  8
0
 10
51.4547
 20
3.7344
 11
51.4463
 21
3.6917
  0
ARC
  8
0
 10
51.0281
 20
3.7859
 40
0.428719
 50
332.0553
 51
347.3108
  0
ARC
  8
0
 10
51.1782
 20
3.7092
 40
0.260134
 50
310.0806
 51
331.4784
  0
ARC
  8
0
 10
51.2051
 20
3.6938
 40
0.23133
 50
267.6115
 51
307.4328
  0
ARC
  8
0
 10
51.184
 20
3.6908
 40
0.228404
 50
199.6616
 51
272.8716
  0
ARC
  8
0
 10
51.3506
 20
3.7762
 40
0.414704
 50
196.6891
 51
203.0279
  0
ARC
  8
0
 10
51.4689
 20
3.8118
 40
0.538297
 50
191.3759
 51
196.7026
  0
ARC
  8
0
 10
51.6283
 20
3.8441
 40
0.700921
 50
186.9237
 51
191.3905
  0
LINE
  8
0
 10
50.9325
 20
3.7596
 11
50.9295
 21
3.7886
  0
LINE
  8
0
 10
50.9295
 20
3.7886
 11
50.9273
 21
3.8189
  0
LINE
  8
0
 10
50.9273
 20
3.8189
 11
50.9259
 21
3.8506
  0
LINE
  8
0
 10
50.9259
 20
3.8506
 11
50.9255
 21
3.8836
  0
LINE
  8
0
 10
51.0295
 20
3.8836
 11
51.0319
 21
3.7987
  0
LINE
  8
0
 10
51.0319
 20
3.7987
 11
51.0393
 21
3.7284
  0
LINE
  8
0
 10
51.0393
 20
3.7284
 11
51.0516
 21
3.6726
  0
ARC
  8
0
 10
51.2701
 20
3.7328
 40
0.226627
 50
195.4018
 51
220.0495
  0
ARC
  8
0
 10
51.1949
 20
3.6788
 40
0.134553
 50
223.0483
 51
338.3239
  0
ARC
  8
0
 10
51.0561
 20
3.7567
 40
0.293102
 50
334.2003
 51
342.9907
  0
ARC
  8
0
 10
50.909
 20
3.8022
 40
0.447079
 50
342.9312
 51
349.5636
  0
LINE
  8
0
 10
51.3487
 20
3.7212
 11
51.3533
 21
3.7495
  0
LINE
  8
0
 10
51.3533
 20
3.7495
 11
51.3569
 21
3.7799
  0
LINE
  8
0
 10
51.3569
 20
3.7799
 11
51.3594
 21
3.8124
  0
LINE
  8
0
 10
51.3594
 20
3.8124
 11
51.361
 21
3.8469
  0
LINE
  8
0
 10
51.361
 20
3.8469
 11
51.3615
 21
3.8836
  0
LINE
  8
0
 10
51.3615
 20
3.8836
 11
51.359
 21
3.9685
  0
LINE
  8
0
 10
51.359
 20
3.9685
 11
51.3516
 21
4.0388
  0
ARC
  8
0
 10
51.0407
 20
3.9996
 40
0.313419
 50
7.1912
 51
30.116
  0
ARC
  8
0
 10
51.1973
 20
4.0892
 40
0.132936
 50
30.5759
 51
91.2917
  0
ARC
  8
0
 10
51.1949
 20
4.0805
 40
0.141584
 50
90.225
 51
168.117
  0
LINE
  8
0
 10
51.0563
 20
4.1097
 11
51.0467
 21
4.0751
  0
LINE
  8
0
 10
51.0467
 20
4.0751
 11
51.0391
 21
4.0352
  0
LINE
  8
0
 10
51.0391
 20
4.0352
 11
51.0338
 21
3.99
  0
LINE
  8
0
 10
51.0338
 20
3.99
 11
51.0305
 21
3.9395
  0
LINE
  8
0
 10
51.0305
 20
3.9395
 11
51.0295
 21
3.8836
  0
LINE
  8
0
 10
51.7375
 20
3.5914
 11
51.7375
 21
3.4757
  0
LINE
  8
0
 10
51.7375
 20
3.4757
 11
51.6255
 21
3.4757
  0
LINE
  8
0
 10
51.6255
 20
3.4757
 11
51.6255
 21
3.5914
  0
LINE
  8
0
 10
51.6255
 20
3.5914
 11
51.7375
 21
3.5914
  0
ARC
  8
0
 10
52.1079
 20
4.1068
 40
0.193827
 50
94.4474
 51
250.3095
  0
ARC
  8
0
 10
52.1713
 20
4.0894
 40
0.224711
 50
344.0768
 51
470.4281
  0
ARC
  8
0
 10
52.2267
 20
4.0899
 40
0.172254
 50
285.9379
 51
338.8593
  0
ARC
  8
0
 10
52.2004
 20
3.7021
 40
0.233992
 50
277.2743
 51
431.6651
  0
LINE
  8
0
 10
52.23
 20
3.47
 11
52.1575
 21
3.4627
  0
ARC
  8
0
 10
52.1357
 20
3.7138
 40
0.252003
 50
147.0628
 51
274.959
  0
ARC
  8
0
 10
52.0851
 20
3.7236
 40
0.205063
 50
101.9603
 51
141.6882
  0
ARC
  8
0
 10
52.1552
 20
4.0888
 40
0.133908
 50
176.7834
 51
449.0148
  0
ARC
  8
0
 10
52.1498
 20
4.0945
 40
0.128393
 50
86.5976
 51
179.2006
  0
ARC
  8
0
 10
52.1571
 20
3.7127
 40
0.167603
 50
179.414
 51
450.7374
  0
ARC
  8
0
 10
52.1494
 20
3.7203
 40
0.160067
 50
88.0383
 51
182.113
  0
LINE
  8
0
 10
52.6455
 20
4.1674
 11
52.6209
 21
4.01
  0
LINE
  8
0
 10
52.6209
 20
4.01
 11
52.5608
 21
4.01
  0
LINE
  8
0
 10
52.5608
 20
4.01
 11
52.5335
 21
4.1674
  0
LINE
  8
0
 10
52.5335
 20
4.1674
 11
52.5335
 21
4.3028
  0
LINE
  8
0
 10
52.5335
 20
4.3028
 11
52.6455
 21
4.3028
  0
LINE
  8
0
 10
52.6455
 20
4.3028
 11
52.6455
 21
4.1674
  0
LINE
  8
0
 10
52.8335
 20
4.1674
 11
52.8072
 21
4.01
  0
LINE
  8
0
 10
52.8072
 20
4.01
 11
52.7482
 21
4.01
  0
LINE
  8
0
 10
52.7482
 20
4.01
 11
52.7215
 21
4.1674
  0
LINE
  8
0
 10
52.7215
 20
4.1674
 11
52.7215
 21
4.3028
  0
LINE
  8
0
 10
52.7215
 20
4.3028
 11
52.8335
 21
4.3028
  0
LINE
  8
0
 10
52.8335
 20
4.3028
 11
52.8335
 21
4.1674
  0
LINE
  8
0
 10
53.8286
 20
3.4757
 11
53.5135
 21
3.4757
  0
LINE
  8
0
 10
53.5135
 20
3.4757
 11
53.5135
 21
4.3028
  0
LINE
  8
0
 10
53.5135
 20
4.3028
 11
53.8235
 21
4.3028
  0
LINE
  8
0
 10
53.8235
 20
4.3028
 11
53.9079
 21
4.2965
  0
ARC
  8
0
 10
53.8978
 20
4.097
 40
0.199779
 50
294.9067
 51
447.083
  0
ARC
  8
0
 10
53.9153
 20
3.7054
 40
0.220685
 50
281.8516
 51
432.4337
  0
LINE
  8
0
 10
53.9606
 20
3.4894
 11
53.8996
 21
3.4791
  0
LINE
  8
0
 10
53.8996
 20
3.4791
 11
53.8286
 21
3.4757
  0
LINE
  8
0
 10
53.7911
 20
4.2052
 11
53.6255
 21
4.2052
  0
LINE
  8
0
 10
53.6255
 20
4.2052
 11
53.6255
 21
3.9553
  0
LINE
  8
0
 10
53.6255
 20
3.9553
 11
53.8047
 21
3.9553
  0
LINE
  8
0
 10
53.8047
 20
3.9553
 11
53.8661
 21
3.9577
  0
ARC
  8
0
 10
53.8711
 20
4.0799
 40
0.12237
 50
267.6724
 51
451.8005
  0
LINE
  8
0
 10
53.8673
 20
4.2022
 11
53.7911
 21
4.2052
  0
LINE
  8
0
 10
53.8159
 20
3.8577
 11
53.6255
 21
3.8577
  0
LINE
  8
0
 10
53.6255
 20
3.8577
 11
53.6255
 21
3.5733
  0
LINE
  8
0
 10
53.6255
 20
3.5733
 11
53.8305
 21
3.5733
  0
LINE
  8
0
 10
53.8305
 20
3.5733
 11
53.8772
 21
3.5743
  0
ARC
  8
0
 10
53.8864
 20
3.7134
 40
0.139382
 50
266.2085
 51
429.0735
  0
LINE
  8
0
 10
53.9362
 20
3.8436
 11
53.8859
 21
3.8542
  0
LINE
  8
0
 10
53.8859
 20
3.8542
 11
53.8159
 21
3.8577
  0
ARC
  8
0
 10
54.6696
 20
3.7811
 40
0.428132
 50
161.0857
 51
180.7738
  0
ARC
  8
0
 10
54.5209
 20
3.8113
 40
0.278392
 50
7.4151
 51
157.049
  0
ARC
  8
0
 10
54.3057
 20
3.7801
 40
0.49582
 50
345.8088
 51
367.7812
  0
ARC
  8
0
 10
54.5119
 20
3.731
 40
0.283914
 50
323.8708
 51
345.2221
  0
ARC
  8
0
 10
54.535
 20
3.7244
 40
0.261513
 50
267.1042
 51
322.0438
  0
ARC
  8
0
 10
54.5044
 20
3.7216
 40
0.258891
 50
182.8083
 51
273.8547
  0
LINE
  8
0
 10
54.2458
 20
3.7089
 11
54.2415
 21
3.7753
  0
ARC
  8
0
 10
54.6061
 20
3.7594
 40
0.261126
 50
176.5108
 51
221.4755
  0
ARC
  8
0
 10
54.5216
 20
3.7119
 40
0.16763
 50
228.4487
 51
352.614
  0
ARC
  8
0
 10
54.3513
 20
3.7716
 40
0.346246
 50
346.4401
 51
387.839
  0
ARC
  8
0
 10
54.5285
 20
3.8521
 40
0.152399
 50
32.1636
 51
92.5109
  0
ARC
  8
0
 10
54.5168
 20
3.8415
 40
0.162964
 50
88.2473
 51
172.6083
  0
LINE
  8
0
 10
54.3552
 20
3.8625
 11
54.3455
 21
3.7753
  0
LINE
  8
0
 10
55.0175
 20
3.7894
 11
55.0175
 21
3.4757
  0
LINE
  8
0
 10
55.0175
 20
3.4757
 11
54.9135
 21
3.4757
  0
LINE
  8
0
 10
54.9135
 20
3.4757
 11
54.9135
 21
4.0749
  0
LINE
  8
0
 10
54.9135
 20
4.0749
 11
55.0071
 21
4.0749
  0
LINE
  8
0
 10
55.0071
 20
4.0749
 11
55.0071
 21
3.9841
  0
LINE
  8
0
 10
55.0071
 20
3.9841
 11
55.034
 21
4.0278
  0
ARC
  8
0
 10
55.1491
 20
3.9569
 40
0.135178
 50
46.957
 51
148.3798
  0
LINE
  8
0
 10
55.2414
 20
4.0557
 11
55.2065
 21
3.9615
  0
LINE
  8
0
 10
55.2065
 20
3.9615
 11
55.1692
 21
3.978
  0
LINE
  8
0
 10
55.1692
 20
3.978
 11
55.132
 21
3.9835
  0
ARC
  8
0
 10
55.1337
 20
3.8805
 40
0.103034
 50
90.9454
 51
164.5807
  0
LINE
  8
0
 10
55.0343
 20
3.9079
 11
55.0217
 21
3.8514
  0
LINE
  8
0
 10
55.0217
 20
3.8514
 11
55.0175
 21
3.7894
  0
LINE
  8
0
 10
55.7895
 20
4.3028
 11
55.7895
 21
3.4757
  0
LINE
  8
0
 10
55.7895
 20
3.4757
 11
55.6935
 21
3.4757
  0
LINE
  8
0
 10
55.6935
 20
3.4757
 11
55.6925
 21
3.5513
  0
ARC
  8
0
 10
55.5338
 20
3.6497
 40
0.186664
 50
267.0707
 51
328.2022
  0
ARC
  8
0
 10
55.5266
 20
3.718
 40
0.254732
 50
187.065
 51
269.4743
  0
ARC
  8
0
 10
55.7872
 20
3.7798
 40
0.521712
 50
170.5353
 51
190.2804
  0
ARC
  8
0
 10
55.6027
 20
3.8098
 40
0.33483
 50
156.8186
 51
170.4157
  0
ARC
  8
0
 10
55.5097
 20
3.8554
 40
0.231461
 50
40.6018
 51
158.1444
  0
LINE
  8
0
 10
55.6855
 20
4.0061
 11
55.6855
 21
4.3028
  0
LINE
  8
0
 10
55.6855
 20
4.3028
 11
55.7895
 21
4.3028
  0
ARC
  8
0
 10
55.6487
 20
3.7619
 40
0.279493
 50
177.3586
 51
218.288
  0
ARC
  8
0
 10
55.5345
 20
3.6947
 40
0.149377
 50
225.1949
 51
356.2382
  0
ARC
  8
0
 10
55.2999
 20
3.7666
 40
0.3923
 50
347.9742
 51
383.7824
  0
ARC
  8
0
 10
55.5323
 20
3.864
 40
0.140456
 50
25.6631
 51
91.7438
  0
ARC
  8
0
 10
55.5265
 20
3.8554
 40
0.149019
 50
89.4011
 51
178.3554
  0
LINE
  8
0
 10
55.3775
 20
3.8596
 11
55.3695
 21
3.7748
  0
LINE
  8
0
 10
56.3575
 20
3.6686
 11
56.4624
 21
3.6557
  0
ARC
  8
0
 10
56.1897
 20
3.7225
 40
0.280801
 50
321.7909
 51
346.2431
  0
ARC
  8
0
 10
56.2336
 20
3.6972
 40
0.230751
 50
277.8702
 51
319.9768
  0
ARC
  8
0
 10
56.2009
 20
3.8517
 40
0.388433
 50
269.7088
 51
279.5209
  0
ARC
  8
0
 10
56.1795
 20
3.7257
 40
0.263192
 50
182.5579
 51
274.2491
  0
ARC
  8
0
 10
56.3357
 20
3.7712
 40
0.423072
 50
155.1288
 51
187.7673
  0
ARC
  8
0
 10
56.1887
 20
3.8206
 40
0.269413
 50
4.3444
 51
151.5028
  0
LINE
  8
0
 10
56.4573
 20
3.841
 11
56.4615
 21
3.7764
  0
LINE
  8
0
 10
56.4615
 20
3.7764
 11
56.4615
 21
3.7692
  0
LINE
  8
0
 10
56.4615
 20
3.7692
 11
56.4615
 21
3.7623
  0
LINE
  8
0
 10
56.4615
 20
3.7623
 11
56.4615
 21
3.7557
  0
LINE
  8
0
 10
56.4615
 20
3.7557
 11
56.4615
 21
3.7493
  0
LINE
  8
0
 10
56.4615
 20
3.7493
 11
56.0175
 21
3.7493
  0
ARC
  8
0
 10
56.1899
 20
3.7203
 40
0.17488
 50
170.4385
 51
331.1915
  0
LINE
  8
0
 10
56.3431
 20
3.636
 11
56.3575
 21
3.6686
  0
LINE
  8
0
 10
56.0215
 20
3.8328
 11
56.3575
 21
3.8328
  0
ARC
  8
0
 10
56.1929
 20
3.8402
 40
0.164723
 50
357.4242
 51
450.1109
  0
ARC
  8
0
 10
56.1914
 20
3.835
 40
0.169993
 50
89.614
 51
180.7199
  0
LINE
  8
0
 10
56.6855
 20
3.7894
 11
56.6855
 21
3.4757
  0
LINE
  8
0
 10
56.6855
 20
3.4757
 11
56.5815
 21
3.4757
  0
LINE
  8
0
 10
56.5815
 20
3.4757
 11
56.5815
 21
4.0749
  0
LINE
  8
0
 10
56.5815
 20
4.0749
 11
56.6751
 21
4.0749
  0
LINE
  8
0
 10
56.6751
 20
4.0749
 11
56.6751
 21
3.9841
  0
LINE
  8
0
 10
56.6751
 20
3.9841
 11
56.702
 21
4.0278
  0
ARC
  8
0
 10
56.8171
 20
3.9569
 40
0.135178
 50
46.957
 51
148.3798
  0
LINE
  8
0
 10
56.9094
 20
4.0557
 11
56.8745
 21
3.9615
  0
LINE
  8
0
 10
56.8745
 20
3.9615
 11
56.8372
 21
3.978
  0
LINE
  8
0
 10
56.8372
 20
3.978
 11
56.8
 21
3.9835
  0
ARC
  8
0
 10
56.8017
 20
3.8805
 40
0.103034
 50
90.9454
 51
164.5807
  0
LINE
  8
0
 10
56.7023
 20
3.9079
 11
56.6897
 21
3.8514
  0
LINE
  8
0
 10
56.6897
 20
3.8514
 11
56.6855
 21
3.7894
  0
LINE
  8
0
 10
57.0575
 20
3.4757
 11
56.9999
 21
3.4757
  0
LINE
  8
0
 10
56.9999
 20
3.4757
 11
56.9999
 21
3.5914
  0
LINE
  8
0
 10
56.9999
 20
3.5914
 11
57.1175
 21
3.5914
  0
LINE
  8
0
 10
57.1175
 20
3.5914
 11
57.1175
 21
3.4757
  0
ARC
  8
0
 10
56.9582
 20
3.4602
 40
0.160028
 50
293.2438
 51
365.5443
  0
LINE
  8
0
 10
57.0213
 20
3.3132
 11
56.9931
 21
3.3566
  0
ARC
  8
0
 10
56.9397
 20
3.4624
 40
0.118471
 50
296.7958
 51
366.4522
  0
LINE
  8
0
 10
58.2702
 20
4.1059
 11
58.0948
 21
3.4757
  0
LINE
  8
0
 10
58.0948
 20
3.4757
 11
57.983
 21
3.4757
  0
LINE
  8
0
 10
57.983
 20
3.4757
 11
57.7636
 21
4.3028
  0
LINE
  8
0
 10
57.7636
 20
4.3028
 11
57.8758
 21
4.3028
  0
LINE
  8
0
 10
57.8758
 20
4.3028
 11
58.0016
 21
3.7606
  0
LINE
  8
0
 10
58.0016
 20
3.7606
 11
58.0115
 21
3.7171
  0
LINE
  8
0
 10
58.0115
 20
3.7171
 11
58.0206
 21
3.6746
  0
LINE
  8
0
 10
58.0206
 20
3.6746
 11
58.029
 21
3.6328
  0
LINE
  8
0
 10
58.029
 20
3.6328
 11
58.0366
 21
3.5914
  0
LINE
  8
0
 10
58.0366
 20
3.5914
 11
58.0508
 21
3.6507
  0
LINE
  8
0
 10
58.0508
 20
3.6507
 11
58.0615
 21
3.6954
  0
LINE
  8
0
 10
58.0615
 20
3.6954
 11
58.0691
 21
3.7264
  0
LINE
  8
0
 10
58.0691
 20
3.7264
 11
58.0739
 21
3.7443
  0
LINE
  8
0
 10
58.0739
 20
3.7443
 11
58.2313
 21
4.3028
  0
LINE
  8
0
 10
58.2313
 20
4.3028
 11
58.3633
 21
4.3028
  0
LINE
  8
0
 10
58.3633
 20
4.3028
 11
58.4818
 21
3.8842
  0
LINE
  8
0
 10
58.4818
 20
3.8842
 11
58.5199
 21
3.7334
  0
LINE
  8
0
 10
58.5199
 20
3.7334
 11
58.5461
 21
3.5914
  0
LINE
  8
0
 10
58.5461
 20
3.5914
 11
58.553
 21
3.6242
  0
LINE
  8
0
 10
58.553
 20
3.6242
 11
58.5622
 21
3.665
  0
LINE
  8
0
 10
58.5622
 20
3.665
 11
58.5737
 21
3.714
  0
LINE
  8
0
 10
58.5737
 20
3.714
 11
58.5873
 21
3.7713
  0
LINE
  8
0
 10
58.5873
 20
3.7713
 11
58.7171
 21
4.3028
  0
LINE
  8
0
 10
58.7171
 20
4.3028
 11
58.8271
 21
4.3028
  0
LINE
  8
0
 10
58.8271
 20
4.3028
 11
58.6003
 21
3.4757
  0
LINE
  8
0
 10
58.6003
 20
3.4757
 11
58.4948
 21
3.4757
  0
LINE
  8
0
 10
58.4948
 20
3.4757
 11
58.3205
 21
4.1059
  0
LINE
  8
0
 10
58.3205
 20
4.1059
 11
58.3104
 21
4.1416
  0
LINE
  8
0
 10
58.3104
 20
4.1416
 11
58.303
 21
4.1697
  0
LINE
  8
0
 10
58.303
 20
4.1697
 11
58.2977
 21
4.1901
  0
LINE
  8
0
 10
58.2977
 20
4.1901
 11
58.2945
 21
4.2029
  0
LINE
  8
0
 10
58.2945
 20
4.2029
 11
58.2831
 21
4.1536
  0
LINE
  8
0
 10
58.2831
 20
4.1536
 11
58.2702
 21
4.1059
  0
LINE
  8
0
 10
59.0175
 20
3.8035
 11
59.0175
 21
3.4757
  0
LINE
  8
0
 10
59.0175
 20
3.4757
 11
58.9135
 21
3.4757
  0
LINE
  8
0
 10
58.9135
 20
3.4757
 11
58.9135
 21
4.3028
  0
LINE
  8
0
 10
58.9135
 20
4.3028
 11
59.0175
 21
4.3028
  0
LINE
  8
0
 10
59.0175
 20
4.3028
 11
59.0158
 21
4.0061
  0
ARC
  8
0
 10
59.1879
 20
3.8681
 40
0.220566
 50
14.3009
 51
141.2644
  0
LINE
  8
0
 10
59.4016
 20
3.9225
 11
59.4055
 21
3.8554
  0
LINE
  8
0
 10
59.4055
 20
3.8554
 11
59.4055
 21
3.4757
  0
LINE
  8
0
 10
59.4055
 20
3.4757
 11
59.3015
 21
3.4757
  0
LINE
  8
0
 10
59.3015
 20
3.4757
 11
59.3015
 21
3.8554
  0
ARC
  8
0
 10
59.0883
 20
3.8597
 40
0.213208
 50
358.8523
 51
380.911
  0
ARC
  8
0
 10
59.1861
 20
3.8905
 40
0.11098
 50
24.0742
 51
95.519
  0
ARC
  8
0
 10
59.1714
 20
3.8504
 40
0.150596
 50
88.4637
 51
173.9032
  0
LINE
  8
0
 10
59.0217
 20
3.8664
 11
59.0175
 21
3.8035
  0
LINE
  8
0
 10
59.6615
 20
4.3028
 11
59.6615
 21
4.186
  0
LINE
  8
0
 10
59.6615
 20
4.186
 11
59.5575
 21
4.186
  0
LINE
  8
0
 10
59.5575
 20
4.186
 11
59.5575
 21
4.3028
  0
LINE
  8
0
 10
59.5575
 20
4.3028
 11
59.6615
 21
4.3028
  0
LINE
  8
0
 10
59.6615
 20
4.0749
 11
59.6615
 21
3.4757
  0
LINE
  8
0
 10
59.6615
 20
3.4757
 11
59.5575
 21
3.4757
  0
LINE
  8
0
 10
59.5575
 20
3.4757
 11
59.5575
 21
4.0749
  0
LINE
  8
0
 10
59.5575
 20
4.0749
 11
59.6615
 21
4.0749
  0
LINE
  8
0
 10
60.0356
 20
3.5665
 11
60.0503
 21
3.4768
  0
LINE
  8
0
 10
60.0503
 20
3.4768
 11
60.0293
 21
3.4737
  0
LINE
  8
0
 10
60.0293
 20
3.4737
 11
60.0094
 21
3.4712
  0
LINE
  8
0
 10
60.0094
 20
3.4712
 11
59.9907
 21
3.4695
  0
LINE
  8
0
 10
59.9907
 20
3.4695
 11
59.9735
 21
3.4689
  0
ARC
  8
0
 10
59.9465
 20
3.5823
 40
0.116566
 50
172.7999
 51
283.3892
  0
LINE
  8
0
 10
59.8309
 20
3.597
 11
59.8295
 21
3.6512
  0
LINE
  8
0
 10
59.8295
 20
3.6512
 11
59.8295
 21
3.9959
  0
LINE
  8
0
 10
59.8295
 20
3.9959
 11
59.755
 21
3.9959
  0
LINE
  8
0
 10
59.755
 20
3.9959
 11
59.755
 21
4.0749
  0
LINE
  8
0
 10
59.755
 20
4.0749
 11
59.8295
 21
4.0749
  0
LINE
  8
0
 10
59.8295
 20
4.0749
 11
59.8295
 21
4.2233
  0
LINE
  8
0
 10
59.8295
 20
4.2233
 11
59.9335
 21
4.2842
  0
LINE
  8
0
 10
59.9335
 20
4.2842
 11
59.9335
 21
4.0749
  0
LINE
  8
0
 10
59.9335
 20
4.0749
 11
60.0356
 21
4.0749
  0
LINE
  8
0
 10
60.0356
 20
4.0749
 11
60.0356
 21
3.9959
  0
LINE
  8
0
 10
60.0356
 20
3.9959
 11
59.9335
 21
3.9959
  0
LINE
  8
0
 10
59.9335
 20
3.9959
 11
59.9335
 21
3.6455
  0
LINE
  8
0
 10
59.9335
 20
3.6455
 11
59.9339
 21
3.6184
  0
ARC
  8
0
 10
59.9831
 20
3.6116
 40
0.0497045
 50
172.1363
 51
279.1313
  0
ARC
  8
0
 10
59.9977
 20
3.705
 40
0.142588
 50
267.3185
 51
279.9038
  0
LINE
  8
0
 10
60.0222
 20
3.5645
 11
60.0356
 21
3.5665
  0
LINE
  8
0
 10
60.5495
 20
3.6686
 11
60.6544
 21
3.6557
  0
ARC
  8
0
 10
60.3817
 20
3.7225
 40
0.280801
 50
321.7909
 51
346.2431
  0
ARC
  8
0
 10
60.4256
 20
3.6972
 40
0.230751
 50
277.8702
 51
319.9768
  0
ARC
  8
0
 10
60.3929
 20
3.8517
 40
0.388433
 50
269.7088
 51
279.5209
  0
ARC
  8
0
 10
60.3715
 20
3.7257
 40
0.263192
 50
182.5579
 51
274.2491
  0
ARC
  8
0
 10
60.5277
 20
3.7712
 40
0.423072
 50
155.1288
 51
187.7673
  0
ARC
  8
0
 10
60.3807
 20
3.8206
 40
0.269413
 50
4.3444
 51
151.5028
  0
LINE
  8
0
 10
60.6493
 20
3.841
 11
60.6535
 21
3.7764
  0
LINE
  8
0
 10
60.6535
 20
3.7764
 11
60.6535
 21
3.7692
  0
LINE
  8
0
 10
60.6535
 20
3.7692
 11
60.6535
 21
3.7623
  0
LINE
  8
0
 10
60.6535
 20
3.7623
 11
60.6535
 21
3.7557
  0
LINE
  8
0
 10
60.6535
 20
3.7557
 11
60.6535
 21
3.7493
  0
LINE
  8
0
 10
60.6535
 20
3.7493
 11
60.2095
 21
3.7493
  0
ARC
  8
0
 10
60.3819
 20
3.7203
 40
0.17488
 50
170.4385
 51
331.1915
  0
LINE
  8
0
 10
60.5351
 20
3.636
 11
60.5495
 21
3.6686
  0
LINE
  8
0
 10
60.2135
 20
3.8328
 11
60.5495
 21
3.8328
  0
ARC
  8
0
 10
60.3849
 20
3.8402
 40
0.164723
 50
357.4242
 51
450.1109
  0
ARC
  8
0
 10
60.3834
 20
3.835
 40
0.169993
 50
89.614
 51
180.7199
  0
ARC
  8
0
 10
61.7056
 20
3.7811
 40
0.428132
 50
161.0857
 51
180.7738
  0
ARC
  8
0
 10
61.5569
 20
3.8113
 40
0.278392
 50
7.4151
 51
157.049
  0
ARC
  8
0
 10
61.3417
 20
3.7801
 40
0.49582
 50
345.8088
 51
367.7812
  0
ARC
  8
0
 10
61.5479
 20
3.731
 40
0.283914
 50
323.8708
 51
345.2221
  0
ARC
  8
0
 10
61.571
 20
3.7244
 40
0.261513
 50
267.1042
 51
322.0438
  0
ARC
  8
0
 10
61.5404
 20
3.7216
 40
0.258891
 50
182.8083
 51
273.8547
  0
LINE
  8
0
 10
61.2818
 20
3.7089
 11
61.2775
 21
3.7753
  0
ARC
  8
0
 10
61.6421
 20
3.7594
 40
0.261126
 50
176.5108
 51
221.4755
  0
ARC
  8
0
 10
61.5576
 20
3.7119
 40
0.16763
 50
228.4487
 51
352.614
  0
ARC
  8
0
 10
61.3873
 20
3.7716
 40
0.346246
 50
346.4401
 51
387.839
  0
ARC
  8
0
 10
61.5645
 20
3.8521
 40
0.152399
 50
32.1636
 51
92.5109
  0
ARC
  8
0
 10
61.5528
 20
3.8415
 40
0.162964
 50
88.2473
 51
172.6083
  0
LINE
  8
0
 10
61.3912
 20
3.8625
 11
61.3815
 21
3.7753
  0
LINE
  8
0
 10
62.0575
 20
3.8029
 11
62.0575
 21
3.4757
  0
LINE
  8
0
 10
62.0575
 20
3.4757
 11
61.9535
 21
3.4757
  0
LINE
  8
0
 10
61.9535
 20
3.4757
 11
61.9535
 21
4.0749
  0
LINE
  8
0
 10
61.9535
 20
4.0749
 11
62.0471
 21
4.0749
  0
LINE
  8
0
 10
62.0471
 20
4.0749
 11
62.0471
 21
3.9897
  0
ARC
  8
0
 10
62.2299
 20
3.8754
 40
0.215592
 50
13.8346
 51
147.9776
  0
LINE
  8
0
 10
62.4392
 20
3.9269
 11
62.4405
 21
3.9051
  0
LINE
  8
0
 10
62.4405
 20
3.9051
 11
62.4412
 21
3.8774
  0
LINE
  8
0
 10
62.4412
 20
3.8774
 11
62.4415
 21
3.8441
  0
LINE
  8
0
 10
62.4415
 20
3.8441
 11
62.4415
 21
3.4757
  0
LINE
  8
0
 10
62.4415
 20
3.4757
 11
62.3375
 21
3.4757
  0
LINE
  8
0
 10
62.3375
 20
3.4757
 11
62.3375
 21
3.8402
  0
LINE
  8
0
 10
62.3375
 20
3.8402
 11
62.3355
 21
3.8857
  0
ARC
  8
0
 10
62.2226
 20
3.8878
 40
0.112907
 50
358.9703
 51
454.1437
  0
ARC
  8
0
 10
62.2039
 20
3.8586
 40
0.142179
 50
85.7498
 51
178.1143
  0
ARC
  8
0
 10
62.4428
 20
3.8054
 40
0.385391
 50
171.3645
 51
180.3661
  0
LINE
  8
0
 10
63.7735
 20
3.6461
 11
63.7735
 21
3.8001
  0
LINE
  8
0
 10
63.7735
 20
3.8001
 11
63.5303
 21
3.8001
  0
LINE
  8
0
 10
63.5303
 20
3.8001
 11
63.5303
 21
3.8971
  0
LINE
  8
0
 10
63.5303
 20
3.8971
 11
63.8775
 21
3.8977
  0
LINE
  8
0
 10
63.8775
 20
3.8977
 11
63.8775
 21
3.5908
  0
ARC
  8
0
 10
63.4888
 20
4.0696
 40
0.616621
 50
291.2134
 51
309.0679
  0
ARC
  8
0
 10
63.5359
 20
3.9626
 40
0.499857
 50
269.9493
 51
290.6229
  0
LINE
  8
0
 10
63.5355
 20
3.4627
 11
63.4761
 21
3.4654
  0
ARC
  8
0
 10
63.5004
 20
3.853
 40
0.388331
 50
175.2275
 51
266.4024
  0
ARC
  8
0
 10
63.6073
 20
3.8916
 40
0.493916
 50
145.5699
 51
180.7279
  0
ARC
  8
0
 10
63.4762
 20
3.9669
 40
0.343331
 50
100.7413
 51
143.5608
  0
ARC
  8
0
 10
63.524
 20
3.8758
 40
0.44276
 50
58.0371
 51
104.6326
  0
ARC
  8
0
 10
63.5887
 20
4.0245
 40
0.283388
 50
9.5422
 51
53.2098
  0
LINE
  8
0
 10
63.8681
 20
4.0715
 11
63.7695
 21
4.0444
  0
ARC
  8
0
 10
63.5492
 20
3.9994
 40
0.2248
 50
11.5661
 51
95.1721
  0
ARC
  8
0
 10
63.5129
 20
3.9341
 40
0.289621
 50
86.822
 51
133.4286
  0
ARC
  8
0
 10
63.527
 20
3.9389
 40
0.2961
 50
136.0432
 51
172.0812
  0
ARC
  8
0
 10
63.7139
 20
3.8888
 40
0.488756
 50
169.2808
 51
197.9272
  0
ARC
  8
0
 10
63.5187
 20
3.8473
 40
0.290961
 50
201.9937
 51
284.6696
  0
ARC
  8
0
 10
63.5228
 20
3.9674
 40
0.407517
 50
279.8317
 51
307.9648
  0
LINE
  8
0
 10
64.1335
 20
3.7894
 11
64.1335
 21
3.4757
  0
LINE
  8
0
 10
64.1335
 20
3.4757
 11
64.0295
 21
3.4757
  0
LINE
  8
0
 10
64.0295
 20
3.4757
 11
64.0295
 21
4.0749
  0
LINE
  8
0
 10
64.0295
 20
4.0749
 11
64.1231
 21
4.0749
  0
LINE
  8
0
 10
64.1231
 20
4.0749
 11
64.1231
 21
3.9841
  0
LINE
  8
0
 10
64.1231
 20
3.9841
 11
64.15
 21
4.0278
  0
ARC
  8
0
 10
64.2651
 20
3.9569
 40
0.135178
 50
46.957
 51
148.3798
  0
LINE
  8
0
 10
64.3574
 20
4.0557
 11
64.3225
 21
3.9615
  0
LINE
  8
0
 10
64.3225
 20
3.9615
 11
64.2852
 21
3.978
  0
LINE
  8
0
 10
64.2852
 20
3.978
 11
64.248
 21
3.9835
  0
ARC
  8
0
 10
64.2497
 20
3.8805
 40
0.103034
 50
90.9454
 51
164.5807
  0
LINE
  8
0
 10
64.1503
 20
3.9079
 11
64.1377
 21
3.8514
  0
LINE
  8
0
 10
64.1377
 20
3.8514
 11
64.1335
 21
3.7894
  0
LINE
  8
0
 10
64.8295
 20
3.6686
 11
64.9344
 21
3.6557
  0
ARC
  8
0
 10
64.6617
 20
3.7225
 40
0.280801
 50
321.7909
 51
346.2431
  0
ARC
  8
0
 10
64.7056
 20
3.6972
 40
0.230751
 50
277.8702
 51
319.9768
  0
ARC
  8
0
 10
64.6729
 20
3.8517
 40
0.388433
 50
269.7088
 51
279.5209
  0
ARC
  8
0
 10
64.6515
 20
3.7257
 40
0.263192
 50
182.5579
 51
274.2491
  0
ARC
  8
0
 10
64.8077
 20
3.7712
 40
0.423072
 50
155.1288
 51
187.7673
  0
ARC
  8
0
 10
64.6607
 20
3.8206
 40
0.269413
 50
4.3444
 51
151.5028
  0
LINE
  8
0
 10
64.9293
 20
3.841
 11
64.9335
 21
3.7764
  0
LINE
  8
0
 10
64.9335
 20
3.7764
 11
64.9335
 21
3.7692
  0
LINE
  8
0
 10
64.9335
 20
3.7692
 11
64.9335
 21
3.7623
  0
LINE
  8
0
 10
64.9335
 20
3.7623
 11
64.9335
 21
3.7557
  0
LINE
  8
0
 10
64.9335
 20
3.7557
 11
64.9335
 21
3.7493
  0
LINE
  8
0
 10
64.9335
 20
3.7493
 11
64.4895
 21
3.7493
  0
ARC
  8
0
 10
64.6619
 20
3.7203
 40
0.17488
 50
170.4385
 51
331.1915
  0
LINE
  8
0
 10
64.8151
 20
3.636
 11
64.8295
 21
3.6686
  0
LINE
  8
0
 10
64.4935
 20
3.8328
 11
64.8295
 21
3.8328
  0
ARC
  8
0
 10
64.6649
 20
3.8402
 40
0.164723
 50
357.4242
 51
450.1109
  0
ARC
  8
0
 10
64.6634
 20
3.835
 40
0.169993
 50
89.614
 51
180.7199
  0
LINE
  8
0
 10
65.4695
 20
3.6686
 11
65.5744
 21
3.6557
  0
ARC
  8
0
 10
65.3017
 20
3.7225
 40
0.280801
 50
321.7909
 51
346.2431
  0
ARC
  8
0
 10
65.3456
 20
3.6972
 40
0.230751
 50
277.8702
 51
319.9768
  0
ARC
  8
0
 10
65.3129
 20
3.8517
 40
0.388433
 50
269.7088
 51
279.5209
  0
ARC
  8
0
 10
65.2915
 20
3.7257
 40
0.263192
 50
182.5579
 51
274.2491
  0
ARC
  8
0
 10
65.4477
 20
3.7712
 40
0.423072
 50
155.1288
 51
187.7673
  0
ARC
  8
0
 10
65.3007
 20
3.8206
 40
0.269413
 50
4.3444
 51
151.5028
  0
LINE
  8
0
 10
65.5693
 20
3.841
 11
65.5735
 21
3.7764
  0
LINE
  8
0
 10
65.5735
 20
3.7764
 11
65.5735
 21
3.7692
  0
LINE
  8
0
 10
65.5735
 20
3.7692
 11
65.5735
 21
3.7623
  0
LINE
  8
0
 10
65.5735
 20
3.7623
 11
65.5735
 21
3.7557
  0
LINE
  8
0
 10
65.5735
 20
3.7557
 11
65.5735
 21
3.7493
  0
LINE
  8
0
 10
65.5735
 20
3.7493
 11
65.1295
 21
3.7493
  0
ARC
  8
0
 10
65.3019
 20
3.7203
 40
0.17488
 50
170.4385
 51
331.1915
  0
LINE
  8
0
 10
65.4551
 20
3.636
 11
65.4695
 21
3.6686
  0
LINE
  8
0
 10
65.1335
 20
3.8328
 11
65.4695
 21
3.8328
  0
ARC
  8
0
 10
65.3049
 20
3.8402
 40
0.164723
 50
357.4242
 51
450.1109
  0
ARC
  8
0
 10
65.3034
 20
3.835
 40
0.169993
 50
89.614
 51
180.7199
  0
LINE
  8
0
 10
65.8015
 20
3.8029
 11
65.8015
 21
3.4757
  0
LINE
  8
0
 10
65.8015
 20
3.4757
 11
65.6975
 21
3.4757
  0
LINE
  8
0
 10
65.6975
 20
3.4757
 11
65.6975
 21
4.0749
  0
LINE
  8
0
 10
65.6975
 20
4.0749
 11
65.7911
 21
4.0749
  0
LINE
  8
0
 10
65.7911
 20
4.0749
 11
65.7911
 21
3.9897
  0
ARC
  8
0
 10
65.9739
 20
3.8754
 40
0.215592
 50
13.8346
 51
147.9776
  0
LINE
  8
0
 10
66.1832
 20
3.9269
 11
66.1845
 21
3.9051
  0
LINE
  8
0
 10
66.1845
 20
3.9051
 11
66.1852
 21
3.8774
  0
LINE
  8
0
 10
66.1852
 20
3.8774
 11
66.1855
 21
3.8441
  0
LINE
  8
0
 10
66.1855
 20
3.8441
 11
66.1855
 21
3.4757
  0
LINE
  8
0
 10
66.1855
 20
3.4757
 11
66.0815
 21
3.4757
  0
LINE
  8
0
 10
66.0815
 20
3.4757
 11
66.0815
 21
3.8402
  0
LINE
  8
0
 10
66.0815
 20
3.8402
 11
66.0795
 21
3.8857
  0
ARC
  8
0
 10
65.9666
 20
3.8878
 40
0.112907
 50
358.9703
 51
454.1437
  0
ARC
  8
0
 10
65.9479
 20
3.8586
 40
0.142179
 50
85.7498
 51
178.1143
  0
ARC
  8
0
 10
66.1868
 20
3.8054
 40
0.385391
 50
171.3645
 51
180.3661
  0
LINE
  8
0
 10
66.4815
 20
4.0749
 11
66.4815
 21
3.9592
  0
LINE
  8
0
 10
66.4815
 20
3.9592
 11
66.3695
 21
3.9592
  0
LINE
  8
0
 10
66.3695
 20
3.9592
 11
66.3695
 21
4.0749
  0
LINE
  8
0
 10
66.3695
 20
4.0749
 11
66.4815
 21
4.0749
  0
LINE
  8
0
 10
66.4252
 20
3.4757
 11
66.3695
 21
3.4757
  0
LINE
  8
0
 10
66.3695
 20
3.4757
 11
66.3695
 21
3.5914
  0
LINE
  8
0
 10
66.3695
 20
3.5914
 11
66.4815
 21
3.5914
  0
LINE
  8
0
 10
66.4815
 20
3.5914
 11
66.4815
 21
3.4757
  0
ARC
  8
0
 10
66.3212
 20
3.4588
 40
0.161144
 50
295.3556
 51
366.0127
  0
LINE
  8
0
 10
66.3902
 20
3.3132
 11
66.3627
 21
3.3566
  0
ARC
  8
0
 10
66.3069
 20
3.4619
 40
0.119131
 50
297.9444
 51
366.6626
  0
LINE
  8
0
 10
44.1069
 20
2.564
 11
44.1615
 21
2.564
  0
LINE
  8
0
 10
44.1615
 20
2.564
 11
44.1615
 21
2.4461
  0
LINE
  8
0
 10
44.1615
 20
2.4461
 11
44.0495
 21
2.4461
  0
LINE
  8
0
 10
44.0495
 20
2.4461
 11
44.0495
 21
2.5392
  0
LINE
  8
0
 10
44.0495
 20
2.5392
 11
44.0541
 21
2.6038
  0
ARC
  8
0
 10
44.1929
 20
2.5853
 40
0.140057
 50
109.9186
 51
172.3941
  0
LINE
  8
0
 10
44.1452
 20
2.7169
 11
44.1705
 21
2.6774
  0
ARC
  8
0
 10
44.2212
 20
2.5745
 40
0.114816
 50
116.2467
 51
185.2268
  0
LINE
  8
0
 10
44.2789
 20
2.564
 11
44.3335
 21
2.564
  0
LINE
  8
0
 10
44.3335
 20
2.564
 11
44.3335
 21
2.4461
  0
LINE
  8
0
 10
44.3335
 20
2.4461
 11
44.2215
 21
2.4461
  0
LINE
  8
0
 10
44.2215
 20
2.4461
 11
44.2215
 21
2.5392
  0
LINE
  8
0
 10
44.2215
 20
2.5392
 11
44.2261
 21
2.6038
  0
ARC
  8
0
 10
44.3649
 20
2.5853
 40
0.140057
 50
109.9186
 51
172.3941
  0
LINE
  8
0
 10
44.3172
 20
2.7169
 11
44.3425
 21
2.6774
  0
ARC
  8
0
 10
44.3932
 20
2.5745
 40
0.114816
 50
116.2467
 51
185.2268
  0
LINE
  8
0
 10
44.9062
 20
2.5059
 11
44.7308
 21
1.8757
  0
LINE
  8
0
 10
44.7308
 20
1.8757
 11
44.619
 21
1.8757
  0
LINE
  8
0
 10
44.619
 20
1.8757
 11
44.3996
 21
2.7028
  0
LINE
  8
0
 10
44.3996
 20
2.7028
 11
44.5118
 21
2.7028
  0
LINE
  8
0
 10
44.5118
 20
2.7028
 11
44.6377
 21
2.1606
  0
LINE
  8
0
 10
44.6377
 20
2.1606
 11
44.6475
 21
2.1171
  0
LINE
  8
0
 10
44.6475
 20
2.1171
 11
44.6566
 21
2.0746
  0
LINE
  8
0
 10
44.6566
 20
2.0746
 11
44.665
 21
2.0328
  0
LINE
  8
0
 10
44.665
 20
2.0328
 11
44.6727
 21
1.9914
  0
LINE
  8
0
 10
44.6727
 20
1.9914
 11
44.6868
 21
2.0507
  0
LINE
  8
0
 10
44.6868
 20
2.0507
 11
44.6975
 21
2.0954
  0
LINE
  8
0
 10
44.6975
 20
2.0954
 11
44.7051
 21
2.1264
  0
LINE
  8
0
 10
44.7051
 20
2.1264
 11
44.7099
 21
2.1443
  0
LINE
  8
0
 10
44.7099
 20
2.1443
 11
44.8673
 21
2.7028
  0
LINE
  8
0
 10
44.8673
 20
2.7028
 11
44.9993
 21
2.7028
  0
LINE
  8
0
 10
44.9993
 20
2.7028
 11
45.1178
 21
2.2842
  0
LINE
  8
0
 10
45.1178
 20
2.2842
 11
45.1559
 21
2.1334
  0
LINE
  8
0
 10
45.1559
 20
2.1334
 11
45.1822
 21
1.9914
  0
LINE
  8
0
 10
45.1822
 20
1.9914
 11
45.189
 21
2.0242
  0
LINE
  8
0
 10
45.189
 20
2.0242
 11
45.1982
 21
2.065
  0
LINE
  8
0
 10
45.1982
 20
2.065
 11
45.2097
 21
2.114
  0
LINE
  8
0
 10
45.2097
 20
2.114
 11
45.2233
 21
2.1713
  0
LINE
  8
0
 10
45.2233
 20
2.1713
 11
45.3531
 21
2.7028
  0
LINE
  8
0
 10
45.3531
 20
2.7028
 11
45.4631
 21
2.7028
  0
LINE
  8
0
 10
45.4631
 20
2.7028
 11
45.2363
 21
1.8757
  0
LINE
  8
0
 10
45.2363
 20
1.8757
 11
45.1308
 21
1.8757
  0
LINE
  8
0
 10
45.1308
 20
1.8757
 11
44.9565
 21
2.5059
  0
LINE
  8
0
 10
44.9565
 20
2.5059
 11
44.9464
 21
2.5416
  0
LINE
  8
0
 10
44.9464
 20
2.5416
 11
44.939
 21
2.5697
  0
LINE
  8
0
 10
44.939
 20
2.5697
 11
44.9337
 21
2.5901
  0
LINE
  8
0
 10
44.9337
 20
2.5901
 11
44.9305
 21
2.6029
  0
LINE
  8
0
 10
44.9305
 20
2.6029
 11
44.9191
 21
2.5536
  0
LINE
  8
0
 10
44.9191
 20
2.5536
 11
44.9062
 21
2.5059
  0
LINE
  8
0
 10
46.1812
 20
1.9733
 11
46.1812
 21
1.8757
  0
LINE
  8
0
 10
46.1812
 20
1.8757
 11
45.5615
 21
1.8757
  0
LINE
  8
0
 10
45.5615
 20
1.8757
 11
45.5615
 21
2.7028
  0
LINE
  8
0
 10
45.5615
 20
2.7028
 11
46.162
 21
2.7028
  0
LINE
  8
0
 10
46.162
 20
2.7028
 11
46.162
 21
2.6052
  0
LINE
  8
0
 10
46.162
 20
2.6052
 11
45.6735
 21
2.6052
  0
LINE
  8
0
 10
45.6735
 20
2.6052
 11
45.6735
 21
2.3519
  0
LINE
  8
0
 10
45.6735
 20
2.3519
 11
46.131
 21
2.3519
  0
LINE
  8
0
 10
46.131
 20
2.3519
 11
46.131
 21
2.2548
  0
LINE
  8
0
 10
46.131
 20
2.2548
 11
45.6735
 21
2.2548
  0
LINE
  8
0
 10
45.6735
 20
2.2548
 11
45.6735
 21
1.9733
  0
LINE
  8
0
 10
45.6735
 20
1.9733
 11
46.1812
 21
1.9733
  0
LINE
  8
0
 10
46.2926
 20
2.1414
 11
46.3958
 21
2.1504
  0
ARC
  8
0
 10
46.5925
 20
2.1621
 40
0.197049
 50
183.4005
 51
264.1749
  0
ARC
  8
0
 10
46.6415
 20
2.2843
 40
0.325603
 50
257.7676
 51
292.8191
  0
ARC
  8
0
 10
46.7265
 20
2.0958
 40
0.119002
 50
290.2874
 51
421.4035
  0
ARC
  8
0
 10
46.6422
 20
1.9512
 40
0.286354
 50
60.4287
 51
73.346
  0
LINE
  8
0
 10
46.7243
 20
2.2256
 11
46.6904
 21
2.2354
  0
LINE
  8
0
 10
46.6904
 20
2.2354
 11
46.647
 21
2.2465
  0
LINE
  8
0
 10
46.647
 20
2.2465
 11
46.5939
 21
2.2588
  0
LINE
  8
0
 10
46.5939
 20
2.2588
 11
46.5474
 21
2.2704
  0
LINE
  8
0
 10
46.5474
 20
2.2704
 11
46.507
 21
2.2825
  0
LINE
  8
0
 10
46.507
 20
2.2825
 11
46.4721
 21
2.2953
  0
ARC
  8
0
 10
46.5786
 20
2.5643
 40
0.289239
 50
225.9595
 51
248.4108
  0
ARC
  8
0
 10
46.5388
 20
2.4962
 40
0.213493
 50
91.1487
 51
220.9097
  0
ARC
  8
0
 10
46.6176
 20
2.3015
 40
0.416498
 50
62.4281
 51
101.4943
  0
ARC
  8
0
 10
46.6999
 20
2.4734
 40
0.226111
 50
359.104
 51
420.7585
  0
LINE
  8
0
 10
46.926
 20
2.4698
 11
46.821
 21
2.4619
  0
ARC
  8
0
 10
46.6568
 20
2.4548
 40
0.164337
 50
2.4758
 51
91.776
  0
LINE
  8
0
 10
46.6517
 20
2.619
 11
46.6196
 21
2.6204
  0
LINE
  8
0
 10
46.6196
 20
2.6204
 11
46.552
 21
2.6147
  0
ARC
  8
0
 10
46.5403
 20
2.5042
 40
0.11108
 50
83.9132
 51
249.5242
  0
LINE
  8
0
 10
46.5014
 20
2.4001
 11
46.5337
 21
2.3882
  0
LINE
  8
0
 10
46.5337
 20
2.3882
 11
46.5742
 21
2.3759
  0
LINE
  8
0
 10
46.5742
 20
2.3759
 11
46.623
 21
2.3632
  0
LINE
  8
0
 10
46.623
 20
2.3632
 11
46.6789
 21
2.3496
  0
LINE
  8
0
 10
46.6789
 20
2.3496
 11
46.7254
 21
2.3375
  0
LINE
  8
0
 10
46.7254
 20
2.3375
 11
46.7626
 21
2.3272
  0
LINE
  8
0
 10
46.7626
 20
2.3272
 11
46.7904
 21
2.3184
  0
ARC
  8
0
 10
46.7243
 20
2.0993
 40
0.228865
 50
271.372
 51
433.2331
  0
LINE
  8
0
 10
46.7298
 20
1.8705
 11
46.6452
 21
1.8627
  0
LINE
  8
0
 10
46.6452
 20
1.8627
 11
46.5975
 21
1.8643
  0
ARC
  8
0
 10
46.6265
 20
2.338
 40
0.474579
 50
251.3487
 51
266.5016
  0
ARC
  8
0
 10
46.5575
 20
2.14
 40
0.264903
 50
179.6804
 51
251.7864
  0
LINE
  8
0
 10
47.4295
 20
2.6052
 11
47.4295
 21
1.8757
  0
LINE
  8
0
 10
47.4295
 20
1.8757
 11
47.3175
 21
1.8757
  0
LINE
  8
0
 10
47.3175
 20
1.8757
 11
47.3175
 21
2.6052
  0
LINE
  8
0
 10
47.3175
 20
2.6052
 11
47.0449
 21
2.6052
  0
LINE
  8
0
 10
47.0449
 20
2.6052
 11
47.0449
 21
2.7028
  0
LINE
  8
0
 10
47.0449
 20
2.7028
 11
47.7031
 21
2.7028
  0
LINE
  8
0
 10
47.7031
 20
2.7028
 11
47.7031
 21
2.6052
  0
LINE
  8
0
 10
47.7031
 20
2.6052
 11
47.4295
 21
2.6052
  0
LINE
  8
0
 10
47.828
 20
2.5934
 11
47.7735
 21
2.5934
  0
LINE
  8
0
 10
47.7735
 20
2.5934
 11
47.7735
 21
2.7113
  0
LINE
  8
0
 10
47.7735
 20
2.7113
 11
47.8855
 21
2.7113
  0
LINE
  8
0
 10
47.8855
 20
2.7113
 11
47.8855
 21
2.6182
  0
LINE
  8
0
 10
47.8855
 20
2.6182
 11
47.881
 21
2.5529
  0
ARC
  8
0
 10
47.7427
 20
2.5719
 40
0.139583
 50
289.6929
 51
352.1842
  0
LINE
  8
0
 10
47.7897
 20
2.4404
 11
47.7645
 21
2.4805
  0
ARC
  8
0
 10
47.7172
 20
2.5815
 40
0.111457
 50
295.0854
 51
366.1449
  0
LINE
  8
0
 10
48.004
 20
2.5934
 11
47.9495
 21
2.5934
  0
LINE
  8
0
 10
47.9495
 20
2.5934
 11
47.9495
 21
2.7113
  0
LINE
  8
0
 10
47.9495
 20
2.7113
 11
48.0615
 21
2.7113
  0
LINE
  8
0
 10
48.0615
 20
2.7113
 11
48.0615
 21
2.6182
  0
LINE
  8
0
 10
48.0615
 20
2.6182
 11
48.057
 21
2.5529
  0
ARC
  8
0
 10
47.9187
 20
2.5719
 40
0.139583
 50
289.6929
 51
352.1842
  0
LINE
  8
0
 10
47.9657
 20
2.4404
 11
47.9404
 21
2.4805
  0
ARC
  8
0
 10
47.8932
 20
2.5815
 40
0.111436
 50
295.0439
 51
366.1382
  0
LINE
  8
0
 10
49.0446
 20
1.8757
 11
48.7295
 21
1.8757
  0
LINE
  8
0
 10
48.7295
 20
1.8757
 11
48.7295
 21
2.7028
  0
LINE
  8
0
 10
48.7295
 20
2.7028
 11
49.0395
 21
2.7028
  0
LINE
  8
0
 10
49.0395
 20
2.7028
 11
49.1239
 21
2.6965
  0
ARC
  8
0
 10
49.1138
 20
2.497
 40
0.199779
 50
294.9067
 51
447.083
  0
ARC
  8
0
 10
49.1313
 20
2.1054
 40
0.220685
 50
281.8516
 51
432.4337
  0
LINE
  8
0
 10
49.1766
 20
1.8894
 11
49.1156
 21
1.8791
  0
LINE
  8
0
 10
49.1156
 20
1.8791
 11
49.0446
 21
1.8757
  0
LINE
  8
0
 10
49.0071
 20
2.6052
 11
48.8415
 21
2.6052
  0
LINE
  8
0
 10
48.8415
 20
2.6052
 11
48.8415
 21
2.3553
  0
LINE
  8
0
 10
48.8415
 20
2.3553
 11
49.0207
 21
2.3553
  0
LINE
  8
0
 10
49.0207
 20
2.3553
 11
49.0821
 21
2.3577
  0
ARC
  8
0
 10
49.0871
 20
2.4799
 40
0.12237
 50
267.6724
 51
451.8005
  0
LINE
  8
0
 10
49.0833
 20
2.6022
 11
49.0071
 21
2.6052
  0
LINE
  8
0
 10
49.0319
 20
2.2577
 11
48.8415
 21
2.2577
  0
LINE
  8
0
 10
48.8415
 20
2.2577
 11
48.8415
 21
1.9733
  0
LINE
  8
0
 10
48.8415
 20
1.9733
 11
49.0465
 21
1.9733
  0
LINE
  8
0
 10
49.0465
 20
1.9733
 11
49.0932
 21
1.9743
  0
ARC
  8
0
 10
49.1024
 20
2.1134
 40
0.139382
 50
266.2085
 51
429.0735
  0
LINE
  8
0
 10
49.1522
 20
2.2436
 11
49.1019
 21
2.2542
  0
LINE
  8
0
 10
49.1019
 20
2.2542
 11
49.0319
 21
2.2577
  0
LINE
  8
0
 10
50.129
 20
1.9733
 11
50.5335
 21
1.9733
  0
LINE
  8
0
 10
50.5335
 20
1.9733
 11
50.5335
 21
1.8757
  0
LINE
  8
0
 10
50.5335
 20
1.8757
 11
49.9883
 21
1.8757
  0
ARC
  8
0
 10
50.2139
 20
1.8763
 40
0.225673
 50
143.923
 51
180.1572
  0
LINE
  8
0
 10
50.0316
 20
2.0092
 11
50.0667
 21
2.0563
  0
LINE
  8
0
 10
50.0667
 20
2.0563
 11
50.1226
 21
2.1144
  0
LINE
  8
0
 10
50.1226
 20
2.1144
 11
50.1998
 21
2.1815
  0
LINE
  8
0
 10
50.1998
 20
2.1815
 11
50.2473
 21
2.2205
  0
LINE
  8
0
 10
50.2473
 20
2.2205
 11
50.287
 21
2.2551
  0
LINE
  8
0
 10
50.287
 20
2.2551
 11
50.3192
 21
2.2854
  0
LINE
  8
0
 10
50.3192
 20
2.2854
 11
50.3443
 21
2.3113
  0
LINE
  8
0
 10
50.3443
 20
2.3113
 11
50.3815
 21
2.3562
  0
ARC
  8
0
 10
50.2031
 20
2.4967
 40
0.227107
 50
321.8057
 51
355.4952
  0
ARC
  8
0
 10
50.2837
 20
2.4766
 40
0.145822
 50
0.8542
 51
93.8858
  0
ARC
  8
0
 10
50.2632
 20
2.4705
 40
0.151998
 50
85.9977
 51
185.3786
  0
LINE
  8
0
 10
50.1118
 20
2.4563
 11
50.0075
 21
2.467
  0
ARC
  8
0
 10
50.2515
 20
2.4633
 40
0.244088
 50
84.2388
 51
179.1391
  0
ARC
  8
0
 10
50.2817
 20
2.4057
 40
0.300554
 50
65.8119
 51
91.084
  0
ARC
  8
0
 10
50.3055
 20
2.4726
 40
0.229817
 50
320.9483
 51
424.3817
  0
LINE
  8
0
 10
50.484
 20
2.3278
 11
50.4455
 21
2.278
  0
LINE
  8
0
 10
50.4455
 20
2.278
 11
50.4176
 21
2.2482
  0
LINE
  8
0
 10
50.4176
 20
2.2482
 11
50.3826
 21
2.2142
  0
LINE
  8
0
 10
50.3826
 20
2.2142
 11
50.3399
 21
2.1757
  0
LINE
  8
0
 10
50.3399
 20
2.1757
 11
50.2892
 21
2.1324
  0
LINE
  8
0
 10
50.2892
 20
2.1324
 11
50.2559
 21
2.1045
  0
LINE
  8
0
 10
50.2559
 20
2.1045
 11
50.2305
 21
2.083
  0
LINE
  8
0
 10
50.2305
 20
2.083
 11
50.2128
 21
2.0677
  0
LINE
  8
0
 10
50.2128
 20
2.0677
 11
50.2028
 21
2.0585
  0
LINE
  8
0
 10
50.2028
 20
2.0585
 11
50.1804
 21
2.0367
  0
LINE
  8
0
 10
50.1804
 20
2.0367
 11
50.1605
 21
2.0154
  0
LINE
  8
0
 10
50.1605
 20
2.0154
 11
50.1433
 21
1.9943
  0
LINE
  8
0
 10
50.1433
 20
1.9943
 11
50.129
 21
1.9733
  0
LINE
  8
0
 10
50.7895
 20
2.1623
 11
50.7895
 21
1.8757
  0
LINE
  8
0
 10
50.7895
 20
1.8757
 11
50.6775
 21
1.8757
  0
LINE
  8
0
 10
50.6775
 20
1.8757
 11
50.6775
 21
2.7028
  0
LINE
  8
0
 10
50.6775
 20
2.7028
 11
50.7895
 21
2.7028
  0
LINE
  8
0
 10
50.7895
 20
2.7028
 11
50.7895
 21
2.2926
  0
LINE
  8
0
 10
50.7895
 20
2.2926
 11
51.2002
 21
2.7028
  0
LINE
  8
0
 10
51.2002
 20
2.7028
 11
51.3487
 21
2.7028
  0
LINE
  8
0
 10
51.3487
 20
2.7028
 11
51.0017
 21
2.3677
  0
LINE
  8
0
 10
51.0017
 20
2.3677
 11
51.3638
 21
1.8757
  0
LINE
  8
0
 10
51.3638
 20
1.8757
 11
51.2194
 21
1.8757
  0
LINE
  8
0
 10
51.2194
 20
1.8757
 11
50.9249
 21
2.2943
  0
LINE
  8
0
 10
50.9249
 20
2.2943
 11
50.7895
 21
2.1623
  0
LINE
  8
0
 10
51.5855
 20
2.4749
 11
51.5855
 21
2.3592
  0
LINE
  8
0
 10
51.5855
 20
2.3592
 11
51.4735
 21
2.3592
  0
LINE
  8
0
 10
51.4735
 20
2.3592
 11
51.4735
 21
2.4749
  0
LINE
  8
0
 10
51.4735
 20
2.4749
 11
51.5855
 21
2.4749
  0
LINE
  8
0
 10
51.5292
 20
1.8757
 11
51.4735
 21
1.8757
  0
LINE
  8
0
 10
51.4735
 20
1.8757
 11
51.4735
 21
1.9914
  0
LINE
  8
0
 10
51.4735
 20
1.9914
 11
51.5855
 21
1.9914
  0
LINE
  8
0
 10
51.5855
 20
1.9914
 11
51.5855
 21
1.8757
  0
ARC
  8
0
 10
51.4252
 20
1.8588
 40
0.161144
 50
295.3556
 51
366.0127
  0
LINE
  8
0
 10
51.4942
 20
1.7132
 11
51.4667
 21
1.7566
  0
ARC
  8
0
 10
51.4109
 20
1.8619
 40
0.119131
 50
297.9444
 51
366.6626
  0
LINE
  8
0
 10
52.3269
 20
2.564
 11
52.3815
 21
2.564
  0
LINE
  8
0
 10
52.3815
 20
2.564
 11
52.3815
 21
2.4461
  0
LINE
  8
0
 10
52.3815
 20
2.4461
 11
52.2695
 21
2.4461
  0
LINE
  8
0
 10
52.2695
 20
2.4461
 11
52.2695
 21
2.5392
  0
LINE
  8
0
 10
52.2695
 20
2.5392
 11
52.2741
 21
2.6038
  0
ARC
  8
0
 10
52.4129
 20
2.5853
 40
0.140057
 50
109.9186
 51
172.3941
  0
LINE
  8
0
 10
52.3652
 20
2.7169
 11
52.3905
 21
2.6774
  0
ARC
  8
0
 10
52.4412
 20
2.5745
 40
0.114816
 50
116.2467
 51
185.2268
  0
LINE
  8
0
 10
52.4989
 20
2.564
 11
52.5535
 21
2.564
  0
LINE
  8
0
 10
52.5535
 20
2.564
 11
52.5535
 21
2.4461
  0
LINE
  8
0
 10
52.5535
 20
2.4461
 11
52.4415
 21
2.4461
  0
LINE
  8
0
 10
52.4415
 20
2.4461
 11
52.4415
 21
2.5392
  0
LINE
  8
0
 10
52.4415
 20
2.5392
 11
52.4461
 21
2.6038
  0
ARC
  8
0
 10
52.5849
 20
2.5853
 40
0.140057
 50
109.9186
 51
172.3941
  0
LINE
  8
0
 10
52.5372
 20
2.7169
 11
52.5625
 21
2.6774
  0
ARC
  8
0
 10
52.6132
 20
2.5745
 40
0.114816
 50
116.2467
 51
185.2268
  0
LINE
  8
0
 10
52.7935
 20
2.5798
 11
52.7935
 21
1.8757
  0
LINE
  8
0
 10
52.7935
 20
1.8757
 11
52.6895
 21
1.8757
  0
LINE
  8
0
 10
52.6895
 20
1.8757
 11
52.6895
 21
2.7028
  0
LINE
  8
0
 10
52.6895
 20
2.7028
 11
52.854
 21
2.7028
  0
LINE
  8
0
 10
52.854
 20
2.7028
 11
53.0494
 21
2.1172
  0
LINE
  8
0
 10
53.0494
 20
2.1172
 11
53.0607
 21
2.0825
  0
LINE
  8
0
 10
53.0607
 20
2.0825
 11
53.0711
 21
2.0506
  0
LINE
  8
0
 10
53.0711
 20
2.0506
 11
53.0805
 21
2.0214
  0
LINE
  8
0
 10
53.0805
 20
2.0214
 11
53.0888
 21
1.9948
  0
LINE
  8
0
 10
53.0888
 20
1.9948
 11
53.0985
 21
2.0258
  0
LINE
  8
0
 10
53.0985
 20
2.0258
 11
53.1131
 21
2.07
  0
LINE
  8
0
 10
53.1131
 20
2.07
 11
53.1328
 21
2.1273
  0
LINE
  8
0
 10
53.1328
 20
2.1273
 11
53.3305
 21
2.7028
  0
LINE
  8
0
 10
53.3305
 20
2.7028
 11
53.4775
 21
2.7028
  0
LINE
  8
0
 10
53.4775
 20
2.7028
 11
53.4775
 21
1.8757
  0
LINE
  8
0
 10
53.4775
 20
1.8757
 11
53.3735
 21
1.8757
  0
LINE
  8
0
 10
53.3735
 20
1.8757
 11
53.3735
 21
2.568
  0
LINE
  8
0
 10
53.3735
 20
2.568
 11
53.1324
 21
1.8757
  0
LINE
  8
0
 10
53.1324
 20
1.8757
 11
53.0334
 21
1.8757
  0
LINE
  8
0
 10
53.0334
 20
1.8757
 11
52.7935
 21
2.5798
  0
LINE
  8
0
 10
53.7975
 20
2.7028
 11
53.7975
 21
1.8757
  0
LINE
  8
0
 10
53.7975
 20
1.8757
 11
53.6855
 21
1.8757
  0
LINE
  8
0
 10
53.6855
 20
1.8757
 11
53.6855
 21
2.7028
  0
LINE
  8
0
 10
53.6855
 20
2.7028
 11
53.7975
 21
2.7028
  0
LINE
  8
0
 10
54.4968
 20
1.9733
 11
54.4968
 21
1.8757
  0
LINE
  8
0
 10
54.4968
 20
1.8757
 11
53.9775
 21
1.8757
  0
LINE
  8
0
 10
53.9775
 20
1.8757
 11
53.9775
 21
2.7028
  0
LINE
  8
0
 10
53.9775
 20
2.7028
 11
54.0895
 21
2.7028
  0
LINE
  8
0
 10
54.0895
 20
2.7028
 11
54.0895
 21
1.9733
  0
LINE
  8
0
 10
54.0895
 20
1.9733
 11
54.4968
 21
1.9733
  0
LINE
  8
0
 10
55.2412
 20
1.9733
 11
55.2412
 21
1.8757
  0
LINE
  8
0
 10
55.2412
 20
1.8757
 11
54.6215
 21
1.8757
  0
LINE
  8
0
 10
54.6215
 20
1.8757
 11
54.6215
 21
2.7028
  0
LINE
  8
0
 10
54.6215
 20
2.7028
 11
55.222
 21
2.7028
  0
LINE
  8
0
 10
55.222
 20
2.7028
 11
55.222
 21
2.6052
  0
LINE
  8
0
 10
55.222
 20
2.6052
 11
54.7335
 21
2.6052
  0
LINE
  8
0
 10
54.7335
 20
2.6052
 11
54.7335
 21
2.3519
  0
LINE
  8
0
 10
54.7335
 20
2.3519
 11
55.191
 21
2.3519
  0
LINE
  8
0
 10
55.191
 20
2.3519
 11
55.191
 21
2.2548
  0
LINE
  8
0
 10
55.191
 20
2.2548
 11
54.7335
 21
2.2548
  0
LINE
  8
0
 10
54.7335
 20
2.2548
 11
54.7335
 21
1.9733
  0
LINE
  8
0
 10
54.7335
 20
1.9733
 11
55.2412
 21
1.9733
  0
LINE
  8
0
 10
55.408
 20
2.5934
 11
55.3535
 21
2.5934
  0
LINE
  8
0
 10
55.3535
 20
2.5934
 11
55.3535
 21
2.7113
  0
LINE
  8
0
 10
55.3535
 20
2.7113
 11
55.4655
 21
2.7113
  0
LINE
  8
0
 10
55.4655
 20
2.7113
 11
55.4655
 21
2.6182
  0
LINE
  8
0
 10
55.4655
 20
2.6182
 11
55.461
 21
2.5529
  0
ARC
  8
0
 10
55.3227
 20
2.5719
 40
0.139583
 50
289.6929
 51
352.1842
  0
LINE
  8
0
 10
55.3697
 20
2.4404
 11
55.3445
 21
2.4805
  0
ARC
  8
0
 10
55.2972
 20
2.5815
 40
0.111457
 50
295.0854
 51
366.1449
  0
LINE
  8
0
 10
55.584
 20
2.5934
 11
55.5295
 21
2.5934
  0
LINE
  8
0
 10
55.5295
 20
2.5934
 11
55.5295
 21
2.7113
  0
LINE
  8
0
 10
55.5295
 20
2.7113
 11
55.6415
 21
2.7113
  0
LINE
  8
0
 10
55.6415
 20
2.7113
 11
55.6415
 21
2.6182
  0
LINE
  8
0
 10
55.6415
 20
2.6182
 11
55.637
 21
2.5529
  0
ARC
  8
0
 10
55.4987
 20
2.5719
 40
0.139583
 50
289.6929
 51
352.1842
  0
LINE
  8
0
 10
55.5457
 20
2.4404
 11
55.5204
 21
2.4805
  0
ARC
  8
0
 10
55.4732
 20
2.5815
 40
0.111436
 50
295.0439
 51
366.1382
  0
LINE
  8
0
 10
56.9024
 20
2.1657
 11
57.0118
 21
2.1381
  0
ARC
  8
0
 10
56.6117
 20
2.2334
 40
0.411357
 50
321.088
 51
346.5986
  0
ARC
  8
0
 10
56.6865
 20
2.1852
 40
0.323007
 50
266.9605
 51
319.3963
  0
ARC
  8
0
 10
56.6669
 20
2.3713
 40
0.508633
 50
257.9289
 51
270.2872
  0
ARC
  8
0
 10
56.6307
 20
2.2036
 40
0.337057
 50
236.0811
 51
257.9701
  0
ARC
  8
0
 10
56.6355
 20
2.1973
 40
0.334547
 50
201.6629
 51
234.7971
  0
ARC
  8
0
 10
56.8508
 20
2.2912
 40
0.569356
 50
179.5688
 51
202.4477
  0
ARC
  8
0
 10
56.9004
 20
2.2984
 40
0.618909
 50
168.7919
 51
180.2761
  0
ARC
  8
0
 10
56.7184
 20
2.3315
 40
0.433967
 50
158.6354
 51
168.4094
  0
ARC
  8
0
 10
56.6533
 20
2.3482
 40
0.367417
 50
20.3634
 51
157.3533
  0
LINE
  8
0
 10
56.9978
 20
2.476
 11
56.89
 21
2.4506
  0
ARC
  8
0
 10
56.5889
 20
2.3573
 40
0.315173
 50
17.2216
 51
35.0754
  0
ARC
  8
0
 10
56.6796
 20
2.4167
 40
0.206879
 50
36.06
 51
92.9862
  0
ARC
  8
0
 10
56.6533
 20
2.3756
 40
0.24812
 50
86.3995
 51
170.5405
  0
ARC
  8
0
 10
56.9394
 20
2.2884
 40
0.546155
 50
166.4429
 51
184.2597
  0
ARC
  8
0
 10
56.8668
 20
2.2732
 40
0.472684
 50
183.0745
 51
198.2397
  0
ARC
  8
0
 10
56.6714
 20
2.2117
 40
0.267873
 50
198.829
 51
221.0915
  0
ARC
  8
0
 10
56.656
 20
2.1964
 40
0.246249
 50
220.7632
 51
344.8613
  0
LINE
  8
0
 10
56.8937
 20
2.1321
 11
56.9024
 21
2.1657
  0
LINE
  8
0
 10
57.773
 20
1.9733
 11
58.1775
 21
1.9733
  0
LINE
  8
0
 10
58.1775
 20
1.9733
 11
58.1775
 21
1.8757
  0
LINE
  8
0
 10
58.1775
 20
1.8757
 11
57.6323
 21
1.8757
  0
ARC
  8
0
 10
57.8579
 20
1.8763
 40
0.225673
 50
143.923
 51
180.1572
  0
LINE
  8
0
 10
57.6756
 20
2.0092
 11
57.7107
 21
2.0563
  0
LINE
  8
0
 10
57.7107
 20
2.0563
 11
57.7666
 21
2.1144
  0
LINE
  8
0
 10
57.7666
 20
2.1144
 11
57.8438
 21
2.1815
  0
LINE
  8
0
 10
57.8438
 20
2.1815
 11
57.8913
 21
2.2205
  0
LINE
  8
0
 10
57.8913
 20
2.2205
 11
57.931
 21
2.2551
  0
LINE
  8
0
 10
57.931
 20
2.2551
 11
57.9632
 21
2.2854
  0
LINE
  8
0
 10
57.9632
 20
2.2854
 11
57.9883
 21
2.3113
  0
LINE
  8
0
 10
57.9883
 20
2.3113
 11
58.0255
 21
2.3562
  0
ARC
  8
0
 10
57.8471
 20
2.4967
 40
0.227107
 50
321.8057
 51
355.4952
  0
ARC
  8
0
 10
57.9277
 20
2.4766
 40
0.145822
 50
0.8542
 51
93.8858
  0
ARC
  8
0
 10
57.9072
 20
2.4705
 40
0.151998
 50
85.9977
 51
185.3786
  0
LINE
  8
0
 10
57.7558
 20
2.4563
 11
57.6515
 21
2.467
  0
ARC
  8
0
 10
57.8955
 20
2.4633
 40
0.244088
 50
84.2388
 51
179.1391
  0
ARC
  8
0
 10
57.9257
 20
2.4057
 40
0.300554
 50
65.8119
 51
91.084
  0
ARC
  8
0
 10
57.9495
 20
2.4726
 40
0.229817
 50
320.9483
 51
424.3817
  0
LINE
  8
0
 10
58.128
 20
2.3278
 11
58.0895
 21
2.278
  0
LINE
  8
0
 10
58.0895
 20
2.278
 11
58.0616
 21
2.2482
  0
LINE
  8
0
 10
58.0616
 20
2.2482
 11
58.0266
 21
2.2142
  0
LINE
  8
0
 10
58.0266
 20
2.2142
 11
57.9839
 21
2.1757
  0
LINE
  8
0
 10
57.9839
 20
2.1757
 11
57.9331
 21
2.1324
  0
LINE
  8
0
 10
57.9331
 20
2.1324
 11
57.8999
 21
2.1045
  0
LINE
  8
0
 10
57.8999
 20
2.1045
 11
57.8745
 21
2.083
  0
LINE
  8
0
 10
57.8745
 20
2.083
 11
57.8568
 21
2.0677
  0
LINE
  8
0
 10
57.8568
 20
2.0677
 11
57.8468
 21
2.0585
  0
LINE
  8
0
 10
57.8468
 20
2.0585
 11
57.8244
 21
2.0367
  0
LINE
  8
0
 10
57.8244
 20
2.0367
 11
57.8045
 21
2.0154
  0
LINE
  8
0
 10
57.8045
 20
2.0154
 11
57.7873
 21
1.9943
  0
LINE
  8
0
 10
57.7873
 20
1.9943
 11
57.773
 21
1.9733
  0
LINE
  8
0
 10
58.4335
 20
2.1623
 11
58.4335
 21
1.8757
  0
LINE
  8
0
 10
58.4335
 20
1.8757
 11
58.3215
 21
1.8757
  0
LINE
  8
0
 10
58.3215
 20
1.8757
 11
58.3215
 21
2.7028
  0
LINE
  8
0
 10
58.3215
 20
2.7028
 11
58.4335
 21
2.7028
  0
LINE
  8
0
 10
58.4335
 20
2.7028
 11
58.4335
 21
2.2926
  0
LINE
  8
0
 10
58.4335
 20
2.2926
 11
58.8442
 21
2.7028
  0
LINE
  8
0
 10
58.8442
 20
2.7028
 11
58.9926
 21
2.7028
  0
LINE
  8
0
 10
58.9926
 20
2.7028
 11
58.6456
 21
2.3677
  0
LINE
  8
0
 10
58.6456
 20
2.3677
 11
59.0078
 21
1.8757
  0
LINE
  8
0
 10
59.0078
 20
1.8757
 11
58.8634
 21
1.8757
  0
LINE
  8
0
 10
58.8634
 20
1.8757
 11
58.5689
 21
2.2943
  0
LINE
  8
0
 10
58.5689
 20
2.2943
 11
58.4335
 21
2.1623
  0
LINE
  8
0
 10
59.2295
 20
2.4749
 11
59.2295
 21
2.3592
  0
LINE
  8
0
 10
59.2295
 20
2.3592
 11
59.1175
 21
2.3592
  0
LINE
  8
0
 10
59.1175
 20
2.3592
 11
59.1175
 21
2.4749
  0
LINE
  8
0
 10
59.1175
 20
2.4749
 11
59.2295
 21
2.4749
  0
LINE
  8
0
 10
59.1732
 20
1.8757
 11
59.1175
 21
1.8757
  0
LINE
  8
0
 10
59.1175
 20
1.8757
 11
59.1175
 21
1.9914
  0
LINE
  8
0
 10
59.1175
 20
1.9914
 11
59.2295
 21
1.9914
  0
LINE
  8
0
 10
59.2295
 20
1.9914
 11
59.2295
 21
1.8757
  0
ARC
  8
0
 10
59.0692
 20
1.8588
 40
0.161144
 50
295.3556
 51
366.0127
  0
LINE
  8
0
 10
59.1382
 20
1.7132
 11
59.1107
 21
1.7566
  0
ARC
  8
0
 10
59.0549
 20
1.8619
 40
0.119131
 50
297.9444
 51
366.6626
  0
LINE
  8
0
 10
44.1069
 20
0.964
 11
44.1615
 21
0.964
  0
LINE
  8
0
 10
44.1615
 20
0.964
 11
44.1615
 21
0.8461
  0
LINE
  8
0
 10
44.1615
 20
0.8461
 11
44.0495
 21
0.8461
  0
LINE
  8
0
 10
44.0495
 20
0.8461
 11
44.0495
 21
0.9392
  0
LINE
  8
0
 10
44.0495
 20
0.9392
 11
44.0541
 21
1.0038
  0
ARC
  8
0
 10
44.1929
 20
0.9853
 40
0.140057
 50
109.9186
 51
172.3941
  0
LINE
  8
0
 10
44.1452
 20
1.1169
 11
44.1705
 21
1.0774
  0
ARC
  8
0
 10
44.2212
 20
0.9745
 40
0.114816
 50
116.2467
 51
185.2268
  0
LINE
  8
0
 10
44.2789
 20
0.964
 11
44.3335
 21
0.964
  0
LINE
  8
0
 10
44.3335
 20
0.964
 11
44.3335
 21
0.8461
  0
LINE
  8
0
 10
44.3335
 20
0.8461
 11
44.2215
 21
0.8461
  0
LINE
  8
0
 10
44.2215
 20
0.8461
 11
44.2215
 21
0.9392
  0
LINE
  8
0
 10
44.2215
 20
0.9392
 11
44.2261
 21
1.0038
  0
ARC
  8
0
 10
44.3649
 20
0.9853
 40
0.140057
 50
109.9186
 51
172.3941
  0
LINE
  8
0
 10
44.3172
 20
1.1169
 11
44.3425
 21
1.0774
  0
ARC
  8
0
 10
44.3932
 20
0.9745
 40
0.114816
 50
116.2467
 51
185.2268
  0
LINE
  8
0
 10
44.561
 20
0.3733
 11
44.9655
 21
0.3733
  0
LINE
  8
0
 10
44.9655
 20
0.3733
 11
44.9655
 21
0.2757
  0
LINE
  8
0
 10
44.9655
 20
0.2757
 11
44.4203
 21
0.2757
  0
ARC
  8
0
 10
44.6459
 20
0.2763
 40
0.225673
 50
143.923
 51
180.1572
  0
LINE
  8
0
 10
44.4636
 20
0.4092
 11
44.4987
 21
0.4563
  0
LINE
  8
0
 10
44.4987
 20
0.4563
 11
44.5546
 21
0.5144
  0
LINE
  8
0
 10
44.5546
 20
0.5144
 11
44.6318
 21
0.5815
  0
LINE
  8
0
 10
44.6318
 20
0.5815
 11
44.6793
 21
0.6205
  0
LINE
  8
0
 10
44.6793
 20
0.6205
 11
44.719
 21
0.6551
  0
LINE
  8
0
 10
44.719
 20
0.6551
 11
44.7512
 21
0.6854
  0
LINE
  8
0
 10
44.7512
 20
0.6854
 11
44.7763
 21
0.7113
  0
LINE
  8
0
 10
44.7763
 20
0.7113
 11
44.8135
 21
0.7562
  0
ARC
  8
0
 10
44.6351
 20
0.8967
 40
0.227107
 50
321.8057
 51
355.4952
  0
ARC
  8
0
 10
44.7157
 20
0.8766
 40
0.145822
 50
0.8542
 51
93.8858
  0
ARC
  8
0
 10
44.6952
 20
0.8705
 40
0.151998
 50
85.9977
 51
185.3786
  0
LINE
  8
0
 10
44.5438
 20
0.8563
 11
44.4395
 21
0.867
  0
ARC
  8
0
 10
44.6835
 20
0.8633
 40
0.244088
 50
84.2388
 51
179.1391
  0
ARC
  8
0
 10
44.7137
 20
0.8057
 40
0.300554
 50
65.8119
 51
91.084
  0
ARC
  8
0
 10
44.7375
 20
0.8726
 40
0.229817
 50
320.9483
 51
424.3817
  0
LINE
  8
0
 10
44.916
 20
0.7278
 11
44.8775
 21
0.678
  0
LINE
  8
0
 10
44.8775
 20
0.678
 11
44.8496
 21
0.6482
  0
LINE
  8
0
 10
44.8496
 20
0.6482
 11
44.8146
 21
0.6142
  0
LINE
  8
0
 10
44.8146
 20
0.6142
 11
44.7719
 21
0.5757
  0
LINE
  8
0
 10
44.7719
 20
0.5757
 11
44.7212
 21
0.5324
  0
LINE
  8
0
 10
44.7212
 20
0.5324
 11
44.6879
 21
0.5045
  0
LINE
  8
0
 10
44.6879
 20
0.5045
 11
44.6625
 21
0.483
  0
LINE
  8
0
 10
44.6625
 20
0.483
 11
44.6448
 21
0.4677
  0
LINE
  8
0
 10
44.6448
 20
0.4677
 11
44.6348
 21
0.4585
  0
LINE
  8
0
 10
44.6348
 20
0.4585
 11
44.6124
 21
0.4367
  0
LINE
  8
0
 10
44.6124
 20
0.4367
 11
44.5925
 21
0.4154
  0
LINE
  8
0
 10
44.5925
 20
0.4154
 11
44.5753
 21
0.3943
  0
LINE
  8
0
 10
44.5753
 20
0.3943
 11
44.561
 21
0.3733
  0
LINE
  8
0
 10
45.3905
 20
1.1062
 11
45.4575
 21
1.1062
  0
LINE
  8
0
 10
45.4575
 20
1.1062
 11
45.4575
 21
0.2757
  0
LINE
  8
0
 10
45.4575
 20
0.2757
 11
45.3535
 21
0.2757
  0
LINE
  8
0
 10
45.3535
 20
0.2757
 11
45.3535
 21
0.9228
  0
LINE
  8
0
 10
45.3535
 20
0.9228
 11
45.2621
 21
0.8541
  0
LINE
  8
0
 10
45.2621
 20
0.8541
 11
45.1503
 21
0.8004
  0
LINE
  8
0
 10
45.1503
 20
0.8004
 11
45.1503
 21
0.8986
  0
LINE
  8
0
 10
45.1503
 20
0.8986
 11
45.2062
 21
0.9274
  0
LINE
  8
0
 10
45.2062
 20
0.9274
 11
45.2558
 21
0.9585
  0
ARC
  8
0
 10
45.0032
 20
1.3293
 40
0.448628
 50
304.2592
 51
324.0313
  0
LINE
  8
0
 10
45.3663
 20
1.0658
 11
45.3905
 21
1.1062
  0
LINE
  8
0
 10
46.2745
 20
0.9274
 11
46.1735
 21
0.9194
  0
ARC
  8
0
 10
46.0401
 20
0.8864
 40
0.13742
 50
13.9305
 51
97.21
  0
ARC
  8
0
 10
46.013
 20
0.8573
 40
0.16568
 50
86.6054
 51
157.8702
  0
ARC
  8
0
 10
46.167
 20
0.769
 40
0.342398
 50
153.8883
 51
166.9433
  0
LINE
  8
0
 10
45.8335
 20
0.8464
 11
45.825
 21
0.8029
  0
LINE
  8
0
 10
45.825
 20
0.8029
 11
45.8197
 21
0.7548
  0
LINE
  8
0
 10
45.8197
 20
0.7548
 11
45.8175
 21
0.7023
  0
ARC
  8
0
 10
46.0192
 20
0.5723
 40
0.239931
 50
353.2766
 51
507.2179
  0
ARC
  8
0
 10
45.9504
 20
0.5395
 40
0.307073
 50
320.0023
 51
360.8866
  0
ARC
  8
0
 10
46.0093
 20
0.4975
 40
0.235017
 50
267.6072
 51
318.6146
  0
ARC
  8
0
 10
45.9956
 20
0.5747
 40
0.312071
 50
250.7836
 51
270.7119
  0
ARC
  8
0
 10
45.9781
 20
0.5042
 40
0.239813
 50
200.8289
 51
249.1998
  0
ARC
  8
0
 10
46.1363
 20
0.5816
 40
0.415448
 50
193.0518
 51
203.0381
  0
ARC
  8
0
 10
46.3022
 20
0.623
 40
0.586459
 50
188.0888
 51
193.3393
  0
ARC
  8
0
 10
46.477
 20
0.6481
 40
0.763096
 50
183.6983
 51
188.1033
  0
LINE
  8
0
 10
45.7155
 20
0.5989
 11
45.714
 21
0.6301
  0
LINE
  8
0
 10
45.714
 20
0.6301
 11
45.7135
 21
0.6628
  0
LINE
  8
0
 10
45.7135
 20
0.6628
 11
45.7153
 21
0.7286
  0
LINE
  8
0
 10
45.7153
 20
0.7286
 11
45.7209
 21
0.7891
  0
LINE
  8
0
 10
45.7209
 20
0.7891
 11
45.7302
 21
0.8442
  0
ARC
  8
0
 10
46.1609
 20
0.7582
 40
0.439154
 50
150.0219
 51
168.7051
  0
ARC
  8
0
 10
46.0206
 20
0.8179
 40
0.288444
 50
33.6991
 51
146.3779
  0
LINE
  8
0
 10
46.2606
 20
0.978
 11
46.2745
 21
0.9274
  0
ARC
  8
0
 10
45.9908
 20
0.5155
 40
0.165271
 50
170.1877
 51
318.4953
  0
ARC
  8
0
 10
45.9668
 20
0.5309
 40
0.193453
 50
319.8059
 51
442.307
  0
ARC
  8
0
 10
45.9909
 20
0.5589
 40
0.16367
 50
89.3739
 51
185.3339
  0
LINE
  8
0
 10
46.412
 20
0.9934
 11
46.3575
 21
0.9934
  0
LINE
  8
0
 10
46.3575
 20
0.9934
 11
46.3575
 21
1.1113
  0
LINE
  8
0
 10
46.3575
 20
1.1113
 11
46.4695
 21
1.1113
  0
LINE
  8
0
 10
46.4695
 20
1.1113
 11
46.4695
 21
1.0182
  0
LINE
  8
0
 10
46.4695
 20
1.0182
 11
46.465
 21
0.9529
  0
ARC
  8
0
 10
46.3267
 20
0.9719
 40
0.139583
 50
289.6929
 51
352.1842
  0
LINE
  8
0
 10
46.3737
 20
0.8404
 11
46.3485
 21
0.8805
  0
ARC
  8
0
 10
46.3012
 20
0.9815
 40
0.111457
 50
295.0854
 51
366.1449
  0
LINE
  8
0
 10
46.588
 20
0.9934
 11
46.5335
 21
0.9934
  0
LINE
  8
0
 10
46.5335
 20
0.9934
 11
46.5335
 21
1.1113
  0
LINE
  8
0
 10
46.5335
 20
1.1113
 11
46.6455
 21
1.1113
  0
LINE
  8
0
 10
46.6455
 20
1.1113
 11
46.6455
 21
1.0182
  0
LINE
  8
0
 10
46.6455
 20
1.0182
 11
46.641
 21
0.9529
  0
ARC
  8
0
 10
46.5027
 20
0.9719
 40
0.139583
 50
289.6929
 51
352.1842
  0
LINE
  8
0
 10
46.5497
 20
0.8404
 11
46.5244
 21
0.8805
  0
ARC
  8
0
 10
46.4772
 20
0.9815
 40
0.111436
 50
295.0439
 51
366.1382
  0
LINE
  8
0
 10
47.6286
 20
0.2757
 11
47.3135
 21
0.2757
  0
LINE
  8
0
 10
47.3135
 20
0.2757
 11
47.3135
 21
1.1028
  0
LINE
  8
0
 10
47.3135
 20
1.1028
 11
47.6235
 21
1.1028
  0
LINE
  8
0
 10
47.6235
 20
1.1028
 11
47.7079
 21
1.0965
  0
ARC
  8
0
 10
47.6978
 20
0.897
 40
0.199779
 50
294.9067
 51
447.083
  0
ARC
  8
0
 10
47.7153
 20
0.5054
 40
0.220685
 50
281.8516
 51
432.4337
  0
LINE
  8
0
 10
47.7606
 20
0.2894
 11
47.6996
 21
0.2791
  0
LINE
  8
0
 10
47.6996
 20
0.2791
 11
47.6286
 21
0.2757
  0
LINE
  8
0
 10
47.5911
 20
1.0052
 11
47.4255
 21
1.0052
  0
LINE
  8
0
 10
47.4255
 20
1.0052
 11
47.4255
 21
0.7553
  0
LINE
  8
0
 10
47.4255
 20
0.7553
 11
47.6047
 21
0.7553
  0
LINE
  8
0
 10
47.6047
 20
0.7553
 11
47.6661
 21
0.7577
  0
ARC
  8
0
 10
47.6711
 20
0.8799
 40
0.12237
 50
267.6724
 51
451.8005
  0
LINE
  8
0
 10
47.6673
 20
1.0022
 11
47.5911
 21
1.0052
  0
LINE
  8
0
 10
47.6159
 20
0.6577
 11
47.4255
 21
0.6577
  0
LINE
  8
0
 10
47.4255
 20
0.6577
 11
47.4255
 21
0.3733
  0
LINE
  8
0
 10
47.4255
 20
0.3733
 11
47.6305
 21
0.3733
  0
LINE
  8
0
 10
47.6305
 20
0.3733
 11
47.6772
 21
0.3743
  0
ARC
  8
0
 10
47.6864
 20
0.5134
 40
0.139382
 50
266.2085
 51
429.0735
  0
LINE
  8
0
 10
47.7362
 20
0.6436
 11
47.6859
 21
0.6542
  0
LINE
  8
0
 10
47.6859
 20
0.6542
 11
47.6159
 21
0.6577
  0
LINE
  8
0
 10
48.713
 20
0.3733
 11
49.1175
 21
0.3733
  0
LINE
  8
0
 10
49.1175
 20
0.3733
 11
49.1175
 21
0.2757
  0
LINE
  8
0
 10
49.1175
 20
0.2757
 11
48.5723
 21
0.2757
  0
ARC
  8
0
 10
48.7979
 20
0.2763
 40
0.225673
 50
143.923
 51
180.1572
  0
LINE
  8
0
 10
48.6156
 20
0.4092
 11
48.6507
 21
0.4563
  0
LINE
  8
0
 10
48.6507
 20
0.4563
 11
48.7066
 21
0.5144
  0
LINE
  8
0
 10
48.7066
 20
0.5144
 11
48.7838
 21
0.5815
  0
LINE
  8
0
 10
48.7838
 20
0.5815
 11
48.8313
 21
0.6205
  0
LINE
  8
0
 10
48.8313
 20
0.6205
 11
48.871
 21
0.6551
  0
LINE
  8
0
 10
48.871
 20
0.6551
 11
48.9032
 21
0.6854
  0
LINE
  8
0
 10
48.9032
 20
0.6854
 11
48.9283
 21
0.7113
  0
LINE
  8
0
 10
48.9283
 20
0.7113
 11
48.9655
 21
0.7562
  0
ARC
  8
0
 10
48.7871
 20
0.8967
 40
0.227107
 50
321.8057
 51
355.4952
  0
ARC
  8
0
 10
48.8677
 20
0.8766
 40
0.145822
 50
0.8542
 51
93.8858
  0
ARC
  8
0
 10
48.8472
 20
0.8705
 40
0.151998
 50
85.9977
 51
185.3786
  0
LINE
  8
0
 10
48.6958
 20
0.8563
 11
48.5915
 21
0.867
  0
ARC
  8
0
 10
48.8355
 20
0.8633
 40
0.244088
 50
84.2388
 51
179.1391
  0
ARC
  8
0
 10
48.8657
 20
0.8057
 40
0.300554
 50
65.8119
 51
91.084
  0
ARC
  8
0
 10
48.8895
 20
0.8726
 40
0.229817
 50
320.9483
 51
424.3817
  0
LINE
  8
0
 10
49.068
 20
0.7278
 11
49.0295
 21
0.678
  0
LINE
  8
0
 10
49.0295
 20
0.678
 11
49.0016
 21
0.6482
  0
LINE
  8
0
 10
49.0016
 20
0.6482
 11
48.9666
 21
0.6142
  0
LINE
  8
0
 10
48.9666
 20
0.6142
 11
48.9239
 21
0.5757
  0
LINE
  8
0
 10
48.9239
 20
0.5757
 11
48.8732
 21
0.5324
  0
LINE
  8
0
 10
48.8732
 20
0.5324
 11
48.8399
 21
0.5045
  0
LINE
  8
0
 10
48.8399
 20
0.5045
 11
48.8145
 21
0.483
  0
LINE
  8
0
 10
48.8145
 20
0.483
 11
48.7968
 21
0.4677
  0
LINE
  8
0
 10
48.7968
 20
0.4677
 11
48.7868
 21
0.4585
  0
LINE
  8
0
 10
48.7868
 20
0.4585
 11
48.7644
 21
0.4367
  0
LINE
  8
0
 10
48.7644
 20
0.4367
 11
48.7445
 21
0.4154
  0
LINE
  8
0
 10
48.7445
 20
0.4154
 11
48.7273
 21
0.3943
  0
LINE
  8
0
 10
48.7273
 20
0.3943
 11
48.713
 21
0.3733
  0
LINE
  8
0
 10
49.3735
 20
0.5623
 11
49.3735
 21
0.2757
  0
LINE
  8
0
 10
49.3735
 20
0.2757
 11
49.2615
 21
0.2757
  0
LINE
  8
0
 10
49.2615
 20
0.2757
 11
49.2615
 21
1.1028
  0
LINE
  8
0
 10
49.2615
 20
1.1028
 11
49.3735
 21
1.1028
  0
LINE
  8
0
 10
49.3735
 20
1.1028
 11
49.3735
 21
0.6926
  0
LINE
  8
0
 10
49.3735
 20
0.6926
 11
49.7842
 21
1.1028
  0
LINE
  8
0
 10
49.7842
 20
1.1028
 11
49.9327
 21
1.1028
  0
LINE
  8
0
 10
49.9327
 20
1.1028
 11
49.5857
 21
0.7677
  0
LINE
  8
0
 10
49.5857
 20
0.7677
 11
49.9478
 21
0.2757
  0
LINE
  8
0
 10
49.9478
 20
0.2757
 11
49.8034
 21
0.2757
  0
LINE
  8
0
 10
49.8034
 20
0.2757
 11
49.5089
 21
0.6943
  0
LINE
  8
0
 10
49.5089
 20
0.6943
 11
49.3735
 21
0.5623
  0
LINE
  8
0
 10
50.1695
 20
0.8749
 11
50.1695
 21
0.7592
  0
LINE
  8
0
 10
50.1695
 20
0.7592
 11
50.0575
 21
0.7592
  0
LINE
  8
0
 10
50.0575
 20
0.7592
 11
50.0575
 21
0.8749
  0
LINE
  8
0
 10
50.0575
 20
0.8749
 11
50.1695
 21
0.8749
  0
LINE
  8
0
 10
50.1132
 20
0.2757
 11
50.0575
 21
0.2757
  0
LINE
  8
0
 10
50.0575
 20
0.2757
 11
50.0575
 21
0.3914
  0
LINE
  8
0
 10
50.0575
 20
0.3914
 11
50.1695
 21
0.3914
  0
LINE
  8
0
 10
50.1695
 20
0.3914
 11
50.1695
 21
0.2757
  0
ARC
  8
0
 10
50.0092
 20
0.2588
 40
0.161144
 50
295.3556
 51
366.0127
  0
LINE
  8
0
 10
50.0782
 20
0.1132
 11
50.0507
 21
0.1566
  0
ARC
  8
0
 10
49.9949
 20
0.2619
 40
0.119131
 50
297.9444
 51
366.6626
  0
LINE
  8
0
 10
50.9109
 20
0.964
 11
50.9655
 21
0.964
  0
LINE
  8
0
 10
50.9655
 20
0.964
 11
50.9655
 21
0.8461
  0
LINE
  8
0
 10
50.9655
 20
0.8461
 11
50.8535
 21
0.8461
  0
LINE
  8
0
 10
50.8535
 20
0.8461
 11
50.8535
 21
0.9392
  0
LINE
  8
0
 10
50.8535
 20
0.9392
 11
50.8581
 21
1.0038
  0
ARC
  8
0
 10
50.9969
 20
0.9853
 40
0.140057
 50
109.9186
 51
172.3941
  0
LINE
  8
0
 10
50.9492
 20
1.1169
 11
50.9745
 21
1.0774
  0
ARC
  8
0
 10
51.0252
 20
0.9745
 40
0.114816
 50
116.2467
 51
185.2268
  0
LINE
  8
0
 10
51.0829
 20
0.964
 11
51.1375
 21
0.964
  0
LINE
  8
0
 10
51.1375
 20
0.964
 11
51.1375
 21
0.8461
  0
LINE
  8
0
 10
51.1375
 20
0.8461
 11
51.0255
 21
0.8461
  0
LINE
  8
0
 10
51.0255
 20
0.8461
 11
51.0255
 21
0.9392
  0
LINE
  8
0
 10
51.0255
 20
0.9392
 11
51.0301
 21
1.0038
  0
ARC
  8
0
 10
51.1689
 20
0.9853
 40
0.140057
 50
109.9186
 51
172.3941
  0
LINE
  8
0
 10
51.1212
 20
1.1169
 11
51.1465
 21
1.0774
  0
ARC
  8
0
 10
51.1972
 20
0.9745
 40
0.114816
 50
116.2467
 51
185.2268
  0
LINE
  8
0
 10
51.4135
 20
0.3914
 11
51.4135
 21
0.2757
  0
LINE
  8
0
 10
51.4135
 20
0.2757
 11
51.3015
 21
0.2757
  0
LINE
  8
0
 10
51.3015
 20
0.2757
 11
51.3015
 21
0.3914
  0
LINE
  8
0
 10
51.3015
 20
0.3914
 11
51.4135
 21
0.3914
  0
LINE
  8
0
 10
51.693
 20
0.3733
 11
52.0975
 21
0.3733
  0
LINE
  8
0
 10
52.0975
 20
0.3733
 11
52.0975
 21
0.2757
  0
LINE
  8
0
 10
52.0975
 20
0.2757
 11
51.5523
 21
0.2757
  0
ARC
  8
0
 10
51.7779
 20
0.2763
 40
0.225673
 50
143.923
 51
180.1572
  0
LINE
  8
0
 10
51.5956
 20
0.4092
 11
51.6307
 21
0.4563
  0
LINE
  8
0
 10
51.6307
 20
0.4563
 11
51.6866
 21
0.5144
  0
LINE
  8
0
 10
51.6866
 20
0.5144
 11
51.7638
 21
0.5815
  0
LINE
  8
0
 10
51.7638
 20
0.5815
 11
51.8113
 21
0.6205
  0
LINE
  8
0
 10
51.8113
 20
0.6205
 11
51.851
 21
0.6551
  0
LINE
  8
0
 10
51.851
 20
0.6551
 11
51.8832
 21
0.6854
  0
LINE
  8
0
 10
51.8832
 20
0.6854
 11
51.9083
 21
0.7113
  0
LINE
  8
0
 10
51.9083
 20
0.7113
 11
51.9455
 21
0.7562
  0
ARC
  8
0
 10
51.7671
 20
0.8967
 40
0.227107
 50
321.8057
 51
355.4952
  0
ARC
  8
0
 10
51.8477
 20
0.8766
 40
0.145822
 50
0.8542
 51
93.8858
  0
ARC
  8
0
 10
51.8272
 20
0.8705
 40
0.151998
 50
85.9977
 51
185.3786
  0
LINE
  8
0
 10
51.6758
 20
0.8563
 11
51.5715
 21
0.867
  0
ARC
  8
0
 10
51.8155
 20
0.8633
 40
0.244088
 50
84.2388
 51
179.1391
  0
ARC
  8
0
 10
51.8457
 20
0.8057
 40
0.300554
 50
65.8119
 51
91.084
  0
ARC
  8
0
 10
51.8695
 20
0.8726
 40
0.229817
 50
320.9483
 51
424.3817
  0
LINE
  8
0
 10
52.048
 20
0.7278
 11
52.0095
 21
0.678
  0
LINE
  8
0
 10
52.0095
 20
0.678
 11
51.9816
 21
0.6482
  0
LINE
  8
0
 10
51.9816
 20
0.6482
 11
51.9466
 21
0.6142
  0
LINE
  8
0
 10
51.9466
 20
0.6142
 11
51.9039
 21
0.5757
  0
LINE
  8
0
 10
51.9039
 20
0.5757
 11
51.8532
 21
0.5324
  0
LINE
  8
0
 10
51.8532
 20
0.5324
 11
51.8199
 21
0.5045
  0
LINE
  8
0
 10
51.8199
 20
0.5045
 11
51.7945
 21
0.483
  0
LINE
  8
0
 10
51.7945
 20
0.483
 11
51.7768
 21
0.4677
  0
LINE
  8
0
 10
51.7768
 20
0.4677
 11
51.7668
 21
0.4585
  0
LINE
  8
0
 10
51.7668
 20
0.4585
 11
51.7444
 21
0.4367
  0
LINE
  8
0
 10
51.7444
 20
0.4367
 11
51.7245
 21
0.4154
  0
LINE
  8
0
 10
51.7245
 20
0.4154
 11
51.7073
 21
0.3943
  0
LINE
  8
0
 10
51.7073
 20
0.3943
 11
51.693
 21
0.3733
  0
LINE
  8
0
 10
52.256
 20
0.9934
 11
52.2015
 21
0.9934
  0
LINE
  8
0
 10
52.2015
 20
0.9934
 11
52.2015
 21
1.1113
  0
LINE
  8
0
 10
52.2015
 20
1.1113
 11
52.3135
 21
1.1113
  0
LINE
  8
0
 10
52.3135
 20
1.1113
 11
52.3135
 21
1.0182
  0
LINE
  8
0
 10
52.3135
 20
1.0182
 11
52.309
 21
0.9529
  0
ARC
  8
0
 10
52.1707
 20
0.9719
 40
0.139583
 50
289.6929
 51
352.1842
  0
LINE
  8
0
 10
52.2177
 20
0.8404
 11
52.1925
 21
0.8805
  0
ARC
  8
0
 10
52.1452
 20
0.9815
 40
0.111457
 50
295.0854
 51
366.1449
  0
LINE
  8
0
 10
52.432
 20
0.9934
 11
52.3775
 21
0.9934
  0
LINE
  8
0
 10
52.3775
 20
0.9934
 11
52.3775
 21
1.1113
  0
LINE
  8
0
 10
52.3775
 20
1.1113
 11
52.4895
 21
1.1113
  0
LINE
  8
0
 10
52.4895
 20
1.1113
 11
52.4895
 21
1.0182
  0
LINE
  8
0
 10
52.4895
 20
1.0182
 11
52.485
 21
0.9529
  0
ARC
  8
0
 10
52.3467
 20
0.9719
 40
0.139583
 50
289.6929
 51
352.1842
  0
LINE
  8
0
 10
52.3937
 20
0.8404
 11
52.3684
 21
0.8805
  0
ARC
  8
0
 10
52.3212
 20
0.9815
 40
0.111436
 50
295.0439
 51
366.1382
  0
LINE
  8
0
 10
53.7504
 20
0.5657
 11
53.8598
 21
0.5381
  0
ARC
  8
0
 10
53.4597
 20
0.6334
 40
0.411357
 50
321.088
 51
346.5986
  0
ARC
  8
0
 10
53.5345
 20
0.5852
 40
0.323007
 50
266.9605
 51
319.3963
  0
ARC
  8
0
 10
53.5149
 20
0.7713
 40
0.508633
 50
257.9289
 51
270.2872
  0
ARC
  8
0
 10
53.4787
 20
0.6036
 40
0.337057
 50
236.0811
 51
257.9701
  0
ARC
  8
0
 10
53.4835
 20
0.5973
 40
0.334547
 50
201.6629
 51
234.7971
  0
ARC
  8
0
 10
53.6988
 20
0.6912
 40
0.569356
 50
179.5688
 51
202.4477
  0
ARC
  8
0
 10
53.7484
 20
0.6984
 40
0.618909
 50
168.7919
 51
180.2761
  0
ARC
  8
0
 10
53.5664
 20
0.7315
 40
0.433967
 50
158.6354
 51
168.4094
  0
ARC
  8
0
 10
53.5013
 20
0.7482
 40
0.367417
 50
20.3634
 51
157.3533
  0
LINE
  8
0
 10
53.8458
 20
0.876
 11
53.738
 21
0.8506
  0
ARC
  8
0
 10
53.4369
 20
0.7573
 40
0.315173
 50
17.2216
 51
35.0754
  0
ARC
  8
0
 10
53.5276
 20
0.8167
 40
0.206879
 50
36.06
 51
92.9862
  0
ARC
  8
0
 10
53.5013
 20
0.7756
 40
0.24812
 50
86.3995
 51
170.5405
  0
ARC
  8
0
 10
53.7874
 20
0.6884
 40
0.546155
 50
166.4429
 51
184.2597
  0
ARC
  8
0
 10
53.7148
 20
0.6732
 40
0.472684
 50
183.0745
 51
198.2397
  0
ARC
  8
0
 10
53.5194
 20
0.6117
 40
0.267873
 50
198.829
 51
221.0915
  0
ARC
  8
0
 10
53.504
 20
0.5964
 40
0.246249
 50
220.7632
 51
344.8613
  0
LINE
  8
0
 10
53.7417
 20
0.5321
 11
53.7504
 21
0.5657
  0
LINE
  8
0
 10
54.625
 20
0.3733
 11
55.0295
 21
0.3733
  0
LINE
  8
0
 10
55.0295
 20
0.3733
 11
55.0295
 21
0.2757
  0
LINE
  8
0
 10
55.0295
 20
0.2757
 11
54.4843
 21
0.2757
  0
ARC
  8
0
 10
54.7099
 20
0.2763
 40
0.225673
 50
143.923
 51
180.1572
  0
LINE
  8
0
 10
54.5276
 20
0.4092
 11
54.5627
 21
0.4563
  0
LINE
  8
0
 10
54.5627
 20
0.4563
 11
54.6186
 21
0.5144
  0
LINE
  8
0
 10
54.6186
 20
0.5144
 11
54.6958
 21
0.5815
  0
LINE
  8
0
 10
54.6958
 20
0.5815
 11
54.7433
 21
0.6205
  0
LINE
  8
0
 10
54.7433
 20
0.6205
 11
54.783
 21
0.6551
  0
LINE
  8
0
 10
54.783
 20
0.6551
 11
54.8152
 21
0.6854
  0
LINE
  8
0
 10
54.8152
 20
0.6854
 11
54.8403
 21
0.7113
  0
LINE
  8
0
 10
54.8403
 20
0.7113
 11
54.8775
 21
0.7562
  0
ARC
  8
0
 10
54.6991
 20
0.8967
 40
0.227107
 50
321.8057
 51
355.4952
  0
ARC
  8
0
 10
54.7797
 20
0.8766
 40
0.145822
 50
0.8542
 51
93.8858
  0
ARC
  8
0
 10
54.7592
 20
0.8705
 40
0.151998
 50
85.9977
 51
185.3786
  0
LINE
  8
0
 10
54.6078
 20
0.8563
 11
54.5035
 21
0.867
  0
ARC
  8
0
 10
54.7475
 20
0.8633
 40
0.244088
 50
84.2388
 51
179.1391
  0
ARC
  8
0
 10
54.7777
 20
0.8057
 40
0.300554
 50
65.8119
 51
91.084
  0
ARC
  8
0
 10
54.8015
 20
0.8726
 40
0.229817
 50
320.9483
 51
424.3817
  0
LINE
  8
0
 10
54.98
 20
0.7278
 11
54.9415
 21
0.678
  0
LINE
  8
0
 10
54.9415
 20
0.678
 11
54.9136
 21
0.6482
  0
LINE
  8
0
 10
54.9136
 20
0.6482
 11
54.8786
 21
0.6142
  0
LINE
  8
0
 10
54.8786
 20
0.6142
 11
54.8359
 21
0.5757
  0
LINE
  8
0
 10
54.8359
 20
0.5757
 11
54.7851
 21
0.5324
  0
LINE
  8
0
 10
54.7851
 20
0.5324
 11
54.7519
 21
0.5045
  0
LINE
  8
0
 10
54.7519
 20
0.5045
 11
54.7265
 21
0.483
  0
LINE
  8
0
 10
54.7265
 20
0.483
 11
54.7088
 21
0.4677
  0
LINE
  8
0
 10
54.7088
 20
0.4677
 11
54.6988
 21
0.4585
  0
LINE
  8
0
 10
54.6988
 20
0.4585
 11
54.6764
 21
0.4367
  0
LINE
  8
0
 10
54.6764
 20
0.4367
 11
54.6565
 21
0.4154
  0
LINE
  8
0
 10
54.6565
 20
0.4154
 11
54.6393
 21
0.3943
  0
LINE
  8
0
 10
54.6393
 20
0.3943
 11
54.625
 21
0.3733
  0
LINE
  8
0
 10
55.2815
 20
0.5623
 11
55.2815
 21
0.2757
  0
LINE
  8
0
 10
55.2815
 20
0.2757
 11
55.1695
 21
0.2757
  0
LINE
  8
0
 10
55.1695
 20
0.2757
 11
55.1695
 21
1.1028
  0
LINE
  8
0
 10
55.1695
 20
1.1028
 11
55.2815
 21
1.1028
  0
LINE
  8
0
 10
55.2815
 20
1.1028
 11
55.2815
 21
0.6926
  0
LINE
  8
0
 10
55.2815
 20
0.6926
 11
55.6922
 21
1.1028
  0
LINE
  8
0
 10
55.6922
 20
1.1028
 11
55.8406
 21
1.1028
  0
LINE
  8
0
 10
55.8406
 20
1.1028
 11
55.4936
 21
0.7677
  0
LINE
  8
0
 10
55.4936
 20
0.7677
 11
55.8558
 21
0.2757
  0
LINE
  8
0
 10
55.8558
 20
0.2757
 11
55.7114
 21
0.2757
  0
LINE
  8
0
 10
55.7114
 20
0.2757
 11
55.4169
 21
0.6943
  0
LINE
  8
0
 10
55.4169
 20
0.6943
 11
55.2815
 21
0.5623
  0
LINE
  8
0
 10
56.0775
 20
0.8749
 11
56.0775
 21
0.7592
  0
LINE
  8
0
 10
56.0775
 20
0.7592
 11
55.9655
 21
0.7592
  0
LINE
  8
0
 10
55.9655
 20
0.7592
 11
55.9655
 21
0.8749
  0
LINE
  8
0
 10
55.9655
 20
0.8749
 11
56.0775
 21
0.8749
  0
LINE
  8
0
 10
56.0212
 20
0.2757
 11
55.9655
 21
0.2757
  0
LINE
  8
0
 10
55.9655
 20
0.2757
 11
55.9655
 21
0.3914
  0
LINE
  8
0
 10
55.9655
 20
0.3914
 11
56.0775
 21
0.3914
  0
LINE
  8
0
 10
56.0775
 20
0.3914
 11
56.0775
 21
0.2757
  0
ARC
  8
0
 10
55.9172
 20
0.2588
 40
0.161144
 50
295.3556
 51
366.0127
  0
LINE
  8
0
 10
55.9862
 20
0.1132
 11
55.9587
 21
0.1566
  0
ARC
  8
0
 10
55.9029
 20
0.2619
 40
0.119131
 50
297.9444
 51
366.6626
  0
ARC
  8
0
 10
55.1667
 20
51.65
 40
2.70833
 50
90
 51
143.1301
  0
LINE
  8
0
 10
55.1667
 20
54.3583
 11
55.7083
 21
54.3583
  0
ARC
  8
0
 10
55.7083
 20
58.15
 40
3.79167
 50
270
 51
385.0103
  0
ARC
  8
0
 10
62.5806
 20
61.3561
 40
3.79167
 50
144.3374
 51
205.0103
  0
LINE
  8
0
 10
59.5
 20
63.5667
 11
56.7917
 21
66.275
  0
ARC
  8
0
 10
54.8958
 20
68.2091
 40
2.70833
 50
225.573
 51
314.427
  0
ARC
  8
0
 10
51.1042
 20
68.2091
 40
2.70833
 50
225.573
 51
314.427
  0
LINE
  8
0
 10
49.2083
 20
66.275
 11
46.5
 21
63.5667
  0
ARC
  8
0
 10
43.4194
 20
61.3561
 40
3.79167
 50
334.9898
 51
395.6626
  0
ARC
  8
0
 10
50.2917
 20
58.15
 40
3.79167
 50
154.9897
 51
270
  0
LINE
  8
0
 10
50.2917
 20
54.3583
 11
50.8333
 21
54.3583
  0
ARC
  8
0
 10
50.8333
 20
51.65
 40
2.70833
 50
36.8699
 51
90
  0
LINE
  8
0
 10
52.4815
 20
56.7797
 11
48.4015
 21
56.7797
  0
ARC
  8
0
 10
52.5938
 20
56.7316
 40
4.19265
 50
171.2752
 51
179.3427
  0
ARC
  8
0
 10
52.4426
 20
56.7514
 40
4.04012
 50
165.709
 51
171.2274
  0
ARC
  8
0
 10
52.1712
 20
56.8223
 40
3.75964
 50
158.4142
 51
165.735
  0
ARC
  8
0
 10
52.0313
 20
56.875
 40
3.61024
 50
150.8464
 51
158.375
  0
ARC
  8
0
 10
51.8544
 20
56.973
 40
3.40798
 50
132.604
 51
150.8363
  0
ARC
  8
0
 10
51.6728
 20
57.1581
 40
3.14879
 50
124.9234
 51
132.4518
  0
ARC
  8
0
 10
51.7758
 20
57.0125
 40
3.32712
 50
120.1083
 51
124.9415
  0
LINE
  8
0
 10
50.1067
 20
59.8907
 11
50.2315
 21
59.9597
  0
LINE
  8
0
 10
50.2315
 20
59.9597
 11
50.7895
 21
60.2537
  0
LINE
  8
0
 10
50.7895
 20
60.2537
 11
50.8541
 21
60.2872
  0
LINE
  8
0
 10
50.8541
 20
60.2872
 11
50.915
 21
60.3201
  0
LINE
  8
0
 10
50.915
 20
60.3201
 11
50.9721
 21
60.3525
  0
LINE
  8
0
 10
50.9721
 20
60.3525
 11
51.0255
 21
60.3842
  0
LINE
  8
0
 10
51.0255
 20
60.3842
 11
51.0751
 21
60.4153
  0
LINE
  8
0
 10
51.0751
 20
60.4153
 11
51.1209
 21
60.4459
  0
LINE
  8
0
 10
51.1209
 20
60.4459
 11
51.163
 21
60.4758
  0
LINE
  8
0
 10
51.163
 20
60.4758
 11
51.2012
 21
60.5052
  0
LINE
  8
0
 10
51.2012
 20
60.5052
 11
51.2357
 21
60.534
  0
LINE
  8
0
 10
51.2357
 20
60.534
 11
51.2665
 21
60.5621
  0
LINE
  8
0
 10
51.2665
 20
60.5621
 11
51.2935
 21
60.5897
  0
ARC
  8
0
 10
50.5913
 20
61.2954
 40
0.995484
 50
314.8549
 51
324.1731
  0
ARC
  8
0
 10
50.7508
 20
61.1768
 40
0.79677
 50
324.3741
 51
331.6152
  0
ARC
  8
0
 10
50.8652
 20
61.1186
 40
0.668455
 50
331.3466
 51
369.254
  0
ARC
  8
0
 10
50.9108
 20
61.1252
 40
0.62235
 50
9.3236
 51
45.3446
  0
ARC
  8
0
 10
50.7568
 20
60.9896
 40
0.827197
 50
44.3556
 51
49.724
  0
ARC
  8
0
 10
50.6721
 20
60.8897
 40
0.958184
 50
49.7248
 51
54.592
  0
ARC
  8
0
 10
50.5753
 20
60.7535
 40
1.12528
 50
54.5901
 51
58.9626
  0
ARC
  8
0
 10
50.4535
 20
60.5728
 40
1.34294
 50
58.487
 51
90.5144
  0
LINE
  8
0
 10
50.4415
 20
61.9157
 11
50.3741
 21
61.9145
  0
LINE
  8
0
 10
50.3741
 20
61.9145
 11
50.3088
 21
61.9109
  0
LINE
  8
0
 10
50.3088
 20
61.9109
 11
50.2455
 21
61.9048
  0
LINE
  8
0
 10
50.2455
 20
61.9048
 11
50.1841
 21
61.8964
  0
ARC
  8
0
 10
50.3802
 20
60.6574
 40
1.25442
 50
98.9929
 51
107.0689
  0
ARC
  8
0
 10
50.3246
 20
60.8469
 40
1.05694
 50
107.2032
 51
113.2609
  0
ARC
  8
0
 10
50.2736
 20
60.9617
 40
0.931307
 50
113.167
 51
126.3605
  0
ARC
  8
0
 10
50.2533
 20
60.9639
 40
0.917653
 50
125.4199
 51
141.1347
  0
ARC
  8
0
 10
50.2212
 20
60.9974
 40
0.871656
 50
141.5242
 51
164.4051
  0
ARC
  8
0
 10
50.3854
 20
60.9446
 40
1.04402
 50
164.0367
 51
169.8085
  0
LINE
  8
0
 10
49.3578
 20
61.1293
 11
49.3495
 21
61.0757
  0
LINE
  8
0
 10
49.3495
 20
61.0757
 11
48.4015
 21
61.2857
  0
ARC
  8
0
 10
50.5024
 20
60.8948
 40
2.13694
 50
164.8914
 51
169.4605
  0
ARC
  8
0
 10
50.3539
 20
60.934
 40
1.98341
 50
160.0641
 51
164.8678
  0
ARC
  8
0
 10
50.2322
 20
60.9784
 40
1.85384
 50
151.6869
 51
160.0687
  0
ARC
  8
0
 10
50.2009
 20
60.9924
 40
1.81972
 50
136.3019
 51
151.6088
  0
ARC
  8
0
 10
50.3111
 20
60.8919
 40
1.96876
 50
131.5627
 51
136.4016
  0
ARC
  8
0
 10
50.3969
 20
60.7962
 40
2.09732
 50
128.4954
 51
131.5842
  0
ARC
  8
0
 10
50.5023
 20
60.6278
 40
2.29477
 50
123.294
 51
127.9374
  0
ARC
  8
0
 10
50.4173
 20
60.7558
 40
2.14117
 50
118.4063
 51
123.271
  0
ARC
  8
0
 10
50.3539
 20
60.8744
 40
2.00665
 50
108.2517
 51
118.4274
  0
ARC
  8
0
 10
50.3523
 20
60.8716
 40
2.0088
 50
96.3103
 51
108.182
  0
ARC
  8
0
 10
50.3712
 20
60.7241
 40
2.15748
 50
91.5277
 51
96.3788
  0
LINE
  8
0
 10
50.3136
 20
62.8809
 11
50.3755
 21
62.8817
  0
ARC
  8
0
 10
50.3765
 20
59.9157
 40
2.96599
 50
86.3093
 51
90.02
  0
ARC
  8
0
 10
50.3902
 20
60.1488
 40
2.73254
 50
83.6652
 51
86.2824
  0
ARC
  8
0
 10
50.4065
 20
60.2954
 40
2.58502
 50
80.9487
 51
83.6646
  0
ARC
  8
0
 10
50.4262
 20
60.4191
 40
2.45972
 50
78.1405
 51
80.9479
  0
ARC
  8
0
 10
50.4508
 20
60.5354
 40
2.34083
 50
73.7959
 51
78.1441
  0
ARC
  8
0
 10
50.4874
 20
60.6616
 40
2.20949
 50
67.7632
 51
73.7954
  0
ARC
  8
0
 10
50.5114
 20
60.7225
 40
2.14399
 50
52.335
 51
67.7406
  0
ARC
  8
0
 10
50.6203
 20
60.8265
 40
1.99525
 50
49.0907
 51
52.9846
  0
ARC
  8
0
 10
50.7208
 20
60.9439
 40
1.84072
 50
46.3187
 51
49.0627
  0
ARC
  8
0
 10
50.7971
 20
61.0236
 40
1.73036
 50
42.0403
 51
46.3238
  0
ARC
  8
0
 10
50.8941
 20
61.1109
 40
1.59985
 50
36.0168
 51
42.0436
  0
ARC
  8
0
 10
50.9712
 20
61.1674
 40
1.5043
 50
10.7887
 51
36.0023
  0
ARC
  8
0
 10
50.7853
 20
61.1242
 40
1.69502
 50
6.6939
 51
11.0484
  0
ARC
  8
0
 10
50.6674
 20
61.1097
 40
1.81377
 50
3.9447
 51
6.7158
  0
ARC
  8
0
 10
50.5593
 20
61.1022
 40
1.92213
 50
1.2782
 51
3.9441
  0
LINE
  8
0
 10
52.481
 20
61.1451
 11
52.4815
 21
61.0997
  0
ARC
  8
0
 10
50.9122
 20
61.0992
 40
1.56931
 50
337.9668
 51
360.0185
  0
ARC
  8
0
 10
50.8105
 20
61.1337
 40
1.67654
 50
319.9841
 51
338.1769
  0
LINE
  8
0
 10
52.0945
 20
60.0557
 11
51.9452
 21
59.8952
  0
LINE
  8
0
 10
51.9452
 20
59.8952
 11
51.7795
 21
59.7497
  0
LINE
  8
0
 10
51.7795
 20
59.7497
 11
51.7557
 21
59.7316
  0
LINE
  8
0
 10
51.7557
 20
59.7316
 11
51.7297
 21
59.7126
  0
LINE
  8
0
 10
51.7297
 20
59.7126
 11
51.7014
 21
59.6926
  0
LINE
  8
0
 10
51.7014
 20
59.6926
 11
51.6708
 21
59.6718
  0
LINE
  8
0
 10
51.6708
 20
59.6718
 11
51.638
 21
59.65
  0
LINE
  8
0
 10
51.638
 20
59.65
 11
51.6028
 21
59.6274
  0
LINE
  8
0
 10
51.6028
 20
59.6274
 11
51.5654
 21
59.6038
  0
LINE
  8
0
 10
51.5654
 20
59.6038
 11
51.5257
 21
59.5793
  0
LINE
  8
0
 10
51.5257
 20
59.5793
 11
51.4837
 21
59.5539
  0
LINE
  8
0
 10
51.4837
 20
59.5539
 11
51.4394
 21
59.5275
  0
LINE
  8
0
 10
51.4394
 20
59.5275
 11
51.3928
 21
59.5003
  0
LINE
  8
0
 10
51.3928
 20
59.5003
 11
51.344
 21
59.4722
  0
LINE
  8
0
 10
51.344
 20
59.4722
 11
51.2928
 21
59.4431
  0
LINE
  8
0
 10
51.2928
 20
59.4431
 11
51.2394
 21
59.4131
  0
LINE
  8
0
 10
51.2394
 20
59.4131
 11
51.1837
 21
59.3822
  0
LINE
  8
0
 10
51.1837
 20
59.3822
 11
51.1257
 21
59.3504
  0
LINE
  8
0
 10
51.1257
 20
59.3504
 11
51.0655
 21
59.3177
  0
LINE
  8
0
 10
51.0655
 20
59.3177
 11
50.9055
 21
59.2287
  0
LINE
  8
0
 10
50.9055
 20
59.2287
 11
50.7615
 21
59.1457
  0
LINE
  8
0
 10
50.7615
 20
59.1457
 11
50.6335
 21
59.0687
  0
LINE
  8
0
 10
50.6335
 20
59.0687
 11
50.5201
 21
58.9964
  0
LINE
  8
0
 10
50.5201
 20
58.9964
 11
50.4201
 21
58.9274
  0
LINE
  8
0
 10
50.4201
 20
58.9274
 11
50.3335
 21
58.8617
  0
ARC
  8
0
 10
51.9523
 20
56.8752
 40
2.56261
 50
129.1776
 51
143.2273
  0
ARC
  8
0
 10
52.0829
 20
56.7732
 40
2.72823
 50
143.1528
 51
146.5176
  0
ARC
  8
0
 10
52.1858
 20
56.7052
 40
2.85161
 50
146.5193
 51
149.7863
  0
ARC
  8
0
 10
52.3204
 20
56.6269
 40
3.00736
 50
149.7877
 51
152.9409
  0
ARC
  8
0
 10
52.4894
 20
56.5406
 40
3.19704
 50
152.9419
 51
155.9691
  0
LINE
  8
0
 10
49.5694
 20
57.8426
 11
49.5355
 21
57.7637
  0
LINE
  8
0
 10
49.5355
 20
57.7637
 11
52.4815
 21
57.7637
  0
LINE
  8
0
 10
52.4815
 20
57.7637
 11
52.4815
 21
56.7797
  0
LINE
  8
0
 10
55.8015
 20
56.7797
 11
54.8415
 21
56.7797
  0
ARC
  8
0
 10
65.2963
 20
56.6678
 40
10.4554
 50
178.2121
 51
179.3866
  0
ARC
  8
0
 10
65.1085
 20
56.6733
 40
10.2675
 50
177.4173
 51
178.2102
  0
ARC
  8
0
 10
64.9761
 20
56.6793
 40
10.135
 50
176.6176
 51
177.4173
  0
ARC
  8
0
 10
64.8508
 20
56.6867
 40
10.0095
 50
175.8111
 51
176.6175
  0
ARC
  8
0
 10
64.7325
 20
56.6953
 40
9.89092
 50
174.9982
 51
175.8111
  0
ARC
  8
0
 10
64.6213
 20
56.7051
 40
9.77922
 50
174.1791
 51
174.9982
  0
ARC
  8
0
 10
64.5169
 20
56.7157
 40
9.67432
 50
173.3541
 51
174.1791
  0
ARC
  8
0
 10
64.4039
 20
56.7289
 40
9.56059
 50
172.1075
 51
173.3544
  0
ARC
  8
0
 10
64.272
 20
56.747
 40
9.42746
 50
170.8478
 51
172.1065
  0
ARC
  8
0
 10
64.1552
 20
56.7657
 40
9.3091
 50
169.5775
 51
170.8468
  0
ARC
  8
0
 10
64.0326
 20
56.7883
 40
9.18446
 50
167.8697
 51
169.5778
  0
ARC
  8
0
 10
63.9157
 20
56.8134
 40
9.06493
 50
165.7162
 51
167.8698
  0
ARC
  8
0
 10
63.8031
 20
56.8421
 40
8.94874
 50
162.6749
 51
165.7162
  0
ARC
  8
0
 10
63.7541
 20
56.8565
 40
8.89765
 50
154.3787
 51
162.6694
  0
ARC
  8
0
 10
63.9043
 20
56.7866
 40
9.06328
 50
152.2365
 51
154.3909
  0
ARC
  8
0
 10
64.0189
 20
56.7264
 40
9.19276
 50
150.5305
 51
152.2376
  0
ARC
  8
0
 10
64.1181
 20
56.6706
 40
9.30658
 50
149.2615
 51
150.5316
  0
ARC
  8
0
 10
64.2196
 20
56.6104
 40
9.4246
 50
148.0028
 51
149.2623
  0
ARC
  8
0
 10
64.3323
 20
56.5402
 40
9.55739
 50
146.7558
 51
148.0036
  0
LINE
  8
0
 10
56.3391
 20
61.7796
 11
56.3775
 21
61.8377
  0
LINE
  8
0
 10
56.3775
 20
61.8377
 11
53.5035
 21
61.8377
  0
LINE
  8
0
 10
53.5035
 20
61.8377
 11
53.5035
 21
62.7797
  0
LINE
  8
0
 10
53.5035
 20
62.7797
 11
57.5835
 21
62.7797
  0
LINE
  8
0
 10
57.5835
 20
62.7797
 11
57.5835
 21
61.8377
  0
LINE
  8
0
 10
57.5835
 20
61.8377
 11
57.4725
 21
61.6847
  0
LINE
  8
0
 10
57.4725
 20
61.6847
 11
57.3715
 21
61.5457
  0
LINE
  8
0
 10
57.3715
 20
61.5457
 11
57.2805
 21
61.4207
  0
LINE
  8
0
 10
57.2805
 20
61.4207
 11
57.1981
 21
61.309
  0
LINE
  8
0
 10
57.1981
 20
61.309
 11
57.1231
 21
61.21
  0
LINE
  8
0
 10
57.1231
 20
61.21
 11
57.0555
 21
61.1237
  0
ARC
  8
0
 10
65.3752
 20
56.0686
 40
9.73506
 50
148.7169
 51
150.0645
  0
ARC
  8
0
 10
65.1801
 20
56.1814
 40
9.50969
 50
150.0672
 51
150.9802
  0
ARC
  8
0
 10
65.0417
 20
56.2582
 40
9.35142
 50
150.9802
 51
151.9035
  0
ARC
  8
0
 10
64.91
 20
56.3285
 40
9.20213
 50
151.9035
 51
152.8367
  0
ARC
  8
0
 10
64.785
 20
56.3927
 40
9.06167
 50
152.8368
 51
153.7796
  0
ARC
  8
0
 10
64.6669
 20
56.4509
 40
8.92995
 50
153.7796
 51
154.7317
  0
ARC
  8
0
 10
64.5555
 20
56.5034
 40
8.80683
 50
154.7318
 51
155.6927
  0
ARC
  8
0
 10
64.4511
 20
56.5506
 40
8.69221
 50
155.6928
 51
156.6621
  0
ARC
  8
0
 10
64.3535
 20
56.5927
 40
8.586
 50
156.6622
 51
157.6395
  0
ARC
  8
0
 10
64.2488
 20
56.6357
 40
8.47276
 50
157.6391
 51
159.1178
  0
ARC
  8
0
 10
64.1279
 20
56.6821
 40
8.34331
 50
159.1192
 51
160.6131
  0
ARC
  8
0
 10
64.023
 20
56.7192
 40
8.23205
 50
160.6144
 51
162.1218
  0
ARC
  8
0
 10
63.917
 20
56.7533
 40
8.12067
 50
162.1216
 51
164.1503
  0
ARC
  8
0
 10
63.8123
 20
56.7829
 40
8.01183
 50
164.1489
 51
167.2196
  0
ARC
  8
0
 10
63.7597
 20
56.7957
 40
7.95774
 50
167.2257
 51
176.4839
  0
ARC
  8
0
 10
63.931
 20
56.7829
 40
8.12945
 50
176.468
 51
178.4953
  0
ARC
  8
0
 10
64.0332
 20
56.78
 40
8.23171
 50
178.494
 51
180.0021
  0
LINE
  8
0
 10
47.1093
 20
70.2797
 11
46.3375
 21
76.8768
  0
LINE
  8
0
 10
46.3375
 20
76.8768
 11
47.2017
 21
76.8768
  0
LINE
  8
0
 10
47.2017
 20
76.8768
 11
47.5513
 21
73.8224
  0
LINE
  8
0
 10
47.5513
 20
73.8224
 11
48.0857
 21
76.8768
  0
LINE
  8
0
 10
48.0857
 20
76.8768
 11
48.8114
 21
76.8768
  0
LINE
  8
0
 10
48.8114
 20
76.8768
 11
49.3458
 21
73.8224
  0
LINE
  8
0
 10
49.3458
 20
73.8224
 11
49.6954
 21
76.8768
  0
LINE
  8
0
 10
49.6954
 20
76.8768
 11
50.5597
 21
76.8768
  0
LINE
  8
0
 10
50.5597
 20
76.8768
 11
49.7878
 21
70.2797
  0
LINE
  8
0
 10
49.7878
 20
70.2797
 11
49.0621
 21
70.2797
  0
LINE
  8
0
 10
49.0621
 20
70.2797
 11
48.4353
 21
73.9873
  0
LINE
  8
0
 10
48.4353
 20
73.9873
 11
47.835
 21
70.2797
  0
LINE
  8
0
 10
47.835
 20
70.2797
 11
47.1093
 21
70.2797
  0
LINE
  8
0
 10
53.7235
 20
70.5797
 11
51.4415
 21
70.5797
  0
LINE
  8
0
 10
51.4415
 20
70.5797
 11
51.4415
 21
76.5797
  0
LINE
  8
0
 10
51.4415
 20
76.5797
 11
53.6395
 21
76.5797
  0
LINE
  8
0
 10
53.6395
 20
76.5797
 11
53.6395
 21
75.7997
  0
LINE
  8
0
 10
53.6395
 20
75.7997
 11
52.1815
 21
75.7997
  0
LINE
  8
0
 10
52.1815
 20
75.7997
 11
52.1815
 21
74.2637
  0
LINE
  8
0
 10
52.1815
 20
74.2637
 11
53.1535
 21
74.2637
  0
LINE
  8
0
 10
53.1535
 20
74.2637
 11
53.1535
 21
73.4657
  0
LINE
  8
0
 10
53.1535
 20
73.4657
 11
52.1815
 21
73.4657
  0
LINE
  8
0
 10
52.1815
 20
73.4657
 11
52.1815
 21
71.3477
  0
LINE
  8
0
 10
52.1815
 20
71.3477
 11
53.7235
 21
71.3477
  0
LINE
  8
0
 10
53.7235
 20
71.3477
 11
53.7235
 21
70.5797
  0
LINE
  8
0
 10
54.3215
 20
71.9897
 11
54.3215
 21
72.0737
  0
LINE
  8
0
 10
54.3215
 20
72.0737
 11
55.1135
 21
72.0737
  0
LINE
  8
0
 10
55.1135
 20
72.0737
 11
55.113
 21
72.0407
  0
LINE
  8
0
 10
55.113
 20
72.0407
 11
55.1129
 21
72.0084
  0
LINE
  8
0
 10
55.1129
 20
72.0084
 11
55.1134
 21
71.9768
  0
LINE
  8
0
 10
55.1134
 20
71.9768
 11
55.1143
 21
71.9459
  0
LINE
  8
0
 10
55.1143
 20
71.9459
 11
55.1157
 21
71.9157
  0
LINE
  8
0
 10
55.1157
 20
71.9157
 11
55.1175
 21
71.8861
  0
LINE
  8
0
 10
55.1175
 20
71.8861
 11
55.1198
 21
71.8572
  0
ARC
  8
0
 10
56.5362
 20
71.983
 40
1.42194
 50
185.0752
 51
188.4266
  0
ARC
  8
0
 10
56.3048
 20
71.9497
 40
1.1882
 50
188.4752
 51
191.0028
  0
ARC
  8
0
 10
56.1574
 20
71.921
 40
1.03805
 50
191.0008
 51
193.7667
  0
ARC
  8
0
 10
56.0309
 20
71.89
 40
0.907741
 50
193.7648
 51
196.7895
  0
ARC
  8
0
 10
55.9237
 20
71.8576
 40
0.795765
 50
196.7878
 51
200.09
  0
ARC
  8
0
 10
55.8212
 20
71.8199
 40
0.686493
 50
200.0701
 51
205.5181
  0
ARC
  8
0
 10
55.7037
 20
71.7634
 40
0.556147
 50
205.4819
 51
213.8716
  0
ARC
  8
0
 10
55.6002
 20
71.6904
 40
0.429521
 50
213.478
 51
264.1078
  0
ARC
  8
0
 10
55.6375
 20
71.8792
 40
0.621388
 50
262.4675
 51
268.3286
  0
ARC
  8
0
 10
55.6415
 20
71.9151
 40
0.657471
 50
268.0763
 51
277.982
  0
ARC
  8
0
 10
55.6634
 20
71.7491
 40
0.489958
 50
278.1395
 51
287.9897
  0
ARC
  8
0
 10
55.6904
 20
71.6643
 40
0.400997
 50
288.0632
 51
336.6444
  0
ARC
  8
0
 10
55.5118
 20
71.7629
 40
0.604353
 50
334.7682
 51
341.2132
  0
ARC
  8
0
 10
55.3936
 20
71.8045
 40
0.729631
 50
341.1151
 51
344.8897
  0
ARC
  8
0
 10
55.2806
 20
71.835
 40
0.846753
 50
344.8873
 51
348.3052
  0
ARC
  8
0
 10
55.1445
 20
71.8633
 40
0.985774
 50
348.3024
 51
351.3908
  0
ARC
  8
0
 10
54.9833
 20
71.8877
 40
1.14875
 50
351.388
 51
354.1769
  0
ARC
  8
0
 10
54.7953
 20
71.907
 40
1.3378
 50
354.1741
 51
356.6936
  0
LINE
  8
0
 10
56.1308
 20
71.8298
 11
56.1323
 21
71.8603
  0
ARC
  8
0
 10
54.4793
 20
71.9217
 40
1.65413
 50
357.8713
 51
376.3841
  0
ARC
  8
0
 10
54.2729
 20
71.8755
 40
1.8652
 50
15.9589
 51
27.6102
  0
LINE
  8
0
 10
55.9257
 20
72.7399
 11
55.8603
 21
72.8563
  0
LINE
  8
0
 10
55.8603
 20
72.8563
 11
55.7856
 21
72.9723
  0
LINE
  8
0
 10
55.7856
 20
72.9723
 11
55.7015
 21
73.0877
  0
LINE
  8
0
 10
55.7015
 20
73.0877
 11
55.5057
 21
73.3367
  0
LINE
  8
0
 10
55.5057
 20
73.3367
 11
55.3025
 21
73.5797
  0
LINE
  8
0
 10
55.3025
 20
73.5797
 11
55.0992
 21
73.8242
  0
LINE
  8
0
 10
55.0992
 20
73.8242
 11
54.9035
 21
74.0777
  0
LINE
  8
0
 10
54.9035
 20
74.0777
 11
54.8328
 21
74.1758
  0
LINE
  8
0
 10
54.8328
 20
74.1758
 11
54.7688
 21
74.274
  0
LINE
  8
0
 10
54.7688
 20
74.274
 11
54.7115
 21
74.3724
  0
LINE
  8
0
 10
54.7115
 20
74.3724
 11
54.6608
 21
74.471
  0
ARC
  8
0
 10
56.3326
 20
75.2751
 40
1.85508
 50
195.2428
 51
205.6861
  0
ARC
  8
0
 10
56.3162
 20
75.2777
 40
1.84003
 50
187.9243
 51
195.4544
  0
ARC
  8
0
 10
56.2212
 20
75.2629
 40
1.74388
 50
177.8967
 51
187.8726
  0
ARC
  8
0
 10
56.4431
 20
75.2654
 40
1.96553
 50
174.385
 51
178.2089
  0
ARC
  8
0
 10
56.2783
 20
75.2816
 40
1.79999
 50
170.3285
 51
174.3834
  0
ARC
  8
0
 10
56.1498
 20
75.3034
 40
1.66958
 50
166.0625
 51
170.3259
  0
ARC
  8
0
 10
56.0431
 20
75.33
 40
1.55967
 50
159.3835
 51
166.0677
  0
ARC
  8
0
 10
55.9574
 20
75.362
 40
1.46813
 50
143.0902
 51
159.3724
  0
ARC
  8
0
 10
55.7388
 20
75.5169
 40
1.2004
 50
134.3205
 51
142.7366
  0
ARC
  8
0
 10
55.636
 20
75.6217
 40
1.05361
 50
122.8379
 51
134.3046
  0
ARC
  8
0
 10
55.6187
 20
75.6422
 40
1.02693
 50
103.9334
 51
122.644
  0
ARC
  8
0
 10
55.6554
 20
75.5088
 40
1.16524
 50
97.6564
 51
104.1064
  0
ARC
  8
0
 10
55.6743
 20
75.3769
 40
1.2985
 50
93.7147
 51
97.7065
  0
ARC
  8
0
 10
55.6827
 20
75.2468
 40
1.42887
 50
89.9684
 51
93.7136
  0
ARC
  8
0
 10
55.6847
 20
75.1956
 40
1.48009
 50
84.5639
 51
90.0484
  0
ARC
  8
0
 10
55.7006
 20
75.3785
 40
1.29651
 50
80.4934
 51
84.4984
  0
ARC
  8
0
 10
55.7209
 20
75.498
 40
1.17526
 50
74.1032
 51
80.5047
  0
ARC
  8
0
 10
55.7571
 20
75.6244
 40
1.04382
 50
62.5506
 51
74.1153
  0
ARC
  8
0
 10
55.7659
 20
75.649
 40
1.0179
 50
43.4858
 51
62.3508
  0
ARC
  8
0
 10
55.6666
 20
75.5499
 40
1.15817
 50
37.1735
 51
43.6648
  0
ARC
  8
0
 10
55.4891
 20
75.4115
 40
1.38319
 50
20.4949
 51
37.2982
  0
ARC
  8
0
 10
55.2899
 20
75.3296
 40
1.59853
 50
16.398
 51
20.7449
  0
ARC
  8
0
 10
55.144
 20
75.2867
 40
1.75058
 50
12.3045
 51
16.3959
  0
ARC
  8
0
 10
54.9584
 20
75.2463
 40
1.94052
 50
8.4838
 51
12.3036
  0
LINE
  8
0
 10
56.8777
 20
75.5326
 11
56.8865
 21
75.4667
  0
LINE
  8
0
 10
56.8865
 20
75.4667
 11
56.8934
 21
75.3992
  0
LINE
  8
0
 10
56.8934
 20
75.3992
 11
56.8984
 21
75.3302
  0
LINE
  8
0
 10
56.8984
 20
75.3302
 11
56.9015
 21
75.2597
  0
LINE
  8
0
 10
56.9015
 20
75.2597
 11
56.1335
 21
75.2597
  0
ARC
  8
0
 10
55.0987
 20
75.2908
 40
1.03525
 50
358.2788
 51
382.4241
  0
ARC
  8
0
 10
55.5845
 20
75.4662
 40
0.519727
 50
24.9823
 51
37.8986
  0
ARC
  8
0
 10
55.7254
 20
75.576
 40
0.341169
 50
37.878
 51
60.9118
  0
ARC
  8
0
 10
55.7332
 20
75.5788
 40
0.334916
 50
61.8369
 51
91.1566
  0
ARC
  8
0
 10
55.7244
 20
75.3514
 40
0.562284
 50
89.7917
 51
98.7497
  0
ARC
  8
0
 10
55.7041
 20
75.4813
 40
0.430798
 50
98.7205
 51
112.0638
  0
ARC
  8
0
 10
55.6885
 20
75.5321
 40
0.377911
 50
112.7629
 51
154.052
  0
ARC
  8
0
 10
55.8401
 20
75.4424
 40
0.55361
 50
152.5619
 51
159.3747
  0
ARC
  8
0
 10
55.9506
 20
75.3994
 40
0.672233
 50
159.2685
 51
163.2426
  0
ARC
  8
0
 10
56.0581
 20
75.367
 40
0.784439
 50
163.24
 51
166.8254
  0
ARC
  8
0
 10
56.1888
 20
75.3364
 40
0.918709
 50
166.8224
 51
170.0493
  0
ARC
  8
0
 10
56.3449
 20
75.3089
 40
1.07721
 50
170.0461
 51
172.9481
  0
ARC
  8
0
 10
56.5285
 20
75.2862
 40
1.26218
 50
172.945
 51
175.5561
  0
LINE
  8
0
 10
55.2701
 20
75.384
 11
55.2681
 21
75.3541
  0
LINE
  8
0
 10
55.2681
 20
75.3541
 11
55.2666
 21
75.3235
  0
LINE
  8
0
 10
55.2666
 20
75.3235
 11
55.2658
 21
75.292
  0
ARC
  8
0
 10
56.1846
 20
75.265
 40
0.919257
 50
178.3168
 51
198.4576
  0
LINE
  8
0
 10
55.3126
 20
74.9739
 11
55.3493
 21
74.8757
  0
LINE
  8
0
 10
55.3493
 20
74.8757
 11
55.3752
 21
74.8211
  0
LINE
  8
0
 10
55.3752
 20
74.8211
 11
55.4108
 21
74.7594
  0
LINE
  8
0
 10
55.4108
 20
74.7594
 11
55.4561
 21
74.6906
  0
LINE
  8
0
 10
55.4561
 20
74.6906
 11
55.5112
 21
74.6147
  0
LINE
  8
0
 10
55.5112
 20
74.6147
 11
55.5625
 21
74.5483
  0
LINE
  8
0
 10
55.5625
 20
74.5483
 11
55.6205
 21
74.4765
  0
LINE
  8
0
 10
55.6205
 20
74.4765
 11
55.6852
 21
74.3991
  0
LINE
  8
0
 10
55.6852
 20
74.3991
 11
55.7566
 21
74.3161
  0
LINE
  8
0
 10
55.7566
 20
74.3161
 11
55.8348
 21
74.2277
  0
LINE
  8
0
 10
55.8348
 20
74.2277
 11
55.9101
 21
74.1405
  0
LINE
  8
0
 10
55.9101
 20
74.1405
 11
55.9803
 21
74.059
  0
LINE
  8
0
 10
55.9803
 20
74.059
 11
56.0453
 21
73.9832
  0
LINE
  8
0
 10
56.0453
 20
73.9832
 11
56.1051
 21
73.913
  0
LINE
  8
0
 10
56.1051
 20
73.913
 11
56.1598
 21
73.8485
  0
LINE
  8
0
 10
56.1598
 20
73.8485
 11
56.2093
 21
73.7897
  0
LINE
  8
0
 10
56.2093
 20
73.7897
 11
56.2537
 21
73.7364
  0
LINE
  8
0
 10
56.2537
 20
73.7364
 11
56.2929
 21
73.6884
  0
LINE
  8
0
 10
56.2929
 20
73.6884
 11
56.3269
 21
73.6457
  0
LINE
  8
0
 10
56.3269
 20
73.6457
 11
56.3558
 21
73.6084
  0
LINE
  8
0
 10
56.3558
 20
73.6084
 11
56.3795
 21
73.5764
  0
LINE
  8
0
 10
56.3795
 20
73.5764
 11
56.3981
 21
73.5497
  0
LINE
  8
0
 10
56.3981
 20
73.5497
 11
56.5359
 21
73.3209
  0
LINE
  8
0
 10
56.5359
 20
73.3209
 11
56.6498
 21
73.0787
  0
LINE
  8
0
 10
56.6498
 20
73.0787
 11
56.7427
 21
72.8199
  0
LINE
  8
0
 10
56.7427
 20
72.8199
 11
56.8176
 21
72.5417
  0
LINE
  8
0
 10
56.8176
 20
72.5417
 11
56.858
 21
72.3549
  0
LINE
  8
0
 10
56.858
 20
72.3549
 11
56.8835
 21
72.1787
  0
LINE
  8
0
 10
56.8835
 20
72.1787
 11
56.897
 21
72.0159
  0
LINE
  8
0
 10
56.897
 20
72.0159
 11
56.9015
 21
71.8697
  0
ARC
  8
0
 10
55.1075
 20
71.8684
 40
1.79399
 50
354.3627
 51
360.0425
  0
ARC
  8
0
 10
55.2911
 20
71.8519
 40
1.60959
 50
350.2248
 51
354.3048
  0
ARC
  8
0
 10
55.4054
 20
71.832
 40
1.49357
 50
343.8074
 51
350.2315
  0
ARC
  8
0
 10
55.5076
 20
71.8032
 40
1.38741
 50
316.9755
 51
343.7744
  0
ARC
  8
0
 10
55.6644
 20
71.6549
 40
1.17165
 50
310.2598
 51
317.0454
  0
ARC
  8
0
 10
55.7165
 20
71.596
 40
1.093
 50
281.5513
 51
310.1677
  0
ARC
  8
0
 10
55.6678
 20
71.7865
 40
1.28943
 50
277.728
 51
281.9781
  0
ARC
  8
0
 10
55.6519
 20
71.9041
 40
1.40806
 50
273.7182
 51
277.726
  0
ARC
  8
0
 10
55.6424
 20
72.0514
 40
1.55573
 50
269.9672
 51
273.7172
  0
ARC
  8
0
 10
55.6408
 20
72.2785
 40
1.78279
 50
266.7625
 51
270.02
  0
ARC
  8
0
 10
55.6324
 20
72.1158
 40
1.61991
 50
264.4164
 51
266.7359
  0
ARC
  8
0
 10
55.622
 20
72.0098
 40
1.51336
 50
261.9892
 51
264.4163
  0
ARC
  8
0
 10
55.6068
 20
71.9026
 40
1.40508
 50
258.1763
 51
261.9954
  0
ARC
  8
0
 10
55.5835
 20
71.7891
 40
1.28925
 50
254.1103
 51
258.1558
  0
ARC
  8
0
 10
55.5516
 20
71.6782
 40
1.17388
 50
246.9438
 51
254.1254
  0
ARC
  8
0
 10
55.5145
 20
71.5892
 40
1.07746
 50
217.8256
 51
246.9062
  0
ARC
  8
0
 10
55.6672
 20
71.7188
 40
1.27752
 50
212.7814
 51
218.2169
  0
ARC
  8
0
 10
55.7733
 20
71.788
 40
1.4042
 50
208.9765
 51
212.8103
  0
ARC
  8
0
 10
55.8823
 20
71.8491
 40
1.52918
 50
206.592
 51
209.0024
  0
ARC
  8
0
 10
55.9794
 20
71.8977
 40
1.63775
 50
204.2893
 51
206.592
  0
ARC
  8
0
 10
56.0905
 20
71.9479
 40
1.75966
 50
202.0944
 51
204.2894
  0
ARC
  8
0
 10
56.2164
 20
71.999
 40
1.8956
 50
200.0059
 51
202.0946
  0
LINE
  8
0
 10
54.4352
 20
71.3505
 11
54.4235
 21
71.3837
  0
ARC
  8
0
 10
56.2447
 20
72.0018
 40
1.92326
 50
180.3613
 51
198.7473
  0
LINE
  8
0
 10
57.3835
 20
75.7997
 11
57.3835
 21
76.5797
  0
LINE
  8
0
 10
57.3835
 20
76.5797
 11
59.6635
 21
76.5797
  0
LINE
  8
0
 10
59.6635
 20
76.5797
 11
59.6635
 21
75.7997
  0
LINE
  8
0
 10
59.6635
 20
75.7997
 11
58.8895
 21
75.7997
  0
LINE
  8
0
 10
58.8895
 20
75.7997
 11
58.8895
 21
70.5797
  0
LINE
  8
0
 10
58.8895
 20
70.5797
 11
58.1215
 21
70.5797
  0
LINE
  8
0
 10
58.1215
 20
70.5797
 11
58.1215
 21
75.7997
  0
LINE
  8
0
 10
58.1215
 20
75.7997
 11
57.3835
 21
75.7997
  0
LINE
  8
0
 10
46.6655
 20
43.2797
 11
45.8015
 21
43.2797
  0
LINE
  8
0
 10
45.8015
 20
43.2797
 11
45.8015
 21
49.2797
  0
LINE
  8
0
 10
45.8015
 20
49.2797
 11
46.6495
 21
49.2797
  0
LINE
  8
0
 10
46.6495
 20
49.2797
 11
47.7715
 21
45.9197
  0
LINE
  8
0
 10
47.7715
 20
45.9197
 11
48.8935
 21
49.2797
  0
LINE
  8
0
 10
48.8935
 20
49.2797
 11
49.7655
 21
49.2797
  0
LINE
  8
0
 10
49.7655
 20
49.2797
 11
49.7655
 21
43.2797
  0
LINE
  8
0
 10
49.7655
 20
43.2797
 11
48.8935
 21
43.2797
  0
LINE
  8
0
 10
48.8935
 20
43.2797
 11
48.8946
 21
46.6577
  0
LINE
  8
0
 10
48.8946
 20
46.6577
 11
47.7715
 21
43.2977
  0
LINE
  8
0
 10
47.7715
 20
43.2977
 11
46.6655
 21
46.6577
  0
LINE
  8
0
 10
46.6655
 20
46.6577
 11
46.6655
 21
43.2797
  0
LINE
  8
0
 10
51.9215
 20
43.2797
 11
51.0815
 21
43.2797
  0
LINE
  8
0
 10
51.0815
 20
43.2797
 11
51.0815
 21
49.2797
  0
LINE
  8
0
 10
51.0815
 20
49.2797
 11
51.9215
 21
49.2797
  0
LINE
  8
0
 10
51.9215
 20
49.2797
 11
51.9215
 21
43.2797
  0
LINE
  8
0
 10
56.3035
 20
43.2797
 11
53.2415
 21
43.2797
  0
LINE
  8
0
 10
53.2415
 20
43.2797
 11
53.2415
 21
49.2797
  0
LINE
  8
0
 10
53.2415
 20
49.2797
 11
54.1015
 21
49.2797
  0
LINE
  8
0
 10
54.1015
 20
49.2797
 11
54.1015
 21
44.0777
  0
LINE
  8
0
 10
54.1015
 20
44.0777
 11
56.3035
 21
44.0777
  0
LINE
  8
0
 10
56.3035
 20
44.0777
 11
56.3035
 21
43.2797
  0
LINE
  8
0
 10
58.0135
 20
44.1317
 11
60.2035
 21
44.1317
  0
LINE
  8
0
 10
60.2035
 20
44.1317
 11
60.2035
 21
43.2797
  0
LINE
  8
0
 10
60.2035
 20
43.2797
 11
57.1415
 21
43.2797
  0
LINE
  8
0
 10
57.1415
 20
43.2797
 11
57.1415
 21
49.2797
  0
LINE
  8
0
 10
57.1415
 20
49.2797
 11
59.9755
 21
49.2797
  0
LINE
  8
0
 10
59.9755
 20
49.2797
 11
59.9755
 21
48.4397
  0
LINE
  8
0
 10
59.9755
 20
48.4397
 11
58.0135
 21
48.4397
  0
LINE
  8
0
 10
58.0135
 20
48.4397
 11
58.0135
 21
46.9277
  0
LINE
  8
0
 10
58.0135
 20
46.9277
 11
59.2555
 21
46.9277
  0
LINE
  8
0
 10
59.2555
 20
46.9277
 11
59.2555
 21
46.1117
  0
LINE
  8
0
 10
59.2555
 20
46.1117
 11
58.0135
 21
46.1117
  0
LINE
  8
0
 10
58.0135
 20
46.1117
 11
58.0135
 21
44.1317
  0
LINE
  8
0
 10
51.0567
 20
33.2797
 11
47.7615
 21
33.2797
  0
LINE
  8
0
 10
47.7615
 20
33.2797
 11
47.7615
 21
33.4156
  0
LINE
  8
0
 10
47.7615
 20
33.4156
 11
47.7637
 21
33.6143
  0
LINE
  8
0
 10
47.7637
 20
33.6143
 11
47.7705
 21
33.8103
  0
LINE
  8
0
 10
47.7705
 20
33.8103
 11
47.7817
 21
34.0036
  0
LINE
  8
0
 10
47.7817
 20
34.0036
 11
47.7975
 21
34.1944
  0
LINE
  8
0
 10
47.7975
 20
34.1944
 11
47.8177
 21
34.3825
  0
LINE
  8
0
 10
47.8177
 20
34.3825
 11
47.8425
 21
34.568
  0
LINE
  8
0
 10
47.8425
 20
34.568
 11
47.8717
 21
34.7509
  0
LINE
  8
0
 10
47.8717
 20
34.7509
 11
47.9055
 21
34.9311
  0
ARC
  8
0
 10
53.7588
 20
33.7524
 40
5.97081
 50
161.5927
 51
168.6148
  0
ARC
  8
0
 10
53.9197
 20
33.6998
 40
6.14008
 50
158.1557
 51
161.6011
  0
LINE
  8
0
 10
48.2205
 20
35.9845
 11
48.2922
 21
36.1561
  0
LINE
  8
0
 10
48.2922
 20
36.1561
 11
48.3695
 21
36.3266
  0
LINE
  8
0
 10
48.3695
 20
36.3266
 11
48.5115
 21
36.6075
  0
LINE
  8
0
 10
48.5115
 20
36.6075
 11
48.6655
 21
36.8904
  0
LINE
  8
0
 10
48.6655
 20
36.8904
 11
48.8355
 21
37.1733
  0
LINE
  8
0
 10
48.8355
 20
37.1733
 11
49.0255
 21
37.4542
  0
LINE
  8
0
 10
49.0255
 20
37.4542
 11
49.2085
 21
37.7081
  0
LINE
  8
0
 10
49.2085
 20
37.7081
 11
49.3895
 21
37.958
  0
LINE
  8
0
 10
49.3895
 20
37.958
 11
49.5665
 21
38.2079
  0
LINE
  8
0
 10
49.5665
 20
38.2079
 11
49.7375
 21
38.4618
  0
LINE
  8
0
 10
49.7375
 20
38.4618
 11
49.7735
 21
38.5178
  0
LINE
  8
0
 10
49.7735
 20
38.5178
 11
49.808
 21
38.573
  0
LINE
  8
0
 10
49.808
 20
38.573
 11
49.8409
 21
38.6275
  0
LINE
  8
0
 10
49.8409
 20
38.6275
 11
49.8721
 21
38.6813
  0
LINE
  8
0
 10
49.8721
 20
38.6813
 11
49.9018
 21
38.7344
  0
LINE
  8
0
 10
49.9018
 20
38.7344
 11
49.9298
 21
38.7867
  0
LINE
  8
0
 10
49.9298
 20
38.7867
 11
49.9563
 21
38.8384
  0
LINE
  8
0
 10
49.9563
 20
38.8384
 11
49.9811
 21
38.8892
  0
LINE
  8
0
 10
49.9811
 20
38.8892
 11
50.0044
 21
38.9394
  0
LINE
  8
0
 10
50.0044
 20
38.9394
 11
50.026
 21
38.9888
  0
LINE
  8
0
 10
50.026
 20
38.9888
 11
50.046
 21
39.0375
  0
LINE
  8
0
 10
50.046
 20
39.0375
 11
50.0645
 21
39.0855
  0
LINE
  8
0
 10
50.0645
 20
39.0855
 11
50.0813
 21
39.1328
  0
LINE
  8
0
 10
50.0813
 20
39.1328
 11
50.0965
 21
39.1793
  0
LINE
  8
0
 10
50.0965
 20
39.1793
 11
50.1102
 21
39.2251
  0
LINE
  8
0
 10
50.1102
 20
39.2251
 11
50.1222
 21
39.2702
  0
ARC
  8
0
 10
48.7604
 20
39.6135
 40
1.40443
 50
345.8504
 51
351.3001
  0
ARC
  8
0
 10
48.9881
 20
39.5769
 40
1.17374
 50
351.3841
 51
355.4941
  0
ARC
  8
0
 10
49.1239
 20
39.5662
 40
1.0376
 50
355.4946
 51
359.9567
  0
LINE
  8
0
 10
50.1615
 20
39.5654
 11
50.1612
 21
39.5968
  0
LINE
  8
0
 10
50.1612
 20
39.5968
 11
50.1605
 21
39.6276
  0
ARC
  8
0
 10
48.427
 20
39.5741
 40
1.73429
 50
1.7697
 51
4.7078
  0
ARC
  8
0
 10
48.6742
 20
39.5935
 40
1.48636
 50
4.7446
 51
6.9223
  0
ARC
  8
0
 10
48.8358
 20
39.6131
 40
1.32363
 50
6.921
 51
9.2738
  0
ARC
  8
0
 10
48.9781
 20
39.6364
 40
1.17943
 50
9.2726
 51
11.8134
  0
ARC
  8
0
 10
49.1023
 20
39.6624
 40
1.05254
 50
11.8123
 51
14.5535
  0
ARC
  8
0
 10
49.2094
 20
39.6902
 40
0.941803
 50
14.5526
 51
17.5047
  0
ARC
  8
0
 10
49.3144
 20
39.7235
 40
0.831652
 50
17.4902
 51
22.2878
  0
ARC
  8
0
 10
49.4399
 20
39.7753
 40
0.69595
 50
22.2619
 51
29.4876
  0
ARC
  8
0
 10
49.5438
 20
39.8351
 40
0.575986
 50
29.3961
 51
41.6994
  0
ARC
  8
0
 10
49.5782
 20
39.8611
 40
0.533057
 50
42.0675
 51
74.669
  0
ARC
  8
0
 10
49.5228
 20
39.6948
 40
0.708205
 50
73.9047
 51
81.0467
  0
ARC
  8
0
 10
49.5022
 20
39.5708
 40
0.833874
 50
80.9785
 51
85.7953
  0
ARC
  8
0
 10
49.4919
 20
39.4432
 40
0.961899
 50
85.7393
 51
88.6501
  0
LINE
  8
0
 10
49.5146
 20
40.4048
 11
49.4895
 21
40.4051
  0
ARC
  8
0
 10
49.487
 20
39.6235
 40
0.781627
 50
89.8229
 51
101.9426
  0
ARC
  8
0
 10
49.4804
 20
39.7246
 40
0.681457
 50
103.1552
 51
168.5817
  0
ARC
  8
0
 10
49.6963
 20
39.6622
 40
0.905619
 50
167.4132
 51
175.4919
  0
LINE
  8
0
 10
48.7935
 20
39.7334
 11
47.7615
 21
39.7334
  0
ARC
  8
0
 10
49.9648
 20
39.6375
 40
2.20542
 50
173.0478
 51
177.5089
  0
ARC
  8
0
 10
49.7787
 20
39.6589
 40
2.01809
 50
169.8505
 51
173.0118
  0
ARC
  8
0
 10
49.6679
 20
39.6787
 40
1.90551
 50
166.5645
 51
169.8492
  0
ARC
  8
0
 10
49.5681
 20
39.7027
 40
1.80288
 50
161.462
 51
166.5688
  0
ARC
  8
0
 10
49.4612
 20
39.7384
 40
1.69017
 50
134.6457
 51
161.4582
  0
ARC
  8
0
 10
49.4445
 20
39.7522
 40
1.66866
 50
125.8376
 51
134.5716
  0
ARC
  8
0
 10
49.3918
 20
39.82
 40
1.5829
 50
103.9368
 51
125.7272
  0
ARC
  8
0
 10
49.4435
 20
39.638
 40
1.77196
 50
99.0934
 51
104.1393
  0
ARC
  8
0
 10
49.467
 20
39.4972
 40
1.91472
 50
95.9323
 51
99.1219
  0
ARC
  8
0
 10
49.4808
 20
39.3638
 40
2.04885
 50
92.8827
 51
95.9315
  0
ARC
  8
0
 10
49.4887
 20
39.2055
 40
2.20734
 50
89.9812
 51
92.8822
  0
ARC
  8
0
 10
49.4901
 20
39.2173
 40
2.1955
 50
87.3511
 51
90.0169
  0
ARC
  8
0
 10
49.4973
 20
39.3732
 40
2.03945
 50
84.5507
 51
87.3509
  0
ARC
  8
0
 10
49.5101
 20
39.5071
 40
1.9049
 50
81.6197
 51
84.5502
  0
ARC
  8
0
 10
49.5267
 20
39.6201
 40
1.79071
 50
78.565
 51
81.6188
  0
ARC
  8
0
 10
49.5483
 20
39.7264
 40
1.68224
 50
73.8008
 51
78.5703
  0
ARC
  8
0
 10
49.582
 20
39.8423
 40
1.56159
 50
67.1084
 51
73.8012
  0
ARC
  8
0
 10
49.6006
 20
39.8912
 40
1.50933
 50
44.7117
 51
67.0347
  0
ARC
  8
0
 10
49.4779
 20
39.7591
 40
1.68942
 50
41.7915
 51
44.9662
  0
ARC
  8
0
 10
49.4725
 20
39.7371
 40
1.70815
 50
18.343
 51
42.224
  0
ARC
  8
0
 10
49.2913
 20
39.67
 40
1.90127
 50
13.7901
 51
18.5446
  0
ARC
  8
0
 10
49.1565
 20
39.636
 40
2.04035
 50
10.7949
 51
13.8146
  0
ARC
  8
0
 10
49.029
 20
39.6117
 40
2.17008
 50
7.8961
 51
10.7941
  0
ARC
  8
0
 10
48.878
 20
39.5908
 40
2.32259
 50
5.1259
 51
7.8956
  0
ARC
  8
0
 10
48.7021
 20
39.575
 40
2.49913
 50
2.4879
 51
5.1256
  0
LINE
  8
0
 10
51.1989
 20
39.6835
 11
51.2008
 21
39.6249
  0
LINE
  8
0
 10
51.2008
 20
39.6249
 11
51.2015
 21
39.5654
  0
ARC
  8
0
 10
48.9605
 20
39.5669
 40
2.24096
 50
351.8739
 51
359.9619
  0
LINE
  8
0
 10
51.179
 20
39.2502
 11
51.1615
 21
39.1436
  0
LINE
  8
0
 10
51.1615
 20
39.1436
 11
51.139
 21
39.0362
  0
LINE
  8
0
 10
51.139
 20
39.0362
 11
51.1115
 21
38.9282
  0
LINE
  8
0
 10
51.1115
 20
38.9282
 11
51.079
 21
38.8193
  0
LINE
  8
0
 10
51.079
 20
38.8193
 11
51.0415
 21
38.7098
  0
LINE
  8
0
 10
51.0415
 20
38.7098
 11
50.968
 21
38.5769
  0
LINE
  8
0
 10
50.968
 20
38.5769
 11
50.897
 21
38.4503
  0
LINE
  8
0
 10
50.897
 20
38.4503
 11
50.8285
 21
38.3299
  0
LINE
  8
0
 10
50.8285
 20
38.3299
 11
50.7624
 21
38.2157
  0
LINE
  8
0
 10
50.7624
 20
38.2157
 11
50.6987
 21
38.1077
  0
LINE
  8
0
 10
50.6987
 20
38.1077
 11
50.6375
 21
38.006
  0
LINE
  8
0
 10
50.6375
 20
38.006
 11
50.5675
 21
37.8915
  0
LINE
  8
0
 10
50.5675
 20
37.8915
 11
50.5018
 21
37.7847
  0
LINE
  8
0
 10
50.5018
 20
37.7847
 11
50.4402
 21
37.6855
  0
LINE
  8
0
 10
50.4402
 20
37.6855
 11
50.3827
 21
37.594
  0
LINE
  8
0
 10
50.3827
 20
37.594
 11
50.3295
 21
37.5102
  0
LINE
  8
0
 10
50.3295
 20
37.5102
 11
50.2714
 21
37.4175
  0
LINE
  8
0
 10
50.2714
 20
37.4175
 11
50.2146
 21
37.3259
  0
LINE
  8
0
 10
50.2146
 20
37.3259
 11
50.159
 21
37.2354
  0
LINE
  8
0
 10
50.159
 20
37.2354
 11
50.1046
 21
37.1461
  0
LINE
  8
0
 10
50.1046
 20
37.1461
 11
50.0514
 21
37.0579
  0
LINE
  8
0
 10
50.0514
 20
37.0579
 11
49.9995
 21
36.9709
  0
LINE
  8
0
 10
49.9995
 20
36.9709
 11
49.9487
 21
36.885
  0
LINE
  8
0
 10
49.9487
 20
36.885
 11
49.8992
 21
36.8002
  0
LINE
  8
0
 10
49.8992
 20
36.8002
 11
49.851
 21
36.7166
  0
LINE
  8
0
 10
49.851
 20
36.7166
 11
49.8039
 21
36.6341
  0
LINE
  8
0
 10
49.8039
 20
36.6341
 11
49.7581
 21
36.5528
  0
LINE
  8
0
 10
49.7581
 20
36.5528
 11
49.7135
 21
36.4725
  0
LINE
  8
0
 10
49.7135
 20
36.4725
 11
49.6701
 21
36.3935
  0
LINE
  8
0
 10
49.6701
 20
36.3935
 11
49.6279
 21
36.3155
  0
LINE
  8
0
 10
49.6279
 20
36.3155
 11
49.587
 21
36.2388
  0
LINE
  8
0
 10
49.587
 20
36.2388
 11
49.5472
 21
36.1631
  0
LINE
  8
0
 10
49.5472
 20
36.1631
 11
49.5087
 21
36.0886
  0
LINE
  8
0
 10
49.5087
 20
36.0886
 11
49.4715
 21
36.0152
  0
LINE
  8
0
 10
49.4715
 20
36.0152
 11
49.4354
 21
35.943
  0
LINE
  8
0
 10
49.4354
 20
35.943
 11
49.4006
 21
35.8719
  0
LINE
  8
0
 10
49.4006
 20
35.8719
 11
49.367
 21
35.8019
  0
LINE
  8
0
 10
49.367
 20
35.8019
 11
49.3346
 21
35.7331
  0
LINE
  8
0
 10
49.3346
 20
35.7331
 11
49.3034
 21
35.6654
  0
LINE
  8
0
 10
49.3034
 20
35.6654
 11
49.2735
 21
35.5988
  0
LINE
  8
0
 10
49.2735
 20
35.5988
 11
49.2422
 21
35.5275
  0
LINE
  8
0
 10
49.2422
 20
35.5275
 11
49.2122
 21
35.4573
  0
LINE
  8
0
 10
49.2122
 20
35.4573
 11
49.1837
 21
35.3883
  0
LINE
  8
0
 10
49.1837
 20
35.3883
 11
49.1566
 21
35.3205
  0
LINE
  8
0
 10
49.1566
 20
35.3205
 11
49.1308
 21
35.2538
  0
LINE
  8
0
 10
49.1308
 20
35.2538
 11
49.1065
 21
35.1884
  0
LINE
  8
0
 10
49.1065
 20
35.1884
 11
49.0835
 21
35.1242
  0
LINE
  8
0
 10
49.0835
 20
35.1242
 11
49.0619
 21
35.0611
  0
LINE
  8
0
 10
49.0619
 20
35.0611
 11
49.0417
 21
34.9993
  0
LINE
  8
0
 10
49.0417
 20
34.9993
 11
49.0229
 21
34.9386
  0
LINE
  8
0
 10
49.0229
 20
34.9386
 11
49.0055
 21
34.8791
  0
LINE
  8
0
 10
49.0055
 20
34.8791
 11
48.9894
 21
34.8208
  0
LINE
  8
0
 10
48.9894
 20
34.8208
 11
48.9748
 21
34.7637
  0
LINE
  8
0
 10
48.9748
 20
34.7637
 11
48.9615
 21
34.7078
  0
LINE
  8
0
 10
48.9615
 20
34.7078
 11
48.9497
 21
34.6531
  0
LINE
  8
0
 10
48.9497
 20
34.6531
 11
48.9392
 21
34.5995
  0
LINE
  8
0
 10
48.9392
 20
34.5995
 11
48.9301
 21
34.5472
  0
LINE
  8
0
 10
48.9301
 20
34.5472
 11
48.9224
 21
34.496
  0
LINE
  8
0
 10
48.9224
 20
34.496
 11
48.9161
 21
34.4461
  0
LINE
  8
0
 10
48.9161
 20
34.4461
 11
48.9111
 21
34.3973
  0
LINE
  8
0
 10
48.9111
 20
34.3973
 11
48.9076
 21
34.3497
  0
LINE
  8
0
 10
48.9076
 20
34.3497
 11
48.9055
 21
34.3033
  0
LINE
  8
0
 10
48.9055
 20
34.3033
 11
51.0567
 21
34.3033
  0
LINE
  8
0
 10
51.0567
 20
34.3033
 11
51.0567
 21
33.2797
  0
LINE
  8
0
 10
53.6815
 20
33.2797
 11
52.6735
 21
33.2797
  0
LINE
  8
0
 10
52.6735
 20
33.2797
 11
52.6735
 21
40.1493
  0
LINE
  8
0
 10
52.6735
 20
40.1493
 11
52.0017
 21
40.1493
  0
LINE
  8
0
 10
52.0017
 20
40.1493
 11
52.0017
 21
40.773
  0
ARC
  8
0
 10
51.7585
 20
42.6063
 40
1.84939
 50
277.5557
 51
283.054
  0
ARC
  8
0
 10
51.8004
 20
42.4185
 40
1.6569
 50
283.1102
 51
287.0637
  0
ARC
  8
0
 10
51.8369
 20
42.3003
 40
1.53321
 50
287.0563
 51
293.2923
  0
ARC
  8
0
 10
51.8903
 20
42.1781
 40
1.39993
 50
293.2629
 51
319.922
  0
LINE
  8
0
 10
52.9615
 20
41.2768
 11
53.6815
 21
41.2768
  0
LINE
  8
0
 10
53.6815
 20
41.2768
 11
53.6815
 21
33.2797
  0
LINE
  8
0
 10
57.2015
 20
35.7828
 11
57.2013
 21
35.8178
  0
LINE
  8
0
 10
57.2013
 20
35.8178
 11
57.2009
 21
35.8522
  0
LINE
  8
0
 10
57.2009
 20
35.8522
 11
57.2002
 21
35.8861
  0
LINE
  8
0
 10
57.2002
 20
35.8861
 11
57.1992
 21
35.9195
  0
LINE
  8
0
 10
57.1992
 20
35.9195
 11
57.1979
 21
35.9525
  0
LINE
  8
0
 10
57.1979
 20
35.9525
 11
57.1963
 21
35.9849
  0
LINE
  8
0
 10
57.1963
 20
35.9849
 11
57.1945
 21
36.0168
  0
LINE
  8
0
 10
57.1945
 20
36.0168
 11
57.1924
 21
36.0482
  0
LINE
  8
0
 10
57.1924
 20
36.0482
 11
57.19
 21
36.0791
  0
LINE
  8
0
 10
57.19
 20
36.0791
 11
57.1873
 21
36.1096
  0
LINE
  8
0
 10
57.1873
 20
36.1096
 11
57.1843
 21
36.1395
  0
LINE
  8
0
 10
57.1843
 20
36.1395
 11
57.181
 21
36.1689
  0
LINE
  8
0
 10
57.181
 20
36.1689
 11
57.1775
 21
36.1978
  0
LINE
  8
0
 10
57.1775
 20
36.1978
 11
57.1736
 21
36.2262
  0
LINE
  8
0
 10
57.1736
 20
36.2262
 11
57.1695
 21
36.2541
  0
ARC
  8
0
 10
55.1416
 20
35.9422
 40
2.05174
 50
8.7434
 51
11.0306
  0
ARC
  8
0
 10
55.39
 20
35.9898
 40
1.79886
 50
11.055
 51
12.7239
  0
ARC
  8
0
 10
55.5562
 20
36.0274
 40
1.62839
 50
12.7232
 51
14.5067
  0
ARC
  8
0
 10
55.7062
 20
36.0662
 40
1.47348
 50
14.5059
 51
16.4123
  0
ARC
  8
0
 10
55.8407
 20
36.1058
 40
1.33329
 50
16.4115
 51
18.4493
  0
ARC
  8
0
 10
55.9604
 20
36.1458
 40
1.20702
 50
18.4486
 51
20.6262
  0
ARC
  8
0
 10
56.0663
 20
36.1857
 40
1.09389
 50
20.6254
 51
22.9507
  0
ARC
  8
0
 10
56.1734
 20
36.2312
 40
0.977542
 50
22.9401
 51
26.69
  0
ARC
  8
0
 10
56.2869
 20
36.2878
 40
0.850738
 50
26.7191
 51
30.8335
  0
ARC
  8
0
 10
56.3924
 20
36.3511
 40
0.727679
 50
30.8134
 51
36.9176
  0
ARC
  8
0
 10
56.4859
 20
36.4224
 40
0.610166
 50
36.8373
 51
47.1391
  0
ARC
  8
0
 10
56.5346
 20
36.4717
 40
0.540847
 50
47.3748
 51
84.8987
  0
ARC
  8
0
 10
56.5065
 20
36.2899
 40
0.724469
 50
83.9597
 51
90.0819
  0
ARC
  8
0
 10
56.5042
 20
36.3199
 40
0.694505
 50
89.8965
 51
97.7388
  0
ARC
  8
0
 10
56.4874
 20
36.4424
 40
0.570845
 50
97.7184
 51
110.2477
  0
ARC
  8
0
 10
56.4768
 20
36.4817
 40
0.530326
 50
110.6453
 51
140.9135
  0
ARC
  8
0
 10
56.5863
 20
36.3834
 40
0.677381
 50
140.3008
 51
146.6929
  0
ARC
  8
0
 10
56.6683
 20
36.3287
 40
0.775931
 50
146.6426
 51
151.0314
  0
ARC
  8
0
 10
56.7664
 20
36.2738
 40
0.888293
 50
150.9994
 51
155.0106
  0
ARC
  8
0
 10
56.8903
 20
36.2154
 40
1.02526
 50
154.9785
 51
158.6244
  0
ARC
  8
0
 10
57.0244
 20
36.1621
 40
1.1696
 50
158.5843
 51
160.8044
  0
ARC
  8
0
 10
57.1409
 20
36.1215
 40
1.29301
 50
160.8036
 51
162.88
  0
ARC
  8
0
 10
57.2721
 20
36.0811
 40
1.43027
 50
162.8792
 51
164.8205
  0
ARC
  8
0
 10
57.4187
 20
36.0413
 40
1.58217
 50
164.8197
 51
166.6347
  0
ARC
  8
0
 10
57.5816
 20
36.0025
 40
1.74957
 50
166.6339
 51
168.3312
  0
ARC
  8
0
 10
57.7615
 20
35.9654
 40
1.9333
 50
168.3304
 51
169.9184
  0
LINE
  8
0
 10
55.858
 20
36.3038
 11
55.8534
 21
36.2767
  0
LINE
  8
0
 10
55.8534
 20
36.2767
 11
55.8491
 21
36.2491
  0
LINE
  8
0
 10
55.8491
 20
36.2491
 11
55.845
 21
36.2211
  0
LINE
  8
0
 10
55.845
 20
36.2211
 11
55.8412
 21
36.1925
  0
LINE
  8
0
 10
55.8412
 20
36.1925
 11
55.8377
 21
36.1634
  0
LINE
  8
0
 10
55.8377
 20
36.1634
 11
55.8345
 21
36.1338
  0
LINE
  8
0
 10
55.8345
 20
36.1338
 11
55.8315
 21
36.1037
  0
LINE
  8
0
 10
55.8315
 20
36.1037
 11
55.8288
 21
36.0731
  0
LINE
  8
0
 10
55.8288
 20
36.0731
 11
55.8264
 21
36.042
  0
LINE
  8
0
 10
55.8264
 20
36.042
 11
55.8243
 21
36.0103
  0
LINE
  8
0
 10
55.8243
 20
36.0103
 11
55.8225
 21
35.9782
  0
LINE
  8
0
 10
55.8225
 20
35.9782
 11
55.821
 21
35.9456
  0
LINE
  8
0
 10
55.821
 20
35.9456
 11
55.8197
 21
35.9124
  0
LINE
  8
0
 10
55.8197
 20
35.9124
 11
55.8187
 21
35.8788
  0
LINE
  8
0
 10
55.8187
 20
35.8788
 11
55.818
 21
35.8446
  0
LINE
  8
0
 10
55.818
 20
35.8446
 11
55.8176
 21
35.81
  0
LINE
  8
0
 10
55.8176
 20
35.81
 11
55.8175
 21
35.7748
  0
LINE
  8
0
 10
55.8175
 20
35.7748
 11
55.8176
 21
35.7383
  0
LINE
  8
0
 10
55.8176
 20
35.7383
 11
55.8178
 21
35.7021
  0
LINE
  8
0
 10
55.8178
 20
35.7021
 11
55.8183
 21
35.6664
  0
LINE
  8
0
 10
55.8183
 20
35.6664
 11
55.819
 21
35.6311
  0
LINE
  8
0
 10
55.819
 20
35.6311
 11
55.8198
 21
35.5963
  0
LINE
  8
0
 10
55.8198
 20
35.5963
 11
55.8208
 21
35.5618
  0
LINE
  8
0
 10
55.8208
 20
35.5618
 11
55.8221
 21
35.5278
  0
LINE
  8
0
 10
55.8221
 20
35.5278
 11
55.8235
 21
35.4942
  0
LINE
  8
0
 10
55.8235
 20
35.4942
 11
55.8251
 21
35.461
  0
LINE
  8
0
 10
55.8251
 20
35.461
 11
55.8269
 21
35.4283
  0
LINE
  8
0
 10
55.8269
 20
35.4283
 11
55.8288
 21
35.3959
  0
LINE
  8
0
 10
55.8288
 20
35.3959
 11
55.831
 21
35.364
  0
LINE
  8
0
 10
55.831
 20
35.364
 11
55.8334
 21
35.3325
  0
LINE
  8
0
 10
55.8334
 20
35.3325
 11
55.8359
 21
35.3015
  0
LINE
  8
0
 10
55.8359
 20
35.3015
 11
55.8386
 21
35.2708
  0
LINE
  8
0
 10
55.8386
 20
35.2708
 11
55.8415
 21
35.2406
  0
LINE
  8
0
 10
55.8415
 20
35.2406
 11
55.8446
 21
35.2108
  0
LINE
  8
0
 10
55.8446
 20
35.2108
 11
55.8479
 21
35.1814
  0
LINE
  8
0
 10
55.8479
 20
35.1814
 11
55.8514
 21
35.1525
  0
LINE
  8
0
 10
55.8514
 20
35.1525
 11
55.8551
 21
35.124
  0
LINE
  8
0
 10
55.8551
 20
35.124
 11
55.8589
 21
35.0959
  0
LINE
  8
0
 10
55.8589
 20
35.0959
 11
55.863
 21
35.0682
  0
LINE
  8
0
 10
55.863
 20
35.0682
 11
55.8672
 21
35.0409
  0
LINE
  8
0
 10
55.8672
 20
35.0409
 11
55.8716
 21
35.0141
  0
LINE
  8
0
 10
55.8716
 20
35.0141
 11
55.8763
 21
34.9877
  0
LINE
  8
0
 10
55.8763
 20
34.9877
 11
55.8811
 21
34.9617
  0
LINE
  8
0
 10
55.8811
 20
34.9617
 11
55.886
 21
34.9361
  0
LINE
  8
0
 10
55.886
 20
34.9361
 11
55.8912
 21
34.911
  0
ARC
  8
0
 10
58.0982
 20
35.3766
 40
2.25554
 50
191.915
 51
193.8147
  0
ARC
  8
0
 10
57.8511
 20
35.3166
 40
2.00125
 50
193.8331
 51
195.208
  0
ARC
  8
0
 10
57.6832
 20
35.2709
 40
1.82733
 50
195.2074
 51
196.6683
  0
ARC
  8
0
 10
57.5298
 20
35.2249
 40
1.66715
 50
196.6677
 51
198.2207
  0
ARC
  8
0
 10
57.3901
 20
35.1789
 40
1.52006
 50
198.2201
 51
199.8717
  0
ARC
  8
0
 10
57.2635
 20
35.1332
 40
1.38546
 50
199.8711
 51
201.628
  0
ARC
  8
0
 10
57.1494
 20
35.0879
 40
1.26271
 50
201.6274
 51
203.4964
  0
ARC
  8
0
 10
57.0472
 20
35.0435
 40
1.15123
 50
203.4958
 51
205.4836
  0
ARC
  8
0
 10
56.942
 20
34.9932
 40
1.03466
 50
205.4749
 51
208.6688
  0
ARC
  8
0
 10
56.8278
 20
34.9311
 40
0.904633
 50
208.6921
 51
212.1854
  0
ARC
  8
0
 10
56.7171
 20
34.8611
 40
0.773691
 50
212.1662
 51
217.3489
  0
ARC
  8
0
 10
56.6225
 20
34.7887
 40
0.654547
 50
217.3328
 51
224.5621
  0
ARC
  8
0
 10
56.5372
 20
34.7032
 40
0.533776
 50
224.4488
 51
239.3847
  0
ARC
  8
0
 10
56.5182
 20
34.6797
 40
0.503966
 50
239.8762
 51
267.5956
  0
ARC
  8
0
 10
56.5282
 20
34.7219
 40
0.546522
 50
266.7378
 51
278.0233
  0
ARC
  8
0
 10
56.5374
 20
34.6373
 40
0.461471
 50
278.3648
 51
318.2887
  0
ARC
  8
0
 10
56.4189
 20
34.7591
 40
0.631094
 50
317.184
 51
323.0172
  0
ARC
  8
0
 10
56.3266
 20
34.8286
 40
0.746664
 50
323.017
 51
328.2315
  0
ARC
  8
0
 10
56.2231
 20
34.8936
 40
0.868809
 50
328.1827
 51
331.7265
  0
ARC
  8
0
 10
56.1068
 20
34.9567
 40
1.00118
 50
331.698
 51
334.9223
  0
ARC
  8
0
 10
55.9829
 20
35.0154
 40
1.13825
 50
334.8876
 51
336.8555
  0
ARC
  8
0
 10
55.8765
 20
35.0609
 40
1.25398
 50
336.8548
 51
338.6997
  0
ARC
  8
0
 10
55.7578
 20
35.1073
 40
1.38145
 50
338.699
 51
340.4286
  0
ARC
  8
0
 10
55.626
 20
35.1541
 40
1.52132
 50
340.4279
 51
342.0498
  0
ARC
  8
0
 10
55.4805
 20
35.2013
 40
1.67422
 50
342.0491
 51
343.5707
  0
ARC
  8
0
 10
55.3208
 20
35.2484
 40
1.84082
 50
343.5701
 51
344.9984
  0
ARC
  8
0
 10
55.146
 20
35.2953
 40
2.02176
 50
344.9978
 51
346.3396
  0
ARC
  8
0
 10
54.9556
 20
35.3416
 40
2.21774
 50
346.339
 51
347.6005
  0
LINE
  8
0
 10
57.1216
 20
34.8654
 11
57.1268
 21
34.8898
  0
LINE
  8
0
 10
57.1268
 20
34.8898
 11
57.1319
 21
34.9146
  0
LINE
  8
0
 10
57.1319
 20
34.9146
 11
57.1367
 21
34.9399
  0
LINE
  8
0
 10
57.1367
 20
34.9399
 11
57.1414
 21
34.9656
  0
LINE
  8
0
 10
57.1414
 20
34.9656
 11
57.146
 21
34.9917
  0
LINE
  8
0
 10
57.146
 20
34.9917
 11
57.1503
 21
35.0183
  0
LINE
  8
0
 10
57.1503
 20
35.0183
 11
57.1545
 21
35.0453
  0
LINE
  8
0
 10
57.1545
 20
35.0453
 11
57.1585
 21
35.0726
  0
LINE
  8
0
 10
57.1585
 20
35.0726
 11
57.1623
 21
35.1005
  0
LINE
  8
0
 10
57.1623
 20
35.1005
 11
57.1659
 21
35.1287
  0
LINE
  8
0
 10
57.1659
 20
35.1287
 11
57.1694
 21
35.1574
  0
LINE
  8
0
 10
57.1694
 20
35.1574
 11
57.1727
 21
35.1865
  0
LINE
  8
0
 10
57.1727
 20
35.1865
 11
57.1758
 21
35.216
  0
LINE
  8
0
 10
57.1758
 20
35.216
 11
57.1787
 21
35.2459
  0
LINE
  8
0
 10
57.1787
 20
35.2459
 11
57.1815
 21
35.2763
  0
LINE
  8
0
 10
57.1815
 20
35.2763
 11
57.1841
 21
35.3071
  0
LINE
  8
0
 10
57.1841
 20
35.3071
 11
57.1865
 21
35.3383
  0
LINE
  8
0
 10
57.1865
 20
35.3383
 11
57.1887
 21
35.37
  0
LINE
  8
0
 10
57.1887
 20
35.37
 11
57.1907
 21
35.402
  0
LINE
  8
0
 10
57.1907
 20
35.402
 11
57.1926
 21
35.4345
  0
LINE
  8
0
 10
57.1926
 20
35.4345
 11
57.1943
 21
35.4674
  0
LINE
  8
0
 10
57.1943
 20
35.4674
 11
57.1958
 21
35.5008
  0
LINE
  8
0
 10
57.1958
 20
35.5008
 11
57.1971
 21
35.5346
  0
LINE
  8
0
 10
57.1971
 20
35.5346
 11
57.1983
 21
35.5687
  0
LINE
  8
0
 10
57.1983
 20
35.5687
 11
57.1992
 21
35.6034
  0
LINE
  8
0
 10
57.1992
 20
35.6034
 11
57.2
 21
35.6384
  0
LINE
  8
0
 10
57.2
 20
35.6384
 11
57.2007
 21
35.6739
  0
LINE
  8
0
 10
57.2007
 20
35.6739
 11
57.2011
 21
35.7098
  0
LINE
  8
0
 10
57.2011
 20
35.7098
 11
57.2014
 21
35.7461
  0
LINE
  8
0
 10
57.2014
 20
35.7461
 11
57.2015
 21
35.7828
  0
LINE
  8
0
 10
57.6815
 20
41.4208
 11
58.2415
 21
40.5571
  0
ARC
  8
0
 10
62.603
 20
35.0942
 40
6.99043
 50
128.6035
 51
130.5581
  0
ARC
  8
0
 10
62.4735
 20
35.2463
 40
6.79067
 50
130.5631
 51
131.8925
  0
ARC
  8
0
 10
62.3837
 20
35.3465
 40
6.65615
 50
131.8926
 51
133.2398
  0
ARC
  8
0
 10
62.3003
 20
35.4352
 40
6.53431
 50
133.2399
 51
134.6038
  0
ARC
  8
0
 10
62.2235
 20
35.5131
 40
6.42495
 50
134.604
 51
135.9833
  0
ARC
  8
0
 10
62.143
 20
35.5907
 40
6.31317
 50
135.9826
 51
138.0752
  0
ARC
  8
0
 10
62.054
 20
35.6711
 40
6.19318
 50
138.0779
 51
140.1976
  0
ARC
  8
0
 10
61.9635
 20
35.7463
 40
6.07555
 50
140.1966
 51
143.7754
  0
ARC
  8
0
 10
61.9026
 20
35.7921
 40
5.99937
 50
143.7847
 51
155.3451
  0
ARC
  8
0
 10
62.0603
 20
35.7162
 40
6.1743
 50
155.3149
 51
157.4402
  0
LINE
  8
0
 10
56.3584
 20
38.085
 11
56.3295
 21
38.014
  0
ARC
  8
0
 10
56.6947
 20
37.1239
 40
0.962156
 50
89.8335
 51
112.3069
  0
ARC
  8
0
 10
56.6987
 20
36.686
 40
1.40004
 50
84.5812
 51
90.0505
  0
ARC
  8
0
 10
56.7107
 20
36.8139
 40
1.27152
 50
78.7422
 51
84.5741
  0
ARC
  8
0
 10
56.7309
 20
36.9144
 40
1.169
 50
47.728
 51
78.7515
  0
ARC
  8
0
 10
56.5975
 20
36.7506
 40
1.38005
 50
44.0585
 51
48.2057
  0
ARC
  8
0
 10
56.509
 20
36.6643
 40
1.50361
 50
40.1582
 51
44.0758
  0
ARC
  8
0
 10
56.4068
 20
36.5771
 40
1.63793
 50
37.722
 51
40.1846
  0
ARC
  8
0
 10
56.3141
 20
36.5054
 40
1.75508
 50
35.3702
 51
37.7219
  0
ARC
  8
0
 10
56.2066
 20
36.4291
 40
1.88699
 50
33.1294
 51
35.3702
  0
ARC
  8
0
 10
56.0831
 20
36.3485
 40
2.03443
 50
30.9984
 51
33.1296
  0
ARC
  8
0
 10
55.9427
 20
36.2641
 40
2.19825
 50
28.9747
 51
30.9987
  0
ARC
  8
0
 10
55.7843
 20
36.1764
 40
2.3793
 50
27.0551
 51
28.975
  0
LINE
  8
0
 10
57.9032
 20
37.2586
 11
57.9215
 21
37.2223
  0
ARC
  8
0
 10
55.4047
 20
36.0097
 40
2.79366
 50
21.1424
 51
25.7233
  0
ARC
  8
0
 10
55.2345
 20
35.9428
 40
2.97649
 50
18.2395
 51
21.1633
  0
ARC
  8
0
 10
55.0721
 20
35.8893
 40
3.14745
 50
15.4217
 51
18.2387
  0
LINE
  8
0
 10
58.1063
 20
36.7263
 11
58.1263
 21
36.6503
  0
LINE
  8
0
 10
58.1263
 20
36.6503
 11
58.1447
 21
36.5731
  0
LINE
  8
0
 10
58.1447
 20
36.5731
 11
58.1615
 21
36.4945
  0
LINE
  8
0
 10
58.1615
 20
36.4945
 11
58.1767
 21
36.4147
  0
LINE
  8
0
 10
58.1767
 20
36.4147
 11
58.1903
 21
36.3336
  0
LINE
  8
0
 10
58.1903
 20
36.3336
 11
58.2023
 21
36.2513
  0
LINE
  8
0
 10
58.2023
 20
36.2513
 11
58.2127
 21
36.1676
  0
LINE
  8
0
 10
58.2127
 20
36.1676
 11
58.2215
 21
36.0827
  0
LINE
  8
0
 10
58.2215
 20
36.0827
 11
58.2287
 21
35.9965
  0
LINE
  8
0
 10
58.2287
 20
35.9965
 11
58.2343
 21
35.909
  0
LINE
  8
0
 10
58.2343
 20
35.909
 11
58.2383
 21
35.8202
  0
LINE
  8
0
 10
58.2383
 20
35.8202
 11
58.2407
 21
35.7302
  0
LINE
  8
0
 10
58.2407
 20
35.7302
 11
58.2415
 21
35.6389
  0
LINE
  8
0
 10
58.2415
 20
35.6389
 11
58.2413
 21
35.5897
  0
LINE
  8
0
 10
58.2413
 20
35.5897
 11
58.2407
 21
35.541
  0
LINE
  8
0
 10
58.2407
 20
35.541
 11
58.2398
 21
35.4928
  0
LINE
  8
0
 10
58.2398
 20
35.4928
 11
58.2386
 21
35.4451
  0
LINE
  8
0
 10
58.2386
 20
35.4451
 11
58.237
 21
35.3979
  0
LINE
  8
0
 10
58.237
 20
35.3979
 11
58.235
 21
35.3512
  0
LINE
  8
0
 10
58.235
 20
35.3512
 11
58.2327
 21
35.305
  0
LINE
  8
0
 10
58.2327
 20
35.305
 11
58.23
 21
35.2593
  0
LINE
  8
0
 10
58.23
 20
35.2593
 11
58.2269
 21
35.2141
  0
LINE
  8
0
 10
58.2269
 20
35.2141
 11
58.2235
 21
35.1694
  0
LINE
  8
0
 10
58.2235
 20
35.1694
 11
58.2198
 21
35.1251
  0
LINE
  8
0
 10
58.2198
 20
35.1251
 11
58.2157
 21
35.0814
  0
LINE
  8
0
 10
58.2157
 20
35.0814
 11
58.2112
 21
35.0382
  0
LINE
  8
0
 10
58.2112
 20
35.0382
 11
58.2063
 21
34.9954
  0
LINE
  8
0
 10
58.2063
 20
34.9954
 11
58.2011
 21
34.9531
  0
LINE
  8
0
 10
58.2011
 20
34.9531
 11
58.1956
 21
34.9114
  0
LINE
  8
0
 10
58.1956
 20
34.9114
 11
58.1897
 21
34.8701
  0
LINE
  8
0
 10
58.1897
 20
34.8701
 11
58.1834
 21
34.8293
  0
LINE
  8
0
 10
58.1834
 20
34.8293
 11
58.1768
 21
34.7891
  0
LINE
  8
0
 10
58.1768
 20
34.7891
 11
58.1698
 21
34.7493
  0
LINE
  8
0
 10
58.1698
 20
34.7493
 11
58.1624
 21
34.71
  0
LINE
  8
0
 10
58.1624
 20
34.71
 11
58.1547
 21
34.6712
  0
LINE
  8
0
 10
58.1547
 20
34.6712
 11
58.1467
 21
34.6329
  0
ARC
  8
0
 10
55.0223
 20
35.3091
 40
3.19671
 50
345.7273
 51
347.7886
  0
ARC
  8
0
 10
55.2689
 20
35.2471
 40
2.94247
 50
344.2584
 51
345.7131
  0
ARC
  8
0
 10
55.4375
 20
35.1995
 40
2.76725
 50
342.743
 51
344.2586
  0
ARC
  8
0
 10
55.5927
 20
35.1513
 40
2.6047
 50
341.1652
 51
342.7432
  0
ARC
  8
0
 10
55.735
 20
35.1028
 40
2.45435
 50
339.5236
 51
341.1654
  0
ARC
  8
0
 10
55.8649
 20
35.0543
 40
2.3157
 50
337.8171
 51
339.5237
  0
ARC
  8
0
 10
55.9829
 20
35.0062
 40
2.18831
 50
336.0449
 51
337.8171
  0
ARC
  8
0
 10
56.0894
 20
34.9588
 40
2.07173
 50
334.2068
 51
336.0449
  0
ARC
  8
0
 10
56.185
 20
34.9126
 40
1.96553
 50
332.303
 51
334.2067
  0
ARC
  8
0
 10
56.2834
 20
34.8608
 40
1.85437
 50
329.3421
 51
332.3068
  0
ARC
  8
0
 10
56.3903
 20
34.7979
 40
1.73027
 50
326.2244
 51
329.3297
  0
ARC
  8
0
 10
56.4934
 20
34.7288
 40
1.60625
 50
321.8731
 51
326.2295
  0
ARC
  8
0
 10
56.5798
 20
34.6609
 40
1.49629
 50
316.1693
 51
321.8745
  0
ARC
  8
0
 10
56.6476
 20
34.5965
 40
1.40285
 50
289.8126
 51
316.1489
  0
ARC
  8
0
 10
56.5717
 20
34.7831
 40
1.6041
 50
285.7444
 51
290.1047
  0
ARC
  8
0
 10
56.5411
 20
34.8898
 40
1.71509
 50
282.6296
 51
285.7607
  0
ARC
  8
0
 10
56.5142
 20
35.0081
 40
1.83638
 50
279.6483
 51
282.6404
  0
ARC
  8
0
 10
56.4927
 20
35.1317
 40
1.9619
 50
277.7581
 51
279.6641
  0
ARC
  8
0
 10
56.4784
 20
35.2366
 40
2.06773
 50
275.9175
 51
277.758
  0
ARC
  8
0
 10
56.4664
 20
35.3522
 40
2.18393
 50
274.1429
 51
275.9175
  0
ARC
  8
0
 10
56.4572
 20
35.4788
 40
2.31093
 50
272.434
 51
274.1429
  0
ARC
  8
0
 10
56.4514
 20
35.6169
 40
2.44916
 50
270.79
 51
272.434
  0
LINE
  8
0
 10
56.4851
 20
33.168
 11
56.4495
 21
33.1678
  0
ARC
  8
0
 10
56.449
 20
35.247
 40
2.07927
 50
267.3284
 51
270.0132
  0
ARC
  8
0
 10
56.4424
 20
35.0934
 40
1.92549
 50
265.4238
 51
267.3108
  0
ARC
  8
0
 10
56.4328
 20
34.9745
 40
1.80624
 50
262.4787
 51
265.4282
  0
ARC
  8
0
 10
56.4156
 20
34.8417
 40
1.67236
 50
259.3601
 51
262.4653
  0
ARC
  8
0
 10
56.3951
 20
34.7306
 40
1.55932
 50
256.0929
 51
259.3469
  0
ARC
  8
0
 10
56.3682
 20
34.6225
 40
1.44799
 50
251.5337
 51
256.0978
  0
ARC
  8
0
 10
56.3338
 20
34.521
 40
1.34073
 50
244.3463
 51
251.5544
  0
ARC
  8
0
 10
56.3122
 20
34.4716
 40
1.2869
 50
220.7214
 51
244.2604
  0
ARC
  8
0
 10
56.4461
 20
34.5961
 40
1.46961
 50
216.4749
 51
220.9941
  0
ARC
  8
0
 10
56.5308
 20
34.6592
 40
1.57521
 50
213.2523
 51
216.4924
  0
ARC
  8
0
 10
56.6277
 20
34.7232
 40
1.69133
 50
210.1736
 51
213.264
  0
ARC
  8
0
 10
56.746
 20
34.7925
 40
1.82849
 50
207.252
 51
210.1862
  0
ARC
  8
0
 10
56.8707
 20
34.8574
 40
1.96902
 50
205.4105
 51
207.2696
  0
ARC
  8
0
 10
56.977
 20
34.9079
 40
2.0867
 50
203.6221
 51
205.4105
  0
ARC
  8
0
 10
57.0948
 20
34.9594
 40
2.21532
 50
201.9036
 51
203.6222
  0
ARC
  8
0
 10
57.2248
 20
35.0117
 40
2.35535
 50
200.254
 51
201.9037
  0
ARC
  8
0
 10
57.3673
 20
35.0643
 40
2.50726
 50
198.6717
 51
200.2541
  0
ARC
  8
0
 10
57.5229
 20
35.1169
 40
2.67154
 50
197.155
 51
198.6719
  0
ARC
  8
0
 10
57.6922
 20
35.1691
 40
2.84871
 50
195.7019
 51
197.1552
  0
ARC
  8
0
 10
57.8757
 20
35.2207
 40
3.03929
 50
194.3102
 51
195.7021
  0
LINE
  8
0
 10
54.9307
 20
34.4695
 11
54.9216
 21
34.5059
  0
LINE
  8
0
 10
54.9216
 20
34.5059
 11
54.9129
 21
34.5428
  0
LINE
  8
0
 10
54.9129
 20
34.5428
 11
54.9045
 21
34.5802
  0
LINE
  8
0
 10
54.9045
 20
34.5802
 11
54.8964
 21
34.6181
  0
LINE
  8
0
 10
54.8964
 20
34.6181
 11
54.8886
 21
34.6566
  0
LINE
  8
0
 10
54.8886
 20
34.6566
 11
54.8812
 21
34.6955
  0
LINE
  8
0
 10
54.8812
 20
34.6955
 11
54.8741
 21
34.7349
  0
LINE
  8
0
 10
54.8741
 20
34.7349
 11
54.8674
 21
34.7748
  0
LINE
  8
0
 10
54.8674
 20
34.7748
 11
54.861
 21
34.8153
  0
LINE
  8
0
 10
54.861
 20
34.8153
 11
54.8549
 21
34.8562
  0
LINE
  8
0
 10
54.8549
 20
34.8562
 11
54.8491
 21
34.8976
  0
LINE
  8
0
 10
54.8491
 20
34.8976
 11
54.8437
 21
34.9396
  0
LINE
  8
0
 10
54.8437
 20
34.9396
 11
54.8385
 21
34.982
  0
LINE
  8
0
 10
54.8385
 20
34.982
 11
54.8338
 21
35.0249
  0
LINE
  8
0
 10
54.8338
 20
35.0249
 11
54.8293
 21
35.0684
  0
LINE
  8
0
 10
54.8293
 20
35.0684
 11
54.8252
 21
35.1123
  0
LINE
  8
0
 10
54.8252
 20
35.1123
 11
54.8214
 21
35.1568
  0
LINE
  8
0
 10
54.8214
 20
35.1568
 11
54.8179
 21
35.2017
  0
LINE
  8
0
 10
54.8179
 20
35.2017
 11
54.8148
 21
35.2472
  0
LINE
  8
0
 10
54.8148
 20
35.2472
 11
54.812
 21
35.2931
  0
LINE
  8
0
 10
54.812
 20
35.2931
 11
54.8095
 21
35.3396
  0
LINE
  8
0
 10
54.8095
 20
35.3396
 11
54.8074
 21
35.3865
  0
LINE
  8
0
 10
54.8074
 20
35.3865
 11
54.8056
 21
35.434
  0
LINE
  8
0
 10
54.8056
 20
35.434
 11
54.8041
 21
35.482
  0
LINE
  8
0
 10
54.8041
 20
35.482
 11
54.8029
 21
35.5304
  0
LINE
  8
0
 10
54.8029
 20
35.5304
 11
54.8021
 21
35.5794
  0
LINE
  8
0
 10
54.8021
 20
35.5794
 11
54.8016
 21
35.6288
  0
LINE
  8
0
 10
54.8016
 20
35.6288
 11
54.8015
 21
35.6788
  0
ARC
  8
0
 10
63.0535
 20
35.6792
 40
8.25204
 50
178.5639
 51
180.0025
  0
ARC
  8
0
 10
62.8385
 20
35.6841
 40
8.03694
 50
177.584
 51
178.5606
  0
ARC
  8
0
 10
62.6879
 20
35.6905
 40
7.88625
 50
176.595
 51
177.584
  0
ARC
  8
0
 10
62.5463
 20
35.6989
 40
7.74442
 50
175.5939
 51
176.5949
  0
ARC
  8
0
 10
62.4136
 20
35.7091
 40
7.61131
 50
174.5812
 51
175.5938
  0
ARC
  8
0
 10
62.2896
 20
35.7208
 40
7.48679
 50
173.5572
 51
174.5811
  0
ARC
  8
0
 10
62.1743
 20
35.7339
 40
7.37073
 50
172.5226
 51
173.5572
  0
ARC
  8
0
 10
62.0675
 20
35.7479
 40
7.26301
 50
171.4777
 51
172.5225
  0
ARC
  8
0
 10
61.9537
 20
35.765
 40
7.14792
 50
169.8948
 51
171.4783
  0
ARC
  8
0
 10
61.8237
 20
35.7879
 40
7.01591
 50
168.2897
 51
169.893
  0
ARC
  8
0
 10
61.7119
 20
35.8109
 40
6.90183
 50
166.667
 51
168.288
  0
ARC
  8
0
 10
61.5998
 20
35.8375
 40
6.7866
 50
164.4811
 51
166.6674
  0
ARC
  8
0
 10
61.4891
 20
35.8685
 40
6.67165
 50
161.1659
 51
164.4831
  0
ARC
  8
0
 10
61.4267
 20
35.8888
 40
6.60596
 50
150.0192
 51
161.1578
  0
ARC
  8
0
 10
61.5958
 20
35.7949
 40
6.7994
 50
147.8626
 51
150.0462
  0
ARC
  8
0
 10
61.6862
 20
35.7384
 40
6.90598
 50
146.2431
 51
147.8644
  0
ARC
  8
0
 10
61.7817
 20
35.6748
 40
7.02076
 50
144.6408
 51
146.2444
  0
ARC
  8
0
 10
61.89
 20
35.5981
 40
7.15348
 50
143.0585
 51
144.6423
  0
ARC
  8
0
 10
61.9966
 20
35.5183
 40
7.28659
 50
142.0182
 51
143.0608
  0
ARC
  8
0
 10
62.083
 20
35.4509
 40
7.39618
 50
140.986
 51
142.0182
  0
ARC
  8
0
 10
62.1746
 20
35.3766
 40
7.51414
 50
139.9645
 51
140.9859
  0
ARC
  8
0
 10
62.2714
 20
35.2953
 40
7.64059
 50
138.9544
 51
139.9645
  0
ARC
  8
0
 10
62.3733
 20
35.2066
 40
7.77565
 50
137.956
 51
138.9543
  0
ARC
  8
0
 10
62.4801
 20
35.1103
 40
7.91947
 50
136.9697
 51
137.9559
  0
ARC
  8
0
 10
62.5917
 20
35.0061
 40
8.07217
 50
135.9959
 51
136.9696
  0
ARC
  8
0
 10
62.7081
 20
34.8937
 40
8.23391
 50
135.0349
 51
135.9959
  0
ARC
  8
0
 10
62.829
 20
34.7729
 40
8.40484
 50
134.087
 51
135.0349
  0
ARC
  8
0
 10
62.9544
 20
34.6434
 40
8.58512
 50
133.1524
 51
134.0869
  0
ARC
  8
0
 10
63.0842
 20
34.505
 40
8.77491
 50
132.2313
 51
133.1524
  0
LINE
  8
0
 10
57.1864
 20
41.0022
 11
57.2391
 21
41.0497
  0
LINE
  8
0
 10
57.2391
 20
41.0497
 11
57.2924
 21
41.0969
  0
LINE
  8
0
 10
57.2924
 20
41.0969
 11
57.3462
 21
41.1439
  0
LINE
  8
0
 10
57.3462
 20
41.1439
 11
57.4007
 21
41.1906
  0
LINE
  8
0
 10
57.4007
 20
41.1906
 11
57.4557
 21
41.2371
  0
LINE
  8
0
 10
57.4557
 20
41.2371
 11
57.5113
 21
41.2834
  0
LINE
  8
0
 10
57.5113
 20
41.2834
 11
57.5674
 21
41.3294
  0
LINE
  8
0
 10
57.5674
 20
41.3294
 11
57.6242
 21
41.3752
  0
LINE
  8
0
 10
57.6242
 20
41.3752
 11
57.6815
 21
41.4208
  0
ARC
  8
0
 10
50.32
 20
21.1117
 40
0.681477
 50
299.6839
 51
359.9821
  0
ARC
  8
0
 10
50.3767
 20
21.0307
 40
0.583063
 50
269.2841
 51
298.78
  0
ARC
  8
0
 10
50.3679
 20
21.0759
 40
0.628163
 50
229.3385
 51
270.1423
  0
LINE
  8
0
 10
49.9586
 20
20.5993
 11
49.9135
 21
20.6396
  0
ARC
  8
0
 10
50.4195
 20
21.132
 40
0.706022
 50
207.0345
 51
224.2183
  0
ARC
  8
0
 10
50.3545
 20
21.099
 40
0.633117
 50
145.4867
 51
207.0474
  0
ARC
  8
0
 10
50.57
 20
20.9602
 40
0.889393
 50
138.346
 51
145.9862
  0
ARC
  8
0
 10
50.4718
 20
21.0117
 40
0.782256
 50
124.8969
 51
136.3832
  0
ARC
  8
0
 10
50.3559
 20
21.1732
 40
0.583502
 50
110.6382
 51
124.639
  0
ARC
  8
0
 10
50.3284
 20
21.2392
 40
0.512033
 50
89.8826
 51
110.3606
  0
ARC
  8
0
 10
50.3344
 20
21.0188
 40
0.732427
 50
73.698
 51
90.3886
  0
ARC
  8
0
 10
50.3672
 20
21.1116
 40
0.634271
 50
359.9955
 51
434.1877
  0
LINE
  8
0
 10
53.0335
 20
21.6633
 11
56.2655
 21
21.6633
  0
LINE
  8
0
 10
56.2655
 20
21.6633
 11
56.2655
 21
20.5277
  0
LINE
  8
0
 10
56.2655
 20
20.5277
 11
51.8015
 21
20.5277
  0
LINE
  8
0
 10
51.8015
 20
20.5277
 11
51.804
 21
20.5839
  0
LINE
  8
0
 10
51.804
 20
20.5839
 11
51.8069
 21
20.6398
  0
LINE
  8
0
 10
51.8069
 20
20.6398
 11
51.8101
 21
20.6954
  0
LINE
  8
0
 10
51.8101
 20
20.6954
 11
51.8136
 21
20.7508
  0
LINE
  8
0
 10
51.8136
 20
20.7508
 11
51.8174
 21
20.8059
  0
LINE
  8
0
 10
51.8174
 20
20.8059
 11
51.8216
 21
20.8607
  0
LINE
  8
0
 10
51.8216
 20
20.8607
 11
51.8261
 21
20.9153
  0
LINE
  8
0
 10
51.8261
 20
20.9153
 11
51.8309
 21
20.9696
  0
LINE
  8
0
 10
51.8309
 20
20.9696
 11
51.836
 21
21.0237
  0
LINE
  8
0
 10
51.836
 20
21.0237
 11
51.8414
 21
21.0775
  0
LINE
  8
0
 10
51.8414
 20
21.0775
 11
51.8471
 21
21.131
  0
LINE
  8
0
 10
51.8471
 20
21.131
 11
51.8532
 21
21.1843
  0
LINE
  8
0
 10
51.8532
 20
21.1843
 11
51.8596
 21
21.2373
  0
ARC
  8
0
 10
59.8104
 20
20.2542
 40
8.01134
 50
171.8156
 51
172.9515
  0
ARC
  8
0
 10
59.5536
 20
20.2907
 40
7.75203
 50
171.0379
 51
171.8124
  0
ARC
  8
0
 10
59.3701
 20
20.3197
 40
7.56618
 50
170.2506
 51
171.0379
  0
ARC
  8
0
 10
59.194
 20
20.3499
 40
7.38754
 50
169.4508
 51
170.2506
  0
ARC
  8
0
 10
59.0253
 20
20.3813
 40
7.21598
 50
168.6383
 51
169.4508
  0
ARC
  8
0
 10
58.864
 20
20.4137
 40
7.05139
 50
167.8132
 51
168.6383
  0
ARC
  8
0
 10
58.7098
 20
20.447
 40
6.89364
 50
166.9756
 51
167.8132
  0
ARC
  8
0
 10
58.5626
 20
20.4811
 40
6.74262
 50
166.1255
 51
166.9756
  0
ARC
  8
0
 10
58.4224
 20
20.5157
 40
6.5982
 50
165.2631
 51
166.1255
  0
ARC
  8
0
 10
58.289
 20
20.5508
 40
6.46028
 50
164.3884
 51
165.2631
  0
ARC
  8
0
 10
58.1624
 20
20.5862
 40
6.32875
 50
163.5017
 51
164.3884
  0
ARC
  8
0
 10
58.0423
 20
20.6218
 40
6.20351
 50
162.603
 51
163.5016
  0
ARC
  8
0
 10
57.9287
 20
20.6574
 40
6.08445
 50
161.6927
 51
162.603
  0
ARC
  8
0
 10
57.8214
 20
20.6928
 40
5.97146
 50
160.7709
 51
161.6926
  0
ARC
  8
0
 10
57.7204
 20
20.7281
 40
5.86447
 50
159.8379
 51
160.7708
  0
ARC
  8
0
 10
57.6103
 20
20.7686
 40
5.7472
 50
158.4208
 51
159.8385
  0
ARC
  8
0
 10
57.4807
 20
20.8196
 40
5.60786
 50
156.9776
 51
158.4187
  0
ARC
  8
0
 10
57.3641
 20
20.869
 40
5.48126
 50
155.5123
 51
156.9756
  0
ARC
  8
0
 10
57.2602
 20
20.9161
 40
5.36717
 50
154.0264
 51
155.5104
  0
ARC
  8
0
 10
57.1499
 20
20.9699
 40
5.2445
 50
152.0169
 51
154.0271
  0
ARC
  8
0
 10
57.0496
 20
21.0231
 40
5.13094
 50
149.9767
 51
152.0165
  0
ARC
  8
0
 10
56.9527
 20
21.0794
 40
5.01883
 50
146.8744
 51
149.9796
  0
ARC
  8
0
 10
56.8512
 20
21.1463
 40
4.89733
 50
131.0745
 51
146.8802
  0
LINE
  8
0
 10
53.6335
 20
24.8381
 11
53.6458
 21
24.8496
  0
LINE
  8
0
 10
53.6458
 20
24.8496
 11
53.6627
 21
24.8641
  0
LINE
  8
0
 10
53.6627
 20
24.8641
 11
53.6843
 21
24.8816
  0
LINE
  8
0
 10
53.6843
 20
24.8816
 11
53.7105
 21
24.9021
  0
LINE
  8
0
 10
53.7105
 20
24.9021
 11
53.7413
 21
24.9256
  0
LINE
  8
0
 10
53.7413
 20
24.9256
 11
53.7767
 21
24.9521
  0
LINE
  8
0
 10
53.7767
 20
24.9521
 11
53.8168
 21
24.9816
  0
LINE
  8
0
 10
53.8168
 20
24.9816
 11
53.8615
 21
25.0141
  0
LINE
  8
0
 10
53.8615
 20
25.0141
 11
53.9108
 21
25.0496
  0
LINE
  8
0
 10
53.9108
 20
25.0496
 11
53.9647
 21
25.0881
  0
LINE
  8
0
 10
53.9647
 20
25.0881
 11
54.0233
 21
25.1296
  0
LINE
  8
0
 10
54.0233
 20
25.1296
 11
54.0865
 21
25.174
  0
LINE
  8
0
 10
54.0865
 20
25.174
 11
54.1543
 21
25.2215
  0
LINE
  8
0
 10
54.1543
 20
25.2215
 11
54.2267
 21
25.272
  0
LINE
  8
0
 10
54.2267
 20
25.272
 11
54.3038
 21
25.3255
  0
LINE
  8
0
 10
54.3038
 20
25.3255
 11
54.3855
 21
25.3819
  0
LINE
  8
0
 10
54.3855
 20
25.3819
 11
54.4326
 21
25.415
  0
LINE
  8
0
 10
54.4326
 20
25.415
 11
54.4781
 21
25.4473
  0
LINE
  8
0
 10
54.4781
 20
25.4473
 11
54.5219
 21
25.4789
  0
LINE
  8
0
 10
54.5219
 20
25.4789
 11
54.564
 21
25.5096
  0
LINE
  8
0
 10
54.564
 20
25.5096
 11
54.6044
 21
25.5397
  0
LINE
  8
0
 10
54.6044
 20
25.5397
 11
54.6431
 21
25.5689
  0
LINE
  8
0
 10
54.6431
 20
25.5689
 11
54.6802
 21
25.5974
  0
LINE
  8
0
 10
54.6802
 20
25.5974
 11
54.7155
 21
25.6252
  0
LINE
  8
0
 10
54.7155
 20
25.6252
 11
54.7492
 21
25.6521
  0
LINE
  8
0
 10
54.7492
 20
25.6521
 11
54.7812
 21
25.6784
  0
LINE
  8
0
 10
54.7812
 20
25.6784
 11
54.8115
 21
25.7038
  0
LINE
  8
0
 10
54.8115
 20
25.7038
 11
54.8401
 21
25.7285
  0
LINE
  8
0
 10
54.8401
 20
25.7285
 11
54.867
 21
25.7525
  0
LINE
  8
0
 10
54.867
 20
25.7525
 11
54.8922
 21
25.7757
  0
LINE
  8
0
 10
54.8922
 20
25.7757
 11
54.9158
 21
25.7981
  0
LINE
  8
0
 10
54.9158
 20
25.7981
 11
54.9377
 21
25.8197
  0
LINE
  8
0
 10
54.9377
 20
25.8197
 11
54.9578
 21
25.8406
  0
LINE
  8
0
 10
54.9578
 20
25.8406
 11
54.9763
 21
25.8608
  0
LINE
  8
0
 10
54.9763
 20
25.8608
 11
54.9931
 21
25.8802
  0
LINE
  8
0
 10
54.9931
 20
25.8802
 11
55.0083
 21
25.8988
  0
LINE
  8
0
 10
55.0083
 20
25.8988
 11
55.0217
 21
25.9167
  0
LINE
  8
0
 10
55.0217
 20
25.9167
 11
55.0335
 21
25.9338
  0
ARC
  8
0
 10
54.3104
 20
26.425
 40
0.87419
 50
325.81
 51
356.6949
  0
ARC
  8
0
 10
54.2013
 20
26.4499
 40
0.984631
 50
355.6151
 51
398.4434
  0
ARC
  8
0
 10
54.0177
 20
26.3199
 40
1.20933
 50
37.8558
 51
42.6373
  0
ARC
  8
0
 10
53.9122
 20
26.2227
 40
1.35275
 50
42.6393
 51
47.0765
  0
ARC
  8
0
 10
53.8453
 20
26.155
 40
1.44789
 50
46.9626
 51
53.888
  0
ARC
  8
0
 10
53.9621
 20
26.3116
 40
1.25264
 50
53.9833
 51
59.0842
  0
ARC
  8
0
 10
54.0208
 20
26.4099
 40
1.1381
 50
59.075
 51
67.218
  0
ARC
  8
0
 10
54.0533
 20
26.484
 40
1.05721
 50
67.2884
 51
90.2071
  0
ARC
  8
0
 10
54.0482
 20
26.3093
 40
1.23187
 50
89.942
 51
97.3824
  0
ARC
  8
0
 10
54.0293
 20
26.4568
 40
1.08318
 50
97.3933
 51
108.2333
  0
ARC
  8
0
 10
54.0229
 20
26.4847
 40
1.05471
 50
108.3765
 51
127.7319
  0
ARC
  8
0
 10
54.105
 20
26.3716
 40
1.19433
 50
127.5259
 51
132.6012
  0
ARC
  8
0
 10
54.1373
 20
26.3332
 40
1.24451
 50
132.498
 51
142.3505
  0
ARC
  8
0
 10
54.009
 20
26.4331
 40
1.08188
 50
142.3904
 51
153.2395
  0
ARC
  8
0
 10
53.9855
 20
26.4479
 40
1.05422
 50
153.3838
 51
172.7462
  0
ARC
  8
0
 10
54.1242
 20
26.4259
 40
1.19463
 50
172.5383
 51
177.6129
  0
LINE
  8
0
 10
52.9306
 20
26.4757
 11
52.9295
 21
26.4216
  0
LINE
  8
0
 10
52.9295
 20
26.4216
 11
51.8015
 21
26.4216
  0
ARC
  8
0
 10
54.5167
 20
26.3754
 40
2.71566
 50
175.5123
 51
179.0267
  0
ARC
  8
0
 10
54.3514
 20
26.3875
 40
2.54987
 50
173.0457
 51
175.4924
  0
ARC
  8
0
 10
54.2331
 20
26.4021
 40
2.43067
 50
169.2638
 51
173.049
  0
ARC
  8
0
 10
54.1143
 20
26.4241
 40
2.30992
 50
165.3333
 51
169.2502
  0
ARC
  8
0
 10
53.9985
 20
26.4552
 40
2.18999
 50
155.8746
 51
165.3536
  0
ARC
  8
0
 10
53.9922
 20
26.4553
 40
2.18417
 50
144.9502
 51
155.8087
  0
ARC
  8
0
 10
54.0918
 20
26.3876
 40
2.30462
 50
141.0672
 51
144.9966
  0
ARC
  8
0
 10
54.1845
 20
26.3132
 40
2.42347
 50
137.2745
 51
141.0753
  0
ARC
  8
0
 10
54.2575
 20
26.2473
 40
2.52177
 50
131.3613
 51
137.3001
  0
ARC
  8
0
 10
54.1248
 20
26.3949
 40
2.32331
 50
128.8172
 51
131.309
  0
ARC
  8
0
 10
54.0557
 20
26.4809
 40
2.21301
 50
124.9638
 51
128.8207
  0
ARC
  8
0
 10
53.9808
 20
26.5881
 40
2.08227
 50
119.6039
 51
124.9656
  0
ARC
  8
0
 10
53.9344
 20
26.6688
 40
1.98917
 50
97.4112
 51
119.5876
  0
ARC
  8
0
 10
53.9669
 20
26.473
 40
2.18752
 50
93.6999
 51
97.5949
  0
ARC
  8
0
 10
53.9754
 20
26.3519
 40
2.3089
 50
91.2133
 51
93.7154
  0
LINE
  8
0
 10
53.9265
 20
28.6603
 11
53.9775
 21
28.6608
  0
ARC
  8
0
 10
53.9781
 20
26.0032
 40
2.65761
 50
86.4914
 51
90.013
  0
ARC
  8
0
 10
53.987
 20
26.1593
 40
2.50122
 50
82.8098
 51
86.4775
  0
ARC
  8
0
 10
54.0016
 20
26.2789
 40
2.38075
 50
79.006
 51
82.7972
  0
ARC
  8
0
 10
54.0247
 20
26.3943
 40
2.26307
 50
71.1706
 51
79.0224
  0
ARC
  8
0
 10
54.028
 20
26.4112
 40
2.24602
 50
57.9491
 51
71.1108
  0
ARC
  8
0
 10
53.9562
 20
26.2913
 40
2.38574
 50
54.2252
 51
58.0173
  0
ARC
  8
0
 10
53.8851
 20
26.192
 40
2.50789
 50
50.5645
 51
54.2332
  0
ARC
  8
0
 10
53.7977
 20
26.0847
 40
2.64631
 50
48.2221
 51
50.5793
  0
ARC
  8
0
 10
53.7873
 20
26.0714
 40
2.66311
 50
45.985
 51
48.2445
  0
ARC
  8
0
 10
53.9978
 20
26.2918
 40
2.35838
 50
43.5427
 51
45.9429
  0
ARC
  8
0
 10
54.079
 20
26.3688
 40
2.24638
 50
39.831
 51
43.5462
  0
ARC
  8
0
 10
54.1831
 20
26.4555
 40
2.11101
 50
34.6642
 51
39.8334
  0
ARC
  8
0
 10
54.2727
 20
26.5177
 40
2.00193
 50
10.4742
 51
34.6584
  0
ARC
  8
0
 10
54.0524
 20
26.4678
 40
2.22761
 50
6.9626
 51
10.7066
  0
ARC
  8
0
 10
53.9281
 20
26.452
 40
2.35292
 50
4.574
 51
6.9779
  0
ARC
  8
0
 10
53.8162
 20
26.443
 40
2.46517
 50
2.2432
 51
4.5735
  0
ARC
  8
0
 10
53.6879
 20
26.438
 40
2.59357
 50
359.9901
 51
362.2429
  0
ARC
  8
0
 10
53.3557
 20
26.4361
 40
2.92579
 50
356.957
 51
360.0294
  0
LINE
  8
0
 10
56.2773
 20
26.2808
 11
56.2722
 21
26.2047
  0
LINE
  8
0
 10
56.2722
 20
26.2047
 11
56.265
 21
26.1302
  0
LINE
  8
0
 10
56.265
 20
26.1302
 11
56.2557
 21
26.0572
  0
LINE
  8
0
 10
56.2557
 20
26.0572
 11
56.2443
 21
25.9859
  0
ARC
  8
0
 10
54.1799
 20
26.3461
 40
2.0956
 50
344.3596
 51
350.1026
  0
ARC
  8
0
 10
54.3961
 20
26.2876
 40
1.87164
 50
340.1604
 51
344.2988
  0
ARC
  8
0
 10
54.5133
 20
26.2454
 40
1.7471
 50
335.8245
 51
340.1573
  0
ARC
  8
0
 10
54.6056
 20
26.2039
 40
1.64595
 50
329.0717
 51
335.8279
  0
LINE
  8
0
 10
56.0175
 20
25.3579
 11
55.9811
 21
25.302
  0
LINE
  8
0
 10
55.9811
 20
25.302
 11
55.9412
 21
25.246
  0
LINE
  8
0
 10
55.9412
 20
25.246
 11
55.898
 21
25.19
  0
LINE
  8
0
 10
55.898
 20
25.19
 11
55.8512
 21
25.134
  0
LINE
  8
0
 10
55.8512
 20
25.134
 11
55.8011
 21
25.078
  0
LINE
  8
0
 10
55.8011
 20
25.078
 11
55.7475
 21
25.0221
  0
LINE
  8
0
 10
55.7475
 20
25.0221
 11
55.6904
 21
24.9661
  0
LINE
  8
0
 10
55.6904
 20
24.9661
 11
55.6299
 21
24.9101
  0
LINE
  8
0
 10
55.6299
 20
24.9101
 11
55.566
 21
24.8541
  0
LINE
  8
0
 10
55.566
 20
24.8541
 11
55.4986
 21
24.7982
  0
LINE
  8
0
 10
55.4986
 20
24.7982
 11
55.4277
 21
24.7422
  0
LINE
  8
0
 10
55.4277
 20
24.7422
 11
55.3535
 21
24.6862
  0
LINE
  8
0
 10
55.3535
 20
24.6862
 11
54.4655
 21
24.0384
  0
LINE
  8
0
 10
54.4655
 20
24.0384
 11
54.351
 21
23.9515
  0
LINE
  8
0
 10
54.351
 20
23.9515
 11
54.2424
 21
23.8612
  0
LINE
  8
0
 10
54.2424
 20
23.8612
 11
54.1395
 21
23.7675
  0
ARC
  8
0
 10
56.0996
 20
21.7074
 40
2.84366
 50
133.5748
 51
141.7814
  0
LINE
  8
0
 10
53.8655
 20
23.4666
 11
53.7064
 21
23.2503
  0
LINE
  8
0
 10
53.7064
 20
23.2503
 11
53.5597
 21
23.0224
  0
LINE
  8
0
 10
53.5597
 20
23.0224
 11
53.4255
 21
22.7829
  0
LINE
  8
0
 10
53.4255
 20
22.7829
 11
53.3965
 21
22.7064
  0
LINE
  8
0
 10
53.3965
 20
22.7064
 11
53.3684
 21
22.6319
  0
LINE
  8
0
 10
53.3684
 20
22.6319
 11
53.3412
 21
22.5593
  0
LINE
  8
0
 10
53.3412
 20
22.5593
 11
53.315
 21
22.4887
  0
LINE
  8
0
 10
53.315
 20
22.4887
 11
53.2897
 21
22.42
  0
LINE
  8
0
 10
53.2897
 20
22.42
 11
53.2654
 21
22.3533
  0
LINE
  8
0
 10
53.2654
 20
22.3533
 11
53.242
 21
22.2885
  0
LINE
  8
0
 10
53.242
 20
22.2885
 11
53.2195
 21
22.2257
  0
LINE
  8
0
 10
53.2195
 20
22.2257
 11
53.1979
 21
22.1648
  0
LINE
  8
0
 10
53.1979
 20
22.1648
 11
53.1773
 21
22.1059
  0
LINE
  8
0
 10
53.1773
 20
22.1059
 11
53.1576
 21
22.0489
  0
LINE
  8
0
 10
53.1576
 20
22.0489
 11
53.1388
 21
21.9939
  0
LINE
  8
0
 10
53.1388
 20
21.9939
 11
53.121
 21
21.9408
  0
LINE
  8
0
 10
53.121
 20
21.9408
 11
53.104
 21
21.8897
  0
LINE
  8
0
 10
53.104
 20
21.8897
 11
53.0881
 21
21.8405
  0
LINE
  8
0
 10
53.0881
 20
21.8405
 11
53.073
 21
21.7933
  0
LINE
  8
0
 10
53.073
 20
21.7933
 11
53.0589
 21
21.748
  0
LINE
  8
0
 10
53.0589
 20
21.748
 11
53.0457
 21
21.7047
  0
LINE
  8
0
 10
53.0457
 20
21.7047
 11
53.0335
 21
21.6633
  0
LINE
  8
0
 10
61.25
 20
30.525
 11
44.75
 21
30.525
  0
LINE
  8
0
 10
44.75
 20
30.525
 11
44.75
 21
31.275
  0
LINE
  8
0
 10
44.75
 20
31.275
 11
61.25
 21
31.275
  0
LINE
  8
0
 10
61.25
 20
31.275
 11
61.25
 21
30.525
  0
ENDSEC
  0
EOF