  0
SECTION
  2
HEADER
  9
$ACADVER
  1
AC1009
  0
ENDSEC
  0
SECTION
  2
TABLES
  0
TABLE
  2
STYLE
 70
   5
  0
STYLE
  2
STANDARD
 70
    64
 40
0.0
 41
1.0
 50
0.0
 71
     0
 42
1.0
  3
txt
  4

  0
STYLE
  2
HIGHWAYEMODPLUS
 70
    64
 40
0.0
 41
1.0
 50
0.0
 71
     0
 42
1.0
  3
Highway E Mod Plus
  4

  0
STYLE
  2
HIGHWAYSIGNCADPLUS
 70
    64
 40
0.0
 41
1.0
 50
0.0
 71
     0
 42
1.0
  3
Highway SignCAD Plus
  4

  0
STYLE
  2
HIGHWAYBPLUS
 70
    64
 40
0.0
 41
1.0
 50
0.0
 71
     0
 42
1.0
  3
Highway B Plus
  4

  0
STYLE
  2
HIGHWAYCPLUS
 70
    64
 40
0.0
 41
1.0
 50
0.0
 71
     0
 42
1.0
  3
Highway C Plus
  4

  0
ENDTAB
  0
ENDSEC
  0
SECTION
  2
ENTITIES
  0
ARC
  8
0
 10
37.5
 20
29.5
 40
1.5
 50
180
 51
270
  0
ARC
  8
0
 10
88.5
 20
29.5
 40
1.5
 50
270
 51
360
  0
ARC
  8
0
 10
88.5
 20
50.5
 40
1.5
 50
0
 51
90
  0
ARC
  8
0
 10
37.5
 20
50.5
 40
1.5
 50
90
 51
180
  0
POLYLINE
  8
0
 66
     1
 10
0
 20
0
  0
VERTEX
  8
0
 10
37.5
 20
28
  0
VERTEX
  8
0
 10
88.5
 20
28
  0
SEQEND
  0
POLYLINE
  8
0
 66
     1
 10
0
 20
0
  0
VERTEX
  8
0
 10
90
 20
29.5
  0
VERTEX
  8
0
 10
90
 20
50.5
  0
SEQEND
  0
POLYLINE
  8
0
 66
     1
 10
0
 20
0
  0
VERTEX
  8
0
 10
88.5
 20
52
  0
VERTEX
  8
0
 10
37.5
 20
52
  0
SEQEND
  0
POLYLINE
  8
0
 66
     1
 10
0
 20
0
  0
VERTEX
  8
0
 10
36
 20
50.5
  0
VERTEX
  8
0
 10
36
 20
29.5
  0
SEQEND
  0
ARC
  8
0
 10
37.5
 20
29.5
 40
1.5
 50
180
 51
270
  0
ARC
  8
0
 10
37.5
 20
29.5
 40
1
 50
180
 51
270
  0
ARC
  8
0
 10
88.5
 20
29.5
 40
1.5
 50
270
 51
360
  0
ARC
  8
0
 10
88.5
 20
29.5
 40
1
 50
270
 51
360
  0
ARC
  8
0
 10
88.5
 20
50.5
 40
1.5
 50
0
 51
90
  0
ARC
  8
0
 10
88.5
 20
50.5
 40
1
 50
0
 51
90
  0
ARC
  8
0
 10
37.5
 20
50.5
 40
1.5
 50
90
 51
180
  0
ARC
  8
0
 10
37.5
 20
50.5
 40
1
 50
90
 51
180
  0
POLYLINE
  8
0
 66
     1
 10
0
 20
0
  0
VERTEX
  8
0
 10
37.5
 20
28.5
  0
VERTEX
  8
0
 10
88.5
 20
28.5
  0
SEQEND
  0
POLYLINE
  8
0
 66
     1
 10
0
 20
0
  0
VERTEX
  8
0
 10
88.5
 20
28
  0
VERTEX
  8
0
 10
37.5
 20
28
  0
SEQEND
  0
POLYLINE
  8
0
 66
     1
 10
0
 20
0
  0
VERTEX
  8
0
 10
89.5
 20
29.5
  0
VERTEX
  8
0
 10
89.5
 20
50.5
  0
SEQEND
  0
POLYLINE
  8
0
 66
     1
 10
0
 20
0
  0
VERTEX
  8
0
 10
90
 20
50.5
  0
VERTEX
  8
0
 10
90
 20
29.5
  0
SEQEND
  0
POLYLINE
  8
0
 66
     1
 10
0
 20
0
  0
VERTEX
  8
0
 10
88.5
 20
51.5
  0
VERTEX
  8
0
 10
37.5
 20
51.5
  0
SEQEND
  0
POLYLINE
  8
0
 66
     1
 10
0
 20
0
  0
VERTEX
  8
0
 10
37.5
 20
52
  0
VERTEX
  8
0
 10
88.5
 20
52
  0
SEQEND
  0
POLYLINE
  8
0
 66
     1
 10
0
 20
0
  0
VERTEX
  8
0
 10
36.5
 20
50.5
  0
VERTEX
  8
0
 10
36.5
 20
29.5
  0
SEQEND
  0
POLYLINE
  8
0
 66
     1
 10
0
 20
0
  0
VERTEX
  8
0
 10
36
 20
29.5
  0
VERTEX
  8
0
 10
36
 20
50.5
  0
SEQEND
  0
TEXT
  8
0
 10
94.35
 20
49.6065
 40
1.2
  1
2.5
 50
90
  7
HIGHWAYSIGNCADPLUS
 72
1
 11
94.35
 21
50.75
  0
LINE
  8
0
 10
92.25
 20
50.75
 11
92.25
 21
52
  0
LINE
  8
0
 10
92.5183
 20
51.4633
 11
92.25
 21
52
  0
LINE
  8
0
 10
91.9817
 20
51.4633
 11
92.25
 21
52
  0
LINE
  8
0
 10
92.55
 20
52
 11
90.75
 21
52
  0
LINE
  8
0
 10
92.25
 20
50.75
 11
92.25
 21
49.5
  0
LINE
  8
0
 10
91.9817
 20
50.0367
 11
92.25
 21
49.5
  0
LINE
  8
0
 10
92.5183
 20
50.0367
 11
92.25
 21
49.5
  0
LINE
  8
0
 10
92.55
 20
49.5
 11
90.75
 21
49.5
  0
TEXT
  8
0
 10
92.85
 20
46.5885
 40
1.2
  1
5
 50
90
  7
HIGHWAYSIGNCADPLUS
 72
1
 11
92.85
 21
47
  0
LINE
  8
0
 10
92.25
 20
47.7115
 11
92.25
 21
49.5
  0
LINE
  8
0
 10
92.5183
 20
48.9633
 11
92.25
 21
49.5
  0
LINE
  8
0
 10
91.9817
 20
48.9633
 11
92.25
 21
49.5
  0
LINE
  8
0
 10
92.25
 20
46.2885
 11
92.25
 21
44.5
  0
LINE
  8
0
 10
91.9817
 20
45.0367
 11
92.25
 21
44.5
  0
LINE
  8
0
 10
92.5183
 20
45.0367
 11
92.25
 21
44.5
  0
LINE
  8
0
 10
92.55
 20
44.5
 11
90.75
 21
44.5
  0
TEXT
  8
0
 10
45.0055
 20
25.15
 40
1.2
  1
21.3
  7
HIGHWAYSIGNCADPLUS
 72
1
 11
46.6264
 21
25.15
  0
LINE
  8
0
 10
48.5474
 20
25.75
 11
57.2528
 21
25.75
  0
LINE
  8
0
 10
56.7162
 20
25.4817
 11
57.2528
 21
25.75
  0
LINE
  8
0
 10
56.7162
 20
26.0183
 11
57.2528
 21
25.75
  0
LINE
  8
0
 10
57.2528
 20
25.45
 11
57.2528
 21
27.25
  0
LINE
  8
0
 10
44.7055
 20
25.75
 11
36
 21
25.75
  0
LINE
  8
0
 10
36.5367
 20
26.0183
 11
36
 21
25.75
  0
LINE
  8
0
 10
36.5367
 20
25.4817
 11
36
 21
25.75
  0
LINE
  8
0
 10
36
 20
25.45
 11
36
 21
27.25
  0
TEXT
  8
0
 10
61.4513
 20
25.15
 40
1.2
  1
11.4
  7
HIGHWAYSIGNCADPLUS
 72
1
 11
63
 21
25.15
  0
LINE
  8
0
 10
64.8487
 20
25.75
 11
68.7472
 21
25.75
  0
LINE
  8
0
 10
68.2105
 20
25.4817
 11
68.7472
 21
25.75
  0
LINE
  8
0
 10
68.2105
 20
26.0183
 11
68.7472
 21
25.75
  0
LINE
  8
0
 10
68.7472
 20
25.45
 11
68.7472
 21
27.25
  0
LINE
  8
0
 10
61.1513
 20
25.75
 11
57.2528
 21
25.75
  0
LINE
  8
0
 10
57.7895
 20
26.0183
 11
57.2528
 21
25.75
  0
LINE
  8
0
 10
57.7895
 20
25.4817
 11
57.2528
 21
25.75
  0
TEXT
  8
0
 10
92.85
 20
43.0885
 40
1.2
  1
2
 50
90
  7
HIGHWAYSIGNCADPLUS
 72
1
 11
92.85
 21
43.5
  0
LINE
  8
0
 10
92.55
 20
42.5
 11
90.75
 21
42.5
  0
TEXT
  8
0
 10
92.85
 20
39.5885
 40
1.2
  1
5
 50
90
  7
HIGHWAYSIGNCADPLUS
 72
1
 11
92.85
 21
40
  0
LINE
  8
0
 10
92.25
 20
40.7115
 11
92.25
 21
42.5
  0
LINE
  8
0
 10
92.5183
 20
41.9633
 11
92.25
 21
42.5
  0
LINE
  8
0
 10
91.9817
 20
41.9633
 11
92.25
 21
42.5
  0
LINE
  8
0
 10
92.25
 20
39.2885
 11
92.25
 21
37.5
  0
LINE
  8
0
 10
91.9817
 20
38.0367
 11
92.25
 21
37.5
  0
LINE
  8
0
 10
92.5183
 20
38.0367
 11
92.25
 21
37.5
  0
LINE
  8
0
 10
92.55
 20
37.5
 11
90.75
 21
37.5
  0
TEXT
  8
0
 10
36.7064
 20
22.15
 40
1.2
  1
3.7
  7
HIGHWAYSIGNCADPLUS
 72
1
 11
37.8342
 21
22.15
  0
LINE
  8
0
 10
39.6683
 20
22.45
 11
39.6683
 21
24.25
  0
LINE
  8
0
 10
36
 20
22.45
 11
36
 21
24.25
  0
TEXT
  8
0
 10
49.1673
 20
22.15
 40
1.2
  1
22.2
  7
HIGHWAYSIGNCADPLUS
 72
1
 11
50.782
 21
22.15
  0
LINE
  8
0
 10
52.6966
 20
22.75
 11
61.8956
 21
22.75
  0
LINE
  8
0
 10
61.3589
 20
22.4817
 11
61.8956
 21
22.75
  0
LINE
  8
0
 10
61.3589
 20
23.0183
 11
61.8956
 21
22.75
  0
LINE
  8
0
 10
61.8956
 20
22.45
 11
61.8956
 21
24.25
  0
LINE
  8
0
 10
48.8673
 20
22.75
 11
39.6683
 21
22.75
  0
LINE
  8
0
 10
40.205
 20
23.0183
 11
39.6683
 21
22.75
  0
LINE
  8
0
 10
40.205
 20
22.4817
 11
39.6683
 21
22.75
  0
TEXT
  8
0
 10
63.9841
 20
22.15
 40
1.2
  1
5
  7
HIGHWAYSIGNCADPLUS
 72
1
 11
64.3956
 21
22.15
  0
LINE
  8
0
 10
65.1071
 20
22.75
 11
66.8956
 21
22.75
  0
LINE
  8
0
 10
66.3589
 20
22.4817
 11
66.8956
 21
22.75
  0
LINE
  8
0
 10
66.3589
 20
23.0183
 11
66.8956
 21
22.75
  0
LINE
  8
0
 10
66.8956
 20
22.45
 11
66.8956
 21
24.25
  0
LINE
  8
0
 10
63.6841
 20
22.75
 11
61.8956
 21
22.75
  0
LINE
  8
0
 10
62.4323
 20
23.0183
 11
61.8956
 21
22.75
  0
LINE
  8
0
 10
62.4323
 20
22.4817
 11
61.8956
 21
22.75
  0
TEXT
  8
0
 10
75.0649
 20
22.15
 40
1.2
  1
19.4
  7
HIGHWAYSIGNCADPLUS
 72
1
 11
76.6136
 21
22.15
  0
LINE
  8
0
 10
78.4623
 20
22.75
 11
86.3317
 21
22.75
  0
LINE
  8
0
 10
85.795
 20
22.4817
 11
86.3317
 21
22.75
  0
LINE
  8
0
 10
85.795
 20
23.0183
 11
86.3317
 21
22.75
  0
LINE
  8
0
 10
86.3317
 20
22.45
 11
86.3317
 21
24.25
  0
LINE
  8
0
 10
74.7649
 20
22.75
 11
66.8956
 21
22.75
  0
LINE
  8
0
 10
67.4323
 20
23.0183
 11
66.8956
 21
22.75
  0
LINE
  8
0
 10
67.4323
 20
22.4817
 11
66.8956
 21
22.75
  0
TEXT
  8
0
 10
92.85
 20
36.0885
 40
1.2
  1
2
 50
90
  7
HIGHWAYSIGNCADPLUS
 72
1
 11
92.85
 21
36.5
  0
LINE
  8
0
 10
92.55
 20
35.5
 11
90.75
 21
35.5
  0
TEXT
  8
0
 10
92.85
 20
34.0885
 40
1.2
  1
2
 50
90
  7
HIGHWAYSIGNCADPLUS
 72
1
 11
92.85
 21
34.5
  0
LINE
  8
0
 10
92.55
 20
33.5
 11
90.75
 21
33.5
  0
TEXT
  8
0
 10
43.4237
 20
19.15
 40
1.2
  1
17.9
  7
HIGHWAYSIGNCADPLUS
 72
1
 11
44.9724
 21
19.15
  0
LINE
  8
0
 10
46.8211
 20
19.75
 11
53.9448
 21
19.75
  0
LINE
  8
0
 10
53.4081
 20
19.4817
 11
53.9448
 21
19.75
  0
LINE
  8
0
 10
53.4081
 20
20.0183
 11
53.9448
 21
19.75
  0
LINE
  8
0
 10
53.9448
 20
19.45
 11
53.9448
 21
21.25
  0
LINE
  8
0
 10
43.1237
 20
19.75
 11
36
 21
19.75
  0
LINE
  8
0
 10
36.5367
 20
20.0183
 11
36
 21
19.75
  0
LINE
  8
0
 10
36.5367
 20
19.4817
 11
36
 21
19.75
  0
LINE
  8
0
 10
36
 20
19.45
 11
36
 21
21.25
  0
TEXT
  8
0
 10
58.9768
 20
19.15
 40
1.2
  1
13.2
  7
HIGHWAYSIGNCADPLUS
 72
1
 11
60.5192
 21
19.15
  0
LINE
  8
0
 10
62.3616
 20
19.75
 11
67.0937
 21
19.75
  0
LINE
  8
0
 10
66.557
 20
19.4817
 11
67.0937
 21
19.75
  0
LINE
  8
0
 10
66.557
 20
20.0183
 11
67.0937
 21
19.75
  0
LINE
  8
0
 10
67.0937
 20
19.45
 11
67.0937
 21
21.25
  0
LINE
  8
0
 10
58.6768
 20
19.75
 11
53.9448
 21
19.75
  0
LINE
  8
0
 10
54.4814
 20
20.0183
 11
53.9448
 21
19.75
  0
LINE
  8
0
 10
54.4814
 20
19.4817
 11
53.9448
 21
19.75
  0
TEXT
  8
0
 10
67.6822
 20
19.15
 40
1.2
  1
2
  7
HIGHWAYSIGNCADPLUS
 72
1
 11
68.0937
 21
19.15
  0
LINE
  8
0
 10
69.0937
 20
19.45
 11
69.0937
 21
21.25
  0
TEXT
  8
0
 10
70.1692
 20
19.15
 40
1.2
  1
3
  7
HIGHWAYSIGNCADPLUS
 72
1
 11
70.5744
 21
19.15
  0
LINE
  8
0
 10
71.2797
 20
19.75
 11
72.0552
 21
19.75
  0
LINE
  8
0
 10
71.5186
 20
19.4817
 11
72.0552
 21
19.75
  0
LINE
  8
0
 10
71.5186
 20
20.0183
 11
72.0552
 21
19.75
  0
LINE
  8
0
 10
72.0552
 20
19.45
 11
72.0552
 21
21.25
  0
LINE
  8
0
 10
69.8692
 20
19.75
 11
69.0937
 21
19.75
  0
LINE
  8
0
 10
69.6303
 20
20.0183
 11
69.0937
 21
19.75
  0
LINE
  8
0
 10
69.6303
 20
19.4817
 11
69.0937
 21
19.75
  0
TEXT
  8
0
 10
94.35
 20
32.7707
 40
1.2
  1
1
 50
90
  7
HIGHWAYSIGNCADPLUS
 72
1
 11
94.35
 21
33
  0
LINE
  8
0
 10
92.55
 20
32.5
 11
90.75
 21
32.5
  0
TEXT
  8
0
 10
92.85
 20
31.0885
 40
1.2
  1
2
 50
90
  7
HIGHWAYSIGNCADPLUS
 72
1
 11
92.85
 21
31.5
  0
LINE
  8
0
 10
92.55
 20
30.5
 11
90.75
 21
30.5
  0
TEXT
  8
0
 10
38.9968
 20
16.15
 40
1.2
  1
8.3
  7
HIGHWAYSIGNCADPLUS
 72
1
 11
40.1308
 21
16.15
  0
LINE
  8
0
 10
41.5648
 20
16.75
 11
44.2616
 21
16.75
  0
LINE
  8
0
 10
43.7249
 20
16.4817
 11
44.2616
 21
16.75
  0
LINE
  8
0
 10
43.7249
 20
17.0183
 11
44.2616
 21
16.75
  0
LINE
  8
0
 10
44.2616
 20
16.45
 11
44.2616
 21
18.25
  0
LINE
  8
0
 10
38.6968
 20
16.75
 11
36
 21
16.75
  0
LINE
  8
0
 10
36.5367
 20
17.0183
 11
36
 21
16.75
  0
LINE
  8
0
 10
36.5367
 20
16.4817
 11
36
 21
16.75
  0
LINE
  8
0
 10
36
 20
16.45
 11
36
 21
18.25
  0
TEXT
  8
0
 10
45.8756
 20
16.15
 40
1.2
  1
5.5
  7
HIGHWAYSIGNCADPLUS
 72
1
 11
47.0096
 21
16.15
  0
LINE
  8
0
 10
48.4436
 20
16.75
 11
49.7576
 21
16.75
  0
LINE
  8
0
 10
49.2209
 20
16.4817
 11
49.7576
 21
16.75
  0
LINE
  8
0
 10
49.2209
 20
17.0183
 11
49.7576
 21
16.75
  0
LINE
  8
0
 10
49.7576
 20
16.45
 11
49.7576
 21
18.25
  0
LINE
  8
0
 10
45.5756
 20
16.75
 11
44.2616
 21
16.75
  0
LINE
  8
0
 10
44.7983
 20
17.0183
 11
44.2616
 21
16.75
  0
LINE
  8
0
 10
44.7983
 20
16.4817
 11
44.2616
 21
16.75
  0
TEXT
  8
0
 10
50.3461
 20
16.15
 40
1.2
  1
2
  7
HIGHWAYSIGNCADPLUS
 72
1
 11
50.7576
 21
16.15
  0
LINE
  8
0
 10
51.7576
 20
16.45
 11
51.7576
 21
18.25
  0
TEXT
  8
0
 10
57.3411
 20
16.15
 40
1.2
  1
14.2
  7
HIGHWAYSIGNCADPLUS
 72
1
 11
58.8835
 21
16.15
  0
LINE
  8
0
 10
60.7259
 20
16.75
 11
66.0094
 21
16.75
  0
LINE
  8
0
 10
65.4727
 20
16.4817
 11
66.0094
 21
16.75
  0
LINE
  8
0
 10
65.4727
 20
17.0183
 11
66.0094
 21
16.75
  0
LINE
  8
0
 10
66.0094
 20
16.45
 11
66.0094
 21
18.25
  0
LINE
  8
0
 10
57.0411
 20
16.75
 11
51.7576
 21
16.75
  0
LINE
  8
0
 10
52.2942
 20
17.0183
 11
51.7576
 21
16.75
  0
LINE
  8
0
 10
52.2942
 20
16.4817
 11
51.7576
 21
16.75
  0
TEXT
  8
0
 10
66.5979
 20
16.15
 40
1.2
  1
2
  7
HIGHWAYSIGNCADPLUS
 72
1
 11
67.0094
 21
16.15
  0
LINE
  8
0
 10
68.0094
 20
16.45
 11
68.0094
 21
18.25
  0
TEXT
  8
0
 10
68.1483
 20
14.65
 40
1.2
  1
2.6
  7
HIGHWAYSIGNCADPLUS
 72
1
 11
69.298
 21
14.65
  0
LINE
  8
0
 10
69.298
 20
16.75
 11
70.5867
 21
16.75
  0
LINE
  8
0
 10
70.0501
 20
16.4817
 11
70.5867
 21
16.75
  0
LINE
  8
0
 10
70.0501
 20
17.0183
 11
70.5867
 21
16.75
  0
LINE
  8
0
 10
70.5867
 20
16.45
 11
70.5867
 21
18.25
  0
LINE
  8
0
 10
69.298
 20
16.75
 11
68.0094
 21
16.75
  0
LINE
  8
0
 10
68.546
 20
17.0183
 11
68.0094
 21
16.75
  0
LINE
  8
0
 10
68.546
 20
16.4817
 11
68.0094
 21
16.75
  0
TEXT
  8
0
 10
71.1752
 20
16.15
 40
1.2
  1
2
  7
HIGHWAYSIGNCADPLUS
 72
1
 11
71.5867
 21
16.15
  0
LINE
  8
0
 10
72.5867
 20
16.45
 11
72.5867
 21
18.25
  0
TEXT
  8
0
 10
76.1479
 20
16.15
 40
1.2
  1
9.1
  7
HIGHWAYSIGNCADPLUS
 72
1
 11
77.1626
 21
16.15
  0
LINE
  8
0
 10
78.4772
 20
16.75
 11
81.7384
 21
16.75
  0
LINE
  8
0
 10
81.2017
 20
16.4817
 11
81.7384
 21
16.75
  0
LINE
  8
0
 10
81.2017
 20
17.0183
 11
81.7384
 21
16.75
  0
LINE
  8
0
 10
81.7384
 20
16.45
 11
81.7384
 21
18.25
  0
LINE
  8
0
 10
75.8479
 20
16.75
 11
72.5867
 21
16.75
  0
LINE
  8
0
 10
73.1234
 20
17.0183
 11
72.5867
 21
16.75
  0
LINE
  8
0
 10
73.1234
 20
16.4817
 11
72.5867
 21
16.75
  0
TEXT
  8
0
 10
77.7526
 20
25.15
 40
1.2
  1
21.3
  7
HIGHWAYSIGNCADPLUS
 72
1
 11
79.3736
 21
25.15
  0
LINE
  8
0
 10
81.2945
 20
25.75
 11
90
 21
25.75
  0
LINE
  8
0
 10
89.4633
 20
25.4817
 11
90
 21
25.75
  0
LINE
  8
0
 10
89.4633
 20
26.0183
 11
90
 21
25.75
  0
LINE
  8
0
 10
90
 20
25.45
 11
90
 21
27.25
  0
LINE
  8
0
 10
77.4526
 20
25.75
 11
68.7472
 21
25.75
  0
LINE
  8
0
 10
69.2838
 20
26.0183
 11
68.7472
 21
25.75
  0
LINE
  8
0
 10
69.2838
 20
25.4817
 11
68.7472
 21
25.75
  0
LINE
  8
0
 10
68.7472
 20
25.45
 11
68.7472
 21
27.25
  0
TEXT
  8
0
 10
87.0381
 20
22.15
 40
1.2
  1
3.7
  7
HIGHWAYSIGNCADPLUS
 72
1
 11
88.1658
 21
22.15
  0
LINE
  8
0
 10
90
 20
22.45
 11
90
 21
24.25
  0
LINE
  8
0
 10
86.3317
 20
22.45
 11
86.3317
 21
24.25
  0
TEXT
  8
0
 10
79.4789
 20
19.15
 40
1.2
  1
17.9
  7
HIGHWAYSIGNCADPLUS
 72
1
 11
81.0276
 21
19.15
  0
LINE
  8
0
 10
82.8763
 20
19.75
 11
90
 21
19.75
  0
LINE
  8
0
 10
89.4633
 20
19.4817
 11
90
 21
19.75
  0
LINE
  8
0
 10
89.4633
 20
20.0183
 11
90
 21
19.75
  0
LINE
  8
0
 10
90
 20
19.45
 11
90
 21
21.25
  0
LINE
  8
0
 10
79.1789
 20
19.75
 11
72.0552
 21
19.75
  0
LINE
  8
0
 10
72.5919
 20
20.0183
 11
72.0552
 21
19.75
  0
LINE
  8
0
 10
72.5919
 20
19.4817
 11
72.0552
 21
19.75
  0
LINE
  8
0
 10
72.0552
 20
19.45
 11
72.0552
 21
21.25
  0
TEXT
  8
0
 10
84.7352
 20
16.15
 40
1.2
  1
8.3
  7
HIGHWAYSIGNCADPLUS
 72
1
 11
85.8692
 21
16.15
  0
LINE
  8
0
 10
87.3032
 20
16.75
 11
90
 21
16.75
  0
LINE
  8
0
 10
89.4633
 20
16.4817
 11
90
 21
16.75
  0
LINE
  8
0
 10
89.4633
 20
17.0183
 11
90
 21
16.75
  0
LINE
  8
0
 10
90
 20
16.45
 11
90
 21
18.25
  0
LINE
  8
0
 10
84.4352
 20
16.75
 11
81.7384
 21
16.75
  0
LINE
  8
0
 10
82.2751
 20
17.0183
 11
81.7384
 21
16.75
  0
LINE
  8
0
 10
82.2751
 20
16.4817
 11
81.7384
 21
16.75
  0
LINE
  8
0
 10
81.7384
 20
16.45
 11
81.7384
 21
18.25
  0
TEXT
  8
0
 10
94.35
 20
28.1065
 40
1.2
  1
2.5
 50
90
  7
HIGHWAYSIGNCADPLUS
 72
1
 11
94.35
 21
29.25
  0
LINE
  8
0
 10
92.25
 20
29.25
 11
92.25
 21
30.5
  0
LINE
  8
0
 10
92.5183
 20
29.9633
 11
92.25
 21
30.5
  0
LINE
  8
0
 10
91.9817
 20
29.9633
 11
92.25
 21
30.5
  0
LINE
  8
0
 10
92.55
 20
30.5
 11
90.75
 21
30.5
  0
LINE
  8
0
 10
92.25
 20
29.25
 11
92.25
 21
28
  0
LINE
  8
0
 10
91.9817
 20
28.5367
 11
92.25
 21
28
  0
LINE
  8
0
 10
92.5183
 20
28.5367
 11
92.25
 21
28
  0
LINE
  8
0
 10
92.55
 20
28
 11
90.75
 21
28
  0
TEXT
  8
0
 10
95.85
 20
39.1016
 40
1.2
  1
24
 50
90
  7
HIGHWAYSIGNCADPLUS
 72
1
 11
95.85
 21
40
  0
LINE
  8
0
 10
95.25
 20
41.1984
 11
95.25
 21
52
  0
LINE
  8
0
 10
95.5183
 20
51.4633
 11
95.25
 21
52
  0
LINE
  8
0
 10
94.9817
 20
51.4633
 11
95.25
 21
52
  0
LINE
  8
0
 10
95.55
 20
52
 11
90.3
 21
52
  0
LINE
  8
0
 10
95.25
 20
38.8016
 11
95.25
 21
28
  0
LINE
  8
0
 10
94.9817
 20
28.5367
 11
95.25
 21
28
  0
LINE
  8
0
 10
95.5183
 20
28.5367
 11
95.25
 21
28
  0
LINE
  8
0
 10
95.55
 20
28
 11
90.3
 21
28
  0
TEXT
  8
0
 10
62.111
 20
13.15
 40
1.2
  1
54
  7
HIGHWAYSIGNCADPLUS
 72
1
 11
63
 21
13.15
  0
LINE
  8
0
 10
64.189
 20
13.75
 11
90
 21
13.75
  0
LINE
  8
0
 10
89.4633
 20
13.4817
 11
90
 21
13.75
  0
LINE
  8
0
 10
89.4633
 20
14.0183
 11
90
 21
13.75
  0
LINE
  8
0
 10
90
 20
13.45
 11
90
 21
27.7
  0
LINE
  8
0
 10
61.811
 20
13.75
 11
36
 21
13.75
  0
LINE
  8
0
 10
36.5367
 20
14.0183
 11
36
 21
13.75
  0
LINE
  8
0
 10
36.5367
 20
13.4817
 11
36
 21
13.75
  0
LINE
  8
0
 10
36
 20
13.45
 11
36
 21
27.7
  0
TEXT
  8
0
 10
36
 20
11.35
 40
1.2
  1
1.5" Radius, 0.5" Border, Yellow on Brown; 
  7
HIGHWAYSIGNCADPLUS
 73
1
 11
36
 21
10.75
  0
TEXT
  8
0
 10
36
 20
8.95
 40
1.2
  1
[NAME] B; [MEMORIAL HIGHWAY] B; [DESIGNATED BY:] C; 
  7
HIGHWAYSIGNCADPLUS
 73
1
 11
36
 21
8.35
  0
TEXT
  8
0
 10
36
 20
6.55
 40
1.2
  1
[YEAR LEGISLATURE OF FLORIDA] C; 
  7
HIGHWAYSIGNCADPLUS
 73
1
 11
36
 21
5.95
  0
TEXT
  8
0
 10
39.6683
 20
37.5
 40
5
  1
M
  7
HIGHWAYBPLUS
  0
TEXT
  8
0
 10
43.022
 20
37.5
 40
5
  1
E
  7
HIGHWAYBPLUS
  0
TEXT
  8
0
 10
45.647
 20
37.5
 40
5
  1
M
  7
HIGHWAYBPLUS
  0
TEXT
  8
0
 10
49.0007
 20
37.5
 40
5
  1
O
  7
HIGHWAYBPLUS
  0
TEXT
  8
0
 10
52.1982
 20
37.5
 40
5
  1
R
  7
HIGHWAYBPLUS
  0
TEXT
  8
0
 10
55.2393
 20
37.5
 40
5
  1
I
  7
HIGHWAYBPLUS
  0
TEXT
  8
0
 10
56.6143
 20
37.5
 40
5
  1
A
  7
HIGHWAYBPLUS
  0
TEXT
  8
0
 10
60.0206
 20
37.5
 40
5
  1
L
  7
HIGHWAYBPLUS
  0
TEXT
  8
0
 10
61.8956
 20
37.5
 40
5
  1
 
  7
HIGHWAYBPLUS
  0
TEXT
  8
0
 10
66.8956
 20
37.5
 40
5
  1
H
  7
HIGHWAYBPLUS
  0
TEXT
  8
0
 10
69.9368
 20
37.5
 40
5
  1
I
  7
HIGHWAYBPLUS
  0
TEXT
  8
0
 10
71.4936
 20
37.5
 40
5
  1
G
  7
HIGHWAYBPLUS
  0
TEXT
  8
0
 10
74.5348
 20
37.5
 40
5
  1
H
  7
HIGHWAYBPLUS
  0
TEXT
  8
0
 10
77.3942
 20
37.5
 40
5
  1
W
  7
HIGHWAYBPLUS
  0
TEXT
  8
0
 10
80.7692
 20
37.5
 40
5
  1
A
  7
HIGHWAYBPLUS
  0
TEXT
  8
0
 10
83.6754
 20
37.5
 40
5
  1
Y
  7
HIGHWAYBPLUS
  0
TEXT
  8
0
 10
53.9448
 20
33.5
 40
2
  1
D
  7
HIGHWAYCPLUS
  0
TEXT
  8
0
 10
55.4597
 20
33.5
 40
2
  1
E
  7
HIGHWAYCPLUS
  0
TEXT
  8
0
 10
56.7974
 20
33.5
 40
2
  1
S
  7
HIGHWAYCPLUS
  0
TEXT
  8
0
 10
58.3123
 20
33.5
 40
2
  1
I
  7
HIGHWAYCPLUS
  0
TEXT
  8
0
 10
59.0147
 20
33.5
 40
2
  1
G
  7
HIGHWAYCPLUS
  0
TEXT
  8
0
 10
60.5295
 20
33.5
 40
2
  1
N
  7
HIGHWAYCPLUS
  0
TEXT
  8
0
 10
61.961
 20
33.5
 40
2
  1
A
  7
HIGHWAYCPLUS
  0
TEXT
  8
0
 10
63.3244
 20
33.5
 40
2
  1
T
  7
HIGHWAYCPLUS
  0
TEXT
  8
0
 10
64.6622
 20
33.5
 40
2
  1
E
  7
HIGHWAYCPLUS
  0
TEXT
  8
0
 10
65.9999
 20
33.5
 40
2
  1
D
  7
HIGHWAYCPLUS
  0
TEXT
  8
0
 10
67.0937
 20
33.5
 40
2
  1
 
  7
HIGHWAYCPLUS
  0
TEXT
  8
0
 10
69.0937
 20
33.5
 40
2
  1
B
  7
HIGHWAYCPLUS
  0
TEXT
  8
0
 10
70.5252
 20
33.5
 40
2
  1
Y
  7
HIGHWAYCPLUS
  0
TEXT
  8
0
 10
71.7752
 20
33.5
 40
2
  1
:
  7
HIGHWAYCPLUS
  0
TEXT
  8
0
 10
44.2616
 20
30.5
 40
2
  1
Y
  7
HIGHWAYCPLUS
  0
TEXT
  8
0
 10
45.8494
 20
30.5
 40
2
  1
E
  7
HIGHWAYCPLUS
  0
TEXT
  8
0
 10
47.076
 20
30.5
 40
2
  1
A
  7
HIGHWAYCPLUS
  0
TEXT
  8
0
 10
48.6638
 20
30.5
 40
2
  1
R
  7
HIGHWAYCPLUS
  0
TEXT
  8
0
 10
49.7576
 20
30.5
 40
2
  1
 
  7
HIGHWAYCPLUS
  0
TEXT
  8
0
 10
51.7576
 20
30.5
 40
2
  1
L
  7
HIGHWAYCPLUS
  0
TEXT
  8
0
 10
53.0953
 20
30.5
 40
2
  1
E
  7
HIGHWAYCPLUS
  0
TEXT
  8
0
 10
54.4331
 20
30.5
 40
2
  1
G
  7
HIGHWAYCPLUS
  0
TEXT
  8
0
 10
55.948
 20
30.5
 40
2
  1
I
  7
HIGHWAYCPLUS
  0
TEXT
  8
0
 10
56.6503
 20
30.5
 40
2
  1
S
  7
HIGHWAYCPLUS
  0
TEXT
  8
0
 10
58.1652
 20
30.5
 40
2
  1
L
  7
HIGHWAYCPLUS
  0
TEXT
  8
0
 10
59.2785
 20
30.5
 40
2
  1
A
  7
HIGHWAYCPLUS
  0
TEXT
  8
0
 10
60.6419
 20
30.5
 40
2
  1
T
  7
HIGHWAYCPLUS
  0
TEXT
  8
0
 10
61.9797
 20
30.5
 40
2
  1
U
  7
HIGHWAYCPLUS
  0
TEXT
  8
0
 10
63.4945
 20
30.5
 40
2
  1
R
  7
HIGHWAYCPLUS
  0
TEXT
  8
0
 10
65.0094
 20
30.5
 40
2
  1
E
  7
HIGHWAYCPLUS
  0
TEXT
  8
0
 10
66.0094
 20
30.5
 40
2
  1
 
  7
HIGHWAYCPLUS
  0
TEXT
  8
0
 10
68.0094
 20
30.5
 40
2
  1
O
  7
HIGHWAYCPLUS
  0
TEXT
  8
0
 10
69.5867
 20
30.5
 40
2
  1
F
  7
HIGHWAYCPLUS
  0
TEXT
  8
0
 10
70.5867
 20
30.5
 40
2
  1
 
  7
HIGHWAYCPLUS
  0
TEXT
  8
0
 10
72.5867
 20
30.5
 40
2
  1
F
  7
HIGHWAYCPLUS
  0
TEXT
  8
0
 10
73.9245
 20
30.5
 40
2
  1
L
  7
HIGHWAYCPLUS
  0
TEXT
  8
0
 10
75.2623
 20
30.5
 40
2
  1
O
  7
HIGHWAYCPLUS
  0
TEXT
  8
0
 10
76.8396
 20
30.5
 40
2
  1
R
  7
HIGHWAYCPLUS
  0
TEXT
  8
0
 10
78.3545
 20
30.5
 40
2
  1
I
  7
HIGHWAYCPLUS
  0
TEXT
  8
0
 10
79.0569
 20
30.5
 40
2
  1
D
  7
HIGHWAYCPLUS
  0
TEXT
  8
0
 10
80.4884
 20
30.5
 40
2
  1
A
  7
HIGHWAYCPLUS
  0
TEXT
  8
0
 10
57.2528
 20
44.5
 40
5
  1
N
  7
HIGHWAYBPLUS
  0
TEXT
  8
0
 10
60.1122
 20
44.5
 40
5
  1
A
  7
HIGHWAYBPLUS
  0
TEXT
  8
0
 10
63.5185
 20
44.5
 40
5
  1
M
  7
HIGHWAYBPLUS
  0
TEXT
  8
0
 10
66.8722
 20
44.5
 40
5
  1
E
  7
HIGHWAYBPLUS
  0
ENDSEC
  0
EOF