  0
SECTION
  2
HEADER
  9
$ACADVER
  1
AC1009
  0
ENDSEC
  0
SECTION
  2
TABLES
  0
TABLE
  2
STYLE
 70
   6
  0
STYLE
  2
STANDARD
 70
    64
 40
0.0
 41
1.0
 50
0.0
 71
     0
 42
1.0
  3
txt
  4

  0
STYLE
  2
HIGHWAYEMOD2K
 70
    64
 40
0.0
 41
1.0
 50
0.0
 71
     0
 42
1.0
  3
Highway E Mod 2K
  4

  0
STYLE
  2
HIGHWAYSIGNCADPLUS
 70
    64
 40
0.0
 41
1.0
 50
0.0
 71
     0
 42
1.0
  3
Highway SignCAD Plus
  4

  0
STYLE
  2
HIGHWAYCPLUS
 70
    64
 40
0.0
 41
1.0
 50
0.0
 71
     0
 42
1.0
  3
Highway C Plus
  4

  0
STYLE
  2
HIGHWAYE2K
 70
    64
 40
0.0
 41
1.0
 50
0.0
 71
     0
 42
1.0
  3
Highway E 2K
  4

  0
STYLE
  2
HIGHWAYC2K
 70
    64
 40
0.0
 41
1.0
 50
0.0
 71
     0
 42
1.0
  3
Highway C 2K
  4

  0
ENDTAB
  0
ENDSEC
  0
SECTION
  2
ENTITIES
  0
ARC
  8
0
 10
147.1853
 20
37.4375
 40
1.5
 50
0
 51
90
  0
ARC
  8
0
 10
102.1853
 20
37.4375
 40
1.5
 50
90
 51
180
  0
POLYLINE
  8
0
 66
     1
 10
0
 20
0
  0
VERTEX
  8
0
 10
148.6853
 20
32.9375
  0
VERTEX
  8
0
 10
148.6853
 20
37.4375
  0
SEQEND
  0
POLYLINE
  8
0
 66
     1
 10
0
 20
0
  0
VERTEX
  8
0
 10
147.1853
 20
38.9375
  0
VERTEX
  8
0
 10
102.1853
 20
38.9375
  0
SEQEND
  0
POLYLINE
  8
0
 66
     1
 10
0
 20
0
  0
VERTEX
  8
0
 10
100.6853
 20
37.4375
  0
VERTEX
  8
0
 10
100.6853
 20
32.9375
  0
SEQEND
  0
ARC
  8
0
 10
147.1853
 20
37.4375
 40
0.76
 50
0
 51
90
  0
ARC
  8
0
 10
147.1853
 20
37.4375
 40
0.00999999
 50
0
 51
90
  0
ARC
  8
0
 10
102.1853
 20
37.4375
 40
0.76
 50
90
 51
180
  0
ARC
  8
0
 10
102.1853
 20
37.4375
 40
0.00999999
 50
90
 51
180
  0
POLYLINE
  8
0
 66
     1
 10
0
 20
0
  0
VERTEX
  8
0
 10
147.1953
 20
32.9375
  0
VERTEX
  8
0
 10
147.1953
 20
37.4375
  0
SEQEND
  0
POLYLINE
  8
0
 66
     1
 10
0
 20
0
  0
VERTEX
  8
0
 10
147.9453
 20
37.4375
  0
VERTEX
  8
0
 10
147.9453
 20
32.9375
  0
SEQEND
  0
POLYLINE
  8
0
 66
     1
 10
0
 20
0
  0
VERTEX
  8
0
 10
147.1853
 20
37.4475
  0
VERTEX
  8
0
 10
102.1853
 20
37.4475
  0
SEQEND
  0
POLYLINE
  8
0
 66
     1
 10
0
 20
0
  0
VERTEX
  8
0
 10
102.1853
 20
38.1975
  0
VERTEX
  8
0
 10
147.1853
 20
38.1975
  0
SEQEND
  0
POLYLINE
  8
0
 66
     1
 10
0
 20
0
  0
VERTEX
  8
0
 10
102.1753
 20
37.4375
  0
VERTEX
  8
0
 10
102.1753
 20
32.9375
  0
SEQEND
  0
POLYLINE
  8
0
 66
     1
 10
0
 20
0
  0
VERTEX
  8
0
 10
101.4253
 20
32.9375
  0
VERTEX
  8
0
 10
101.4253
 20
37.4375
  0
SEQEND
  0
TEXT
  8
0
 10
149.8728
 20
37.0899
 40
0.5
  1
2.7
 50
90
  7
HIGHWAYSIGNCADPLUS
 72
1
 11
149.8728
 21
37.565
  0
LINE
  8
0
 10
149.6228
 20
38.1651
 11
149.6228
 21
38.9375
  0
LINE
  8
0
 10
149.7346
 20
38.7139
 11
149.6228
 21
38.9375
  0
LINE
  8
0
 10
149.511
 20
38.7139
 11
149.6228
 21
38.9375
  0
LINE
  8
0
 10
149.7478
 20
38.9375
 11
148.9978
 21
38.9375
  0
LINE
  8
0
 10
149.6228
 20
36.9649
 11
149.6228
 21
36.1925
  0
LINE
  8
0
 10
149.511
 20
36.4161
 11
149.6228
 21
36.1925
  0
LINE
  8
0
 10
149.7346
 20
36.4161
 11
149.6228
 21
36.1925
  0
LINE
  8
0
 10
149.7478
 20
36.1925
 11
148.9978
 21
36.1925
  0
TEXT
  8
0
 10
149.8728
 20
34.0132
 40
0.5
  1
4
 50
90
  7
HIGHWAYSIGNCADPLUS
 72
1
 11
149.8728
 21
34.1925
  0
LINE
  8
0
 10
149.6228
 20
34.4968
 11
149.6228
 21
36.1925
  0
LINE
  8
0
 10
149.7346
 20
35.9689
 11
149.6228
 21
36.1925
  0
LINE
  8
0
 10
149.511
 20
35.9689
 11
149.6228
 21
36.1925
  0
LINE
  8
0
 10
149.6228
 20
33.8882
 11
149.6228
 21
32.1925
  0
LINE
  8
0
 10
149.511
 20
32.4161
 11
149.6228
 21
32.1925
  0
LINE
  8
0
 10
149.7346
 20
32.4161
 11
149.6228
 21
32.1925
  0
LINE
  8
0
 10
149.7478
 20
32.1925
 11
148.9978
 21
32.1925
  0
TEXT
  8
0
 10
102.3049
 20
39.625
 40
0.5
  1
4.2
  7
HIGHWAYSIGNCADPLUS
 72
1
 11
102.7853
 21
39.625
  0
LINE
  8
0
 10
103.3907
 20
39.875
 11
104.8853
 21
39.875
  0
LINE
  8
0
 10
104.6617
 20
39.7632
 11
104.8853
 21
39.875
  0
LINE
  8
0
 10
104.6617
 20
39.9868
 11
104.8853
 21
39.875
  0
LINE
  8
0
 10
104.8853
 20
40
 11
104.8853
 21
39.25
  0
LINE
  8
0
 10
102.1799
 20
39.875
 11
100.6853
 21
39.875
  0
LINE
  8
0
 10
100.9089
 20
39.9868
 11
100.6853
 21
39.875
  0
LINE
  8
0
 10
100.9089
 20
39.7632
 11
100.6853
 21
39.875
  0
LINE
  8
0
 10
100.6853
 20
40
 11
100.6853
 21
39.25
  0
TEXT
  8
0
 10
124.0112
 20
39.625
 40
0.5
  1
39.6
  7
HIGHWAYSIGNCADPLUS
 72
1
 11
124.6853
 21
39.625
  0
LINE
  8
0
 10
125.4844
 20
39.875
 11
144.4853
 21
39.875
  0
LINE
  8
0
 10
144.2617
 20
39.7632
 11
144.4853
 21
39.875
  0
LINE
  8
0
 10
144.2617
 20
39.9868
 11
144.4853
 21
39.875
  0
LINE
  8
0
 10
144.4853
 20
40
 11
144.4853
 21
39.25
  0
LINE
  8
0
 10
123.8862
 20
39.875
 11
104.8853
 21
39.875
  0
LINE
  8
0
 10
105.1089
 20
39.9868
 11
104.8853
 21
39.875
  0
LINE
  8
0
 10
105.1089
 20
39.7632
 11
104.8853
 21
39.875
  0
TEXT
  8
0
 10
146.1049
 20
39.625
 40
0.5
  1
4.2
  7
HIGHWAYSIGNCADPLUS
 72
1
 11
146.5853
 21
39.625
  0
LINE
  8
0
 10
147.1907
 20
39.875
 11
148.6853
 21
39.875
  0
LINE
  8
0
 10
148.4617
 20
39.7632
 11
148.6853
 21
39.875
  0
LINE
  8
0
 10
148.4617
 20
39.9868
 11
148.6853
 21
39.875
  0
LINE
  8
0
 10
148.6853
 20
40
 11
148.6853
 21
39.25
  0
LINE
  8
0
 10
145.9799
 20
39.875
 11
144.4853
 21
39.875
  0
LINE
  8
0
 10
144.7089
 20
39.9868
 11
144.4853
 21
39.875
  0
LINE
  8
0
 10
144.7089
 20
39.7632
 11
144.4853
 21
39.875
  0
LINE
  8
0
 10
144.4853
 20
40
 11
144.4853
 21
39.25
  0
TEXT
  8
0
 10
150.4978
 20
32.0925
 40
0.5
  1
0.8
 50
90
  7
HIGHWAYSIGNCADPLUS
 72
1
 11
150.4978
 21
32.565
  0
LINE
  8
0
 10
149.6228
 20
32.565
 11
149.6228
 21
32.9375
  0
LINE
  8
0
 10
149.7346
 20
32.7139
 11
149.6228
 21
32.9375
  0
LINE
  8
0
 10
149.511
 20
32.7139
 11
149.6228
 21
32.9375
  0
LINE
  8
0
 10
149.7478
 20
32.9375
 11
148.9978
 21
32.9375
  0
LINE
  8
0
 10
149.6228
 20
32.565
 11
149.6228
 21
32.1925
  0
LINE
  8
0
 10
149.511
 20
32.4161
 11
149.6228
 21
32.1925
  0
LINE
  8
0
 10
149.7346
 20
32.4161
 11
149.6228
 21
32.1925
  0
LINE
  8
0
 10
149.7478
 20
32.1925
 11
148.9978
 21
32.1925
  0
TEXT
  8
0
 10
151.1228
 20
35.7621
 40
0.5
  1
6
 50
90
  7
HIGHWAYSIGNCADPLUS
 72
1
 11
151.1228
 21
35.9375
  0
LINE
  8
0
 10
150.8728
 20
36.2379
 11
150.8728
 21
38.9375
  0
LINE
  8
0
 10
150.9846
 20
38.7139
 11
150.8728
 21
38.9375
  0
LINE
  8
0
 10
150.761
 20
38.7139
 11
150.8728
 21
38.9375
  0
LINE
  8
0
 10
150.9978
 20
38.9375
 11
148.8103
 21
38.9375
  0
LINE
  8
0
 10
150.8728
 20
35.6371
 11
150.8728
 21
32.9375
  0
LINE
  8
0
 10
150.761
 20
33.1611
 11
150.8728
 21
32.9375
  0
LINE
  8
0
 10
150.9846
 20
33.1611
 11
150.8728
 21
32.9375
  0
LINE
  8
0
 10
150.9978
 20
32.9375
 11
148.8103
 21
32.9375
  0
TEXT
  8
0
 10
124.3031
 20
40.875
 40
0.5
  1
48
  7
HIGHWAYSIGNCADPLUS
 72
1
 11
124.6853
 21
40.875
  0
LINE
  8
0
 10
125.1925
 20
41.125
 11
148.6853
 21
41.125
  0
LINE
  8
0
 10
148.4617
 20
41.0132
 11
148.6853
 21
41.125
  0
LINE
  8
0
 10
148.4617
 20
41.2368
 11
148.6853
 21
41.125
  0
LINE
  8
0
 10
148.6853
 20
41.25
 11
148.6853
 21
39.0625
  0
LINE
  8
0
 10
124.1781
 20
41.125
 11
100.6853
 21
41.125
  0
LINE
  8
0
 10
100.9089
 20
41.2368
 11
100.6853
 21
41.125
  0
LINE
  8
0
 10
100.9089
 20
41.0132
 11
100.6853
 21
41.125
  0
LINE
  8
0
 10
100.6853
 20
41.25
 11
100.6853
 21
39.0625
  0
TEXT
  8
0
 10
100.6853
 20
3.25
 40
0.5
  1
1.5" Radius, 0.8" Border, 0.7" Indent, Blue on White; 
  7
HIGHWAYSIGNCADPLUS
 73
1
 11
100.6853
 21
3
  0
TEXT
  8
0
 10
100.6853
 20
2.25
 40
0.5
  1
[ADOPT-A-HIGHWAY] C 2K; 
  7
HIGHWAYSIGNCADPLUS
 73
1
 11
100.6853
 21
2
  0
ARC
  8
0
 10
102.1853
 20
10.4375
 40
1.5
 50
180
 51
270
  0
ARC
  8
0
 10
147.1853
 20
10.4375
 40
1.5
 50
270
 51
360
  0
POLYLINE
  8
0
 66
     1
 10
0
 20
0
  0
VERTEX
  8
0
 10
102.1853
 20
8.9375
  0
VERTEX
  8
0
 10
147.1853
 20
8.9375
  0
SEQEND
  0
POLYLINE
  8
0
 66
     1
 10
0
 20
0
  0
VERTEX
  8
0
 10
148.6853
 20
10.4375
  0
VERTEX
  8
0
 10
148.6853
 20
32.9375
  0
SEQEND
  0
POLYLINE
  8
0
 66
     1
 10
0
 20
0
  0
VERTEX
  8
0
 10
100.6853
 20
32.9375
  0
VERTEX
  8
0
 10
100.6853
 20
10.4375
  0
SEQEND
  0
ARC
  8
0
 10
102.1853
 20
10.4375
 40
0.76
 50
180
 51
270
  0
ARC
  8
0
 10
102.1853
 20
10.4375
 40
0.00999999
 50
180
 51
270
  0
ARC
  8
0
 10
147.1853
 20
10.4375
 40
0.76
 50
270
 51
360
  0
ARC
  8
0
 10
147.1853
 20
10.4375
 40
0.00999999
 50
270
 51
360
  0
POLYLINE
  8
0
 66
     1
 10
0
 20
0
  0
VERTEX
  8
0
 10
102.1853
 20
10.4275
  0
VERTEX
  8
0
 10
147.1853
 20
10.4275
  0
SEQEND
  0
POLYLINE
  8
0
 66
     1
 10
0
 20
0
  0
VERTEX
  8
0
 10
147.1853
 20
9.6775
  0
VERTEX
  8
0
 10
102.1853
 20
9.6775
  0
SEQEND
  0
POLYLINE
  8
0
 66
     1
 10
0
 20
0
  0
VERTEX
  8
0
 10
147.1953
 20
10.4375
  0
VERTEX
  8
0
 10
147.1953
 20
32.9375
  0
SEQEND
  0
POLYLINE
  8
0
 66
     1
 10
0
 20
0
  0
VERTEX
  8
0
 10
147.9453
 20
32.9375
  0
VERTEX
  8
0
 10
147.9453
 20
10.4375
  0
SEQEND
  0
POLYLINE
  8
0
 66
     1
 10
0
 20
0
  0
VERTEX
  8
0
 10
102.1753
 20
32.9375
  0
VERTEX
  8
0
 10
102.1753
 20
10.4375
  0
SEQEND
  0
POLYLINE
  8
0
 66
     1
 10
0
 20
0
  0
VERTEX
  8
0
 10
101.4253
 20
10.4375
  0
VERTEX
  8
0
 10
101.4253
 20
32.9375
  0
SEQEND
  0
TEXT
  8
0
 10
149.8728
 20
31.2061
 40
0.5
  1
2.5
 50
90
  7
HIGHWAYSIGNCADPLUS
 72
1
 11
149.8728
 21
31.6825
  0
LINE
  8
0
 10
149.6228
 20
32.2839
 11
149.6228
 21
32.9375
  0
LINE
  8
0
 10
149.7346
 20
32.7139
 11
149.6228
 21
32.9375
  0
LINE
  8
0
 10
149.511
 20
32.7139
 11
149.6228
 21
32.9375
  0
LINE
  8
0
 10
149.7478
 20
32.9375
 11
148.9978
 21
32.9375
  0
LINE
  8
0
 10
149.6228
 20
31.0811
 11
149.6228
 21
30.4275
  0
LINE
  8
0
 10
149.511
 20
30.6511
 11
149.6228
 21
30.4275
  0
LINE
  8
0
 10
149.7346
 20
30.6511
 11
149.6228
 21
30.4275
  0
LINE
  8
0
 10
149.7478
 20
30.4275
 11
148.9978
 21
30.4275
  0
TEXT
  8
0
 10
149.8728
 20
20.0532
 40
0.5
  1
20
 50
90
  7
HIGHWAYSIGNCADPLUS
 72
1
 11
149.8728
 21
20.4275
  0
LINE
  8
0
 10
149.6228
 20
20.9268
 11
149.6228
 21
30.4275
  0
LINE
  8
0
 10
149.7346
 20
30.2039
 11
149.6228
 21
30.4275
  0
LINE
  8
0
 10
149.511
 20
30.2039
 11
149.6228
 21
30.4275
  0
LINE
  8
0
 10
149.6228
 20
19.9282
 11
149.6228
 21
10.4275
  0
LINE
  8
0
 10
149.511
 20
10.6511
 11
149.6228
 21
10.4275
  0
LINE
  8
0
 10
149.7346
 20
10.6511
 11
149.6228
 21
10.4275
  0
LINE
  8
0
 10
149.7478
 20
10.4275
 11
148.9978
 21
10.4275
  0
TEXT
  8
0
 10
101.1259
 20
7.75
 40
0.5
  1
1.8
  7
HIGHWAYSIGNCADPLUS
 72
1
 11
101.5748
 21
7.75
  0
LINE
  8
0
 10
102.1488
 20
8
 11
102.4643
 21
8
  0
LINE
  8
0
 10
102.2407
 20
7.8882
 11
102.4643
 21
8
  0
LINE
  8
0
 10
102.2407
 20
8.1118
 11
102.4643
 21
8
  0
LINE
  8
0
 10
102.4643
 20
7.875
 11
102.4643
 21
8.625
  0
LINE
  8
0
 10
101.0009
 20
8
 11
100.6853
 21
8
  0
LINE
  8
0
 10
100.9089
 20
8.1118
 11
100.6853
 21
8
  0
LINE
  8
0
 10
100.9089
 20
7.8882
 11
100.6853
 21
8
  0
LINE
  8
0
 10
100.6853
 20
7.875
 11
100.6853
 21
8.625
  0
TEXT
  8
0
 10
112.09
 20
7.75
 40
0.5
  1
20
  7
HIGHWAYSIGNCADPLUS
 72
1
 11
112.4643
 21
7.75
  0
LINE
  8
0
 10
112.9637
 20
8
 11
122.4643
 21
8
  0
LINE
  8
0
 10
122.2407
 20
7.8882
 11
122.4643
 21
8
  0
LINE
  8
0
 10
122.2407
 20
8.1118
 11
122.4643
 21
8
  0
LINE
  8
0
 10
122.4643
 20
7.875
 11
122.4643
 21
8.625
  0
LINE
  8
0
 10
111.965
 20
8
 11
102.4643
 21
8
  0
LINE
  8
0
 10
102.6879
 20
8.1118
 11
102.4643
 21
8
  0
LINE
  8
0
 10
102.6879
 20
7.8882
 11
102.4643
 21
8
  0
TEXT
  8
0
 10
151.1228
 20
30.7113
 40
0.5
  1
3.5
 50
90
  7
HIGHWAYSIGNCADPLUS
 72
1
 11
151.1228
 21
31.1825
  0
LINE
  8
0
 10
150.8728
 20
31.7787
 11
150.8728
 21
32.9375
  0
LINE
  8
0
 10
150.9846
 20
32.7139
 11
150.8728
 21
32.9375
  0
LINE
  8
0
 10
150.761
 20
32.7139
 11
150.8728
 21
32.9375
  0
LINE
  8
0
 10
150.9978
 20
32.9375
 11
150.2478
 21
32.9375
  0
LINE
  8
0
 10
150.8728
 20
30.5863
 11
150.8728
 21
29.4275
  0
LINE
  8
0
 10
150.761
 20
29.6511
 11
150.8728
 21
29.4275
  0
LINE
  8
0
 10
150.9846
 20
29.6511
 11
150.8728
 21
29.4275
  0
LINE
  8
0
 10
150.9978
 20
29.4275
 11
150.2478
 21
29.4275
  0
TEXT
  8
0
 10
151.1228
 20
28.2547
 40
0.5
  1
2
 50
90
  7
HIGHWAYSIGNCADPLUS
 72
1
 11
151.1228
 21
28.4275
  0
LINE
  8
0
 10
150.8728
 20
28.7253
 11
150.8728
 21
29.4275
  0
LINE
  8
0
 10
150.9846
 20
29.2039
 11
150.8728
 21
29.4275
  0
LINE
  8
0
 10
150.761
 20
29.2039
 11
150.8728
 21
29.4275
  0
LINE
  8
0
 10
150.8728
 20
28.1297
 11
150.8728
 21
27.4275
  0
LINE
  8
0
 10
150.761
 20
27.6511
 11
150.8728
 21
27.4275
  0
LINE
  8
0
 10
150.9846
 20
27.6511
 11
150.8728
 21
27.4275
  0
LINE
  8
0
 10
150.9978
 20
27.4275
 11
150.2478
 21
27.4275
  0
TEXT
  8
0
 10
121.5203
 20
7.125
 40
0.5
  1
0.9
  7
HIGHWAYSIGNCADPLUS
 72
1
 11
121.9928
 21
7.125
  0
LINE
  8
0
 10
121.9928
 20
8
 11
122.4643
 21
8
  0
LINE
  8
0
 10
122.2407
 20
7.8882
 11
122.4643
 21
8
  0
LINE
  8
0
 10
122.2407
 20
8.1118
 11
122.4643
 21
8
  0
LINE
  8
0
 10
122.4643
 20
7.875
 11
122.4643
 21
8.625
  0
LINE
  8
0
 10
121.9928
 20
8
 11
121.5213
 21
8
  0
LINE
  8
0
 10
121.7449
 20
8.1118
 11
121.5213
 21
8
  0
LINE
  8
0
 10
121.7449
 20
7.8882
 11
121.5213
 21
8
  0
TEXT
  8
0
 10
122.3585
 20
7.75
 40
0.5
  1
2
  7
HIGHWAYSIGNCADPLUS
 72
1
 11
122.5313
 21
7.75
  0
LINE
  8
0
 10
122.8291
 20
8
 11
123.5413
 21
8
  0
LINE
  8
0
 10
123.3177
 20
7.8882
 11
123.5413
 21
8
  0
LINE
  8
0
 10
123.3177
 20
8.1118
 11
123.5413
 21
8
  0
LINE
  8
0
 10
123.5413
 20
7.875
 11
123.5413
 21
8.625
  0
LINE
  8
0
 10
122.2335
 20
8
 11
121.5213
 21
8
  0
LINE
  8
0
 10
121.7449
 20
8.1118
 11
121.5213
 21
8
  0
LINE
  8
0
 10
121.7449
 20
7.8882
 11
121.5213
 21
8
  0
TEXT
  8
0
 10
123.8423
 20
7.75
 40
0.5
  1
1.5
  7
HIGHWAYSIGNCADPLUS
 72
1
 11
124.2913
 21
7.75
  0
LINE
  8
0
 10
125.0413
 20
7.875
 11
125.0413
 21
8.625
  0
TEXT
  8
0
 10
132.3121
 20
7.75
 40
0.5
  1
15.9
  7
HIGHWAYSIGNCADPLUS
 72
1
 11
132.9613
 21
7.75
  0
LINE
  8
0
 10
133.7355
 20
8
 11
140.8813
 21
8
  0
LINE
  8
0
 10
140.6577
 20
7.8882
 11
140.8813
 21
8
  0
LINE
  8
0
 10
140.6577
 20
8.1118
 11
140.8813
 21
8
  0
LINE
  8
0
 10
140.8813
 20
7.875
 11
140.8813
 21
8.625
  0
LINE
  8
0
 10
132.1871
 20
8
 11
125.0413
 21
8
  0
LINE
  8
0
 10
125.2649
 20
8.1118
 11
125.0413
 21
8
  0
LINE
  8
0
 10
125.2649
 20
7.8882
 11
125.0413
 21
8
  0
TEXT
  8
0
 10
141.1823
 20
7.75
 40
0.5
  1
1.5
  7
HIGHWAYSIGNCADPLUS
 72
1
 11
141.6313
 21
7.75
  0
LINE
  8
0
 10
142.3813
 20
7.875
 11
142.3813
 21
8.625
  0
TEXT
  8
0
 10
144.0633
 20
7.75
 40
0.5
  1
4.3
  7
HIGHWAYSIGNCADPLUS
 72
1
 11
144.5463
 21
7.75
  0
LINE
  8
0
 10
145.1542
 20
8
 11
146.7113
 21
8
  0
LINE
  8
0
 10
146.4877
 20
7.8882
 11
146.7113
 21
8
  0
LINE
  8
0
 10
146.4877
 20
8.1118
 11
146.7113
 21
8
  0
LINE
  8
0
 10
146.7113
 20
7.875
 11
146.7113
 21
8.625
  0
LINE
  8
0
 10
143.9383
 20
8
 11
142.3813
 21
8
  0
LINE
  8
0
 10
142.6049
 20
8.1118
 11
142.3813
 21
8
  0
LINE
  8
0
 10
142.6049
 20
7.8882
 11
142.3813
 21
8
  0
TEXT
  8
0
 10
151.1228
 20
26.2547
 40
0.5
  1
2
 50
90
  7
HIGHWAYSIGNCADPLUS
 72
1
 11
151.1228
 21
26.4275
  0
LINE
  8
0
 10
150.8728
 20
26.7253
 11
150.8728
 21
27.4275
  0
LINE
  8
0
 10
150.9846
 20
27.2039
 11
150.8728
 21
27.4275
  0
LINE
  8
0
 10
150.761
 20
27.2039
 11
150.8728
 21
27.4275
  0
LINE
  8
0
 10
150.8728
 20
26.1297
 11
150.8728
 21
25.4275
  0
LINE
  8
0
 10
150.761
 20
25.6511
 11
150.8728
 21
25.4275
  0
LINE
  8
0
 10
150.9846
 20
25.6511
 11
150.8728
 21
25.4275
  0
LINE
  8
0
 10
150.9978
 20
25.4275
 11
150.2478
 21
25.4275
  0
TEXT
  8
0
 10
151.1228
 20
24.2547
 40
0.5
  1
2
 50
90
  7
HIGHWAYSIGNCADPLUS
 72
1
 11
151.1228
 21
24.4275
  0
LINE
  8
0
 10
150.8728
 20
24.7253
 11
150.8728
 21
25.4275
  0
LINE
  8
0
 10
150.9846
 20
25.2039
 11
150.8728
 21
25.4275
  0
LINE
  8
0
 10
150.761
 20
25.2039
 11
150.8728
 21
25.4275
  0
LINE
  8
0
 10
150.8728
 20
24.1297
 11
150.8728
 21
23.4275
  0
LINE
  8
0
 10
150.761
 20
23.6511
 11
150.8728
 21
23.4275
  0
LINE
  8
0
 10
150.9846
 20
23.6511
 11
150.8728
 21
23.4275
  0
LINE
  8
0
 10
150.9978
 20
23.4275
 11
150.2478
 21
23.4275
  0
TEXT
  8
0
 10
112.9741
 20
6.5
 40
0.5
  1
25.9
  7
HIGHWAYSIGNCADPLUS
 72
1
 11
113.6508
 21
6.5
  0
LINE
  8
0
 10
114.4525
 20
6.75
 11
126.6163
 21
6.75
  0
LINE
  8
0
 10
126.3927
 20
6.6382
 11
126.6163
 21
6.75
  0
LINE
  8
0
 10
126.3927
 20
6.8618
 11
126.6163
 21
6.75
  0
LINE
  8
0
 10
126.6163
 20
6.625
 11
126.6163
 21
7.375
  0
LINE
  8
0
 10
112.8491
 20
6.75
 11
100.6853
 21
6.75
  0
LINE
  8
0
 10
100.9089
 20
6.8618
 11
100.6853
 21
6.75
  0
LINE
  8
0
 10
100.9089
 20
6.6382
 11
100.6853
 21
6.75
  0
LINE
  8
0
 10
100.6853
 20
6.625
 11
100.6853
 21
7.375
  0
TEXT
  8
0
 10
129.9125
 20
6.5
 40
0.5
  1
7.6
  7
HIGHWAYSIGNCADPLUS
 72
1
 11
130.3863
 21
6.5
  0
LINE
  8
0
 10
130.9851
 20
6.75
 11
134.1563
 21
6.75
  0
LINE
  8
0
 10
133.9327
 20
6.6382
 11
134.1563
 21
6.75
  0
LINE
  8
0
 10
133.9327
 20
6.8618
 11
134.1563
 21
6.75
  0
LINE
  8
0
 10
134.1563
 20
6.625
 11
134.1563
 21
7.375
  0
LINE
  8
0
 10
129.7875
 20
6.75
 11
126.6163
 21
6.75
  0
LINE
  8
0
 10
126.8399
 20
6.8618
 11
126.6163
 21
6.75
  0
LINE
  8
0
 10
126.8399
 20
6.6382
 11
126.6163
 21
6.75
  0
TEXT
  8
0
 10
133.9338
 20
5.875
 40
0.5
  1
0.5
  7
HIGHWAYSIGNCADPLUS
 72
1
 11
134.4063
 21
5.875
  0
LINE
  8
0
 10
134.6563
 20
6.625
 11
134.6563
 21
7.375
  0
TEXT
  8
0
 10
134.5351
 20
5.875
 40
0.5
  1
0.7
  7
HIGHWAYSIGNCADPLUS
 72
1
 11
135.0063
 21
5.875
  0
LINE
  8
0
 10
135.3563
 20
6.625
 11
135.3563
 21
7.375
  0
TEXT
  8
0
 10
135.1338
 20
5.875
 40
0.5
  1
0.5
  7
HIGHWAYSIGNCADPLUS
 72
1
 11
135.6063
 21
5.875
  0
LINE
  8
0
 10
135.8563
 20
6.625
 11
135.8563
 21
7.375
  0
TEXT
  8
0
 10
138.2651
 20
6.5
 40
0.5
  1
5.7
  7
HIGHWAYSIGNCADPLUS
 72
1
 11
138.7363
 21
6.5
  0
LINE
  8
0
 10
139.3325
 20
6.75
 11
141.6163
 21
6.75
  0
LINE
  8
0
 10
141.3927
 20
6.6382
 11
141.6163
 21
6.75
  0
LINE
  8
0
 10
141.3927
 20
6.8618
 11
141.6163
 21
6.75
  0
LINE
  8
0
 10
141.6163
 20
6.625
 11
141.6163
 21
7.375
  0
LINE
  8
0
 10
138.1401
 20
6.75
 11
135.8563
 21
6.75
  0
LINE
  8
0
 10
136.0799
 20
6.8618
 11
135.8563
 21
6.75
  0
LINE
  8
0
 10
136.0799
 20
6.6382
 11
135.8563
 21
6.75
  0
TEXT
  8
0
 10
151.1228
 20
22.2547
 40
0.5
  1
2
 50
90
  7
HIGHWAYSIGNCADPLUS
 72
1
 11
151.1228
 21
22.4275
  0
LINE
  8
0
 10
150.8728
 20
22.7253
 11
150.8728
 21
23.4275
  0
LINE
  8
0
 10
150.9846
 20
23.2039
 11
150.8728
 21
23.4275
  0
LINE
  8
0
 10
150.761
 20
23.2039
 11
150.8728
 21
23.4275
  0
LINE
  8
0
 10
150.8728
 20
22.1297
 11
150.8728
 21
21.4275
  0
LINE
  8
0
 10
150.761
 20
21.6511
 11
150.8728
 21
21.4275
  0
LINE
  8
0
 10
150.9846
 20
21.6511
 11
150.8728
 21
21.4275
  0
LINE
  8
0
 10
150.9978
 20
21.4275
 11
150.2478
 21
21.4275
  0
TEXT
  8
0
 10
151.1228
 20
20.2547
 40
0.5
  1
2
 50
90
  7
HIGHWAYSIGNCADPLUS
 72
1
 11
151.1228
 21
20.4275
  0
LINE
  8
0
 10
150.8728
 20
20.7253
 11
150.8728
 21
21.4275
  0
LINE
  8
0
 10
150.9846
 20
21.2039
 11
150.8728
 21
21.4275
  0
LINE
  8
0
 10
150.761
 20
21.2039
 11
150.8728
 21
21.4275
  0
LINE
  8
0
 10
150.8728
 20
20.1297
 11
150.8728
 21
19.4275
  0
LINE
  8
0
 10
150.761
 20
19.6511
 11
150.8728
 21
19.4275
  0
LINE
  8
0
 10
150.9846
 20
19.6511
 11
150.8728
 21
19.4275
  0
LINE
  8
0
 10
150.9978
 20
19.4275
 11
150.2478
 21
19.4275
  0
TEXT
  8
0
 10
110.8265
 20
5.25
 40
0.5
  1
21.6
  7
HIGHWAYSIGNCADPLUS
 72
1
 11
111.5058
 21
5.25
  0
LINE
  8
0
 10
112.3101
 20
5.5
 11
122.3263
 21
5.5
  0
LINE
  8
0
 10
122.1027
 20
5.3882
 11
122.3263
 21
5.5
  0
LINE
  8
0
 10
122.1027
 20
5.6118
 11
122.3263
 21
5.5
  0
LINE
  8
0
 10
122.3263
 20
5.375
 11
122.3263
 21
6.125
  0
LINE
  8
0
 10
110.7015
 20
5.5
 11
100.6853
 21
5.5
  0
LINE
  8
0
 10
100.9089
 20
5.6118
 11
100.6853
 21
5.5
  0
LINE
  8
0
 10
100.9089
 20
5.3882
 11
100.6853
 21
5.5
  0
LINE
  8
0
 10
100.6853
 20
5.375
 11
100.6853
 21
6.125
  0
TEXT
  8
0
 10
126.4198
 20
5.25
 40
0.5
  1
9.1
  7
HIGHWAYSIGNCADPLUS
 72
1
 11
126.8413
 21
5.25
  0
LINE
  8
0
 10
127.3877
 20
5.5
 11
131.3563
 21
5.5
  0
LINE
  8
0
 10
131.1327
 20
5.3882
 11
131.3563
 21
5.5
  0
LINE
  8
0
 10
131.1327
 20
5.6118
 11
131.3563
 21
5.5
  0
LINE
  8
0
 10
131.3563
 20
5.375
 11
131.3563
 21
6.125
  0
LINE
  8
0
 10
126.2948
 20
5.5
 11
122.3263
 21
5.5
  0
LINE
  8
0
 10
122.5499
 20
5.6118
 11
122.3263
 21
5.5
  0
LINE
  8
0
 10
122.5499
 20
5.3882
 11
122.3263
 21
5.5
  0
TEXT
  8
0
 10
131.6573
 20
5.25
 40
0.5
  1
1.5
  7
HIGHWAYSIGNCADPLUS
 72
1
 11
132.1063
 21
5.25
  0
LINE
  8
0
 10
132.8563
 20
5.375
 11
132.8563
 21
6.125
  0
TEXT
  8
0
 10
139.0331
 20
5.25
 40
0.5
  1
13
  7
HIGHWAYSIGNCADPLUS
 72
1
 11
139.3813
 21
5.25
  0
LINE
  8
0
 10
139.8544
 20
5.5
 11
145.9063
 21
5.5
  0
LINE
  8
0
 10
145.6827
 20
5.3882
 11
145.9063
 21
5.5
  0
LINE
  8
0
 10
145.6827
 20
5.6118
 11
145.9063
 21
5.5
  0
LINE
  8
0
 10
145.9063
 20
5.375
 11
145.9063
 21
6.125
  0
LINE
  8
0
 10
138.9081
 20
5.5
 11
132.8563
 21
5.5
  0
LINE
  8
0
 10
133.0799
 20
5.6118
 11
132.8563
 21
5.5
  0
LINE
  8
0
 10
133.0799
 20
5.3882
 11
132.8563
 21
5.5
  0
TEXT
  8
0
 10
151.1228
 20
17.5126
 40
0.5
  1
2.9
 50
90
  7
HIGHWAYSIGNCADPLUS
 72
1
 11
151.1228
 21
17.9891
  0
LINE
  8
0
 10
150.8728
 20
18.5905
 11
150.8728
 21
19.4275
  0
LINE
  8
0
 10
150.9846
 20
19.2039
 11
150.8728
 21
19.4275
  0
LINE
  8
0
 10
150.761
 20
19.2039
 11
150.8728
 21
19.4275
  0
LINE
  8
0
 10
150.8728
 20
17.3876
 11
150.8728
 21
16.5506
  0
LINE
  8
0
 10
150.761
 20
16.7743
 11
150.8728
 21
16.5506
  0
LINE
  8
0
 10
150.9846
 20
16.7743
 11
150.8728
 21
16.5506
  0
LINE
  8
0
 10
150.9978
 20
16.5506
 11
150.2478
 21
16.5506
  0
TEXT
  8
0
 10
151.1228
 20
13.9471
 40
0.5
  1
4.2
 50
90
  7
HIGHWAYSIGNCADPLUS
 72
1
 11
151.1228
 21
14.4275
  0
LINE
  8
0
 10
150.8728
 20
15.0329
 11
150.8728
 21
16.5506
  0
LINE
  8
0
 10
150.9846
 20
16.327
 11
150.8728
 21
16.5506
  0
LINE
  8
0
 10
150.761
 20
16.327
 11
150.8728
 21
16.5506
  0
LINE
  8
0
 10
150.8728
 20
13.8221
 11
150.8728
 21
12.3043
  0
LINE
  8
0
 10
150.761
 20
12.528
 11
150.8728
 21
12.3043
  0
LINE
  8
0
 10
150.9846
 20
12.528
 11
150.8728
 21
12.3043
  0
LINE
  8
0
 10
150.9978
 20
12.3043
 11
150.2478
 21
12.3043
  0
TEXT
  8
0
 10
111.3981
 20
4
 40
0.5
  1
22.8
  7
HIGHWAYSIGNCADPLUS
 72
1
 11
112.0748
 21
4
  0
LINE
  8
0
 10
112.8765
 20
4.25
 11
123.4643
 21
4.25
  0
LINE
  8
0
 10
123.2407
 20
4.1382
 11
123.4643
 21
4.25
  0
LINE
  8
0
 10
123.2407
 20
4.3618
 11
123.4643
 21
4.25
  0
LINE
  8
0
 10
123.4643
 20
4.125
 11
123.4643
 21
4.875
  0
LINE
  8
0
 10
111.2731
 20
4.25
 11
100.6853
 21
4.25
  0
LINE
  8
0
 10
100.9089
 20
4.3618
 11
100.6853
 21
4.25
  0
LINE
  8
0
 10
100.9089
 20
4.1382
 11
100.6853
 21
4.25
  0
LINE
  8
0
 10
100.6853
 20
4.125
 11
100.6853
 21
4.875
  0
TEXT
  8
0
 10
127.8017
 20
4
 40
0.5
  1
9.6
  7
HIGHWAYSIGNCADPLUS
 72
1
 11
128.2768
 21
4
  0
LINE
  8
0
 10
128.877
 20
4.25
 11
133.0893
 21
4.25
  0
LINE
  8
0
 10
132.8657
 20
4.1382
 11
133.0893
 21
4.25
  0
LINE
  8
0
 10
132.8657
 20
4.3618
 11
133.0893
 21
4.25
  0
LINE
  8
0
 10
133.0893
 20
4.125
 11
133.0893
 21
4.875
  0
LINE
  8
0
 10
127.6767
 20
4.25
 11
123.4643
 21
4.25
  0
LINE
  8
0
 10
123.6879
 20
4.3618
 11
123.4643
 21
4.25
  0
LINE
  8
0
 10
123.6879
 20
4.1382
 11
123.4643
 21
4.25
  0
TEXT
  8
0
 10
152.3728
 20
24.5333
 40
0.5
  1
15.5
 50
90
  7
HIGHWAYSIGNCADPLUS
 72
1
 11
152.3728
 21
25.1825
  0
LINE
  8
0
 10
152.1228
 20
25.9567
 11
152.1228
 21
32.9375
  0
LINE
  8
0
 10
152.2346
 20
32.7139
 11
152.1228
 21
32.9375
  0
LINE
  8
0
 10
152.011
 20
32.7139
 11
152.1228
 21
32.9375
  0
LINE
  8
0
 10
152.2478
 20
32.9375
 11
151.4978
 21
32.9375
  0
LINE
  8
0
 10
152.1228
 20
24.4083
 11
152.1228
 21
17.4275
  0
LINE
  8
0
 10
152.011
 20
17.6511
 11
152.1228
 21
17.4275
  0
LINE
  8
0
 10
152.2346
 20
17.6511
 11
152.1228
 21
17.4275
  0
LINE
  8
0
 10
152.2478
 20
17.4275
 11
151.4978
 21
17.4275
  0
TEXT
  8
0
 10
152.3728
 20
14.2521
 40
0.5
  1
6
 50
90
  7
HIGHWAYSIGNCADPLUS
 72
1
 11
152.3728
 21
14.4275
  0
LINE
  8
0
 10
152.1228
 20
14.7279
 11
152.1228
 21
17.4275
  0
LINE
  8
0
 10
152.2346
 20
17.2039
 11
152.1228
 21
17.4275
  0
LINE
  8
0
 10
152.011
 20
17.2039
 11
152.1228
 21
17.4275
  0
LINE
  8
0
 10
152.1228
 20
14.1271
 11
152.1228
 21
11.4275
  0
LINE
  8
0
 10
152.011
 20
11.6511
 11
152.1228
 21
11.4275
  0
LINE
  8
0
 10
152.2346
 20
11.6511
 11
152.1228
 21
11.4275
  0
LINE
  8
0
 10
152.2478
 20
11.4275
 11
151.4978
 21
11.4275
  0
TEXT
  8
0
 10
133.9166
 20
4
 40
0.5
  1
2
  7
HIGHWAYSIGNCADPLUS
 72
1
 11
134.0893
 21
4
  0
LINE
  8
0
 10
134.3871
 20
4.25
 11
135.0893
 21
4.25
  0
LINE
  8
0
 10
134.8657
 20
4.1382
 11
135.0893
 21
4.25
  0
LINE
  8
0
 10
134.8657
 20
4.3618
 11
135.0893
 21
4.25
  0
LINE
  8
0
 10
135.0893
 20
4.125
 11
135.0893
 21
4.875
  0
LINE
  8
0
 10
133.7916
 20
4.25
 11
133.0893
 21
4.25
  0
LINE
  8
0
 10
133.3129
 20
4.3618
 11
133.0893
 21
4.25
  0
LINE
  8
0
 10
133.3129
 20
4.1382
 11
133.0893
 21
4.25
  0
TEXT
  8
0
 10
139.4576
 20
4
 40
0.5
  1
9.7
  7
HIGHWAYSIGNCADPLUS
 72
1
 11
139.9288
 21
4
  0
LINE
  8
0
 10
140.525
 20
4.25
 11
144.7682
 21
4.25
  0
LINE
  8
0
 10
144.5446
 20
4.1382
 11
144.7682
 21
4.25
  0
LINE
  8
0
 10
144.5446
 20
4.3618
 11
144.7682
 21
4.25
  0
LINE
  8
0
 10
144.7682
 20
4.125
 11
144.7682
 21
4.875
  0
LINE
  8
0
 10
139.3326
 20
4.25
 11
135.0893
 21
4.25
  0
LINE
  8
0
 10
135.3129
 20
4.3618
 11
135.0893
 21
4.25
  0
LINE
  8
0
 10
135.3129
 20
4.1382
 11
135.0893
 21
4.25
  0
TEXT
  8
0
 10
147.5255
 20
7.75
 40
0.5
  1
2
  7
HIGHWAYSIGNCADPLUS
 72
1
 11
147.6983
 21
7.75
  0
LINE
  8
0
 10
147.9961
 20
8
 11
148.6853
 21
8
  0
LINE
  8
0
 10
148.4617
 20
7.8882
 11
148.6853
 21
8
  0
LINE
  8
0
 10
148.4617
 20
8.1118
 11
148.6853
 21
8
  0
LINE
  8
0
 10
148.6853
 20
7.875
 11
148.6853
 21
8.625
  0
LINE
  8
0
 10
147.4005
 20
8
 11
146.7113
 21
8
  0
LINE
  8
0
 10
146.9349
 20
8.1118
 11
146.7113
 21
8
  0
LINE
  8
0
 10
146.9349
 20
7.8882
 11
146.7113
 21
8
  0
LINE
  8
0
 10
146.7113
 20
7.875
 11
146.7113
 21
8.625
  0
TEXT
  8
0
 10
144.7306
 20
6.5
 40
0.5
  1
7.1
  7
HIGHWAYSIGNCADPLUS
 72
1
 11
145.1508
 21
6.5
  0
LINE
  8
0
 10
145.6959
 20
6.75
 11
148.6853
 21
6.75
  0
LINE
  8
0
 10
148.4617
 20
6.6382
 11
148.6853
 21
6.75
  0
LINE
  8
0
 10
148.4617
 20
6.8618
 11
148.6853
 21
6.75
  0
LINE
  8
0
 10
148.6853
 20
6.625
 11
148.6853
 21
7.375
  0
LINE
  8
0
 10
144.6056
 20
6.75
 11
141.6163
 21
6.75
  0
LINE
  8
0
 10
141.8399
 20
6.8618
 11
141.6163
 21
6.75
  0
LINE
  8
0
 10
141.8399
 20
6.6382
 11
141.6163
 21
6.75
  0
LINE
  8
0
 10
141.6163
 20
6.625
 11
141.6163
 21
7.375
  0
TEXT
  8
0
 10
146.8194
 20
5.25
 40
0.5
  1
2.8
  7
HIGHWAYSIGNCADPLUS
 72
1
 11
147.2958
 21
5.25
  0
LINE
  8
0
 10
147.8972
 20
5.5
 11
148.6853
 21
5.5
  0
LINE
  8
0
 10
148.4617
 20
5.3882
 11
148.6853
 21
5.5
  0
LINE
  8
0
 10
148.4617
 20
5.6118
 11
148.6853
 21
5.5
  0
LINE
  8
0
 10
148.6853
 20
5.375
 11
148.6853
 21
6.125
  0
LINE
  8
0
 10
146.6944
 20
5.5
 11
145.9063
 21
5.5
  0
LINE
  8
0
 10
146.1299
 20
5.6118
 11
145.9063
 21
5.5
  0
LINE
  8
0
 10
146.1299
 20
5.3882
 11
145.9063
 21
5.5
  0
LINE
  8
0
 10
145.9063
 20
5.375
 11
145.9063
 21
6.125
  0
TEXT
  8
0
 10
146.2556
 20
4
 40
0.5
  1
3.9
  7
HIGHWAYSIGNCADPLUS
 72
1
 11
146.7268
 21
4
  0
LINE
  8
0
 10
147.323
 20
4.25
 11
148.6853
 21
4.25
  0
LINE
  8
0
 10
148.4617
 20
4.1382
 11
148.6853
 21
4.25
  0
LINE
  8
0
 10
148.4617
 20
4.3618
 11
148.6853
 21
4.25
  0
LINE
  8
0
 10
148.6853
 20
4.125
 11
148.6853
 21
4.875
  0
LINE
  8
0
 10
146.1306
 20
4.25
 11
144.7682
 21
4.25
  0
LINE
  8
0
 10
144.9918
 20
4.3618
 11
144.7682
 21
4.25
  0
LINE
  8
0
 10
144.9918
 20
4.1382
 11
144.7682
 21
4.25
  0
LINE
  8
0
 10
144.7682
 20
4.125
 11
144.7682
 21
4.875
  0
TEXT
  8
0
 10
149.8728
 20
9.2335
 40
0.5
  1
1.5
 50
90
  7
HIGHWAYSIGNCADPLUS
 72
1
 11
149.8728
 21
9.6825
  0
LINE
  8
0
 10
149.7478
 20
10.4275
 11
148.9978
 21
10.4275
  0
LINE
  8
0
 10
149.7478
 20
8.9375
 11
148.9978
 21
8.9375
  0
TEXT
  8
0
 10
151.1228
 20
10.1523
 40
0.5
  1
3.4
 50
90
  7
HIGHWAYSIGNCADPLUS
 72
1
 11
151.1228
 21
10.6209
  0
LINE
  8
0
 10
150.8728
 20
11.2145
 11
150.8728
 21
12.3043
  0
LINE
  8
0
 10
150.9846
 20
12.0807
 11
150.8728
 21
12.3043
  0
LINE
  8
0
 10
150.761
 20
12.0807
 11
150.8728
 21
12.3043
  0
LINE
  8
0
 10
150.9978
 20
12.3043
 11
150.2478
 21
12.3043
  0
LINE
  8
0
 10
150.8728
 20
10.0273
 11
150.8728
 21
8.9375
  0
LINE
  8
0
 10
150.761
 20
9.1611
 11
150.8728
 21
8.9375
  0
LINE
  8
0
 10
150.9846
 20
9.1611
 11
150.8728
 21
8.9375
  0
LINE
  8
0
 10
150.9978
 20
8.9375
 11
150.2478
 21
8.9375
  0
TEXT
  8
0
 10
152.3728
 20
9.7061
 40
0.5
  1
2.5
 50
90
  7
HIGHWAYSIGNCADPLUS
 72
1
 11
152.3728
 21
10.1825
  0
LINE
  8
0
 10
152.1228
 20
10.7839
 11
152.1228
 21
11.4275
  0
LINE
  8
0
 10
152.2346
 20
11.2039
 11
152.1228
 21
11.4275
  0
LINE
  8
0
 10
152.011
 20
11.2039
 11
152.1228
 21
11.4275
  0
LINE
  8
0
 10
152.2478
 20
11.4275
 11
151.4978
 21
11.4275
  0
LINE
  8
0
 10
152.1228
 20
9.5811
 11
152.1228
 21
8.9375
  0
LINE
  8
0
 10
152.011
 20
9.1611
 11
152.1228
 21
8.9375
  0
LINE
  8
0
 10
152.2346
 20
9.1611
 11
152.1228
 21
8.9375
  0
LINE
  8
0
 10
152.2478
 20
8.9375
 11
151.4978
 21
8.9375
  0
TEXT
  8
0
 10
153.6228
 20
20.5645
 40
0.5
  1
24
 50
90
  7
HIGHWAYSIGNCADPLUS
 72
1
 11
153.6228
 21
20.9375
  0
LINE
  8
0
 10
153.3728
 20
21.4355
 11
153.3728
 21
32.9375
  0
LINE
  8
0
 10
153.4846
 20
32.7139
 11
153.3728
 21
32.9375
  0
LINE
  8
0
 10
153.261
 20
32.7139
 11
153.3728
 21
32.9375
  0
LINE
  8
0
 10
153.4978
 20
32.9375
 11
148.8103
 21
32.9375
  0
LINE
  8
0
 10
153.3728
 20
20.4395
 11
153.3728
 21
8.9375
  0
LINE
  8
0
 10
153.261
 20
9.1611
 11
153.3728
 21
8.9375
  0
LINE
  8
0
 10
153.4846
 20
9.1611
 11
153.3728
 21
8.9375
  0
LINE
  8
0
 10
153.4978
 20
8.9375
 11
148.8103
 21
8.9375
  0
TEXT
  8
0
 10
100.6853
 20
1.25
 40
0.5
  1
1.5" Radius, 0.8" Border, 0.7" Indent, Blue on White; 
  7
HIGHWAYSIGNCADPLUS
 73
1
 11
100.6853
 21
1
  0
TEXT
  8
0
 10
100.6853
 20
0.25
 40
0.5
  1
[A Partnership For] E Mod 2K 50} spacing; [Litter - Free] E Mod 2K 50} spacing; [Florida Highways] E Mod 2K 50} spacing; 
  7
HIGHWAYSIGNCADPLUS
 73
1
 11
100.6853
 21
0
  0
POLYLINE
  8
0
 66
     1
 10
0
 20
0
  0
VERTEX
  8
0
 10
111.7036
 20
24.7172
  0
VERTEX
  8
0
 10
110.5696
 20
24.7172
  0
VERTEX
  8
0
 10
110.5696
 20
24.4974
  0
VERTEX
  8
0
 10
111.7314
 20
24.4974
  0
VERTEX
  8
0
 10
111.7036
 20
24.7172
  0
SEQEND
  0
POLYLINE
  8
0
 66
     1
 10
0
 20
0
  0
VERTEX
  8
0
 10
112.6421
 20
23.683
  0
VERTEX
  8
0
 10
121.9181
 20
23.683
  0
VERTEX
  8
0
 10
121.9181
 20
23.9027
  0
VERTEX
  8
0
 10
112.5974
 20
23.9027
  0
VERTEX
  8
0
 10
112.6421
 20
23.683
  0
SEQEND
  0
POLYLINE
  8
0
 66
     1
 10
0
 20
0
  0
VERTEX
  8
0
 10
114.5616
 20
30.2089
  0
VERTEX
  8
0
 10
118.7533
 20
30.2089
  0
VERTEX
  8
0
 10
118.7533
 20
30.4275
  0
VERTEX
  8
0
 10
114.5616
 20
30.4275
  0
VERTEX
  8
0
 10
114.5616
 20
30.2089
  0
SEQEND
  0
POLYLINE
  8
0
 66
     1
 10
0
 20
0
  0
VERTEX
  8
0
 10
113.5497
 20
29.3945
  0
VERTEX
  8
0
 10
119.6639
 20
29.3945
  0
VERTEX
  8
0
 10
119.6639
 20
29.6131
  0
VERTEX
  8
0
 10
113.5497
 20
29.6131
  0
VERTEX
  8
0
 10
113.5497
 20
29.3945
  0
SEQEND
  0
POLYLINE
  8
0
 66
     1
 10
0
 20
0
  0
VERTEX
  8
0
 10
112.8109
 20
28.58
  0
VERTEX
  8
0
 10
120.2995
 20
28.58
  0
VERTEX
  8
0
 10
120.2995
 20
28.7986
  0
VERTEX
  8
0
 10
112.8109
 20
28.7986
  0
VERTEX
  8
0
 10
112.8109
 20
28.58
  0
SEQEND
  0
POLYLINE
  8
0
 66
     1
 10
0
 20
0
  0
VERTEX
  8
0
 10
113.2161
 20
27.7656
  0
VERTEX
  8
0
 10
120.8139
 20
27.7656
  0
VERTEX
  8
0
 10
120.8139
 20
27.9842
  0
VERTEX
  8
0
 10
112.9817
 20
27.9842
  0
VERTEX
  8
0
 10
113.2161
 20
27.7656
  0
SEQEND
  0
POLYLINE
  8
0
 66
     1
 10
0
 20
0
  0
VERTEX
  8
0
 10
112.1902
 20
26.9511
  0
VERTEX
  8
0
 10
121.2429
 20
26.9511
  0
VERTEX
  8
0
 10
121.2429
 20
27.1697
  0
VERTEX
  8
0
 10
112.1902
 20
27.1697
  0
VERTEX
  8
0
 10
112.1902
 20
26.9511
  0
SEQEND
  0
POLYLINE
  8
0
 66
     1
 10
0
 20
0
  0
VERTEX
  8
0
 10
111.9261
 20
26.1367
  0
VERTEX
  8
0
 10
121.4147
 20
26.1367
  0
VERTEX
  8
0
 10
121.4147
 20
26.3553
  0
VERTEX
  8
0
 10
111.8079
 20
26.3553
  0
VERTEX
  8
0
 10
111.9261
 20
26.1367
  0
SEQEND
  0
POLYLINE
  8
0
 66
     1
 10
0
 20
0
  0
VERTEX
  8
0
 10
112.1863
 20
25.3222
  0
VERTEX
  8
0
 10
121.5865
 20
25.3222
  0
VERTEX
  8
0
 10
121.5865
 20
25.5408
  0
VERTEX
  8
0
 10
112.082
 20
25.5408
  0
VERTEX
  8
0
 10
112.1863
 20
25.3222
  0
SEQEND
  0
POLYLINE
  8
0
 66
     1
 10
0
 20
0
  0
VERTEX
  8
0
 10
112.4693
 20
24.5066
  0
VERTEX
  8
0
 10
121.7583
 20
24.5066
  0
VERTEX
  8
0
 10
121.7583
 20
24.7252
  0
VERTEX
  8
0
 10
112.3849
 20
24.7252
  0
VERTEX
  8
0
 10
112.4693
 20
24.5066
  0
SEQEND
  0
POLYLINE
  8
0
 66
     1
 10
0
 20
0
  0
VERTEX
  8
0
 10
111.8794
 20
23.9108
  0
VERTEX
  8
0
 10
110.7454
 20
23.9108
  0
VERTEX
  8
0
 10
110.8337
 20
23.6922
  0
VERTEX
  8
0
 10
111.9251
 20
23.6922
  0
VERTEX
  8
0
 10
111.8794
 20
23.9108
  0
SEQEND
  0
POLYLINE
  8
0
 66
     1
 10
0
 20
0
  0
VERTEX
  8
0
 10
110.4613
 20
23.4023
  0
VERTEX
  8
0
 10
102.4643
 20
23.4023
  0
VERTEX
  8
0
 10
102.4643
 20
23.1837
  0
VERTEX
  8
0
 10
110.5239
 20
23.1837
  0
VERTEX
  8
0
 10
110.4613
 20
23.4023
  0
SEQEND
  0
POLYLINE
  8
0
 66
     1
 10
0
 20
0
  0
VERTEX
  8
0
 10
111.0343
 20
23.1837
  0
VERTEX
  8
0
 10
111.7881
 20
23.1837
  0
VERTEX
  8
0
 10
111.7881
 20
23.4023
  0
VERTEX
  8
0
 10
110.9499
 20
23.4023
  0
VERTEX
  8
0
 10
111.0343
 20
23.1837
  0
SEQEND
  0
POLYLINE
  8
0
 66
     1
 10
0
 20
0
  0
VERTEX
  8
0
 10
102.4643
 20
22.5821
  0
VERTEX
  8
0
 10
110.0045
 20
22.5821
  0
VERTEX
  8
0
 10
110.0045
 20
22.8007
  0
VERTEX
  8
0
 10
102.4643
 20
22.8007
  0
VERTEX
  8
0
 10
102.4643
 20
22.5821
  0
SEQEND
  0
POLYLINE
  8
0
 66
     1
 10
0
 20
0
  0
VERTEX
  8
0
 10
102.4643
 20
21.9805
  0
VERTEX
  8
0
 10
108.9658
 20
21.9805
  0
VERTEX
  8
0
 10
108.9658
 20
22.199
  0
VERTEX
  8
0
 10
102.4643
 20
22.199
  0
VERTEX
  8
0
 10
102.4643
 20
21.9805
  0
SEQEND
  0
POLYLINE
  8
0
 66
     1
 10
0
 20
0
  0
VERTEX
  8
0
 10
102.4643
 20
21.3788
  0
VERTEX
  8
0
 10
107.8476
 20
21.3788
  0
VERTEX
  8
0
 10
107.8476
 20
21.5974
  0
VERTEX
  8
0
 10
102.4643
 20
21.5974
  0
VERTEX
  8
0
 10
102.4643
 20
21.3788
  0
SEQEND
  0
POLYLINE
  8
0
 66
     1
 10
0
 20
0
  0
VERTEX
  8
0
 10
102.4643
 20
20.7761
  0
VERTEX
  8
0
 10
107.3154
 20
20.7761
  0
VERTEX
  8
0
 10
107.3154
 20
20.9946
  0
VERTEX
  8
0
 10
102.4643
 20
20.9946
  0
VERTEX
  8
0
 10
102.4643
 20
20.7761
  0
SEQEND
  0
POLYLINE
  8
0
 66
     1
 10
0
 20
0
  0
VERTEX
  8
0
 10
102.4643
 20
20.1767
  0
VERTEX
  8
0
 10
107.081
 20
20.1767
  0
VERTEX
  8
0
 10
107.081
 20
20.3953
  0
VERTEX
  8
0
 10
102.4643
 20
20.3953
  0
VERTEX
  8
0
 10
102.4643
 20
20.1767
  0
SEQEND
  0
POLYLINE
  8
0
 66
     1
 10
0
 20
0
  0
VERTEX
  8
0
 10
102.4643
 20
19.5751
  0
VERTEX
  8
0
 10
107.5358
 20
19.5751
  0
VERTEX
  8
0
 10
107.5358
 20
19.7937
  0
VERTEX
  8
0
 10
102.4643
 20
19.7937
  0
VERTEX
  8
0
 10
102.4643
 20
19.5751
  0
SEQEND
  0
POLYLINE
  8
0
 66
     1
 10
0
 20
0
  0
VERTEX
  8
0
 10
102.4643
 20
18.9735
  0
VERTEX
  8
0
 10
108.9658
 20
18.9735
  0
VERTEX
  8
0
 10
108.9658
 20
19.192
  0
VERTEX
  8
0
 10
102.4643
 20
19.192
  0
VERTEX
  8
0
 10
102.4643
 20
18.9735
  0
SEQEND
  0
POLYLINE
  8
0
 66
     1
 10
0
 20
0
  0
VERTEX
  8
0
 10
102.4643
 20
18.3707
  0
VERTEX
  8
0
 10
109.8744
 20
18.3707
  0
VERTEX
  8
0
 10
109.8744
 20
18.5892
  0
VERTEX
  8
0
 10
102.4643
 20
18.5892
  0
VERTEX
  8
0
 10
102.4643
 20
18.3707
  0
SEQEND
  0
POLYLINE
  8
0
 66
     1
 10
0
 20
0
  0
VERTEX
  8
0
 10
102.4643
 20
17.769
  0
VERTEX
  8
0
 10
110.1356
 20
17.769
  0
VERTEX
  8
0
 10
110.1356
 20
17.9876
  0
VERTEX
  8
0
 10
102.4643
 20
17.9876
  0
VERTEX
  8
0
 10
102.4643
 20
17.769
  0
SEQEND
  0
POLYLINE
  8
0
 66
     1
 10
0
 20
0
  0
VERTEX
  8
0
 10
102.4643
 20
17.1674
  0
VERTEX
  8
0
 10
109.8357
 20
17.1674
  0
VERTEX
  8
0
 10
109.8357
 20
17.386
  0
VERTEX
  8
0
 10
102.4643
 20
17.386
  0
VERTEX
  8
0
 10
102.4643
 20
17.1674
  0
SEQEND
  0
POLYLINE
  8
0
 66
     1
 10
0
 20
0
  0
VERTEX
  8
0
 10
102.4643
 20
16.5658
  0
VERTEX
  8
0
 10
109.6282
 20
16.5658
  0
VERTEX
  8
0
 10
109.6282
 20
16.7843
  0
VERTEX
  8
0
 10
102.4643
 20
16.7843
  0
VERTEX
  8
0
 10
102.4643
 20
16.5658
  0
SEQEND
  0
POLYLINE
  8
0
 66
     1
 10
0
 20
0
  0
VERTEX
  8
0
 10
102.4643
 20
15.963
  0
VERTEX
  8
0
 10
109.1873
 20
15.963
  0
VERTEX
  8
0
 10
109.1873
 20
16.1816
  0
VERTEX
  8
0
 10
102.4643
 20
16.1816
  0
VERTEX
  8
0
 10
102.4643
 20
15.963
  0
SEQEND
  0
POLYLINE
  8
0
 66
     1
 10
0
 20
0
  0
VERTEX
  8
0
 10
102.4643
 20
15.3614
  0
VERTEX
  8
0
 10
108.6411
 20
15.3614
  0
VERTEX
  8
0
 10
108.6411
 20
15.5799
  0
VERTEX
  8
0
 10
102.4643
 20
15.5799
  0
VERTEX
  8
0
 10
102.4643
 20
15.3614
  0
SEQEND
  0
POLYLINE
  8
0
 66
     1
 10
0
 20
0
  0
VERTEX
  8
0
 10
102.4643
 20
14.7597
  0
VERTEX
  8
0
 10
108.0423
 20
14.7597
  0
VERTEX
  8
0
 10
108.0423
 20
14.9783
  0
VERTEX
  8
0
 10
102.4643
 20
14.9783
  0
VERTEX
  8
0
 10
102.4643
 20
14.7597
  0
SEQEND
  0
POLYLINE
  8
0
 66
     1
 10
0
 20
0
  0
VERTEX
  8
0
 10
102.4643
 20
14.1581
  0
VERTEX
  8
0
 10
107.3243
 20
14.1581
  0
VERTEX
  8
0
 10
107.3243
 20
14.3767
  0
VERTEX
  8
0
 10
102.4643
 20
14.3767
  0
VERTEX
  8
0
 10
102.4643
 20
14.1581
  0
SEQEND
  0
POLYLINE
  8
0
 66
     1
 10
0
 20
0
  0
VERTEX
  8
0
 10
102.4643
 20
13.5553
  0
VERTEX
  8
0
 10
106.4504
 20
13.5553
  0
VERTEX
  8
0
 10
106.4504
 20
13.7739
  0
VERTEX
  8
0
 10
102.4643
 20
13.7739
  0
VERTEX
  8
0
 10
102.4643
 20
13.5553
  0
SEQEND
  0
POLYLINE
  8
0
 66
     1
 10
0
 20
0
  0
VERTEX
  8
0
 10
102.4643
 20
12.9537
  0
VERTEX
  8
0
 10
105.6798
 20
12.9537
  0
VERTEX
  8
0
 10
105.6798
 20
13.1722
  0
VERTEX
  8
0
 10
102.4643
 20
13.1722
  0
VERTEX
  8
0
 10
102.4643
 20
12.9537
  0
SEQEND
  0
POLYLINE
  8
0
 66
     1
 10
0
 20
0
  0
VERTEX
  8
0
 10
102.4643
 20
12.352
  0
VERTEX
  8
0
 10
104.9231
 20
12.352
  0
VERTEX
  8
0
 10
104.9231
 20
12.5706
  0
VERTEX
  8
0
 10
102.4643
 20
12.5706
  0
VERTEX
  8
0
 10
102.4643
 20
12.352
  0
SEQEND
  0
POLYLINE
  8
0
 66
     1
 10
0
 20
0
  0
VERTEX
  8
0
 10
102.4643
 20
11.7504
  0
VERTEX
  8
0
 10
104.1664
 20
11.7504
  0
VERTEX
  8
0
 10
104.1664
 20
11.969
  0
VERTEX
  8
0
 10
102.4643
 20
11.969
  0
VERTEX
  8
0
 10
102.4643
 20
11.7504
  0
SEQEND
  0
POLYLINE
  8
0
 66
     1
 10
0
 20
0
  0
VERTEX
  8
0
 10
102.4643
 20
11.1476
  0
VERTEX
  8
0
 10
103.4097
 20
11.1476
  0
VERTEX
  8
0
 10
103.4097
 20
11.3662
  0
VERTEX
  8
0
 10
102.4643
 20
11.3662
  0
VERTEX
  8
0
 10
102.4643
 20
11.1476
  0
SEQEND
  0
POLYLINE
  8
0
 66
     1
 10
0
 20
0
  0
VERTEX
  8
0
 10
102.4643
 20
10.546
  0
VERTEX
  8
0
 10
103.0313
 20
10.546
  0
VERTEX
  8
0
 10
103.0313
 20
10.7646
  0
VERTEX
  8
0
 10
102.4643
 20
10.7646
  0
VERTEX
  8
0
 10
102.4643
 20
10.546
  0
SEQEND
  0
POLYLINE
  8
0
 66
     1
 10
0
 20
0
  0
VERTEX
  8
0
 10
115.6391
 20
17.1087
  0
VERTEX
  8
0
 10
115.6659
 20
17.1847
  0
VERTEX
  8
0
 10
115.6917
 20
17.2606
  0
VERTEX
  8
0
 10
115.7146
 20
17.3377
  0
VERTEX
  8
0
 10
115.7344
 20
17.4136
  0
VERTEX
  8
0
 10
115.7533
 20
17.4895
  0
VERTEX
  8
0
 10
115.7682
 20
17.5654
  0
VERTEX
  8
0
 10
115.7811
 20
17.6414
  0
VERTEX
  8
0
 10
115.791
 20
17.7184
  0
VERTEX
  8
0
 10
115.799
 20
17.7943
  0
VERTEX
  8
0
 10
115.8039
 20
17.8703
  0
VERTEX
  8
0
 10
115.8069
 20
17.9462
  0
VERTEX
  8
0
 10
115.8049
 20
18.0221
  0
VERTEX
  8
0
 10
115.802
 20
18.098
  0
VERTEX
  8
0
 10
115.795
 20
18.174
  0
VERTEX
  8
0
 10
115.7861
 20
18.2487
  0
VERTEX
  8
0
 10
115.7741
 20
18.3247
  0
VERTEX
  8
0
 10
115.7593
 20
18.3994
  0
VERTEX
  8
0
 10
115.7404
 20
18.4742
  0
VERTEX
  8
0
 10
115.7185
 20
18.5501
  0
VERTEX
  8
0
 10
115.6947
 20
18.6249
  0
VERTEX
  8
0
 10
115.6659
 20
18.6985
  0
VERTEX
  8
0
 10
115.6361
 20
18.7733
  0
VERTEX
  8
0
 10
115.6014
 20
18.8481
  0
VERTEX
  8
0
 10
115.5636
 20
18.9217
  0
VERTEX
  8
0
 10
115.5229
 20
18.9965
  0
VERTEX
  8
0
 10
115.4782
 20
19.0701
  0
VERTEX
  8
0
 10
115.4315
 20
19.1437
  0
VERTEX
  8
0
 10
115.3799
 20
19.2173
  0
VERTEX
  8
0
 10
115.3253
 20
19.291
  0
VERTEX
  8
0
 10
115.2667
 20
19.3634
  0
VERTEX
  8
0
 10
115.2051
 20
19.437
  0
VERTEX
  8
0
 10
115.1396
 20
19.5095
  0
VERTEX
  8
0
 10
115.0701
 20
19.582
  0
VERTEX
  8
0
 10
114.9976
 20
19.6533
  0
VERTEX
  8
0
 10
114.9201
 20
19.7258
  0
VERTEX
  8
0
 10
114.8397
 20
19.7983
  0
VERTEX
  8
0
 10
114.7553
 20
19.8696
  0
VERTEX
  8
0
 10
114.6669
 20
19.9409
  0
VERTEX
  8
0
 10
114.5745
 20
20.0111
  0
VERTEX
  8
0
 10
114.4782
 20
20.0824
  0
VERTEX
  8
0
 10
114.3789
 20
20.1526
  0
VERTEX
  8
0
 10
114.2737
 20
20.2227
  0
VERTEX
  8
0
 10
114.1654
 20
20.2929
  0
VERTEX
  8
0
 10
114.0532
 20
20.3631
  0
VERTEX
  8
0
 10
113.9579
 20
20.4137
  0
VERTEX
  8
0
 10
113.8735
 20
20.4678
  0
VERTEX
  8
0
 10
113.8
 20
20.5264
  0
VERTEX
  8
0
 10
113.7364
 20
20.5897
  0
VERTEX
  8
0
 10
113.6838
 20
20.6553
  0
VERTEX
  8
0
 10
113.6411
 20
20.7231
  0
VERTEX
  8
0
 10
113.6103
 20
20.7933
  0
VERTEX
  8
0
 10
113.5875
 20
20.8658
  0
VERTEX
  8
0
 10
113.5755
 20
20.9406
  0
VERTEX
  8
0
 10
113.5726
 20
21.0176
  0
VERTEX
  8
0
 10
113.5795
 20
21.0947
  0
VERTEX
  8
0
 10
113.5964
 20
21.1741
  0
VERTEX
  8
0
 10
113.6232
 20
21.2546
  0
VERTEX
  8
0
 10
113.657
 20
21.3363
  0
VERTEX
  8
0
 10
113.7017
 20
21.418
  0
VERTEX
  8
0
 10
113.7553
 20
21.5008
  0
VERTEX
  8
0
 10
113.8168
 20
21.5836
  0
VERTEX
  8
0
 10
113.8864
 20
21.6664
  0
VERTEX
  8
0
 10
113.9648
 20
21.7493
  0
VERTEX
  8
0
 10
114.0532
 20
21.8309
  0
VERTEX
  8
0
 10
114.1475
 20
21.9126
  0
VERTEX
  8
0
 10
114.2508
 20
21.9931
  0
VERTEX
  8
0
 10
114.362
 20
22.0714
  0
VERTEX
  8
0
 10
114.4792
 20
22.1496
  0
VERTEX
  8
0
 10
114.6053
 20
22.2255
  0
VERTEX
  8
0
 10
114.7404
 20
22.2991
  0
VERTEX
  8
0
 10
114.8804
 20
22.3716
  0
VERTEX
  8
0
 10
115.0284
 20
22.4418
  0
VERTEX
  8
0
 10
115.1833
 20
22.5085
  0
VERTEX
  8
0
 10
115.3442
 20
22.5741
  0
VERTEX
  8
0
 10
115.513
 20
22.635
  0
VERTEX
  8
0
 10
115.648
 20
22.6902
  0
VERTEX
  8
0
 10
115.7851
 20
22.7478
  0
VERTEX
  8
0
 10
115.9261
 20
22.8064
  0
VERTEX
  8
0
 10
116.0701
 20
22.8662
  0
VERTEX
  8
0
 10
116.2151
 20
22.9261
  0
VERTEX
  8
0
 10
116.36
 20
22.987
  0
VERTEX
  8
0
 10
116.506
 20
23.0468
  0
VERTEX
  8
0
 10
116.65
 20
23.1078
  0
VERTEX
  8
0
 10
116.793
 20
23.1688
  0
VERTEX
  8
0
 10
116.933
 20
23.2286
  0
VERTEX
  8
0
 10
117.0721
 20
23.2884
  0
VERTEX
  8
0
 10
117.2061
 20
23.3459
  0
VERTEX
  8
0
 10
117.3352
 20
23.4023
  0
VERTEX
  8
0
 10
117.4594
 20
23.4575
  0
VERTEX
  8
0
 10
117.5785
 20
23.5116
  0
VERTEX
  8
0
 10
117.6887
 20
23.5622
  0
VERTEX
  8
0
 10
117.794
 20
23.6117
  0
VERTEX
  8
0
 10
117.9301
 20
23.6715
  0
VERTEX
  8
0
 10
118.5021
 20
23.6715
  0
VERTEX
  8
0
 10
118.0294
 20
23.3597
  0
VERTEX
  8
0
 10
117.9509
 20
23.3137
  0
VERTEX
  8
0
 10
117.8685
 20
23.2666
  0
VERTEX
  8
0
 10
117.7861
 20
23.2206
  0
VERTEX
  8
0
 10
117.7026
 20
23.1722
  0
VERTEX
  8
0
 10
117.6163
 20
23.1239
  0
VERTEX
  8
0
 10
117.5309
 20
23.0768
  0
VERTEX
  8
0
 10
117.4435
 20
23.0273
  0
VERTEX
  8
0
 10
117.3571
 20
22.9767
  0
VERTEX
  8
0
 10
117.2697
 20
22.9284
  0
VERTEX
  8
0
 10
117.1833
 20
22.8777
  0
VERTEX
  8
0
 10
117.0979
 20
22.826
  0
VERTEX
  8
0
 10
117.0135
 20
22.7765
  0
VERTEX
  8
0
 10
116.9291
 20
22.7248
  0
VERTEX
  8
0
 10
116.8476
 20
22.6718
  0
VERTEX
  8
0
 10
116.7682
 20
22.6212
  0
VERTEX
  8
0
 10
116.6907
 20
22.5683
  0
VERTEX
  8
0
 10
116.6143
 20
22.5154
  0
VERTEX
  8
0
 10
116.5428
 20
22.4613
  0
VERTEX
  8
0
 10
116.4742
 20
22.4096
  0
VERTEX
  8
0
 10
116.4087
 20
22.3555
  0
VERTEX
  8
0
 10
116.3471
 20
22.3014
  0
VERTEX
  8
0
 10
116.2895
 20
22.2474
  0
VERTEX
  8
0
 10
116.2369
 20
22.1944
  0
VERTEX
  8
0
 10
116.1892
 20
22.1404
  0
VERTEX
  8
0
 10
116.1455
 20
22.0863
  0
VERTEX
  8
0
 10
116.1078
 20
22.0311
  0
VERTEX
  8
0
 10
116.076
 20
21.9782
  0
VERTEX
  8
0
 10
116.0502
 20
21.923
  0
VERTEX
  8
0
 10
116.0304
 20
21.8689
  0
VERTEX
  8
0
 10
116.0184
 20
21.8137
  0
VERTEX
  8
0
 10
116.0125
 20
21.7608
  0
VERTEX
  8
0
 10
116.0135
 20
21.7055
  0
VERTEX
  8
0
 10
116.0224
 20
21.6503
  0
VERTEX
  8
0
 10
116.0393
 20
21.5974
  0
VERTEX
  8
0
 10
116.0651
 20
21.5433
  0
VERTEX
  8
0
 10
116.0979
 20
21.4881
  0
VERTEX
  8
0
 10
116.1406
 20
21.4341
  0
VERTEX
  8
0
 10
116.1922
 20
21.3811
  0
VERTEX
  8
0
 10
116.2538
 20
21.3271
  0
VERTEX
  8
0
 10
116.3243
 20
21.273
  0
VERTEX
  8
0
 10
116.4057
 20
21.2189
  0
VERTEX
  8
0
 10
116.4961
 20
21.1672
  0
VERTEX
  8
0
 10
116.5984
 20
21.1143
  0
VERTEX
  8
0
 10
116.7126
 20
21.0602
  0
VERTEX
  8
0
 10
116.8367
 20
21.0084
  0
VERTEX
  8
0
 10
116.9728
 20
20.9567
  0
VERTEX
  8
0
 10
117.1207
 20
20.9049
  0
VERTEX
  8
0
 10
117.2816
 20
20.8531
  0
VERTEX
  8
0
 10
117.3402
 20
20.8267
  0
VERTEX
  8
0
 10
117.4018
 20
20.8014
  0
VERTEX
  8
0
 10
117.4663
 20
20.7738
  0
VERTEX
  8
0
 10
117.5328
 20
20.7461
  0
VERTEX
  8
0
 10
117.6014
 20
20.7174
  0
VERTEX
  8
0
 10
117.6719
 20
20.6898
  0
VERTEX
  8
0
 10
117.7454
 20
20.661
  0
VERTEX
  8
0
 10
117.8198
 20
20.63
  0
VERTEX
  8
0
 10
117.8973
 20
20.6001
  0
VERTEX
  8
0
 10
117.9757
 20
20.569
  0
VERTEX
  8
0
 10
118.0562
 20
20.5379
  0
VERTEX
  8
0
 10
118.1396
 20
20.5057
  0
VERTEX
  8
0
 10
118.223
 20
20.4724
  0
VERTEX
  8
0
 10
118.3074
 20
20.439
  0
VERTEX
  8
0
 10
118.3948
 20
20.4056
  0
VERTEX
  8
0
 10
118.4822
 20
20.3711
  0
VERTEX
  8
0
 10
118.5706
 20
20.3343
  0
VERTEX
  8
0
 10
118.6609
 20
20.2975
  0
VERTEX
  8
0
 10
118.7523
 20
20.2595
  0
VERTEX
  8
0
 10
118.8447
 20
20.2216
  0
VERTEX
  8
0
 10
118.937
 20
20.1813
  0
VERTEX
  8
0
 10
119.0304
 20
20.1411
  0
VERTEX
  8
0
 10
119.1237
 20
20.0997
  0
VERTEX
  8
0
 10
119.219
 20
20.0559
  0
VERTEX
  8
0
 10
119.3134
 20
20.0134
  0
VERTEX
  8
0
 10
119.4087
 20
19.9685
  0
VERTEX
  8
0
 10
119.504
 20
19.9236
  0
VERTEX
  8
0
 10
119.5994
 20
19.8765
  0
VERTEX
  8
0
 10
119.6947
 20
19.8282
  0
VERTEX
  8
0
 10
119.79
 20
19.7799
  0
VERTEX
  8
0
 10
119.8854
 20
19.7292
  0
VERTEX
  8
0
 10
119.9807
 20
19.6775
  0
VERTEX
  8
0
 10
120.075
 20
19.6257
  0
VERTEX
  8
0
 10
120.1694
 20
19.5716
  0
VERTEX
  8
0
 10
120.2627
 20
19.5153
  0
VERTEX
  8
0
 10
120.3561
 20
19.4589
  0
VERTEX
  8
0
 10
120.4474
 20
19.4014
  0
VERTEX
  8
0
 10
120.5388
 20
19.3427
  0
VERTEX
  8
0
 10
120.6292
 20
19.2818
  0
VERTEX
  8
0
 10
120.7185
 20
19.2196
  0
VERTEX
  8
0
 10
120.8069
 20
19.1564
  0
VERTEX
  8
0
 10
120.8933
 20
19.0919
  0
VERTEX
  8
0
 10
120.9797
 20
19.0252
  0
VERTEX
  8
0
 10
121.0641
 20
18.9574
  0
VERTEX
  8
0
 10
121.1465
 20
18.8883
  0
VERTEX
  8
0
 10
121.227
 20
18.817
  0
VERTEX
  8
0
 10
121.3074
 20
18.7457
  0
VERTEX
  8
0
 10
121.3849
 20
18.6709
  0
VERTEX
  8
0
 10
121.4603
 20
18.5961
  0
VERTEX
  8
0
 10
121.5338
 20
18.5191
  0
VERTEX
  8
0
 10
121.6053
 20
18.4397
  0
VERTEX
  8
0
 10
121.6758
 20
18.3592
  0
VERTEX
  8
0
 10
121.7434
 20
18.2775
  0
VERTEX
  8
0
 10
121.8079
 20
18.1935
  0
VERTEX
  8
0
 10
121.8705
 20
18.1072
  0
VERTEX
  8
0
 10
121.9311
 20
18.0198
  0
VERTEX
  8
0
 10
121.9877
 20
17.9301
  0
VERTEX
  8
0
 10
122.0413
 20
17.8392
  0
VERTEX
  8
0
 10
122.0939
 20
17.746
  0
VERTEX
  8
0
 10
122.1426
 20
17.6506
  0
VERTEX
  8
0
 10
122.1883
 20
17.5539
  0
VERTEX
  8
0
 10
122.23
 20
17.455
  0
VERTEX
  8
0
 10
122.2697
 20
17.3538
  0
VERTEX
  8
0
 10
122.3064
 20
17.2514
  0
VERTEX
  8
0
 10
122.3382
 20
17.1467
  0
VERTEX
  8
0
 10
122.368
 20
17.0386
  0
VERTEX
  8
0
 10
122.3928
 20
16.9304
  0
VERTEX
  8
0
 10
122.4147
 20
16.8188
  0
VERTEX
  8
0
 10
122.4335
 20
16.7061
  0
VERTEX
  8
0
 10
122.4474
 20
16.5899
  0
VERTEX
  8
0
 10
122.4574
 20
16.4726
  0
VERTEX
  8
0
 10
122.4633
 20
16.353
  0
VERTEX
  8
0
 10
122.4643
 20
16.231
  0
VERTEX
  8
0
 10
122.4623
 20
16.1056
  0
VERTEX
  8
0
 10
122.4554
 20
15.9802
  0
VERTEX
  8
0
 10
122.4445
 20
15.8514
  0
VERTEX
  8
0
 10
122.4286
 20
15.7203
  0
VERTEX
  8
0
 10
122.4077
 20
15.5857
  0
VERTEX
  8
0
 10
122.3829
 20
15.4499
  0
VERTEX
  8
0
 10
122.3521
 20
15.3119
  0
VERTEX
  8
0
 10
122.3183
 20
15.1715
  0
VERTEX
  8
0
 10
122.2776
 20
15.0289
  0
VERTEX
  8
0
 10
122.2319
 20
14.8828
  0
VERTEX
  8
0
 10
122.1823
 20
14.7344
  0
VERTEX
  8
0
 10
122.1267
 20
14.5826
  0
VERTEX
  8
0
 10
122.0651
 20
14.4296
  0
VERTEX
  8
0
 10
121.9986
 20
14.2743
  0
VERTEX
  8
0
 10
121.9271
 20
14.1155
  0
VERTEX
  8
0
 10
121.8764
 20
13.9637
  0
VERTEX
  8
0
 10
121.8258
 20
13.8118
  0
VERTEX
  8
0
 10
121.7751
 20
13.66
  0
VERTEX
  8
0
 10
121.7245
 20
13.5081
  0
VERTEX
  8
0
 10
121.6739
 20
13.3563
  0
VERTEX
  8
0
 10
121.6212
 20
13.2033
  0
VERTEX
  8
0
 10
121.5696
 20
13.0515
  0
VERTEX
  8
0
 10
121.516
 20
12.8985
  0
VERTEX
  8
0
 10
121.4623
 20
12.7466
  0
VERTEX
  8
0
 10
121.4087
 20
12.5959
  0
VERTEX
  8
0
 10
121.3531
 20
12.4452
  0
VERTEX
  8
0
 10
121.2985
 20
12.2945
  0
VERTEX
  8
0
 10
121.2419
 20
12.145
  0
VERTEX
  8
0
 10
121.1833
 20
11.9966
  0
VERTEX
  8
0
 10
121.1247
 20
11.8482
  0
VERTEX
  8
0
 10
121.0651
 20
11.7009
  0
VERTEX
  8
0
 10
121.0045
 20
11.5548
  0
VERTEX
  8
0
 10
120.942
 20
11.4099
  0
VERTEX
  8
0
 10
120.8784
 20
11.265
  0
VERTEX
  8
0
 10
120.8139
 20
11.1223
  0
VERTEX
  8
0
 10
120.7473
 20
10.9797
  0
VERTEX
  8
0
 10
120.6798
 20
10.8393
  0
VERTEX
  8
0
 10
120.6103
 20
10.7001
  0
VERTEX
  8
0
 10
120.5398
 20
10.5621
  0
VERTEX
  8
0
 10
120.4663
 20
10.4275
  0
VERTEX
  8
0
 10
108.22
 20
10.4275
  0
VERTEX
  8
0
 10
108.2727
 20
10.5103
  0
VERTEX
  8
0
 10
108.3273
 20
10.5575
  0
VERTEX
  8
0
 10
108.3829
 20
10.607
  0
VERTEX
  8
0
 10
108.4415
 20
10.6576
  0
VERTEX
  8
0
 10
108.5011
 20
10.707
  0
VERTEX
  8
0
 10
108.5626
 20
10.7577
  0
VERTEX
  8
0
 10
108.6252
 20
10.8094
  0
VERTEX
  8
0
 10
108.6897
 20
10.8623
  0
VERTEX
  8
0
 10
108.7563
 20
10.9141
  0
VERTEX
  8
0
 10
108.8238
 20
10.967
  0
VERTEX
  8
0
 10
108.8923
 20
11.0211
  0
VERTEX
  8
0
 10
108.9628
 20
11.074
  0
VERTEX
  8
0
 10
109.0343
 20
11.1292
  0
VERTEX
  8
0
 10
109.1068
 20
11.1844
  0
VERTEX
  8
0
 10
109.1813
 20
11.2408
  0
VERTEX
  8
0
 10
109.2578
 20
11.296
  0
VERTEX
  8
0
 10
109.3342
 20
11.3524
  0
VERTEX
  8
0
 10
109.4117
 20
11.4099
  0
VERTEX
  8
0
 10
109.4901
 20
11.4686
  0
VERTEX
  8
0
 10
109.5716
 20
11.5261
  0
VERTEX
  8
0
 10
109.652
 20
11.5848
  0
VERTEX
  8
0
 10
109.7344
 20
11.6434
  0
VERTEX
  8
0
 10
109.8178
 20
11.7032
  0
VERTEX
  8
0
 10
109.9013
 20
11.7631
  0
VERTEX
  8
0
 10
109.9857
 20
11.824
  0
VERTEX
  8
0
 10
110.0721
 20
11.885
  0
VERTEX
  8
0
 10
110.1575
 20
11.946
  0
VERTEX
  8
0
 10
110.2449
 20
12.0081
  0
VERTEX
  8
0
 10
110.3332
 20
12.0702
  0
VERTEX
  8
0
 10
110.4206
 20
12.1323
  0
VERTEX
  8
0
 10
110.511
 20
12.1956
  0
VERTEX
  8
0
 10
110.5994
 20
12.26
  0
VERTEX
  8
0
 10
110.6897
 20
12.3233
  0
VERTEX
  8
0
 10
110.7801
 20
12.3865
  0
VERTEX
  8
0
 10
110.8705
 20
12.4521
  0
VERTEX
  8
0
 10
110.9628
 20
12.5165
  0
VERTEX
  8
0
 10
111.0542
 20
12.5821
  0
VERTEX
  8
0
 10
111.1465
 20
12.6477
  0
VERTEX
  8
0
 10
111.2379
 20
12.7144
  0
VERTEX
  8
0
 10
111.3312
 20
12.7811
  0
VERTEX
  8
0
 10
111.4236
 20
12.8478
  0
VERTEX
  8
0
 10
111.516
 20
12.9157
  0
VERTEX
  8
0
 10
111.6093
 20
12.9824
  0
VERTEX
  8
0
 10
111.7017
 20
13.0491
  0
VERTEX
  8
0
 10
111.795
 20
13.1182
  0
VERTEX
  8
0
 10
111.8874
 20
13.186
  0
VERTEX
  8
0
 10
111.9807
 20
13.2551
  0
VERTEX
  8
0
 10
112.0731
 20
13.3241
  0
VERTEX
  8
0
 10
112.1654
 20
13.3943
  0
VERTEX
  8
0
 10
112.2578
 20
13.4633
  0
VERTEX
  8
0
 10
112.3501
 20
13.5334
  0
VERTEX
  8
0
 10
112.4415
 20
13.6036
  0
VERTEX
  8
0
 10
112.5318
 20
13.6749
  0
VERTEX
  8
0
 10
112.6222
 20
13.7451
  0
VERTEX
  8
0
 10
112.7126
 20
13.8164
  0
VERTEX
  8
0
 10
112.8029
 20
13.8878
  0
VERTEX
  8
0
 10
112.8923
 20
13.9591
  0
VERTEX
  8
0
 10
112.9817
 20
14.0315
  0
VERTEX
  8
0
 10
113.0701
 20
14.1029
  0
VERTEX
  8
0
 10
113.1585
 20
14.1753
  0
VERTEX
  8
0
 10
113.2449
 20
14.2478
  0
VERTEX
  8
0
 10
113.3312
 20
14.3203
  0
VERTEX
  8
0
 10
113.4176
 20
14.3939
  0
VERTEX
  8
0
 10
113.5021
 20
14.4664
  0
VERTEX
  8
0
 10
113.5855
 20
14.54
  0
VERTEX
  8
0
 10
113.6699
 20
14.6136
  0
VERTEX
  8
0
 10
113.7513
 20
14.6872
  0
VERTEX
  8
0
 10
113.8327
 20
14.7609
  0
VERTEX
  8
0
 10
113.9132
 20
14.8356
  0
VERTEX
  8
0
 10
113.9926
 20
14.9093
  0
VERTEX
  8
0
 10
114.0701
 20
14.984
  0
VERTEX
  8
0
 10
114.1475
 20
15.0588
  0
VERTEX
  8
0
 10
114.223
 20
15.1336
  0
VERTEX
  8
0
 10
114.2985
 20
15.2084
  0
VERTEX
  8
0
 10
114.371
 20
15.2831
  0
VERTEX
  8
0
 10
114.4435
 20
15.3579
  0
VERTEX
  8
0
 10
114.514
 20
15.4338
  0
VERTEX
  8
0
 10
114.5825
 20
15.5086
  0
VERTEX
  8
0
 10
114.65
 20
15.5845
  0
VERTEX
  8
0
 10
114.7166
 20
15.6604
  0
VERTEX
  8
0
 10
114.7811
 20
15.7352
  0
VERTEX
  8
0
 10
114.8447
 20
15.8111
  0
VERTEX
  8
0
 10
114.9062
 20
15.8871
  0
VERTEX
  8
0
 10
114.9658
 20
15.963
  0
VERTEX
  8
0
 10
115.0244
 20
16.0389
  0
VERTEX
  8
0
 10
115.081
 20
16.1148
  0
VERTEX
  8
0
 10
115.1356
 20
16.1908
  0
VERTEX
  8
0
 10
115.1892
 20
16.269
  0
VERTEX
  8
0
 10
115.2399
 20
16.3449
  0
VERTEX
  8
0
 10
115.2885
 20
16.4208
  0
VERTEX
  8
0
 10
115.3362
 20
16.4968
  0
VERTEX
  8
0
 10
115.3819
 20
16.5738
  0
VERTEX
  8
0
 10
115.4236
 20
16.6497
  0
VERTEX
  8
0
 10
115.4653
 20
16.7268
  0
VERTEX
  8
0
 10
115.505
 20
16.8027
  0
VERTEX
  8
0
 10
115.5408
 20
16.8787
  0
VERTEX
  8
0
 10
115.5765
 20
16.9557
  0
VERTEX
  8
0
 10
115.6083
 20
17.0317
  0
VERTEX
  8
0
 10
115.6391
 20
17.1087
  0
SEQEND
  0
POLYLINE
  8
0
 66
     1
 10
0
 20
0
  0
VERTEX
  8
0
 10
111.6262
 20
28.3316
  0
VERTEX
  8
0
 10
111.6659
 20
28.3017
  0
VERTEX
  8
0
 10
111.6659
 20
28.2361
  0
VERTEX
  8
0
 10
111.5875
 20
28.2361
  0
VERTEX
  8
0
 10
111.5884
 20
28.2982
  0
VERTEX
  8
0
 10
111.6262
 20
28.3316
  0
SEQEND
  0
POLYLINE
  8
0
 66
     1
 10
0
 20
0
  0
VERTEX
  8
0
 10
109.5189
 20
27.2847
  0
VERTEX
  8
0
 10
109.5189
 20
27.3814
  0
VERTEX
  8
0
 10
109.5716
 20
27.3814
  0
VERTEX
  8
0
 10
109.5716
 20
27.2847
  0
VERTEX
  8
0
 10
109.5189
 20
27.2847
  0
SEQEND
  0
POLYLINE
  8
0
 66
     1
 10
0
 20
0
  0
VERTEX
  8
0
 10
110.9271
 20
27.2847
  0
VERTEX
  8
0
 10
110.8675
 20
27.2847
  0
VERTEX
  8
0
 10
110.8099
 20
27.2847
  0
VERTEX
  8
0
 10
110.7662
 20
27.3158
  0
VERTEX
  8
0
 10
110.8159
 20
27.3756
  0
VERTEX
  8
0
 10
110.8943
 20
27.3538
  0
VERTEX
  8
0
 10
110.9271
 20
27.2847
  0
SEQEND
  0
POLYLINE
  8
0
 66
     1
 10
0
 20
0
  0
VERTEX
  8
0
 10
115.8744
 20
20.4171
  0
VERTEX
  8
0
 10
115.6669
 20
20.531
  0
VERTEX
  8
0
 10
115.4683
 20
20.6438
  0
VERTEX
  8
0
 10
115.2856
 20
20.7507
  0
VERTEX
  8
0
 10
115.1277
 20
20.8451
  0
VERTEX
  8
0
 10
115.0026
 20
20.9233
  0
VERTEX
  8
0
 10
114.9191
 20
20.9774
  0
VERTEX
  8
0
 10
114.8874
 20
21.0038
  0
VERTEX
  8
0
 10
115.0919
 20
21.0395
  0
SEQEND
  0
POLYLINE
  8
0
 66
     1
 10
0
 20
0
  0
VERTEX
  8
0
 10
115.0919
 20
21.0395
  0
VERTEX
  8
0
 10
115.1366
 20
21.0004
  0
VERTEX
  8
0
 10
115.228
 20
20.9406
  0
VERTEX
  8
0
 10
115.3571
 20
20.8623
  0
VERTEX
  8
0
 10
115.516
 20
20.7726
  0
VERTEX
  8
0
 10
115.6957
 20
20.676
  0
VERTEX
  8
0
 10
115.8874
 20
20.577
  0
VERTEX
  8
0
 10
116.082
 20
20.4804
  0
VERTEX
  8
0
 10
115.8744
 20
20.4171
  0
SEQEND
  0
POLYLINE
  8
0
 66
     1
 10
0
 20
0
  0
VERTEX
  8
0
 10
111.9112
 20
22.2842
  0
VERTEX
  8
0
 10
111.8864
 20
22.1312
  0
VERTEX
  8
0
 10
111.8586
 20
21.9793
  0
VERTEX
  8
0
 10
111.8258
 20
21.8286
  0
VERTEX
  8
0
 10
111.79
 20
21.6802
  0
VERTEX
  8
0
 10
111.7493
 20
21.5318
  0
VERTEX
  8
0
 10
111.7056
 20
21.3869
  0
VERTEX
  8
0
 10
111.659
 20
21.2431
  0
VERTEX
  8
0
 10
111.6073
 20
21.1016
  0
VERTEX
  8
0
 10
111.5527
 20
20.9624
  0
VERTEX
  8
0
 10
111.4951
 20
20.8244
  0
VERTEX
  8
0
 10
111.4335
 20
20.6909
  0
VERTEX
  8
0
 10
111.37
 20
20.5586
  0
VERTEX
  8
0
 10
111.3025
 20
20.431
  0
VERTEX
  8
0
 10
111.2319
 20
20.3067
  0
VERTEX
  8
0
 10
111.1595
 20
20.1836
  0
VERTEX
  8
0
 10
111.084
 20
20.0663
  0
VERTEX
  8
0
 10
111.0045
 20
19.9501
  0
VERTEX
  8
0
 10
111.0601
 20
20.0824
  0
VERTEX
  8
0
 10
111.1098
 20
20.2193
  0
VERTEX
  8
0
 10
111.1535
 20
20.3608
  0
VERTEX
  8
0
 10
111.1912
 20
20.5023
  0
VERTEX
  8
0
 10
111.223
 20
20.6495
  0
VERTEX
  8
0
 10
111.2488
 20
20.8002
  0
VERTEX
  8
0
 10
111.2707
 20
20.9532
  0
VERTEX
  8
0
 10
111.2856
 20
21.1085
  0
VERTEX
  8
0
 10
111.2955
 20
21.265
  0
VERTEX
  8
0
 10
111.3005
 20
21.4226
  0
VERTEX
  8
0
 10
111.3005
 20
21.5813
  0
VERTEX
  8
0
 10
111.2955
 20
21.7424
  0
VERTEX
  8
0
 10
111.2856
 20
21.9023
  0
VERTEX
  8
0
 10
111.2707
 20
22.0621
  0
VERTEX
  8
0
 10
111.2508
 20
22.222
  0
VERTEX
  8
0
 10
111.228
 20
22.3808
  0
VERTEX
  8
0
 10
111.1992
 20
22.5384
  0
VERTEX
  8
0
 10
111.1664
 20
22.696
  0
VERTEX
  8
0
 10
111.1297
 20
22.8501
  0
VERTEX
  8
0
 10
111.0899
 20
23.0031
  0
VERTEX
  8
0
 10
111.0453
 20
23.1527
  0
VERTEX
  8
0
 10
110.9956
 20
23.2999
  0
VERTEX
  8
0
 10
110.9092
 20
23.4966
  0
VERTEX
  8
0
 10
110.8397
 20
23.6772
  0
VERTEX
  8
0
 10
110.7265
 20
23.9591
  0
VERTEX
  8
0
 10
110.6758
 20
24.1397
  0
VERTEX
  8
0
 10
110.6232
 20
24.318
  0
VERTEX
  8
0
 10
110.5706
 20
24.4905
  0
VERTEX
  8
0
 10
110.5199
 20
24.6585
  0
VERTEX
  8
0
 10
110.4713
 20
24.8253
  0
VERTEX
  8
0
 10
110.4266
 20
24.9898
  0
VERTEX
  8
0
 10
110.3898
 20
25.1508
  0
VERTEX
  8
0
 10
110.36
 20
25.3119
  0
VERTEX
  8
0
 10
110.3402
 20
25.4741
  0
VERTEX
  8
0
 10
110.4762
 20
25.443
  0
VERTEX
  8
0
 10
110.6163
 20
25.4637
  0
VERTEX
  8
0
 10
110.7166
 20
25.4683
  0
VERTEX
  8
0
 10
110.7265
 20
25.3832
  0
VERTEX
  8
0
 10
110.8397
 20
25.2026
  0
VERTEX
  8
0
 10
111.1287
 20
25.1255
  0
VERTEX
  8
0
 10
111.1287
 20
25.42
  0
VERTEX
  8
0
 10
111.2955
 20
25.3441
  0
VERTEX
  8
0
 10
111.6004
 20
25.2164
  0
VERTEX
  8
0
 10
111.7265
 20
24.7747
  0
VERTEX
  8
0
 10
111.7692
 20
24.4261
  0
VERTEX
  8
0
 10
111.8695
 20
23.9591
  0
VERTEX
  8
0
 10
111.9261
 20
23.6864
  0
VERTEX
  8
0
 10
111.943
 20
23.53
  0
VERTEX
  8
0
 10
111.9559
 20
23.3735
  0
VERTEX
  8
0
 10
111.9638
 20
23.2171
  0
VERTEX
  8
0
 10
111.9668
 20
23.0607
  0
VERTEX
  8
0
 10
111.9648
 20
22.9031
  0
VERTEX
  8
0
 10
111.9569
 20
22.7478
  0
VERTEX
  8
0
 10
111.9459
 20
22.5925
  0
VERTEX
  8
0
 10
111.9311
 20
22.4372
  0
VERTEX
  8
0
 10
111.9112
 20
22.2842
  0
SEQEND
  0
POLYLINE
  8
0
 66
     1
 10
0
 20
0
  0
VERTEX
  8
0
 10
113.6272
 20
27.7656
  0
VERTEX
  8
0
 10
113.6331
 20
27.761
  0
VERTEX
  8
0
 10
113.4554
 20
27.6713
  0
VERTEX
  8
0
 10
113.6014
 20
27.562
  0
VERTEX
  8
0
 10
113.5775
 20
27.5355
  0
VERTEX
  8
0
 10
113.5775
 20
27.4987
  0
VERTEX
  8
0
 10
113.6014
 20
27.4722
  0
VERTEX
  8
0
 10
113.6709
 20
27.3906
  0
VERTEX
  8
0
 10
113.7642
 20
27.3779
  0
VERTEX
  8
0
 10
113.8397
 20
27.3158
  0
VERTEX
  8
0
 10
113.6699
 20
27.2859
  0
VERTEX
  8
0
 10
113.51
 20
27.287
  0
VERTEX
  8
0
 10
113.3879
 20
27.4113
  0
VERTEX
  8
0
 10
113.363
 20
27.3814
  0
VERTEX
  8
0
 10
113.2856
 20
27.4366
  0
VERTEX
  8
0
 10
113.1902
 20
27.4216
  0
VERTEX
  8
0
 10
113.0899
 20
27.394
  0
VERTEX
  8
0
 10
113.0006
 20
27.4113
  0
VERTEX
  8
0
 10
112.936
 20
27.5321
  0
VERTEX
  8
0
 10
112.9171
 20
27.5574
  0
VERTEX
  8
0
 10
112.8893
 20
27.5631
  0
VERTEX
  8
0
 10
112.8586
 20
27.562
  0
VERTEX
  8
0
 10
112.8407
 20
27.4607
  0
VERTEX
  8
0
 10
112.802
 20
27.3791
  0
VERTEX
  8
0
 10
112.6977
 20
27.3814
  0
VERTEX
  8
0
 10
112.6043
 20
27.3975
  0
VERTEX
  8
0
 10
112.5338
 20
27.4803
  0
VERTEX
  8
0
 10
112.4643
 20
27.562
  0
VERTEX
  8
0
 10
112.3829
 20
27.4699
  0
VERTEX
  8
0
 10
112.2737
 20
27.4711
  0
VERTEX
  8
0
 10
112.1426
 20
27.4722
  0
VERTEX
  8
0
 10
112.1396
 20
27.5079
  0
VERTEX
  8
0
 10
112.1158
 20
27.5355
  0
VERTEX
  8
0
 10
112.0919
 20
27.562
  0
VERTEX
  8
0
 10
111.9102
 20
27.562
  0
VERTEX
  8
0
 10
111.7305
 20
27.562
  0
VERTEX
  8
0
 10
111.5606
 20
27.5321
  0
VERTEX
  8
0
 10
111.5964
 20
27.44
  0
VERTEX
  8
0
 10
111.6659
 20
27.3756
  0
VERTEX
  8
0
 10
111.6659
 20
27.2847
  0
VERTEX
  8
0
 10
111.6311
 20
27.2261
  0
VERTEX
  8
0
 10
111.5745
 20
27.1812
  0
VERTEX
  8
0
 10
111.5606
 20
27.1041
  0
VERTEX
  8
0
 10
111.6659
 20
26.7981
  0
VERTEX
  8
0
 10
111.647
 20
26.7717
  0
VERTEX
  8
0
 10
111.6411
 20
26.7383
  0
VERTEX
  8
0
 10
111.6391
 20
26.7015
  0
VERTEX
  8
0
 10
111.7185
 20
26.6152
  0
VERTEX
  8
0
 10
111.7662
 20
26.4956
  0
VERTEX
  8
0
 10
111.8
 20
26.3645
  0
VERTEX
  8
0
 10
111.8526
 20
26.3046
  0
VERTEX
  8
0
 10
111.9827
 20
26.0079
  0
VERTEX
  8
0
 10
112.082
 20
25.5385
  0
VERTEX
  8
0
 10
112.218
 20
25.2578
  0
VERTEX
  8
0
 10
112.361
 20
24.7885
  0
VERTEX
  8
0
 10
112.4852
 20
24.4675
  0
VERTEX
  8
0
 10
112.6063
 20
23.9982
  0
VERTEX
  8
0
 10
112.6719
 20
23.6864
  0
VERTEX
  8
0
 10
112.7195
 20
23.5473
  0
VERTEX
  8
0
 10
112.7612
 20
23.4046
  0
VERTEX
  8
0
 10
112.8
 20
23.2608
  0
VERTEX
  8
0
 10
112.8327
 20
23.1147
  0
VERTEX
  8
0
 10
112.8615
 20
22.9663
  0
VERTEX
  8
0
 10
112.8864
 20
22.8168
  0
VERTEX
  8
0
 10
112.9062
 20
22.6672
  0
VERTEX
  8
0
 10
112.9211
 20
22.5154
  0
VERTEX
  8
0
 10
112.9311
 20
22.3635
  0
VERTEX
  8
0
 10
112.937
 20
22.2105
  0
VERTEX
  8
0
 10
112.938
 20
22.0575
  0
VERTEX
  8
0
 10
112.935
 20
21.9046
  0
VERTEX
  8
0
 10
112.9261
 20
21.7516
  0
VERTEX
  8
0
 10
112.9132
 20
21.5997
  0
VERTEX
  8
0
 10
112.8953
 20
21.4467
  0
VERTEX
  8
0
 10
112.8735
 20
21.2949
  0
VERTEX
  8
0
 10
112.8466
 20
21.1453
  0
VERTEX
  8
0
 10
112.8139
 20
20.9958
  0
VERTEX
  8
0
 10
112.7761
 20
20.8485
  0
VERTEX
  8
0
 10
112.7354
 20
20.7036
  0
VERTEX
  8
0
 10
112.6887
 20
20.5598
  0
VERTEX
  8
0
 10
112.6371
 20
20.4206
  0
VERTEX
  8
0
 10
112.5805
 20
20.2814
  0
VERTEX
  8
0
 10
112.5199
 20
20.1457
  0
VERTEX
  8
0
 10
112.4564
 20
20.0122
  0
VERTEX
  8
0
 10
112.3849
 20
19.8822
  0
VERTEX
  8
0
 10
112.3094
 20
19.7545
  0
VERTEX
  8
0
 10
112.229
 20
19.6315
  0
VERTEX
  8
0
 10
112.1426
 20
19.5118
  0
VERTEX
  8
0
 10
109.6798
 20
19.5118
  0
VERTEX
  8
0
 10
109.7692
 20
19.6292
  0
VERTEX
  8
0
 10
109.8536
 20
19.7488
  0
VERTEX
  8
0
 10
109.935
 20
19.873
  0
VERTEX
  8
0
 10
110.0125
 20
19.9996
  0
VERTEX
  8
0
 10
110.085
 20
20.1284
  0
VERTEX
  8
0
 10
110.1525
 20
20.2595
  0
VERTEX
  8
0
 10
110.217
 20
20.3941
  0
VERTEX
  8
0
 10
110.2756
 20
20.5287
  0
VERTEX
  8
0
 10
110.3312
 20
20.6679
  0
VERTEX
  8
0
 10
110.3809
 20
20.8083
  0
VERTEX
  8
0
 10
110.4266
 20
20.9509
  0
VERTEX
  8
0
 10
110.4683
 20
21.0947
  0
VERTEX
  8
0
 10
110.505
 20
21.2396
  0
VERTEX
  8
0
 10
110.5368
 20
21.3857
  0
VERTEX
  8
0
 10
110.5636
 20
21.533
  0
VERTEX
  8
0
 10
110.5865
 20
21.6802
  0
VERTEX
  8
0
 10
110.6033
 20
21.8286
  0
VERTEX
  8
0
 10
110.6163
 20
21.977
  0
VERTEX
  8
0
 10
110.6232
 20
22.1254
  0
VERTEX
  8
0
 10
110.6252
 20
22.275
  0
VERTEX
  8
0
 10
110.6232
 20
22.4234
  0
VERTEX
  8
0
 10
110.6153
 20
22.5718
  0
VERTEX
  8
0
 10
110.6024
 20
22.719
  0
VERTEX
  8
0
 10
110.5845
 20
22.8651
  0
VERTEX
  8
0
 10
110.5597
 20
23.0112
  0
VERTEX
  8
0
 10
110.5309
 20
23.1561
  0
VERTEX
  8
0
 10
110.4445
 20
23.461
  0
VERTEX
  8
0
 10
110.4097
 20
23.6347
  0
VERTEX
  8
0
 10
110.371
 20
23.813
  0
VERTEX
  8
0
 10
110.3303
 20
23.989
  0
VERTEX
  8
0
 10
110.2846
 20
24.165
  0
VERTEX
  8
0
 10
110.2349
 20
24.3364
  0
VERTEX
  8
0
 10
110.1813
 20
24.502
  0
VERTEX
  8
0
 10
110.1237
 20
24.6608
  0
VERTEX
  8
0
 10
110.0601
 20
24.8115
  0
VERTEX
  8
0
 10
109.9926
 20
24.9495
  0
VERTEX
  8
0
 10
109.9181
 20
25.0761
  0
VERTEX
  8
0
 10
109.7841
 20
24.9495
  0
VERTEX
  8
0
 10
109.654
 20
25.1071
  0
VERTEX
  8
0
 10
109.6739
 20
25.1313
  0
VERTEX
  8
0
 10
109.6798
 20
25.1623
  0
VERTEX
  8
0
 10
109.6798
 20
25.1969
  0
VERTEX
  8
0
 10
109.6331
 20
25.2291
  0
VERTEX
  8
0
 10
109.5755
 20
25.2279
  0
VERTEX
  8
0
 10
109.5189
 20
25.2268
  0
VERTEX
  8
0
 10
109.4921
 20
25.1658
  0
VERTEX
  8
0
 10
109.4415
 20
25.137
  0
VERTEX
  8
0
 10
109.3888
 20
25.1658
  0
VERTEX
  8
0
 10
109.1753
 20
24.8598
  0
VERTEX
  8
0
 10
109.1237
 20
24.9196
  0
VERTEX
  8
0
 10
109.1495
 20
24.9541
  0
VERTEX
  8
0
 10
109.1495
 20
25.0013
  0
VERTEX
  8
0
 10
109.1495
 20
25.0462
  0
VERTEX
  8
0
 10
109.1277
 20
25.0692
  0
VERTEX
  8
0
 10
109.0989
 20
25.0761
  0
VERTEX
  8
0
 10
109.0721
 20
25.0761
  0
VERTEX
  8
0
 10
109.0443
 20
24.9288
  0
VERTEX
  8
0
 10
109.0075
 20
24.7885
  0
VERTEX
  8
0
 10
108.9102
 20
24.6792
  0
VERTEX
  8
0
 10
108.8685
 20
24.7252
  0
VERTEX
  8
0
 10
108.8268
 20
24.7724
  0
VERTEX
  8
0
 10
108.7761
 20
24.7988
  0
VERTEX
  8
0
 10
108.7454
 20
24.6826
  0
VERTEX
  8
0
 10
108.7195
 20
24.5481
  0
VERTEX
  8
0
 10
108.646
 20
24.4319
  0
VERTEX
  8
0
 10
108.6202
 20
24.4767
  0
VERTEX
  8
0
 10
108.6103
 20
24.532
  0
VERTEX
  8
0
 10
108.5676
 20
24.5527
  0
VERTEX
  8
0
 10
108.5358
 20
24.5181
  0
VERTEX
  8
0
 10
108.513
 20
24.4802
  0
VERTEX
  8
0
 10
108.511
 20
24.4319
  0
VERTEX
  8
0
 10
108.5368
 20
24.402
  0
VERTEX
  8
0
 10
108.4534
 20
24.3306
  0
VERTEX
  8
0
 10
108.3898
 20
24.2455
  0
VERTEX
  8
0
 10
108.3015
 20
24.3065
  0
VERTEX
  8
0
 10
108.3898
 20
24.3778
  0
VERTEX
  8
0
 10
108.3978
 20
24.4813
  0
VERTEX
  8
0
 10
108.4842
 20
24.5527
  0
VERTEX
  8
0
 10
108.4842
 20
24.6079
  0
VERTEX
  8
0
 10
108.4842
 20
24.6642
  0
VERTEX
  8
0
 10
108.4584
 20
24.7091
  0
VERTEX
  8
0
 10
108.5011
 20
24.7563
  0
VERTEX
  8
0
 10
108.5428
 20
24.8023
  0
VERTEX
  8
0
 10
108.5676
 20
24.8598
  0
VERTEX
  8
0
 10
108.5368
 20
24.8909
  0
VERTEX
  8
0
 10
108.5944
 20
24.9518
  0
VERTEX
  8
0
 10
108.646
 20
25.0001
  0
VERTEX
  8
0
 10
108.6202
 20
25.0761
  0
VERTEX
  8
0
 10
108.6808
 20
25.1485
  0
VERTEX
  8
0
 10
108.7523
 20
25.2003
  0
VERTEX
  8
0
 10
108.7761
 20
25.2923
  0
VERTEX
  8
0
 10
108.7394
 20
25.3234
  0
VERTEX
  8
0
 10
108.6937
 20
25.3234
  0
VERTEX
  8
0
 10
108.646
 20
25.3234
  0
VERTEX
  8
0
 10
108.6033
 20
25.2728
  0
VERTEX
  8
0
 10
108.5616
 20
25.2233
  0
VERTEX
  8
0
 10
108.511
 20
25.1969
  0
VERTEX
  8
0
 10
108.4842
 20
25.2268
  0
VERTEX
  8
0
 10
108.5209
 20
25.2912
  0
VERTEX
  8
0
 10
108.5656
 20
25.3429
  0
VERTEX
  8
0
 10
108.5368
 20
25.4131
  0
VERTEX
  8
0
 10
108.4037
 20
25.3142
  0
VERTEX
  8
0
 10
108.2876
 20
25.198
  0
VERTEX
  8
0
 10
108.1585
 20
25.1198
  0
VERTEX
  8
0
 10
107.9807
 20
25.137
  0
VERTEX
  8
0
 10
107.9559
 20
25.1854
  0
VERTEX
  8
0
 10
107.9281
 20
25.2291
  0
VERTEX
  8
0
 10
107.8764
 20
25.2268
  0
VERTEX
  8
0
 10
107.8447
 20
25.1623
  0
VERTEX
  8
0
 10
107.794
 20
25.1048
  0
VERTEX
  8
0
 10
107.7424
 20
25.0462
  0
VERTEX
  8
0
 10
107.6351
 20
25.0864
  0
VERTEX
  8
0
 10
107.5547
 20
25.0151
  0
VERTEX
  8
0
 10
107.4742
 20
24.9346
  0
VERTEX
  8
0
 10
107.373
 20
24.9495
  0
VERTEX
  8
0
 10
107.3422
 20
24.8874
  0
VERTEX
  8
0
 10
107.2826
 20
24.8598
  0
VERTEX
  8
0
 10
107.2121
 20
24.8598
  0
VERTEX
  8
0
 10
107.1972
 20
24.8782
  0
VERTEX
  8
0
 10
107.1863
 20
24.8978
  0
VERTEX
  8
0
 10
107.1863
 20
24.9196
  0
VERTEX
  8
0
 10
107.3293
 20
24.9725
  0
VERTEX
  8
0
 10
107.4474
 20
25.0991
  0
VERTEX
  8
0
 10
107.5616
 20
25.221
  0
VERTEX
  8
0
 10
107.6897
 20
25.2578
  0
VERTEX
  8
0
 10
107.7672
 20
25.3775
  0
VERTEX
  8
0
 10
107.8635
 20
25.4902
  0
VERTEX
  8
0
 10
107.9807
 20
25.5339
  0
VERTEX
  8
0
 10
108.0552
 20
25.619
  0
VERTEX
  8
0
 10
108.1495
 20
25.6363
  0
VERTEX
  8
0
 10
108.22
 20
25.7203
  0
VERTEX
  8
0
 10
108.3223
 20
25.6673
  0
VERTEX
  8
0
 10
108.4008
 20
25.6892
  0
VERTEX
  8
0
 10
108.4673
 20
25.7479
  0
VERTEX
  8
0
 10
108.5309
 20
25.8123
  0
VERTEX
  8
0
 10
108.6043
 20
25.8445
  0
VERTEX
  8
0
 10
108.6977
 20
25.8111
  0
VERTEX
  8
0
 10
108.7741
 20
25.6973
  0
VERTEX
  8
0
 10
108.8725
 20
25.6961
  0
VERTEX
  8
0
 10
108.9827
 20
25.7295
  0
VERTEX
  8
0
 10
109.0979
 20
25.7203
  0
VERTEX
  8
0
 10
109.1009
 20
25.6835
  0
VERTEX
  8
0
 10
109.1257
 20
25.657
  0
VERTEX
  8
0
 10
109.1495
 20
25.6305
  0
VERTEX
  8
0
 10
109.2359
 20
25.6305
  0
VERTEX
  8
0
 10
109.3233
 20
25.6305
  0
VERTEX
  8
0
 10
109.3888
 20
25.6904
  0
VERTEX
  8
0
 10
109.3869
 20
25.7479
  0
VERTEX
  8
0
 10
109.37
 20
25.7996
  0
VERTEX
  8
0
 10
109.3362
 20
25.8411
  0
VERTEX
  8
0
 10
109.2856
 20
25.8422
  0
VERTEX
  8
0
 10
109.2369
 20
25.8434
  0
VERTEX
  8
0
 10
109.2022
 20
25.8111
  0
VERTEX
  8
0
 10
109.0969
 20
25.9354
  0
VERTEX
  8
0
 10
108.9489
 20
25.9365
  0
VERTEX
  8
0
 10
108.8327
 20
25.9664
  0
VERTEX
  8
0
 10
108.8526
 20
25.9917
  0
VERTEX
  8
0
 10
108.8586
 20
26.0228
  0
VERTEX
  8
0
 10
108.8586
 20
26.0585
  0
VERTEX
  8
0
 10
108.7205
 20
26.0688
  0
VERTEX
  8
0
 10
108.6063
 20
26.1332
  0
VERTEX
  8
0
 10
108.4911
 20
26.1816
  0
VERTEX
  8
0
 10
108.3541
 20
26.1482
  0
VERTEX
  8
0
 10
108.3015
 20
26.2138
  0
VERTEX
  8
0
 10
108.4345
 20
26.2437
  0
VERTEX
  8
0
 10
108.5984
 20
26.2437
  0
VERTEX
  8
0
 10
108.7503
 20
26.2138
  0
VERTEX
  8
0
 10
108.8308
 20
26.2506
  0
VERTEX
  8
0
 10
108.8854
 20
26.3311
  0
VERTEX
  8
0
 10
108.9628
 20
26.3346
  0
VERTEX
  8
0
 10
109.0562
 20
26.445
  0
VERTEX
  8
0
 10
109.087
 20
26.5704
  0
VERTEX
  8
0
 10
109.1217
 20
26.6923
  0
VERTEX
  8
0
 10
109.228
 20
26.7981
  0
VERTEX
  8
0
 10
109.2597
 20
26.9235
  0
VERTEX
  8
0
 10
109.3461
 20
27.0248
  0
VERTEX
  8
0
 10
109.362
 20
27.134
  0
VERTEX
  8
0
 10
109.4018
 20
27.1801
  0
VERTEX
  8
0
 10
109.4405
 20
27.2249
  0
VERTEX
  8
0
 10
109.4415
 20
27.2847
  0
VERTEX
  8
0
 10
109.3154
 20
27.2939
  0
VERTEX
  8
0
 10
109.1823
 20
27.3181
  0
VERTEX
  8
0
 10
109.0979
 20
27.195
  0
VERTEX
  8
0
 10
109.075
 20
27.195
  0
VERTEX
  8
0
 10
109.0572
 20
27.2077
  0
VERTEX
  8
0
 10
109.0413
 20
27.2261
  0
VERTEX
  8
0
 10
109.1495
 20
27.4423
  0
VERTEX
  8
0
 10
109.1019
 20
27.4722
  0
VERTEX
  8
0
 10
109.0453
 20
27.4722
  0
VERTEX
  8
0
 10
108.9886
 20
27.4722
  0
VERTEX
  8
0
 10
108.9638
 20
27.3262
  0
VERTEX
  8
0
 10
108.8744
 20
27.2123
  0
VERTEX
  8
0
 10
108.7761
 20
27.1041
  0
VERTEX
  8
0
 10
108.6282
 20
27.134
  0
VERTEX
  8
0
 10
108.4673
 20
27.1329
  0
VERTEX
  8
0
 10
108.3541
 20
27.0386
  0
VERTEX
  8
0
 10
108.3283
 20
27.0098
  0
VERTEX
  8
0
 10
108.1942
 20
27.134
  0
VERTEX
  8
0
 10
108.088
 20
27.011
  0
VERTEX
  8
0
 10
107.9618
 20
26.9488
  0
VERTEX
  8
0
 10
107.8248
 20
26.9787
  0
VERTEX
  8
0
 10
107.6987
 20
26.8741
  0
VERTEX
  8
0
 10
107.5567
 20
26.8304
  0
VERTEX
  8
0
 10
107.4147
 20
26.7855
  0
VERTEX
  8
0
 10
107.2935
 20
26.6716
  0
VERTEX
  8
0
 10
107.2687
 20
26.7015
  0
VERTEX
  8
0
 10
107.3948
 20
26.8511
  0
VERTEX
  8
0
 10
107.5338
 20
27.0133
  0
VERTEX
  8
0
 10
107.6897
 20
27.0685
  0
VERTEX
  8
0
 10
107.7801
 20
27.218
  0
VERTEX
  8
0
 10
107.9042
 20
27.3066
  0
VERTEX
  8
0
 10
108.0333
 20
27.3917
  0
VERTEX
  8
0
 10
108.1416
 20
27.5321
  0
VERTEX
  8
0
 10
108.2796
 20
27.6011
  0
VERTEX
  8
0
 10
108.4097
 20
27.6874
  0
VERTEX
  8
0
 10
108.511
 20
27.8093
  0
VERTEX
  8
0
 10
108.5328
 20
27.7828
  0
VERTEX
  8
0
 10
108.5626
 20
27.7782
  0
VERTEX
  8
0
 10
108.5934
 20
27.7794
  0
VERTEX
  8
0
 10
108.7106
 20
27.8714
  0
VERTEX
  8
0
 10
108.8546
 20
27.9278
  0
VERTEX
  8
0
 10
109.0184
 20
27.9554
  0
VERTEX
  8
0
 10
109.1942
 20
27.9623
  0
VERTEX
  8
0
 10
109.372
 20
27.9611
  0
VERTEX
  8
0
 10
109.5448
 20
27.9611
  0
VERTEX
  8
0
 10
109.6351
 20
27.876
  0
VERTEX
  8
0
 10
109.7632
 20
27.8691
  0
VERTEX
  8
0
 10
109.8953
 20
27.8622
  0
VERTEX
  8
0
 10
109.9966
 20
27.7794
  0
VERTEX
  8
0
 10
110.1009
 20
27.7794
  0
VERTEX
  8
0
 10
110.2051
 20
27.7794
  0
VERTEX
  8
0
 10
110.2627
 20
27.6885
  0
VERTEX
  8
0
 10
110.3173
 20
27.6874
  0
VERTEX
  8
0
 10
110.3749
 20
27.6862
  0
VERTEX
  8
0
 10
110.4226
 20
27.7184
  0
VERTEX
  8
0
 10
110.4226
 20
27.7667
  0
VERTEX
  8
0
 10
110.3988
 20
27.8059
  0
VERTEX
  8
0
 10
110.366
 20
27.8392
  0
VERTEX
  8
0
 10
110.3471
 20
27.8392
  0
VERTEX
  8
0
 10
110.3312
 20
27.8266
  0
VERTEX
  8
0
 10
110.3134
 20
27.8093
  0
VERTEX
  8
0
 10
110.2339
 20
27.9002
  0
VERTEX
  8
0
 10
110.2002
 20
27.9819
  0
VERTEX
  8
0
 10
110.1575
 20
28.0854
  0
VERTEX
  8
0
 10
110.077
 20
28.0026
  0
VERTEX
  8
0
 10
109.9886
 20
27.9945
  0
VERTEX
  8
0
 10
109.8933
 20
27.9957
  0
VERTEX
  8
0
 10
109.9589
 20
28.0716
  0
VERTEX
  8
0
 10
110.0353
 20
28.1602
  0
VERTEX
  8
0
 10
110.0234
 20
28.2671
  0
VERTEX
  8
0
 10
109.9529
 20
28.2499
  0
VERTEX
  8
0
 10
109.9152
 20
28.1786
  0
VERTEX
  8
0
 10
109.8367
 20
28.1774
  0
VERTEX
  8
0
 10
109.795
 20
28.1291
  0
VERTEX
  8
0
 10
109.7553
 20
28.0796
  0
VERTEX
  8
0
 10
109.7056
 20
28.0555
  0
VERTEX
  8
0
 10
109.654
 20
28.1164
  0
VERTEX
  8
0
 10
109.6739
 20
28.1406
  0
VERTEX
  8
0
 10
109.6798
 20
28.1728
  0
VERTEX
  8
0
 10
109.6798
 20
28.2073
  0
VERTEX
  8
0
 10
109.5775
 20
28.2683
  0
VERTEX
  8
0
 10
109.4733
 20
28.2614
  0
VERTEX
  8
0
 10
109.3888
 20
28.3626
  0
VERTEX
  8
0
 10
109.3362
 20
28.3626
  0
VERTEX
  8
0
 10
109.2945
 20
28.3327
  0
VERTEX
  8
0
 10
109.2548
 20
28.3017
  0
VERTEX
  8
0
 10
109.2022
 20
28.3626
  0
VERTEX
  8
0
 10
109.2458
 20
28.3937
  0
VERTEX
  8
0
 10
109.2876
 20
28.4293
  0
VERTEX
  8
0
 10
109.3054
 20
28.4834
  0
VERTEX
  8
0
 10
109.2707
 20
28.5133
  0
VERTEX
  8
0
 10
109.223
 20
28.5133
  0
VERTEX
  8
0
 10
109.1753
 20
28.5133
  0
VERTEX
  8
0
 10
109.0721
 20
28.3937
  0
VERTEX
  8
0
 10
109.0363
 20
28.4696
  0
VERTEX
  8
0
 10
108.9549
 20
28.4869
  0
VERTEX
  8
0
 10
108.8735
 20
28.4869
  0
VERTEX
  8
0
 10
108.8347
 20
28.5133
  0
VERTEX
  8
0
 10
108.8854
 20
28.6099
  0
VERTEX
  8
0
 10
108.9529
 20
28.5754
  0
VERTEX
  8
0
 10
109.0274
 20
28.5639
  0
VERTEX
  8
0
 10
109.0979
 20
28.5444
  0
VERTEX
  8
0
 10
109.1753
 20
28.6698
  0
VERTEX
  8
0
 10
110.2101
 20
28.6399
  0
VERTEX
  8
0
 10
110.2419
 20
28.6007
  0
VERTEX
  8
0
 10
110.2737
 20
28.5628
  0
VERTEX
  8
0
 10
110.3134
 20
28.5444
  0
VERTEX
  8
0
 10
110.3402
 20
28.5743
  0
VERTEX
  8
0
 10
110.4653
 20
28.4523
  0
VERTEX
  8
0
 10
110.5537
 20
28.312
  0
VERTEX
  8
0
 10
110.6302
 20
28.1648
  0
VERTEX
  8
0
 10
110.7195
 20
28.0244
  0
VERTEX
  8
0
 10
110.8447
 20
27.9002
  0
VERTEX
  8
0
 10
110.8178
 20
27.8588
  0
VERTEX
  8
0
 10
110.8387
 20
27.8162
  0
VERTEX
  8
0
 10
110.8705
 20
27.7794
  0
VERTEX
  8
0
 10
110.9529
 20
27.6885
  0
VERTEX
  8
0
 10
111.0601
 20
27.8105
  0
VERTEX
  8
0
 10
111.1217
 20
27.9738
  0
VERTEX
  8
0
 10
111.1654
 20
28.1464
  0
VERTEX
  8
0
 10
111.1346
 20
28.1774
  0
VERTEX
  8
0
 10
111.229
 20
28.2533
  0
VERTEX
  8
0
 10
111.2568
 20
28.3764
  0
VERTEX
  8
0
 10
111.3213
 20
28.4834
  0
VERTEX
  8
0
 10
111.2965
 20
28.5133
  0
VERTEX
  8
0
 10
111.3571
 20
28.6214
  0
VERTEX
  8
0
 10
111.4355
 20
28.6445
  0
VERTEX
  8
0
 10
111.5179
 20
28.6376
  0
VERTEX
  8
0
 10
111.5914
 20
28.6571
  0
VERTEX
  8
0
 10
111.6391
 20
28.7606
  0
VERTEX
  8
0
 10
111.8139
 20
28.7376
  0
VERTEX
  8
0
 10
112.0025
 20
28.7204
  0
VERTEX
  8
0
 10
112.1823
 20
28.7457
  0
VERTEX
  8
0
 10
112.3303
 20
28.8515
  0
VERTEX
  8
0
 10
112.3859
 20
28.8527
  0
VERTEX
  8
0
 10
112.4435
 20
28.8538
  0
VERTEX
  8
0
 10
112.4891
 20
28.8205
  0
VERTEX
  8
0
 10
112.4822
 20
28.786
  0
VERTEX
  8
0
 10
112.4584
 20
28.7583
  0
VERTEX
  8
0
 10
112.4345
 20
28.7296
  0
VERTEX
  8
0
 10
112.3461
 20
28.748
  0
VERTEX
  8
0
 10
112.2667
 20
28.6686
  0
VERTEX
  8
0
 10
112.1694
 20
28.6399
  0
VERTEX
  8
0
 10
112.1714
 20
28.603
  0
VERTEX
  8
0
 10
112.1763
 20
28.5697
  0
VERTEX
  8
0
 10
112.1952
 20
28.5444
  0
VERTEX
  8
0
 10
112.1426
 20
28.4834
  0
VERTEX
  8
0
 10
112.1217
 20
28.5087
  0
VERTEX
  8
0
 10
112.0959
 20
28.5145
  0
VERTEX
  8
0
 10
112.0651
 20
28.5133
  0
VERTEX
  8
0
 10
112.0025
 20
28.4121
  0
VERTEX
  8
0
 10
111.9062
 20
28.4247
  0
VERTEX
  8
0
 10
111.8
 20
28.3937
  0
VERTEX
  8
0
 10
111.9052
 20
28.2671
  0
VERTEX
  8
0
 10
111.7821
 20
28.2556
  0
VERTEX
  8
0
 10
111.6808
 20
28.1556
  0
VERTEX
  8
0
 10
111.5785
 20
28.044
  0
VERTEX
  8
0
 10
111.4574
 20
27.9957
  0
VERTEX
  8
0
 10
111.4008
 20
27.8093
  0
VERTEX
  8
0
 10
111.3541
 20
27.8335
  0
VERTEX
  8
0
 10
111.3074
 20
27.8254
  0
VERTEX
  8
0
 10
111.2707
 20
27.7794
  0
VERTEX
  8
0
 10
111.2707
 20
27.723
  0
VERTEX
  8
0
 10
111.3015
 20
27.6874
  0
VERTEX
  8
0
 10
111.3481
 20
27.6885
  0
VERTEX
  8
0
 10
111.4514
 20
27.715
  0
VERTEX
  8
0
 10
111.5279
 20
27.7794
  0
VERTEX
  8
0
 10
111.6391
 20
27.7794
  0
VERTEX
  8
0
 10
111.7543
 20
27.8381
  0
VERTEX
  8
0
 10
111.8586
 20
27.9312
  0
VERTEX
  8
0
 10
111.9638
 20
28.0175
  0
VERTEX
  8
0
 10
112.081
 20
28.0624
  0
VERTEX
  8
0
 10
112.226
 20
28.0267
  0
VERTEX
  8
0
 10
112.3303
 20
28.1464
  0
VERTEX
  8
0
 10
112.504
 20
28.1164
  0
VERTEX
  8
0
 10
112.6907
 20
28.1164
  0
VERTEX
  8
0
 10
112.8059
 20
28.0267
  0
VERTEX
  8
0
 10
112.9142
 20
28.021
  0
VERTEX
  8
0
 10
113.0244
 20
27.9623
  0
VERTEX
  8
0
 10
113.1237
 20
27.8691
  0
VERTEX
  8
0
 10
113.2667
 20
27.7092
  0
VERTEX
  8
0
 10
113.3332
 20
27.7656
  0
VERTEX
  8
0
 10
113.6272
 20
27.7656
  0
SEQEND
  0
POLYLINE
  8
0
 66
     1
 10
0
 20
0
  0
VERTEX
  8
0
 10
109.4921
 20
26.5819
  0
VERTEX
  8
0
 10
109.4931
 20
26.5106
  0
VERTEX
  8
0
 10
109.504
 20
26.445
  0
VERTEX
  8
0
 10
109.5448
 20
26.3944
  0
VERTEX
  8
0
 10
109.6451
 20
26.4473
  0
VERTEX
  8
0
 10
109.7275
 20
26.5451
  0
VERTEX
  8
0
 10
109.8099
 20
26.6417
  0
VERTEX
  8
0
 10
109.8099
 20
26.858
  0
VERTEX
  8
0
 10
109.8665
 20
26.858
  0
VERTEX
  8
0
 10
109.8645
 20
26.7763
  0
VERTEX
  8
0
 10
109.8685
 20
26.6981
  0
VERTEX
  8
0
 10
109.9181
 20
26.6417
  0
VERTEX
  8
0
 10
109.9678
 20
26.7004
  0
VERTEX
  8
0
 10
109.9996
 20
26.7682
  0
VERTEX
  8
0
 10
110.0492
 20
26.8281
  0
VERTEX
  8
0
 10
110.1724
 20
26.8764
  0
VERTEX
  8
0
 10
110.2985
 20
27.0213
  0
VERTEX
  8
0
 10
110.4226
 20
27.0685
  0
VERTEX
  8
0
 10
110.4792
 20
27.1686
  0
VERTEX
  8
0
 10
110.5775
 20
27.1939
  0
VERTEX
  8
0
 10
110.6351
 20
27.2847
  0
VERTEX
  8
0
 10
110.6878
 20
27.2847
  0
VERTEX
  8
0
 10
110.653
 20
27.187
  0
VERTEX
  8
0
 10
110.6053
 20
27.0938
  0
VERTEX
  8
0
 10
110.6053
 20
26.9787
  0
VERTEX
  8
0
 10
110.7126
 20
26.858
  0
VERTEX
  8
0
 10
110.8456
 20
26.8281
  0
VERTEX
  8
0
 10
110.9787
 20
26.858
  0
VERTEX
  8
0
 10
111.0313
 20
26.9488
  0
VERTEX
  8
0
 10
111.0939
 20
26.8027
  0
VERTEX
  8
0
 10
111.1763
 20
26.6451
  0
VERTEX
  8
0
 10
111.227
 20
26.4852
  0
VERTEX
  8
0
 10
111.1912
 20
26.3346
  0
VERTEX
  8
0
 10
111.1346
 20
26.3656
  0
VERTEX
  8
0
 10
111.08
 20
26.33
  0
VERTEX
  8
0
 10
111.0313
 20
26.2747
  0
VERTEX
  8
0
 10
111.0572
 20
26.1632
  0
VERTEX
  8
0
 10
111.0343
 20
26.055
  0
VERTEX
  8
0
 10
111.1088
 20
25.9664
  0
VERTEX
  8
0
 10
111.228
 20
25.9664
  0
VERTEX
  8
0
 10
111.3471
 20
25.9664
  0
VERTEX
  8
0
 10
111.4306
 20
25.8767
  0
VERTEX
  8
0
 10
111.4296
 20
25.8146
  0
VERTEX
  8
0
 10
111.4454
 20
25.7628
  0
VERTEX
  8
0
 10
111.4832
 20
25.7203
  0
VERTEX
  8
0
 10
111.509
 20
25.7203
  0
VERTEX
  8
0
 10
111.509
 20
25.6593
  0
VERTEX
  8
0
 10
111.4296
 20
25.6892
  0
VERTEX
  8
0
 10
111.3749
 20
25.7651
  0
VERTEX
  8
0
 10
111.3213
 20
25.8411
  0
VERTEX
  8
0
 10
111.3005
 20
25.818
  0
VERTEX
  8
0
 10
111.2746
 20
25.8134
  0
VERTEX
  8
0
 10
111.2439
 20
25.8111
  0
VERTEX
  8
0
 10
111.23
 20
25.8595
  0
VERTEX
  8
0
 10
111.1972
 20
25.8986
  0
VERTEX
  8
0
 10
111.1654
 20
25.9365
  0
VERTEX
  8
0
 10
111.0264
 20
25.902
  0
VERTEX
  8
0
 10
110.8764
 20
25.9158
  0
VERTEX
  8
0
 10
110.7384
 20
25.9078
  0
VERTEX
  8
0
 10
110.6351
 20
25.8111
  0
VERTEX
  8
0
 10
110.6053
 20
25.8411
  0
VERTEX
  8
0
 10
110.507
 20
25.7203
  0
VERTEX
  8
0
 10
110.3859
 20
25.68
  0
VERTEX
  8
0
 10
110.2359
 20
25.6593
  0
VERTEX
  8
0
 10
110.1972
 20
25.6156
  0
VERTEX
  8
0
 10
110.1575
 20
25.5707
  0
VERTEX
  8
0
 10
110.1009
 20
25.5696
  0
VERTEX
  8
0
 10
110.1009
 20
25.6305
  0
VERTEX
  8
0
 10
110.1346
 20
25.634
  0
VERTEX
  8
0
 10
110.1595
 20
25.6616
  0
VERTEX
  8
0
 10
110.1833
 20
25.6904
  0
VERTEX
  8
0
 10
110.1833
 20
25.8111
  0
VERTEX
  8
0
 10
110.2399
 20
25.8111
  0
VERTEX
  8
0
 10
110.2955
 20
25.8111
  0
VERTEX
  8
0
 10
110.3402
 20
25.7812
  0
VERTEX
  8
0
 10
110.4226
 20
25.8767
  0
VERTEX
  8
0
 10
110.4008
 20
25.8986
  0
VERTEX
  8
0
 10
110.3958
 20
25.9319
  0
VERTEX
  8
0
 10
110.3968
 20
25.9664
  0
VERTEX
  8
0
 10
110.512
 20
25.9814
  0
VERTEX
  8
0
 10
110.6133
 20
26.0976
  0
VERTEX
  8
0
 10
110.7394
 20
26.1482
  0
VERTEX
  8
0
 10
110.793
 20
26.2471
  0
VERTEX
  8
0
 10
110.8824
 20
26.2874
  0
VERTEX
  8
0
 10
110.9708
 20
26.3092
  0
VERTEX
  8
0
 10
111.0165
 20
26.3518
  0
VERTEX
  8
0
 10
110.9787
 20
26.4553
  0
VERTEX
  8
0
 10
110.8516
 20
26.4576
  0
VERTEX
  8
0
 10
110.7513
 20
26.4392
  0
VERTEX
  8
0
 10
110.6619
 20
26.3346
  0
VERTEX
  8
0
 10
110.5418
 20
26.3346
  0
VERTEX
  8
0
 10
110.4226
 20
26.3346
  0
VERTEX
  8
0
 10
110.3134
 20
26.3645
  0
VERTEX
  8
0
 10
110.2151
 20
26.2425
  0
VERTEX
  8
0
 10
110.0969
 20
26.1263
  0
VERTEX
  8
0
 10
110.0155
 20
25.9963
  0
VERTEX
  8
0
 10
110.0234
 20
25.8411
  0
VERTEX
  8
0
 10
109.944
 20
25.8065
  0
VERTEX
  8
0
 10
109.9301
 20
25.7421
  0
VERTEX
  8
0
 10
109.934
 20
25.6754
  0
VERTEX
  8
0
 10
109.9102
 20
25.6386
  0
VERTEX
  8
0
 10
109.8099
 20
25.6593
  0
VERTEX
  8
0
 10
109.79
 20
25.7709
  0
VERTEX
  8
0
 10
109.7384
 20
25.8652
  0
VERTEX
  8
0
 10
109.6659
 20
25.9492
  0
VERTEX
  8
0
 10
109.5845
 20
26.0286
  0
VERTEX
  8
0
 10
109.506
 20
26.1114
  0
VERTEX
  8
0
 10
109.4405
 20
26.2023
  0
VERTEX
  8
0
 10
109.3998
 20
26.3058
  0
VERTEX
  8
0
 10
109.3968
 20
26.43
  0
VERTEX
  8
0
 10
109.4415
 20
26.5819
  0
VERTEX
  8
0
 10
109.4921
 20
26.5819
  0
SEQEND
  0
POLYLINE
  8
0
 66
     1
 10
0
 20
0
  0
VERTEX
  8
0
 10
115.0304
 20
11.1361
  0
VERTEX
  8
0
 10
114.8337
 20
11.1442
  0
VERTEX
  8
0
 10
114.6937
 20
11.1488
  0
VERTEX
  8
0
 10
114.5418
 20
11.1488
  0
VERTEX
  8
0
 10
114.3144
 20
11.1453
  0
VERTEX
  8
0
 10
117.5736
 20
14.9357
  0
VERTEX
  8
0
 10
118.3422
 20
14.9576
  0
VERTEX
  8
0
 10
115.0304
 20
11.1361
  0
SEQEND
  0
POLYLINE
  8
0
 66
     1
 10
0
 20
0
  0
VERTEX
  8
0
 10
119.2627
 20
17.0259
  0
VERTEX
  8
0
 10
119.3263
 20
17.31
  0
VERTEX
  8
0
 10
119.3511
 20
17.5378
  0
VERTEX
  8
0
 10
119.3442
 20
17.7184
  0
VERTEX
  8
0
 10
119.3144
 20
17.8657
  0
VERTEX
  8
0
 10
119.2707
 20
17.9911
  0
VERTEX
  8
0
 10
119.5229
 20
18.0118
  0
VERTEX
  8
0
 10
119.5597
 20
17.8507
  0
VERTEX
  8
0
 10
119.5805
 20
17.6954
  0
VERTEX
  8
0
 10
119.5884
 20
17.5436
  0
VERTEX
  8
0
 10
119.5835
 20
17.3963
  0
VERTEX
  8
0
 10
119.5676
 20
17.2525
  0
VERTEX
  8
0
 10
119.5418
 20
17.1122
  0
VERTEX
  8
0
 10
119.506
 20
16.9741
  0
VERTEX
  8
0
 10
119.4613
 20
16.8384
  0
VERTEX
  8
0
 10
119.4107
 20
16.7073
  0
VERTEX
  8
0
 10
119.3531
 20
16.5773
  0
VERTEX
  8
0
 10
119.2905
 20
16.4484
  0
VERTEX
  8
0
 10
119.223
 20
16.3207
  0
VERTEX
  8
0
 10
119.1535
 20
16.1965
  0
VERTEX
  8
0
 10
119.08
 20
16.0711
  0
VERTEX
  8
0
 10
119.0065
 20
15.9469
  0
VERTEX
  8
0
 10
118.933
 20
15.8226
  0
VERTEX
  8
0
 10
118.8605
 20
15.6996
  0
VERTEX
  8
0
 10
118.789
 20
15.5753
  0
VERTEX
  8
0
 10
118.22
 20
15.5753
  0
VERTEX
  8
0
 10
118.789
 20
16.2195
  0
VERTEX
  8
0
 10
118.8357
 20
16.2874
  0
VERTEX
  8
0
 10
118.938
 20
16.4438
  0
VERTEX
  8
0
 10
119.0641
 20
16.6463
  0
VERTEX
  8
0
 10
119.1833
 20
16.8545
  0
VERTEX
  8
0
 10
119.2627
 20
17.0259
  0
SEQEND
  0
POLYLINE
  8
0
 66
     1
 10
0
 20
0
  0
VERTEX
  8
0
 10
119.4802
 20
18.1786
  0
VERTEX
  8
0
 10
119.22
 20
18.1521
  0
VERTEX
  8
0
 10
119.1436
 20
18.2752
  0
VERTEX
  8
0
 10
119.0611
 20
18.3937
  0
VERTEX
  8
0
 10
118.9728
 20
18.5064
  0
VERTEX
  8
0
 10
118.8764
 20
18.6168
  0
VERTEX
  8
0
 10
118.7751
 20
18.7215
  0
VERTEX
  8
0
 10
118.6669
 20
18.8205
  0
VERTEX
  8
0
 10
118.5537
 20
18.9171
  0
VERTEX
  8
0
 10
118.4355
 20
19.008
  0
VERTEX
  8
0
 10
118.3124
 20
19.0931
  0
VERTEX
  8
0
 10
118.1853
 20
19.1725
  0
VERTEX
  8
0
 10
118.0542
 20
19.2472
  0
VERTEX
  8
0
 10
117.9181
 20
19.3163
  0
VERTEX
  8
0
 10
117.7801
 20
19.3795
  0
VERTEX
  8
0
 10
117.6381
 20
19.4359
  0
VERTEX
  8
0
 10
117.8675
 20
19.5509
  0
VERTEX
  8
0
 10
118.0065
 20
19.4877
  0
VERTEX
  8
0
 10
118.1465
 20
19.4175
  0
VERTEX
  8
0
 10
118.2856
 20
19.3427
  0
VERTEX
  8
0
 10
118.4226
 20
19.261
  0
VERTEX
  8
0
 10
118.5567
 20
19.1736
  0
VERTEX
  8
0
 10
118.6868
 20
19.0827
  0
VERTEX
  8
0
 10
118.8129
 20
18.9861
  0
VERTEX
  8
0
 10
118.933
 20
18.8837
  0
VERTEX
  8
0
 10
119.0462
 20
18.7779
  0
VERTEX
  8
0
 10
119.1525
 20
18.6663
  0
VERTEX
  8
0
 10
119.2498
 20
18.5513
  0
VERTEX
  8
0
 10
119.3362
 20
18.4305
  0
VERTEX
  8
0
 10
119.4147
 20
18.3063
  0
VERTEX
  8
0
 10
119.4802
 20
18.1786
  0
SEQEND
  0
POLYLINE
  8
0
 66
     1
 10
0
 20
0
  0
VERTEX
  8
0
 10
117.6113
 20
19.6579
  0
VERTEX
  8
0
 10
117.4286
 20
19.5923
  0
VERTEX
  8
0
 10
117.2597
 20
19.6706
  0
VERTEX
  8
0
 10
117.085
 20
19.7522
  0
VERTEX
  8
0
 10
116.9092
 20
19.8362
  0
VERTEX
  8
0
 10
116.7374
 20
19.9202
  0
VERTEX
  8
0
 10
116.5736
 20
20.0007
  0
VERTEX
  8
0
 10
116.4196
 20
20.0766
  0
VERTEX
  8
0
 10
116.2836
 20
20.1468
  0
VERTEX
  8
0
 10
116.1674
 20
20.2055
  0
VERTEX
  8
0
 10
116.076
 20
20.2561
  0
VERTEX
  8
0
 10
116.0135
 20
20.2918
  0
VERTEX
  8
0
 10
116.23
 20
20.3631
  0
VERTEX
  8
0
 10
116.3332
 20
20.3125
  0
VERTEX
  8
0
 10
116.4554
 20
20.2526
  0
VERTEX
  8
0
 10
116.5924
 20
20.1848
  0
VERTEX
  8
0
 10
116.7394
 20
20.11
  0
VERTEX
  8
0
 10
116.8933
 20
20.0329
  0
VERTEX
  8
0
 10
117.0492
 20
19.9524
  0
VERTEX
  8
0
 10
117.2031
 20
19.873
  0
VERTEX
  8
0
 10
117.3511
 20
19.796
  0
VERTEX
  8
0
 10
117.4882
 20
19.7235
  0
VERTEX
  8
0
 10
117.6113
 20
19.6579
  0
SEQEND
  0
POLYLINE
  8
0
 66
     1
 10
0
 20
0
  0
VERTEX
  8
0
 10
114.944
 20
21.1499
  0
VERTEX
  8
0
 10
114.7612
 20
21.1154
  0
VERTEX
  8
0
 10
114.6361
 20
21.2005
  0
VERTEX
  8
0
 10
114.5974
 20
21.3328
  0
VERTEX
  8
0
 10
114.6431
 20
21.4881
  0
VERTEX
  8
0
 10
114.7702
 20
21.648
  0
VERTEX
  8
0
 10
114.9271
 20
21.6089
  0
VERTEX
  8
0
 10
114.801
 20
21.4904
  0
VERTEX
  8
0
 10
114.7593
 20
21.3616
  0
VERTEX
  8
0
 10
114.8059
 20
21.2431
  0
VERTEX
  8
0
 10
114.944
 20
21.1499
  0
SEQEND
  0
POLYLINE
  8
0
 66
     1
 10
0
 20
0
  0
VERTEX
  8
0
 10
115.0006
 20
21.7136
  0
VERTEX
  8
0
 10
114.8566
 20
21.7447
  0
VERTEX
  8
0
 10
114.9628
 20
21.847
  0
VERTEX
  8
0
 10
115.1148
 20
21.969
  0
VERTEX
  8
0
 10
115.2925
 20
22.0909
  0
VERTEX
  8
0
 10
115.4822
 20
22.1979
  0
VERTEX
  8
0
 10
115.5914
 20
22.1714
  0
VERTEX
  8
0
 10
115.4752
 20
22.1036
  0
VERTEX
  8
0
 10
115.3144
 20
21.992
  0
VERTEX
  8
0
 10
115.1436
 20
21.8551
  0
VERTEX
  8
0
 10
115.0006
 20
21.7136
  0
SEQEND
  0
POLYLINE
  8
0
 66
     1
 10
0
 20
0
  0
VERTEX
  8
0
 10
116.0691
 20
22.5844
  0
VERTEX
  8
0
 10
116.1873
 20
22.5649
  0
VERTEX
  8
0
 10
116.0045
 20
22.4671
  0
VERTEX
  8
0
 10
115.8317
 20
22.3624
  0
VERTEX
  8
0
 10
115.7215
 20
22.283
  0
VERTEX
  8
0
 10
115.6043
 20
22.3072
  0
VERTEX
  8
0
 10
115.7364
 20
22.3911
  0
VERTEX
  8
0
 10
115.9082
 20
22.4947
  0
VERTEX
  8
0
 10
116.0691
 20
22.5844
  0
SEQEND
  0
POLYLINE
  8
0
 66
     1
 10
0
 20
0
  0
VERTEX
  8
0
 10
116.2002
 20
22.6603
  0
VERTEX
  8
0
 10
116.4186
 20
22.7696
  0
VERTEX
  8
0
 10
116.5904
 20
22.8501
  0
VERTEX
  8
0
 10
116.6639
 20
22.8812
  0
VERTEX
  8
0
 10
116.7652
 20
22.8616
  0
VERTEX
  8
0
 10
116.7106
 20
22.8455
  0
VERTEX
  8
0
 10
116.5328
 20
22.7616
  0
VERTEX
  8
0
 10
116.2826
 20
22.635
  0
VERTEX
  8
0
 10
116.2756
 20
22.6385
  0
VERTEX
  8
0
 10
116.2319
 20
22.6442
  0
VERTEX
  8
0
 10
116.2002
 20
22.6603
  0
SEQEND
  0
POLYLINE
  8
0
 66
     1
 10
0
 20
0
  0
VERTEX
  8
0
 10
116.8516
 20
22.9318
  0
VERTEX
  8
0
 10
116.7692
 20
22.9468
  0
VERTEX
  8
0
 10
116.9678
 20
23.0445
  0
VERTEX
  8
0
 10
117.1704
 20
23.1458
  0
VERTEX
  8
0
 10
117.3571
 20
23.2378
  0
VERTEX
  8
0
 10
117.509
 20
23.3126
  0
VERTEX
  8
0
 10
117.6033
 20
23.3597
  0
VERTEX
  8
0
 10
117.6729
 20
23.3551
  0
VERTEX
  8
0
 10
117.5328
 20
23.2873
  0
VERTEX
  8
0
 10
117.361
 20
23.1998
  0
VERTEX
  8
0
 10
117.1773
 20
23.1044
  0
VERTEX
  8
0
 10
117.0006
 20
23.0123
  0
VERTEX
  8
0
 10
116.8516
 20
22.9318
  0
SEQEND
  0
TEXT
  8
0
 10
121.5213
 20
27.4275
 40
2
  1
A
  7
HIGHWAYEMOD2K
  0
TEXT
  8
0
 10
123.5413
 20
27.6775
 40
1.5
  1
 
  7
HIGHWAYEMOD2K
  0
TEXT
  8
0
 10
125.0413
 20
27.4275
 40
2
  1
P
  7
HIGHWAYEMOD2K
  0
TEXT
  8
0
 10
126.8113
 20
27.4275
 40
2
  1
a
  7
HIGHWAYEMOD2K
  0
TEXT
  8
0
 10
128.5313
 20
27.4275
 40
2
  1
r
  7
HIGHWAYEMOD2K
  0
TEXT
  8
0
 10
129.6613
 20
27.4275
 40
2
  1
t
  7
HIGHWAYEMOD2K
  0
TEXT
  8
0
 10
131.0213
 20
27.4275
 40
2
  1
n
  7
HIGHWAYEMOD2K
  0
TEXT
  8
0
 10
132.6513
 20
27.4275
 40
2
  1
e
  7
HIGHWAYEMOD2K
  0
TEXT
  8
0
 10
134.2813
 20
27.4275
 40
2
  1
r
  7
HIGHWAYEMOD2K
  0
TEXT
  8
0
 10
135.4113
 20
27.4275
 40
2
  1
s
  7
HIGHWAYEMOD2K
  0
TEXT
  8
0
 10
137.0413
 20
27.4275
 40
2
  1
h
  7
HIGHWAYEMOD2K
  0
TEXT
  8
0
 10
138.7613
 20
27.4275
 40
2
  1
i
  7
HIGHWAYEMOD2K
  0
TEXT
  8
0
 10
139.5613
 20
27.4275
 40
2
  1
p
  7
HIGHWAYEMOD2K
  0
TEXT
  8
0
 10
140.8813
 20
27.6775
 40
1.5
  1
 
  7
HIGHWAYEMOD2K
  0
TEXT
  8
0
 10
142.3813
 20
27.4275
 40
2
  1
F
  7
HIGHWAYEMOD2K
  0
TEXT
  8
0
 10
144.0413
 20
27.4275
 40
2
  1
o
  7
HIGHWAYEMOD2K
  0
TEXT
  8
0
 10
145.7113
 20
27.4275
 40
2
  1
r
  7
HIGHWAYEMOD2K
  0
TEXT
  8
0
 10
126.6163
 20
23.4275
 40
2
  1
L
  7
HIGHWAYEMOD2K
  0
TEXT
  8
0
 10
128.3163
 20
23.4275
 40
2
  1
i
  7
HIGHWAYEMOD2K
  0
TEXT
  8
0
 10
129.0063
 20
23.4275
 40
2
  1
t
  7
HIGHWAYEMOD2K
  0
TEXT
  8
0
 10
130.2563
 20
23.4275
 40
2
  1
t
  7
HIGHWAYEMOD2K
  0
TEXT
  8
0
 10
131.5263
 20
23.4275
 40
2
  1
e
  7
HIGHWAYEMOD2K
  0
TEXT
  8
0
 10
133.1563
 20
23.4275
 40
2
  1
r
  7
HIGHWAYEMOD2K
  0
TEXT
  8
0
 10
134.1563
 20
24.1775
 40
0.5
  1
 
  7
HIGHWAYEMOD2K
  0
TEXT
  8
0
 10
134.6563
 20
23.4275
 40
2
  1
-
  7
HIGHWAYEMOD2K
  0
TEXT
  8
0
 10
135.3563
 20
24.1775
 40
0.5
  1
 
  7
HIGHWAYEMOD2K
  0
TEXT
  8
0
 10
135.8563
 20
23.4275
 40
2
  1
F
  7
HIGHWAYEMOD2K
  0
TEXT
  8
0
 10
137.6063
 20
23.4275
 40
2
  1
r
  7
HIGHWAYEMOD2K
  0
TEXT
  8
0
 10
138.7563
 20
23.4275
 40
2
  1
e
  7
HIGHWAYEMOD2K
  0
TEXT
  8
0
 10
140.2963
 20
23.4275
 40
2
  1
e
  7
HIGHWAYEMOD2K
  0
TEXT
  8
0
 10
122.3263
 20
19.4275
 40
2
  1
F
  7
HIGHWAYEMOD2K
  0
TEXT
  8
0
 10
124.0763
 20
19.4275
 40
2
  1
l
  7
HIGHWAYEMOD2K
  0
TEXT
  8
0
 10
124.7863
 20
19.4275
 40
2
  1
o
  7
HIGHWAYEMOD2K
  0
TEXT
  8
0
 10
126.4563
 20
19.4275
 40
2
  1
r
  7
HIGHWAYEMOD2K
  0
TEXT
  8
0
 10
127.6963
 20
19.4275
 40
2
  1
i
  7
HIGHWAYEMOD2K
  0
TEXT
  8
0
 10
128.4063
 20
19.4275
 40
2
  1
d
  7
HIGHWAYEMOD2K
  0
TEXT
  8
0
 10
130.0363
 20
19.4275
 40
2
  1
a
  7
HIGHWAYEMOD2K
  0
TEXT
  8
0
 10
131.3563
 20
19.6775
 40
1.5
  1
 
  7
HIGHWAYEMOD2K
  0
TEXT
  8
0
 10
132.8563
 20
19.4275
 40
2
  1
H
  7
HIGHWAYEMOD2K
  0
TEXT
  8
0
 10
134.8163
 20
19.4275
 40
2
  1
i
  7
HIGHWAYEMOD2K
  0
TEXT
  8
0
 10
135.5263
 20
19.4275
 40
2
  1
g
  7
HIGHWAYEMOD2K
  0
TEXT
  8
0
 10
137.2463
 20
19.4275
 40
2
  1
h
  7
HIGHWAYEMOD2K
  0
TEXT
  8
0
 10
138.8563
 20
19.4275
 40
2
  1
w
  7
HIGHWAYEMOD2K
  0
TEXT
  8
0
 10
141.0963
 20
19.4275
 40
2
  1
a
  7
HIGHWAYEMOD2K
  0
TEXT
  8
0
 10
142.7063
 20
19.4275
 40
2
  1
y
  7
HIGHWAYEMOD2K
  0
TEXT
  8
0
 10
144.5863
 20
19.4275
 40
2
  1
s
  7
HIGHWAYEMOD2K
  0
POLYLINE
  8
0
 66
     1
 10
0
 20
0
  0
VERTEX
  8
0
 10
143.9336
 20
14.0726
  0
VERTEX
  8
0
 10
143.9612
 20
14.0697
  0
VERTEX
  8
0
 10
143.9755
 20
14.0745
  0
VERTEX
  8
0
 10
143.9755
 20
14.0802
  0
VERTEX
  8
0
 10
143.9297
 20
14.084
  0
VERTEX
  8
0
 10
143.9269
 20
14.0811
  0
VERTEX
  8
0
 10
143.9336
 20
14.0726
  0
SEQEND
  0
POLYLINE
  8
0
 66
     1
 10
0
 20
0
  0
VERTEX
  8
0
 10
141.7659
 20
14.5414
  0
VERTEX
  8
0
 10
141.7659
 20
14.5747
  0
VERTEX
  8
0
 10
141.7725
 20
14.5823
  0
VERTEX
  8
0
 10
141.8154
 20
14.5795
  0
VERTEX
  8
0
 10
141.8287
 20
14.5661
  0
VERTEX
  8
0
 10
141.904
 20
14.3012
  0
VERTEX
  8
0
 10
141.9183
 20
14.2517
  0
VERTEX
  8
0
 10
141.9278
 20
14.2184
  0
VERTEX
  8
0
 10
141.9297
 20
14.2012
  0
VERTEX
  8
0
 10
141.9288
 20
14.1945
  0
VERTEX
  8
0
 10
141.925
 20
14.1869
  0
VERTEX
  8
0
 10
141.9231
 20
14.1841
  0
VERTEX
  8
0
 10
141.9193
 20
14.1802
  0
VERTEX
  8
0
 10
141.9145
 20
14.1755
  0
VERTEX
  8
0
 10
141.9097
 20
14.1726
  0
VERTEX
  8
0
 10
141.8964
 20
14.1659
  0
VERTEX
  8
0
 10
141.8792
 20
14.1583
  0
VERTEX
  8
0
 10
141.8735
 20
14.1679
  0
VERTEX
  8
0
 10
141.8716
 20
14.1707
  0
VERTEX
  8
0
 10
141.8621
 20
14.1926
  0
VERTEX
  8
0
 10
141.8535
 20
14.2307
  0
VERTEX
  8
0
 10
141.8535
 20
14.2298
  0
VERTEX
  8
0
 10
141.8421
 20
14.2908
  0
VERTEX
  8
0
 10
141.8373
 20
14.3098
  0
VERTEX
  8
0
 10
141.7659
 20
14.5414
  0
SEQEND
  0
POLYLINE
  8
0
 66
     1
 10
0
 20
0
  0
VERTEX
  8
0
 10
141.7487
 20
14.9349
  0
VERTEX
  8
0
 10
141.7401
 20
14.9225
  0
VERTEX
  8
0
 10
141.7354
 20
14.9158
  0
VERTEX
  8
0
 10
141.7363
 20
14.9158
  0
VERTEX
  8
0
 10
141.723
 20
14.8996
  0
VERTEX
  8
0
 10
141.722
 20
14.8987
  0
VERTEX
  8
0
 10
141.7125
 20
14.8806
  0
VERTEX
  8
0
 10
141.7096
 20
14.8768
  0
VERTEX
  8
0
 10
141.7068
 20
14.8739
  0
VERTEX
  8
0
 10
141.703
 20
14.873
  0
VERTEX
  8
0
 10
141.6963
 20
14.873
  0
VERTEX
  8
0
 10
141.6925
 20
14.873
  0
VERTEX
  8
0
 10
141.6191
 20
15.0864
  0
VERTEX
  8
0
 10
141.5696
 20
15.2245
  0
VERTEX
  8
0
 10
141.5743
 20
15.2493
  0
VERTEX
  8
0
 10
141.5848
 20
15.2741
  0
VERTEX
  8
0
 10
141.5962
 20
15.2903
  0
VERTEX
  8
0
 10
141.6105
 20
15.3008
  0
VERTEX
  8
0
 10
141.6134
 20
15.3027
  0
VERTEX
  8
0
 10
141.6163
 20
15.3036
  0
VERTEX
  8
0
 10
141.6201
 20
15.3027
  0
VERTEX
  8
0
 10
141.6239
 20
15.3008
  0
VERTEX
  8
0
 10
141.6296
 20
15.296
  0
VERTEX
  8
0
 10
141.6334
 20
15.2912
  0
VERTEX
  8
0
 10
141.6382
 20
15.2817
  0
VERTEX
  8
0
 10
141.641
 20
15.2731
  0
VERTEX
  8
0
 10
141.6439
 20
15.2636
  0
VERTEX
  8
0
 10
141.6506
 20
15.235
  0
VERTEX
  8
0
 10
141.6506
 20
15.236
  0
VERTEX
  8
0
 10
141.6563
 20
15.2122
  0
VERTEX
  8
0
 10
141.6572
 20
15.2122
  0
VERTEX
  8
0
 10
141.6706
 20
15.1693
  0
VERTEX
  8
0
 10
141.7487
 20
14.9349
  0
SEQEND
  0
POLYLINE
  8
0
 66
     1
 10
0
 20
0
  0
VERTEX
  8
0
 10
141.4143
 20
15.6381
  0
VERTEX
  8
0
 10
141.4295
 20
15.6419
  0
VERTEX
  8
0
 10
141.4362
 20
15.6428
  0
VERTEX
  8
0
 10
141.4562
 20
15.64
  0
VERTEX
  8
0
 10
141.4609
 20
15.64
  0
VERTEX
  8
0
 10
141.479
 20
15.64
  0
VERTEX
  8
0
 10
141.4943
 20
15.6381
  0
VERTEX
  8
0
 10
141.5
 20
15.6362
  0
VERTEX
  8
0
 10
141.5067
 20
15.6285
  0
VERTEX
  8
0
 10
141.5162
 20
15.6085
  0
VERTEX
  8
0
 10
141.5591
 20
15.4837
  0
VERTEX
  8
0
 10
141.5486
 20
15.4732
  0
VERTEX
  8
0
 10
141.541
 20
15.4666
  0
VERTEX
  8
0
 10
141.5353
 20
15.4599
  0
VERTEX
  8
0
 10
141.5286
 20
15.4504
  0
VERTEX
  8
0
 10
141.5191
 20
15.4361
  0
VERTEX
  8
0
 10
141.5134
 20
15.4304
  0
VERTEX
  8
0
 10
141.5105
 20
15.4294
  0
VERTEX
  8
0
 10
141.5057
 20
15.4294
  0
VERTEX
  8
0
 10
141.5029
 20
15.4294
  0
VERTEX
  8
0
 10
141.5
 20
15.4304
  0
VERTEX
  8
0
 10
141.4981
 20
15.4323
  0
VERTEX
  8
0
 10
141.4972
 20
15.4342
  0
VERTEX
  8
0
 10
141.4143
 20
15.6381
  0
SEQEND
  0
POLYLINE
  8
0
 66
     1
 10
0
 20
0
  0
VERTEX
  8
0
 10
141.278
 20
11.5952
  0
VERTEX
  8
0
 10
141.279
 20
11.6123
  0
VERTEX
  8
0
 10
141.3047
 20
11.6066
  0
VERTEX
  8
0
 10
141.3085
 20
11.5971
  0
VERTEX
  8
0
 10
141.298
 20
11.5857
  0
VERTEX
  8
0
 10
141.2866
 20
11.5857
  0
VERTEX
  8
0
 10
141.278
 20
11.5952
  0
SEQEND
  0
POLYLINE
  8
0
 66
     1
 10
0
 20
0
  0
VERTEX
  8
0
 10
141.2065
 20
11.5771
  0
VERTEX
  8
0
 10
141.2189
 20
11.5895
  0
VERTEX
  8
0
 10
141.2323
 20
11.5914
  0
VERTEX
  8
0
 10
141.2399
 20
11.5914
  0
VERTEX
  8
0
 10
141.2456
 20
11.5904
  0
VERTEX
  8
0
 10
141.2513
 20
11.5885
  0
VERTEX
  8
0
 10
141.2542
 20
11.5866
  0
VERTEX
  8
0
 10
141.2561
 20
11.5847
  0
VERTEX
  8
0
 10
141.2589
 20
11.5771
  0
VERTEX
  8
0
 10
141.2599
 20
11.5676
  0
VERTEX
  8
0
 10
141.258
 20
11.5542
  0
VERTEX
  8
0
 10
141.2551
 20
11.5457
  0
VERTEX
  8
0
 10
141.2504
 20
11.5399
  0
VERTEX
  8
0
 10
141.2418
 20
11.5352
  0
VERTEX
  8
0
 10
141.2351
 20
11.5323
  0
VERTEX
  8
0
 10
141.2313
 20
11.5314
  0
VERTEX
  8
0
 10
141.2285
 20
11.5314
  0
VERTEX
  8
0
 10
141.2227
 20
11.5342
  0
VERTEX
  8
0
 10
141.217
 20
11.538
  0
VERTEX
  8
0
 10
141.2142
 20
11.5418
  0
VERTEX
  8
0
 10
141.2094
 20
11.5542
  0
VERTEX
  8
0
 10
141.2065
 20
11.5771
  0
SEQEND
  0
POLYLINE
  8
0
 66
     1
 10
0
 20
0
  0
VERTEX
  8
0
 10
141.1922
 20
11.5047
  0
VERTEX
  8
0
 10
141.1799
 20
11.4923
  0
VERTEX
  8
0
 10
141.1713
 20
11.4847
  0
VERTEX
  8
0
 10
141.1675
 20
11.4818
  0
VERTEX
  8
0
 10
141.1608
 20
11.479
  0
VERTEX
  8
0
 10
141.1522
 20
11.478
  0
VERTEX
  8
0
 10
141.1446
 20
11.479
  0
VERTEX
  8
0
 10
141.1408
 20
11.4809
  0
VERTEX
  8
0
 10
141.1389
 20
11.4828
  0
VERTEX
  8
0
 10
141.137
 20
11.4856
  0
VERTEX
  8
0
 10
141.1332
 20
11.4932
  0
VERTEX
  8
0
 10
141.1303
 20
11.5018
  0
VERTEX
  8
0
 10
141.1255
 20
11.519
  0
VERTEX
  8
0
 10
141.1246
 20
11.5256
  0
VERTEX
  8
0
 10
141.1246
 20
11.5285
  0
VERTEX
  8
0
 10
141.1255
 20
11.5323
  0
VERTEX
  8
0
 10
141.1294
 20
11.538
  0
VERTEX
  8
0
 10
141.1341
 20
11.5418
  0
VERTEX
  8
0
 10
141.1437
 20
11.5447
  0
VERTEX
  8
0
 10
141.1541
 20
11.5457
  0
VERTEX
  8
0
 10
141.1656
 20
11.5447
  0
VERTEX
  8
0
 10
141.1741
 20
11.5418
  0
VERTEX
  8
0
 10
141.1808
 20
11.5371
  0
VERTEX
  8
0
 10
141.1856
 20
11.5314
  0
VERTEX
  8
0
 10
141.1894
 20
11.5209
  0
VERTEX
  8
0
 10
141.1922
 20
11.5047
  0
SEQEND
  0
POLYLINE
  8
0
 66
     1
 10
0
 20
0
  0
VERTEX
  8
0
 10
141.0379
 20
11.498
  0
VERTEX
  8
0
 10
141.0265
 20
11.4866
  0
VERTEX
  8
0
 10
141.0379
 20
11.498
  0
VERTEX
  8
0
 10
141.0436
 20
11.5028
  0
VERTEX
  8
0
 10
141.0522
 20
11.5056
  0
VERTEX
  8
0
 10
141.0712
 20
11.5104
  0
VERTEX
  8
0
 10
141.0522
 20
11.5056
  0
VERTEX
  8
0
 10
141.0884
 20
11.4923
  0
VERTEX
  8
0
 10
141.0712
 20
11.5104
  0
VERTEX
  8
0
 10
141.0884
 20
11.4923
  0
VERTEX
  8
0
 10
141.0951
 20
11.4837
  0
VERTEX
  8
0
 10
141.0998
 20
11.4723
  0
VERTEX
  8
0
 10
141.1055
 20
11.4475
  0
VERTEX
  8
0
 10
141.0998
 20
11.4723
  0
VERTEX
  8
0
 10
141.1055
 20
11.4475
  0
VERTEX
  8
0
 10
141.0989
 20
11.4408
  0
VERTEX
  8
0
 10
141.097
 20
11.4389
  0
VERTEX
  8
0
 10
141.0884
 20
11.4361
  0
VERTEX
  8
0
 10
141.077
 20
11.4332
  0
VERTEX
  8
0
 10
141.0531
 20
11.4275
  0
VERTEX
  8
0
 10
141.0455
 20
11.4285
  0
VERTEX
  8
0
 10
141.0388
 20
11.4313
  0
VERTEX
  8
0
 10
141.0331
 20
11.4351
  0
VERTEX
  8
0
 10
141.0303
 20
11.4389
  0
VERTEX
  8
0
 10
141.0265
 20
11.4485
  0
VERTEX
  8
0
 10
141.0265
 20
11.4608
  0
VERTEX
  8
0
 10
141.0265
 20
11.4694
  0
VERTEX
  8
0
 10
141.0265
 20
11.478
  0
VERTEX
  8
0
 10
141.0265
 20
11.4866
  0
VERTEX
  8
0
 10
141.0379
 20
11.498
  0
SEQEND
  0
POLYLINE
  8
0
 66
     1
 10
0
 20
0
  0
VERTEX
  8
0
 10
140.5758
 20
15.7086
  0
VERTEX
  8
0
 10
140.5939
 20
15.7248
  0
VERTEX
  8
0
 10
140.6358
 20
15.7238
  0
VERTEX
  8
0
 10
142.6596
 20
15.6933
  0
VERTEX
  8
0
 10
144.5396
 20
15.6667
  0
VERTEX
  8
0
 10
144.5443
 20
15.6543
  0
VERTEX
  8
0
 10
144.5462
 20
15.6447
  0
VERTEX
  8
0
 10
144.5462
 20
15.6409
  0
VERTEX
  8
0
 10
144.5443
 20
15.6371
  0
VERTEX
  8
0
 10
144.5424
 20
15.6343
  0
VERTEX
  8
0
 10
144.5386
 20
15.6314
  0
VERTEX
  8
0
 10
144.5338
 20
15.6295
  0
VERTEX
  8
0
 10
144.5281
 20
15.6285
  0
VERTEX
  8
0
 10
140.7625
 20
15.6829
  0
VERTEX
  8
0
 10
140.5862
 20
15.6819
  0
VERTEX
  8
0
 10
140.5758
 20
15.6905
  0
VERTEX
  8
0
 10
140.5758
 20
15.7086
  0
SEQEND
  0
POLYLINE
  8
0
 66
     1
 10
0
 20
0
  0
VERTEX
  8
0
 10
140.3242
 20
14.5356
  0
VERTEX
  8
0
 10
140.3061
 20
14.5175
  0
VERTEX
  8
0
 10
140.2985
 20
14.5118
  0
VERTEX
  8
0
 10
140.2785
 20
14.5042
  0
VERTEX
  8
0
 10
140.2366
 20
14.4985
  0
VERTEX
  8
0
 10
140.228
 20
14.5071
  0
VERTEX
  8
0
 10
140.2223
 20
14.5147
  0
VERTEX
  8
0
 10
140.2213
 20
14.5175
  0
VERTEX
  8
0
 10
140.2204
 20
14.5204
  0
VERTEX
  8
0
 10
140.2213
 20
14.5242
  0
VERTEX
  8
0
 10
140.2232
 20
14.529
  0
VERTEX
  8
0
 10
140.2318
 20
14.5404
  0
VERTEX
  8
0
 10
140.2432
 20
14.549
  0
VERTEX
  8
0
 10
140.2699
 20
14.5604
  0
VERTEX
  8
0
 10
140.2947
 20
14.5633
  0
VERTEX
  8
0
 10
140.3061
 20
14.5614
  0
VERTEX
  8
0
 10
140.3166
 20
14.5576
  0
VERTEX
  8
0
 10
140.3204
 20
14.5538
  0
VERTEX
  8
0
 10
140.3223
 20
14.5528
  0
VERTEX
  8
0
 10
140.3242
 20
14.5471
  0
VERTEX
  8
0
 10
140.3242
 20
14.5356
  0
SEQEND
  0
POLYLINE
  8
0
 66
     1
 10
0
 20
0
  0
VERTEX
  8
0
 10
140.166
 20
14.2088
  0
VERTEX
  8
0
 10
140.166
 20
14.2155
  0
VERTEX
  8
0
 10
140.1689
 20
14.2317
  0
VERTEX
  8
0
 10
140.1784
 20
14.2603
  0
VERTEX
  8
0
 10
140.1784
 20
14.2593
  0
VERTEX
  8
0
 10
140.1946
 20
14.3165
  0
VERTEX
  8
0
 10
140.1946
 20
14.3174
  0
VERTEX
  8
0
 10
140.1984
 20
14.3575
  0
VERTEX
  8
0
 10
140.1975
 20
14.3775
  0
VERTEX
  8
0
 10
140.1975
 20
14.3784
  0
VERTEX
  8
0
 10
140.1908
 20
14.4213
  0
VERTEX
  8
0
 10
140.1994
 20
14.428
  0
VERTEX
  8
0
 10
140.2023
 20
14.4299
  0
VERTEX
  8
0
 10
140.2137
 20
14.4356
  0
VERTEX
  8
0
 10
140.2327
 20
14.4404
  0
VERTEX
  8
0
 10
140.2604
 20
14.448
  0
VERTEX
  8
0
 10
140.2632
 20
14.447
  0
VERTEX
  8
0
 10
140.2699
 20
14.4451
  0
VERTEX
  8
0
 10
140.2766
 20
14.4242
  0
VERTEX
  8
0
 10
140.2785
 20
14.4137
  0
VERTEX
  8
0
 10
140.2804
 20
14.4003
  0
VERTEX
  8
0
 10
140.2832
 20
14.3813
  0
VERTEX
  8
0
 10
140.2851
 20
14.3651
  0
VERTEX
  8
0
 10
140.2851
 20
14.3527
  0
VERTEX
  8
0
 10
140.2851
 20
14.3451
  0
VERTEX
  8
0
 10
140.2842
 20
14.3403
  0
VERTEX
  8
0
 10
140.2528
 20
14.2393
  0
VERTEX
  8
0
 10
140.2451
 20
14.225
  0
VERTEX
  8
0
 10
140.2327
 20
14.2145
  0
VERTEX
  8
0
 10
140.2156
 20
14.2079
  0
VERTEX
  8
0
 10
140.1984
 20
14.206
  0
VERTEX
  8
0
 10
140.1851
 20
14.206
  0
VERTEX
  8
0
 10
140.166
 20
14.2088
  0
SEQEND
  0
POLYLINE
  8
0
 66
     1
 10
0
 20
0
  0
VERTEX
  8
0
 10
140.1765
 20
14.8606
  0
VERTEX
  8
0
 10
140.187
 20
14.8634
  0
VERTEX
  8
0
 10
140.1946
 20
14.8548
  0
VERTEX
  8
0
 10
140.1965
 20
14.852
  0
VERTEX
  8
0
 10
140.1994
 20
14.8463
  0
VERTEX
  8
0
 10
140.208
 20
14.8224
  0
VERTEX
  8
0
 10
140.2137
 20
14.8072
  0
VERTEX
  8
0
 10
140.2223
 20
14.7939
  0
VERTEX
  8
0
 10
140.2318
 20
14.7786
  0
VERTEX
  8
0
 10
140.2356
 20
14.771
  0
VERTEX
  8
0
 10
140.2366
 20
14.7662
  0
VERTEX
  8
0
 10
140.2575
 20
14.6233
  0
VERTEX
  8
0
 10
140.2461
 20
14.6138
  0
VERTEX
  8
0
 10
140.2404
 20
14.609
  0
VERTEX
  8
0
 10
140.2213
 20
14.5995
  0
VERTEX
  8
0
 10
140.2089
 20
14.5928
  0
VERTEX
  8
0
 10
140.2023
 20
14.589
  0
VERTEX
  8
0
 10
140.1984
 20
14.5881
  0
VERTEX
  8
0
 10
140.1946
 20
14.5881
  0
VERTEX
  8
0
 10
140.1927
 20
14.5881
  0
VERTEX
  8
0
 10
140.1908
 20
14.589
  0
VERTEX
  8
0
 10
140.1889
 20
14.5919
  0
VERTEX
  8
0
 10
140.188
 20
14.5938
  0
VERTEX
  8
0
 10
140.1861
 20
14.5976
  0
VERTEX
  8
0
 10
140.1851
 20
14.6014
  0
VERTEX
  8
0
 10
140.1794
 20
14.7014
  0
VERTEX
  8
0
 10
140.1765
 20
14.7195
  0
VERTEX
  8
0
 10
140.167
 20
14.7396
  0
VERTEX
  8
0
 10
140.1613
 20
14.75
  0
VERTEX
  8
0
 10
140.1527
 20
14.7615
  0
VERTEX
  8
0
 10
140.1441
 20
14.7748
  0
VERTEX
  8
0
 10
140.1394
 20
14.7824
  0
VERTEX
  8
0
 10
140.1356
 20
14.791
  0
VERTEX
  8
0
 10
140.1336
 20
14.7996
  0
VERTEX
  8
0
 10
140.1346
 20
14.8053
  0
VERTEX
  8
0
 10
140.1356
 20
14.8091
  0
VERTEX
  8
0
 10
140.1394
 20
14.8148
  0
VERTEX
  8
0
 10
140.1508
 20
14.8263
  0
VERTEX
  8
0
 10
140.1613
 20
14.8377
  0
VERTEX
  8
0
 10
140.1765
 20
14.8596
  0
VERTEX
  8
0
 10
140.1765
 20
14.8606
  0
SEQEND
  0
POLYLINE
  8
0
 66
     1
 10
0
 20
0
  0
VERTEX
  8
0
 10
140.2575
 20
13.3589
  0
VERTEX
  8
0
 10
140.2813
 20
13.3846
  0
VERTEX
  8
0
 10
140.2975
 20
13.397
  0
VERTEX
  8
0
 10
140.3099
 20
13.4018
  0
VERTEX
  8
0
 10
140.329
 20
13.4046
  0
VERTEX
  8
0
 10
140.3499
 20
13.4027
  0
VERTEX
  8
0
 10
140.3652
 20
13.3961
  0
VERTEX
  8
0
 10
140.3833
 20
13.3808
  0
VERTEX
  8
0
 10
140.3995
 20
13.3608
  0
VERTEX
  8
0
 10
140.4062
 20
13.3465
  0
VERTEX
  8
0
 10
140.4109
 20
13.336
  0
VERTEX
  8
0
 10
140.4281
 20
13.2855
  0
VERTEX
  8
0
 10
140.4347
 20
13.2693
  0
VERTEX
  8
0
 10
140.4519
 20
13.2398
  0
VERTEX
  8
0
 10
140.4519
 20
13.2388
  0
VERTEX
  8
0
 10
140.4786
 20
13.196
  0
VERTEX
  8
0
 10
140.491
 20
13.1683
  0
VERTEX
  8
0
 10
140.4948
 20
13.1416
  0
VERTEX
  8
0
 10
140.4919
 20
13.1245
  0
VERTEX
  8
0
 10
140.4852
 20
13.1093
  0
VERTEX
  8
0
 10
140.4757
 20
13.0959
  0
VERTEX
  8
0
 10
140.4624
 20
13.0864
  0
VERTEX
  8
0
 10
140.4443
 20
13.0778
  0
VERTEX
  8
0
 10
140.4281
 20
13.0759
  0
VERTEX
  8
0
 10
140.4224
 20
13.0769
  0
VERTEX
  8
0
 10
140.4138
 20
13.0778
  0
VERTEX
  8
0
 10
140.3728
 20
13.0883
  0
VERTEX
  8
0
 10
140.3595
 20
13.0892
  0
VERTEX
  8
0
 10
140.3576
 20
13.0892
  0
VERTEX
  8
0
 10
140.3547
 20
13.0883
  0
VERTEX
  8
0
 10
140.3499
 20
13.0845
  0
VERTEX
  8
0
 10
140.3471
 20
13.0807
  0
VERTEX
  8
0
 10
140.3442
 20
13.0711
  0
VERTEX
  8
0
 10
140.3433
 20
13.0626
  0
VERTEX
  8
0
 10
140.3461
 20
13.0368
  0
VERTEX
  8
0
 10
140.3538
 20
13.0178
  0
VERTEX
  8
0
 10
140.3709
 20
12.9921
  0
VERTEX
  8
0
 10
140.4071
 20
12.9482
  0
VERTEX
  8
0
 10
140.4357
 20
12.913
  0
VERTEX
  8
0
 10
140.4548
 20
12.8825
  0
VERTEX
  8
0
 10
140.4633
 20
12.8672
  0
VERTEX
  8
0
 10
140.47
 20
12.8529
  0
VERTEX
  8
0
 10
140.4871
 20
12.8015
  0
VERTEX
  8
0
 10
140.5014
 20
12.7424
  0
VERTEX
  8
0
 10
140.5157
 20
12.6824
  0
VERTEX
  8
0
 10
140.5157
 20
12.6814
  0
VERTEX
  8
0
 10
140.5262
 20
12.6509
  0
VERTEX
  8
0
 10
140.531
 20
12.6405
  0
VERTEX
  8
0
 10
140.5396
 20
12.6233
  0
VERTEX
  8
0
 10
140.5519
 20
12.6033
  0
VERTEX
  8
0
 10
140.5662
 20
12.5814
  0
VERTEX
  8
0
 10
140.7463
 20
12.3194
  0
VERTEX
  8
0
 10
140.7654
 20
12.2889
  0
VERTEX
  8
0
 10
140.7768
 20
12.265
  0
VERTEX
  8
0
 10
140.7949
 20
12.2307
  0
VERTEX
  8
0
 10
140.8073
 20
12.2203
  0
VERTEX
  8
0
 10
140.8083
 20
12.2203
  0
VERTEX
  8
0
 10
140.813
 20
12.2193
  0
VERTEX
  8
0
 10
140.8159
 20
12.2193
  0
VERTEX
  8
0
 10
140.8664
 20
12.2298
  0
VERTEX
  8
0
 10
140.8683
 20
12.2298
  0
VERTEX
  8
0
 10
140.8769
 20
12.225
  0
VERTEX
  8
0
 10
140.8854
 20
12.2203
  0
VERTEX
  8
0
 10
140.8864
 20
12.2193
  0
VERTEX
  8
0
 10
140.9159
 20
12.1345
  0
VERTEX
  8
0
 10
140.9293
 20
12.1307
  0
VERTEX
  8
0
 10
140.9417
 20
12.1259
  0
VERTEX
  8
0
 10
140.9445
 20
12.124
  0
VERTEX
  8
0
 10
140.9455
 20
12.1202
  0
VERTEX
  8
0
 10
140.9569
 20
12.063
  0
VERTEX
  8
0
 10
140.9588
 20
12.0573
  0
VERTEX
  8
0
 10
140.9598
 20
12.0535
  0
VERTEX
  8
0
 10
140.9645
 20
12.0468
  0
VERTEX
  8
0
 10
140.9702
 20
12.0421
  0
VERTEX
  8
0
 10
140.9912
 20
12.0316
  0
VERTEX
  8
0
 10
140.9979
 20
12.0259
  0
VERTEX
  8
0
 10
141.0064
 20
12.0144
  0
VERTEX
  8
0
 10
141.0112
 20
12.0049
  0
VERTEX
  8
0
 10
141.015
 20
11.9935
  0
VERTEX
  8
0
 10
141.0226
 20
11.9744
  0
VERTEX
  8
0
 10
141.0245
 20
11.9687
  0
VERTEX
  8
0
 10
141.0331
 20
11.9592
  0
VERTEX
  8
0
 10
141.0331
 20
11.9601
  0
VERTEX
  8
0
 10
141.0531
 20
11.9449
  0
VERTEX
  8
0
 10
141.0588
 20
11.9525
  0
VERTEX
  8
0
 10
141.0636
 20
11.9563
  0
VERTEX
  8
0
 10
141.0731
 20
11.9697
  0
VERTEX
  8
0
 10
141.077
 20
11.9725
  0
VERTEX
  8
0
 10
141.0789
 20
11.9735
  0
VERTEX
  8
0
 10
141.0817
 20
11.9744
  0
VERTEX
  8
0
 10
141.0865
 20
11.9735
  0
VERTEX
  8
0
 10
141.0903
 20
11.9716
  0
VERTEX
  8
0
 10
141.0951
 20
11.9687
  0
VERTEX
  8
0
 10
141.0998
 20
11.9639
  0
VERTEX
  8
0
 10
141.1341
 20
11.9287
  0
VERTEX
  8
0
 10
141.1398
 20
11.9249
  0
VERTEX
  8
0
 10
141.1417
 20
11.9239
  0
VERTEX
  8
0
 10
141.1598
 20
11.9173
  0
VERTEX
  8
0
 10
141.1722
 20
11.9125
  0
VERTEX
  8
0
 10
141.1856
 20
11.9058
  0
VERTEX
  8
0
 10
141.1942
 20
11.8992
  0
VERTEX
  8
0
 10
141.1989
 20
11.8934
  0
VERTEX
  8
0
 10
141.2008
 20
11.8896
  0
VERTEX
  8
0
 10
141.2008
 20
11.8858
  0
VERTEX
  8
0
 10
141.198
 20
11.8753
  0
VERTEX
  8
0
 10
141.1903
 20
11.8601
  0
VERTEX
  8
0
 10
141.2227
 20
11.8477
  0
VERTEX
  8
0
 10
141.2342
 20
11.8448
  0
VERTEX
  8
0
 10
141.279
 20
11.8391
  0
VERTEX
  8
0
 10
141.2904
 20
11.8363
  0
VERTEX
  8
0
 10
141.3028
 20
11.8296
  0
VERTEX
  8
0
 10
141.3161
 20
11.8191
  0
VERTEX
  8
0
 10
141.3266
 20
11.8058
  0
VERTEX
  8
0
 10
141.3342
 20
11.7867
  0
VERTEX
  8
0
 10
141.3371
 20
11.7667
  0
VERTEX
  8
0
 10
141.3352
 20
11.7515
  0
VERTEX
  8
0
 10
141.3295
 20
11.7372
  0
VERTEX
  8
0
 10
141.3266
 20
11.7324
  0
VERTEX
  8
0
 10
141.3256
 20
11.7315
  0
VERTEX
  8
0
 10
141.3161
 20
11.7286
  0
VERTEX
  8
0
 10
141.2809
 20
11.7276
  0
VERTEX
  8
0
 10
141.2809
 20
11.7267
  0
VERTEX
  8
0
 10
141.2656
 20
11.7257
  0
VERTEX
  8
0
 10
141.2561
 20
11.7219
  0
VERTEX
  8
0
 10
141.2485
 20
11.7162
  0
VERTEX
  8
0
 10
141.2342
 20
11.7038
  0
VERTEX
  8
0
 10
141.238
 20
11.6952
  0
VERTEX
  8
0
 10
141.2408
 20
11.6886
  0
VERTEX
  8
0
 10
141.2466
 20
11.6819
  0
VERTEX
  8
0
 10
141.2523
 20
11.6771
  0
VERTEX
  8
0
 10
141.2599
 20
11.6743
  0
VERTEX
  8
0
 10
141.2666
 20
11.6733
  0
VERTEX
  8
0
 10
141.3123
 20
11.681
  0
VERTEX
  8
0
 10
141.4181
 20
11.6962
  0
VERTEX
  8
0
 10
141.4762
 20
11.7086
  0
VERTEX
  8
0
 10
141.5219
 20
11.7286
  0
VERTEX
  8
0
 10
141.5715
 20
11.761
  0
VERTEX
  8
0
 10
141.6182
 20
11.7972
  0
VERTEX
  8
0
 10
141.6744
 20
11.8487
  0
VERTEX
  8
0
 10
141.7268
 20
11.9049
  0
VERTEX
  8
0
 10
141.7744
 20
11.963
  0
VERTEX
  8
0
 10
141.8202
 20
12.0221
  0
VERTEX
  8
0
 10
141.8497
 20
12.064
  0
VERTEX
  8
0
 10
141.8754
 20
12.1059
  0
VERTEX
  8
0
 10
141.904
 20
12.1602
  0
VERTEX
  8
0
 10
141.9297
 20
12.2155
  0
VERTEX
  8
0
 10
141.9574
 20
12.2898
  0
VERTEX
  8
0
 10
141.9831
 20
12.367
  0
VERTEX
  8
0
 10
142.0555
 20
12.6138
  0
VERTEX
  8
0
 10
142.0669
 20
12.9206
  0
VERTEX
  8
0
 10
142.0679
 20
12.9597
  0
VERTEX
  8
0
 10
142.0679
 20
13.0016
  0
VERTEX
  8
0
 10
142.0669
 20
13.0635
  0
VERTEX
  8
0
 10
142.0641
 20
13.1283
  0
VERTEX
  8
0
 10
142.0565
 20
13.2198
  0
VERTEX
  8
0
 10
142.046
 20
13.3103
  0
VERTEX
  8
0
 10
142.0326
 20
13.3865
  0
VERTEX
  8
0
 10
142.0155
 20
13.4599
  0
VERTEX
  8
0
 10
141.9031
 20
13.9115
  0
VERTEX
  8
0
 10
141.9002
 20
13.9716
  0
VERTEX
  8
0
 10
141.9078
 20
13.9754
  0
VERTEX
  8
0
 10
141.9174
 20
13.9811
  0
VERTEX
  8
0
 10
141.9421
 20
14.0002
  0
VERTEX
  8
0
 10
141.9459
 20
14.0021
  0
VERTEX
  8
0
 10
141.9488
 20
14.0021
  0
VERTEX
  8
0
 10
141.9507
 20
14.0021
  0
VERTEX
  8
0
 10
141.9536
 20
14.0002
  0
VERTEX
  8
0
 10
141.9555
 20
13.9982
  0
VERTEX
  8
0
 10
141.9564
 20
13.9982
  0
VERTEX
  8
0
 10
141.9593
 20
13.9916
  0
VERTEX
  8
0
 10
141.9602
 20
13.9763
  0
VERTEX
  8
0
 10
141.9621
 20
13.9525
  0
VERTEX
  8
0
 10
142.0012
 20
13.7905
  0
VERTEX
  8
0
 10
142.0984
 20
13.4132
  0
VERTEX
  8
0
 10
142.0993
 20
13.4132
  0
VERTEX
  8
0
 10
142.1051
 20
13.3808
  0
VERTEX
  8
0
 10
142.1184
 20
13.2893
  0
VERTEX
  8
0
 10
142.1279
 20
13.2074
  0
VERTEX
  8
0
 10
142.1289
 20
13.1769
  0
VERTEX
  8
0
 10
142.1308
 20
12.9482
  0
VERTEX
  8
0
 10
142.1308
 20
12.9396
  0
VERTEX
  8
0
 10
142.1289
 20
12.8749
  0
VERTEX
  8
0
 10
142.1241
 20
12.7558
  0
VERTEX
  8
0
 10
142.1184
 20
12.6567
  0
VERTEX
  8
0
 10
142.1108
 20
12.5804
  0
VERTEX
  8
0
 10
142.1022
 20
12.5442
  0
VERTEX
  8
0
 10
142.0079
 20
12.2574
  0
VERTEX
  8
0
 10
142.0079
 20
12.2565
  0
VERTEX
  8
0
 10
141.9621
 20
12.1345
  0
VERTEX
  8
0
 10
141.9621
 20
12.1355
  0
VERTEX
  8
0
 10
141.9297
 20
12.0669
  0
VERTEX
  8
0
 10
141.9002
 20
12.0249
  0
VERTEX
  8
0
 10
141.8487
 20
11.963
  0
VERTEX
  8
0
 10
141.6839
 20
11.7858
  0
VERTEX
  8
0
 10
141.6591
 20
11.7619
  0
VERTEX
  8
0
 10
141.6582
 20
11.7619
  0
VERTEX
  8
0
 10
141.6296
 20
11.7362
  0
VERTEX
  8
0
 10
141.5991
 20
11.7143
  0
VERTEX
  8
0
 10
141.5686
 20
11.6943
  0
VERTEX
  8
0
 10
141.5324
 20
11.6752
  0
VERTEX
  8
0
 10
141.4952
 20
11.659
  0
VERTEX
  8
0
 10
141.4695
 20
11.6514
  0
VERTEX
  8
0
 10
141.4428
 20
11.6467
  0
VERTEX
  8
0
 10
141.3666
 20
11.639
  0
VERTEX
  8
0
 10
141.2875
 20
11.6305
  0
VERTEX
  8
0
 10
141.2856
 20
11.6305
  0
VERTEX
  8
0
 10
141.257
 20
11.6324
  0
VERTEX
  8
0
 10
141.2208
 20
11.6343
  0
VERTEX
  8
0
 10
141.2094
 20
11.6371
  0
VERTEX
  8
0
 10
141.1989
 20
11.6419
  0
VERTEX
  8
0
 10
141.1903
 20
11.6476
  0
VERTEX
  8
0
 10
141.1846
 20
11.6552
  0
VERTEX
  8
0
 10
141.1789
 20
11.6686
  0
VERTEX
  8
0
 10
141.177
 20
11.6886
  0
VERTEX
  8
0
 10
141.1808
 20
11.7153
  0
VERTEX
  8
0
 10
141.1875
 20
11.7315
  0
VERTEX
  8
0
 10
141.2046
 20
11.7553
  0
VERTEX
  8
0
 10
141.2418
 20
11.7896
  0
VERTEX
  8
0
 10
141.2285
 20
11.7943
  0
VERTEX
  8
0
 10
141.2218
 20
11.7953
  0
VERTEX
  8
0
 10
141.2199
 20
11.7962
  0
VERTEX
  8
0
 10
141.2037
 20
11.7972
  0
VERTEX
  8
0
 10
141.1922
 20
11.7991
  0
VERTEX
  8
0
 10
141.1675
 20
11.8039
  0
VERTEX
  8
0
 10
141.1456
 20
11.8172
  0
VERTEX
  8
0
 10
141.1446
 20
11.8191
  0
VERTEX
  8
0
 10
141.1351
 20
11.8391
  0
VERTEX
  8
0
 10
141.1332
 20
11.8401
  0
VERTEX
  8
0
 10
141.1198
 20
11.8506
  0
VERTEX
  8
0
 10
141.0817
 20
11.8791
  0
VERTEX
  8
0
 10
141.077
 20
11.881
  0
VERTEX
  8
0
 10
141.0636
 20
11.882
  0
VERTEX
  8
0
 10
141.0293
 20
11.8839
  0
VERTEX
  8
0
 10
141.0179
 20
11.8877
  0
VERTEX
  8
0
 10
141.015
 20
11.8896
  0
VERTEX
  8
0
 10
141.0074
 20
11.8982
  0
VERTEX
  8
0
 10
141.0074
 20
11.8972
  0
VERTEX
  8
0
 10
140.9864
 20
11.9192
  0
VERTEX
  8
0
 10
140.9693
 20
11.9392
  0
VERTEX
  8
0
 10
140.9645
 20
11.9468
  0
VERTEX
  8
0
 10
140.9569
 20
11.9668
  0
VERTEX
  8
0
 10
140.954
 20
11.9716
  0
VERTEX
  8
0
 10
140.9521
 20
11.9754
  0
VERTEX
  8
0
 10
140.9474
 20
11.9811
  0
VERTEX
  8
0
 10
140.9426
 20
11.9849
  0
VERTEX
  8
0
 10
140.9359
 20
11.9878
  0
VERTEX
  8
0
 10
140.9293
 20
11.9916
  0
VERTEX
  8
0
 10
140.9226
 20
11.9954
  0
VERTEX
  8
0
 10
140.9159
 20
12.0002
  0
VERTEX
  8
0
 10
140.9112
 20
12.004
  0
VERTEX
  8
0
 10
140.9073
 20
12.0087
  0
VERTEX
  8
0
 10
140.9016
 20
12.0192
  0
VERTEX
  8
0
 10
140.8959
 20
12.0287
  0
VERTEX
  8
0
 10
140.8902
 20
12.044
  0
VERTEX
  8
0
 10
140.8826
 20
12.0688
  0
VERTEX
  8
0
 10
140.8826
 20
12.0678
  0
VERTEX
  8
0
 10
140.8626
 20
12.0697
  0
VERTEX
  8
0
 10
140.854
 20
12.0735
  0
VERTEX
  8
0
 10
140.8521
 20
12.0754
  0
VERTEX
  8
0
 10
140.8464
 20
12.0831
  0
VERTEX
  8
0
 10
140.8435
 20
12.0888
  0
VERTEX
  8
0
 10
140.8435
 20
12.0878
  0
VERTEX
  8
0
 10
140.8426
 20
12.0916
  0
VERTEX
  8
0
 10
140.8406
 20
12.0992
  0
VERTEX
  8
0
 10
140.8387
 20
12.1164
  0
VERTEX
  8
0
 10
140.8378
 20
12.125
  0
VERTEX
  8
0
 10
140.8359
 20
12.1412
  0
VERTEX
  8
0
 10
140.8187
 20
12.1374
  0
VERTEX
  8
0
 10
140.8083
 20
12.1364
  0
VERTEX
  8
0
 10
140.7997
 20
12.1374
  0
VERTEX
  8
0
 10
140.7959
 20
12.1393
  0
VERTEX
  8
0
 10
140.7787
 20
12.1536
  0
VERTEX
  8
0
 10
140.7416
 20
12.2031
  0
VERTEX
  8
0
 10
140.469
 20
12.5966
  0
VERTEX
  8
0
 10
140.4509
 20
12.6309
  0
VERTEX
  8
0
 10
140.429
 20
12.7205
  0
VERTEX
  8
0
 10
140.4224
 20
12.7538
  0
VERTEX
  8
0
 10
140.4157
 20
12.7843
  0
VERTEX
  8
0
 10
140.4033
 20
12.8224
  0
VERTEX
  8
0
 10
140.3928
 20
12.8453
  0
VERTEX
  8
0
 10
140.3795
 20
12.8653
  0
VERTEX
  8
0
 10
140.3452
 20
12.9063
  0
VERTEX
  8
0
 10
140.3194
 20
12.9368
  0
VERTEX
  8
0
 10
140.3033
 20
12.9568
  0
VERTEX
  8
0
 10
140.2966
 20
12.9682
  0
VERTEX
  8
0
 10
140.2832
 20
12.9997
  0
VERTEX
  8
0
 10
140.2785
 20
13.0406
  0
VERTEX
  8
0
 10
140.2785
 20
13.0721
  0
VERTEX
  8
0
 10
140.2794
 20
13.0854
  0
VERTEX
  8
0
 10
140.2785
 20
13.0978
  0
VERTEX
  8
0
 10
140.2785
 20
13.1274
  0
VERTEX
  8
0
 10
140.2794
 20
13.1455
  0
VERTEX
  8
0
 10
140.2813
 20
13.1569
  0
VERTEX
  8
0
 10
140.2851
 20
13.1655
  0
VERTEX
  8
0
 10
140.2909
 20
13.1731
  0
VERTEX
  8
0
 10
140.2985
 20
13.1788
  0
VERTEX
  8
0
 10
140.3071
 20
13.1826
  0
VERTEX
  8
0
 10
140.3175
 20
13.1836
  0
VERTEX
  8
0
 10
140.329
 20
13.1826
  0
VERTEX
  8
0
 10
140.3385
 20
13.1779
  0
VERTEX
  8
0
 10
140.3423
 20
13.176
  0
VERTEX
  8
0
 10
140.3471
 20
13.1721
  0
VERTEX
  8
0
 10
140.3738
 20
13.1464
  0
VERTEX
  8
0
 10
140.3795
 20
13.1426
  0
VERTEX
  8
0
 10
140.3842
 20
13.1388
  0
VERTEX
  8
0
 10
140.3919
 20
13.1388
  0
VERTEX
  8
0
 10
140.4004
 20
13.1407
  0
VERTEX
  8
0
 10
140.4081
 20
13.1436
  0
VERTEX
  8
0
 10
140.4138
 20
13.1483
  0
VERTEX
  8
0
 10
140.4185
 20
13.154
  0
VERTEX
  8
0
 10
140.4214
 20
13.1598
  0
VERTEX
  8
0
 10
140.4224
 20
13.1645
  0
VERTEX
  8
0
 10
140.4214
 20
13.1721
  0
VERTEX
  8
0
 10
140.4176
 20
13.1807
  0
VERTEX
  8
0
 10
140.4119
 20
13.1883
  0
VERTEX
  8
0
 10
140.4033
 20
13.1998
  0
VERTEX
  8
0
 10
140.4033
 20
13.2017
  0
VERTEX
  8
0
 10
140.3909
 20
13.2179
  0
VERTEX
  8
0
 10
140.3814
 20
13.2331
  0
VERTEX
  8
0
 10
140.3728
 20
13.2503
  0
VERTEX
  8
0
 10
140.3661
 20
13.2674
  0
VERTEX
  8
0
 10
140.3557
 20
13.296
  0
VERTEX
  8
0
 10
140.3509
 20
13.3074
  0
VERTEX
  8
0
 10
140.3461
 20
13.3122
  0
VERTEX
  8
0
 10
140.3414
 20
13.316
  0
VERTEX
  8
0
 10
140.3299
 20
13.3208
  0
VERTEX
  8
0
 10
140.3137
 20
13.3246
  0
VERTEX
  8
0
 10
140.309
 20
13.3179
  0
VERTEX
  8
0
 10
140.309
 20
13.317
  0
VERTEX
  8
0
 10
140.3052
 20
13.3036
  0
VERTEX
  8
0
 10
140.3042
 20
13.2655
  0
VERTEX
  8
0
 10
140.3042
 20
13.2588
  0
VERTEX
  8
0
 10
140.3023
 20
13.2446
  0
VERTEX
  8
0
 10
140.2994
 20
13.236
  0
VERTEX
  8
0
 10
140.2956
 20
13.2312
  0
VERTEX
  8
0
 10
140.2899
 20
13.2265
  0
VERTEX
  8
0
 10
140.2823
 20
13.2236
  0
VERTEX
  8
0
 10
140.2756
 20
13.2226
  0
VERTEX
  8
0
 10
140.2623
 20
13.2236
  0
VERTEX
  8
0
 10
140.2528
 20
13.2284
  0
VERTEX
  8
0
 10
140.2327
 20
13.2426
  0
VERTEX
  8
0
 10
140.2108
 20
13.2665
  0
VERTEX
  8
0
 10
140.1956
 20
13.2884
  0
VERTEX
  8
0
 10
140.1813
 20
13.3103
  0
VERTEX
  8
0
 10
140.1518
 20
13.3684
  0
VERTEX
  8
0
 10
140.1365
 20
13.4161
  0
VERTEX
  8
0
 10
140.1317
 20
13.4408
  0
VERTEX
  8
0
 10
140.1241
 20
13.5009
  0
VERTEX
  8
0
 10
140.1041
 20
13.6752
  0
VERTEX
  8
0
 10
140.1041
 20
13.6829
  0
VERTEX
  8
0
 10
140.107
 20
13.9154
  0
VERTEX
  8
0
 10
140.1079
 20
13.9706
  0
VERTEX
  8
0
 10
140.1079
 20
13.9773
  0
VERTEX
  8
0
 10
140.1089
 20
13.984
  0
VERTEX
  8
0
 10
140.1117
 20
13.9935
  0
VERTEX
  8
0
 10
140.1127
 20
13.9963
  0
VERTEX
  8
0
 10
140.1146
 20
14.0002
  0
VERTEX
  8
0
 10
140.1194
 20
14.0059
  0
VERTEX
  8
0
 10
140.1241
 20
14.0106
  0
VERTEX
  8
0
 10
140.1298
 20
14.0135
  0
VERTEX
  8
0
 10
140.1356
 20
14.0164
  0
VERTEX
  8
0
 10
140.1508
 20
14.023
  0
VERTEX
  8
0
 10
140.1641
 20
14.0287
  0
VERTEX
  8
0
 10
140.1727
 20
14.0297
  0
VERTEX
  8
0
 10
140.1756
 20
14.0297
  0
VERTEX
  8
0
 10
140.1794
 20
14.0278
  0
VERTEX
  8
0
 10
140.1822
 20
14.0259
  0
VERTEX
  8
0
 10
140.1832
 20
14.023
  0
VERTEX
  8
0
 10
140.1851
 20
14.0202
  0
VERTEX
  8
0
 10
140.1851
 20
14.0164
  0
VERTEX
  8
0
 10
140.1851
 20
14.0116
  0
VERTEX
  8
0
 10
140.1832
 20
14.004
  0
VERTEX
  8
0
 10
140.1813
 20
13.9906
  0
VERTEX
  8
0
 10
140.1775
 20
13.9668
  0
VERTEX
  8
0
 10
140.1737
 20
13.9344
  0
VERTEX
  8
0
 10
140.1718
 20
13.9077
  0
VERTEX
  8
0
 10
140.1699
 20
13.8744
  0
VERTEX
  8
0
 10
140.1689
 20
13.842
  0
VERTEX
  8
0
 10
140.1699
 20
13.8182
  0
VERTEX
  8
0
 10
140.1708
 20
13.781
  0
VERTEX
  8
0
 10
140.1746
 20
13.7162
  0
VERTEX
  8
0
 10
140.1803
 20
13.6533
  0
VERTEX
  8
0
 10
140.1908
 20
13.5371
  0
VERTEX
  8
0
 10
140.1908
 20
13.5266
  0
VERTEX
  8
0
 10
140.1956
 20
13.4751
  0
VERTEX
  8
0
 10
140.1984
 20
13.4628
  0
VERTEX
  8
0
 10
140.2194
 20
13.4103
  0
VERTEX
  8
0
 10
140.227
 20
13.3903
  0
VERTEX
  8
0
 10
140.2356
 20
13.378
  0
VERTEX
  8
0
 10
140.2575
 20
13.3589
  0
SEQEND
  0
POLYLINE
  8
0
 66
     1
 10
0
 20
0
  0
VERTEX
  8
0
 10
139.2637
 20
15.7839
  0
VERTEX
  8
0
 10
139.3275
 20
15.842
  0
VERTEX
  8
0
 10
139.3771
 20
15.8858
  0
VERTEX
  8
0
 10
139.4505
 20
15.9449
  0
VERTEX
  8
0
 10
139.5029
 20
15.9782
  0
VERTEX
  8
0
 10
139.5943
 20
16.0268
  0
VERTEX
  8
0
 10
139.7049
 20
16.0745
  0
VERTEX
  8
0
 10
139.7744
 20
16.0983
  0
VERTEX
  8
0
 10
139.8449
 20
16.1183
  0
VERTEX
  8
0
 10
139.8897
 20
16.1259
  0
VERTEX
  8
0
 10
139.9355
 20
16.1288
  0
VERTEX
  8
0
 10
139.9631
 20
16.125
  0
VERTEX
  8
0
 10
139.9993
 20
16.1088
  0
VERTEX
  8
0
 10
140.0174
 20
16.0935
  0
VERTEX
  8
0
 10
140.0279
 20
16.0802
  0
VERTEX
  8
0
 10
140.0412
 20
16.0487
  0
VERTEX
  8
0
 10
140.0469
 20
16.0068
  0
VERTEX
  8
0
 10
140.045
 20
15.9554
  0
VERTEX
  8
0
 10
140.0403
 20
15.8915
  0
VERTEX
  8
0
 10
140.0403
 20
15.8925
  0
VERTEX
  8
0
 10
140.0469
 20
15.8858
  0
VERTEX
  8
0
 10
140.106
 20
15.9335
  0
VERTEX
  8
0
 10
140.1508
 20
15.9687
  0
VERTEX
  8
0
 10
140.208
 20
16.0116
  0
VERTEX
  8
0
 10
140.2613
 20
16.0459
  0
VERTEX
  8
0
 10
140.3109
 20
16.0697
  0
VERTEX
  8
0
 10
140.3576
 20
16.085
  0
VERTEX
  8
0
 10
140.4128
 20
16.0945
  0
VERTEX
  8
0
 10
140.4709
 20
16.0992
  0
VERTEX
  8
0
 10
140.5215
 20
16.0964
  0
VERTEX
  8
0
 10
140.5491
 20
16.0897
  0
VERTEX
  8
0
 10
140.5834
 20
16.0773
  0
VERTEX
  8
0
 10
140.5843
 20
16.0773
  0
VERTEX
  8
0
 10
140.591
 20
16.0764
  0
VERTEX
  8
0
 10
141.0951
 20
16.0735
  0
VERTEX
  8
0
 10
141.1008
 20
16.0583
  0
VERTEX
  8
0
 10
141.1036
 20
16.0507
  0
VERTEX
  8
0
 10
141.1074
 20
16.0392
  0
VERTEX
  8
0
 10
141.1103
 20
16.0259
  0
VERTEX
  8
0
 10
141.1236
 20
15.9763
  0
VERTEX
  8
0
 10
141.1236
 20
15.9773
  0
VERTEX
  8
0
 10
141.1322
 20
15.9449
  0
VERTEX
  8
0
 10
141.1379
 20
15.9287
  0
VERTEX
  8
0
 10
141.1446
 20
15.9125
  0
VERTEX
  8
0
 10
141.1598
 20
15.882
  0
VERTEX
  8
0
 10
141.1751
 20
15.8858
  0
VERTEX
  8
0
 10
141.1856
 20
15.8906
  0
VERTEX
  8
0
 10
141.1913
 20
15.8944
  0
VERTEX
  8
0
 10
141.1951
 20
15.8992
  0
VERTEX
  8
0
 10
141.1989
 20
15.9087
  0
VERTEX
  8
0
 10
141.1999
 20
15.9173
  0
VERTEX
  8
0
 10
141.1989
 20
15.9296
  0
VERTEX
  8
0
 10
141.1922
 20
15.9811
  0
VERTEX
  8
0
 10
141.1903
 20
15.9935
  0
VERTEX
  8
0
 10
141.1903
 20
16.004
  0
VERTEX
  8
0
 10
141.1932
 20
16.0297
  0
VERTEX
  8
0
 10
141.1999
 20
16.0507
  0
VERTEX
  8
0
 10
141.2132
 20
16.0669
  0
VERTEX
  8
0
 10
141.2313
 20
16.0802
  0
VERTEX
  8
0
 10
141.2609
 20
16.0945
  0
VERTEX
  8
0
 10
141.2932
 20
16.1059
  0
VERTEX
  8
0
 10
141.3209
 20
16.1107
  0
VERTEX
  8
0
 10
141.3437
 20
16.1126
  0
VERTEX
  8
0
 10
141.3695
 20
16.1097
  0
VERTEX
  8
0
 10
141.3933
 20
16.0983
  0
VERTEX
  8
0
 10
141.4133
 20
16.0831
  0
VERTEX
  8
0
 10
141.4295
 20
16.0621
  0
VERTEX
  8
0
 10
141.44
 20
16.0383
  0
VERTEX
  8
0
 10
141.4419
 20
16.0202
  0
VERTEX
  8
0
 10
141.4381
 20
15.9935
  0
VERTEX
  8
0
 10
141.4381
 20
15.9925
  0
VERTEX
  8
0
 10
141.4238
 20
15.9477
  0
VERTEX
  8
0
 10
141.4238
 20
15.9487
  0
VERTEX
  8
0
 10
141.4171
 20
15.9325
  0
VERTEX
  8
0
 10
141.4124
 20
15.9192
  0
VERTEX
  8
0
 10
141.4114
 20
15.9115
  0
VERTEX
  8
0
 10
141.4104
 20
15.9049
  0
VERTEX
  8
0
 10
141.4104
 20
15.8953
  0
VERTEX
  8
0
 10
141.4124
 20
15.8877
  0
VERTEX
  8
0
 10
141.42
 20
15.8572
  0
VERTEX
  8
0
 10
141.4285
 20
15.8286
  0
VERTEX
  8
0
 10
141.4324
 20
15.8144
  0
VERTEX
  8
0
 10
141.4362
 20
15.8029
  0
VERTEX
  8
0
 10
141.439
 20
15.7934
  0
VERTEX
  8
0
 10
141.4447
 20
15.7781
  0
VERTEX
  8
0
 10
141.4447
 20
15.7772
  0
VERTEX
  8
0
 10
141.4505
 20
15.761
  0
VERTEX
  8
0
 10
141.4524
 20
15.7486
  0
VERTEX
  8
0
 10
141.4514
 20
15.7448
  0
VERTEX
  8
0
 10
141.4505
 20
15.741
  0
VERTEX
  8
0
 10
141.4476
 20
15.7372
  0
VERTEX
  8
0
 10
141.4447
 20
15.7353
  0
VERTEX
  8
0
 10
141.4371
 20
15.7324
  0
VERTEX
  8
0
 10
141.4276
 20
15.7305
  0
VERTEX
  8
0
 10
141.4085
 20
15.7324
  0
VERTEX
  8
0
 10
141.3962
 20
15.7372
  0
VERTEX
  8
0
 10
141.3914
 20
15.7419
  0
VERTEX
  8
0
 10
141.3876
 20
15.7477
  0
VERTEX
  8
0
 10
141.3828
 20
15.7581
  0
VERTEX
  8
0
 10
141.378
 20
15.7734
  0
VERTEX
  8
0
 10
141.359
 20
15.8267
  0
VERTEX
  8
0
 10
141.3485
 20
15.8658
  0
VERTEX
  8
0
 10
141.3457
 20
15.8896
  0
VERTEX
  8
0
 10
141.3476
 20
15.9058
  0
VERTEX
  8
0
 10
141.3542
 20
15.9354
  0
VERTEX
  8
0
 10
141.3657
 20
15.9754
  0
VERTEX
  8
0
 10
141.3685
 20
16.0021
  0
VERTEX
  8
0
 10
141.3685
 20
16.003
  0
VERTEX
  8
0
 10
141.3676
 20
16.0116
  0
VERTEX
  8
0
 10
141.3638
 20
16.0211
  0
VERTEX
  8
0
 10
141.358
 20
16.0268
  0
VERTEX
  8
0
 10
141.3533
 20
16.0306
  0
VERTEX
  8
0
 10
141.3437
 20
16.0345
  0
VERTEX
  8
0
 10
141.3295
 20
16.0364
  0
VERTEX
  8
0
 10
141.3199
 20
16.0364
  0
VERTEX
  8
0
 10
141.3114
 20
16.0354
  0
VERTEX
  8
0
 10
141.2952
 20
16.0306
  0
VERTEX
  8
0
 10
141.2799
 20
16.023
  0
VERTEX
  8
0
 10
141.2656
 20
16.0125
  0
VERTEX
  8
0
 10
141.257
 20
16.0011
  0
VERTEX
  8
0
 10
141.2523
 20
15.9878
  0
VERTEX
  8
0
 10
141.2494
 20
15.9697
  0
VERTEX
  8
0
 10
141.2504
 20
15.9535
  0
VERTEX
  8
0
 10
141.2523
 20
15.9373
  0
VERTEX
  8
0
 10
141.2561
 20
15.9163
  0
VERTEX
  8
0
 10
141.257
 20
15.9115
  0
VERTEX
  8
0
 10
141.2542
 20
15.8934
  0
VERTEX
  8
0
 10
141.2418
 20
15.8677
  0
VERTEX
  8
0
 10
141.2351
 20
15.8563
  0
VERTEX
  8
0
 10
141.2275
 20
15.8467
  0
VERTEX
  8
0
 10
141.2151
 20
15.8344
  0
VERTEX
  8
0
 10
141.2008
 20
15.8248
  0
VERTEX
  8
0
 10
141.1818
 20
15.8172
  0
VERTEX
  8
0
 10
141.1646
 20
15.8144
  0
VERTEX
  8
0
 10
141.1456
 20
15.8163
  0
VERTEX
  8
0
 10
141.1303
 20
15.8239
  0
VERTEX
  8
0
 10
141.1141
 20
15.8363
  0
VERTEX
  8
0
 10
141.0951
 20
15.8572
  0
VERTEX
  8
0
 10
141.0436
 20
16.0116
  0
VERTEX
  8
0
 10
140.5843
 20
16.0164
  0
VERTEX
  8
0
 10
140.5767
 20
15.9973
  0
VERTEX
  8
0
 10
140.5758
 20
15.9897
  0
VERTEX
  8
0
 10
140.5758
 20
15.9782
  0
VERTEX
  8
0
 10
140.5758
 20
15.9735
  0
VERTEX
  8
0
 10
140.5748
 20
15.9401
  0
VERTEX
  8
0
 10
140.5729
 20
15.903
  0
VERTEX
  8
0
 10
140.5691
 20
15.8658
  0
VERTEX
  8
0
 10
140.5643
 20
15.8296
  0
VERTEX
  8
0
 10
140.5586
 20
15.7896
  0
VERTEX
  8
0
 10
140.5519
 20
15.7524
  0
VERTEX
  8
0
 10
140.5472
 20
15.7162
  0
VERTEX
  8
0
 10
140.5453
 20
15.7067
  0
VERTEX
  8
0
 10
140.5424
 20
15.7
  0
VERTEX
  8
0
 10
140.5405
 20
15.6972
  0
VERTEX
  8
0
 10
140.5376
 20
15.6943
  0
VERTEX
  8
0
 10
140.5319
 20
15.6914
  0
VERTEX
  8
0
 10
140.5281
 20
15.6905
  0
VERTEX
  8
0
 10
140.5195
 20
15.6924
  0
VERTEX
  8
0
 10
140.4948
 20
15.701
  0
VERTEX
  8
0
 10
140.4948
 20
15.7
  0
VERTEX
  8
0
 10
140.4767
 20
15.7057
  0
VERTEX
  8
0
 10
140.4528
 20
15.7067
  0
VERTEX
  8
0
 10
140.4023
 20
15.7029
  0
VERTEX
  8
0
 10
140.348
 20
15.6924
  0
VERTEX
  8
0
 10
140.2909
 20
15.6724
  0
VERTEX
  8
0
 10
140.2499
 20
15.6524
  0
VERTEX
  8
0
 10
140.2127
 20
15.6295
  0
VERTEX
  8
0
 10
140.1556
 20
15.5857
  0
VERTEX
  8
0
 10
140.0879
 20
15.5352
  0
VERTEX
  8
0
 10
140.0879
 20
15.5361
  0
VERTEX
  8
0
 10
140.0355
 20
15.5018
  0
VERTEX
  8
0
 10
140.0002
 20
15.4866
  0
VERTEX
  8
0
 10
139.9679
 20
15.4818
  0
VERTEX
  8
0
 10
139.9545
 20
15.4837
  0
VERTEX
  8
0
 10
139.9402
 20
15.4904
  0
VERTEX
  8
0
 10
139.9297
 20
15.499
  0
VERTEX
  8
0
 10
139.9231
 20
15.5075
  0
VERTEX
  8
0
 10
139.9183
 20
15.518
  0
VERTEX
  8
0
 10
139.9174
 20
15.5256
  0
VERTEX
  8
0
 10
139.9202
 20
15.5437
  0
VERTEX
  8
0
 10
139.9326
 20
15.5771
  0
VERTEX
  8
0
 10
139.9412
 20
15.5962
  0
VERTEX
  8
0
 10
139.9497
 20
15.62
  0
VERTEX
  8
0
 10
139.9564
 20
15.64
  0
VERTEX
  8
0
 10
139.964
 20
15.6619
  0
VERTEX
  8
0
 10
139.9707
 20
15.6924
  0
VERTEX
  8
0
 10
139.9745
 20
15.7153
  0
VERTEX
  8
0
 10
139.9736
 20
15.7267
  0
VERTEX
  8
0
 10
139.9679
 20
15.7381
  0
VERTEX
  8
0
 10
139.9612
 20
15.7467
  0
VERTEX
  8
0
 10
139.9545
 20
15.7524
  0
VERTEX
  8
0
 10
139.9383
 20
15.7591
  0
VERTEX
  8
0
 10
139.9259
 20
15.761
  0
VERTEX
  8
0
 10
139.9002
 20
15.7581
  0
VERTEX
  8
0
 10
139.8764
 20
15.7524
  0
VERTEX
  8
0
 10
139.8192
 20
15.7315
  0
VERTEX
  8
0
 10
139.763
 20
15.7095
  0
VERTEX
  8
0
 10
139.6963
 20
15.6771
  0
VERTEX
  8
0
 10
139.6487
 20
15.6505
  0
VERTEX
  8
0
 10
139.3418
 20
15.4656
  0
VERTEX
  8
0
 10
139.2656
 20
15.4084
  0
VERTEX
  8
0
 10
139.2294
 20
15.3942
  0
VERTEX
  8
0
 10
139.1922
 20
15.3894
  0
VERTEX
  8
0
 10
139.1684
 20
15.3922
  0
VERTEX
  8
0
 10
139.1522
 20
15.398
  0
VERTEX
  8
0
 10
139.1427
 20
15.4056
  0
VERTEX
  8
0
 10
139.1351
 20
15.4161
  0
VERTEX
  8
0
 10
139.1284
 20
15.4323
  0
VERTEX
  8
0
 10
139.1265
 20
15.4475
  0
VERTEX
  8
0
 10
139.1294
 20
15.4732
  0
VERTEX
  8
0
 10
139.1408
 20
15.5133
  0
VERTEX
  8
0
 10
139.1522
 20
15.5409
  0
VERTEX
  8
0
 10
139.1646
 20
15.5657
  0
VERTEX
  8
0
 10
139.197
 20
15.6324
  0
VERTEX
  8
0
 10
139.2037
 20
15.6609
  0
VERTEX
  8
0
 10
139.2027
 20
15.6676
  0
VERTEX
  8
0
 10
139.198
 20
15.679
  0
VERTEX
  8
0
 10
139.1903
 20
15.6895
  0
VERTEX
  8
0
 10
139.1818
 20
15.6952
  0
VERTEX
  8
0
 10
139.1627
 20
15.7029
  0
VERTEX
  8
0
 10
139.1398
 20
15.7048
  0
VERTEX
  8
0
 10
139.0846
 20
15.701
  0
VERTEX
  8
0
 10
139.0236
 20
15.6886
  0
VERTEX
  8
0
 10
138.9798
 20
15.6762
  0
VERTEX
  8
0
 10
138.9331
 20
15.6609
  0
VERTEX
  8
0
 10
138.9054
 20
15.6505
  0
VERTEX
  8
0
 10
138.8292
 20
15.6219
  0
VERTEX
  8
0
 10
138.7092
 20
15.5733
  0
VERTEX
  8
0
 10
138.6634
 20
15.5533
  0
VERTEX
  8
0
 10
138.3909
 20
15.4265
  0
VERTEX
  8
0
 10
138.0431
 20
15.2141
  0
VERTEX
  8
0
 10
138.026
 20
15.2064
  0
VERTEX
  8
0
 10
138.0193
 20
15.2045
  0
VERTEX
  8
0
 10
138.0164
 20
15.2055
  0
VERTEX
  8
0
 10
138.0107
 20
15.2083
  0
VERTEX
  8
0
 10
138.005
 20
15.2122
  0
VERTEX
  8
0
 10
138.0002
 20
15.216
  0
VERTEX
  8
0
 10
137.9917
 20
15.2274
  0
VERTEX
  8
0
 10
137.9793
 20
15.2446
  0
VERTEX
  8
0
 10
137.9545
 20
15.2836
  0
VERTEX
  8
0
 10
137.9335
 20
15.3208
  0
VERTEX
  8
0
 10
137.905
 20
15.3713
  0
VERTEX
  8
0
 10
137.885
 20
15.4123
  0
VERTEX
  8
0
 10
137.8754
 20
15.4332
  0
VERTEX
  8
0
 10
137.864
 20
15.4637
  0
VERTEX
  8
0
 10
137.8516
 20
15.4913
  0
VERTEX
  8
0
 10
137.843
 20
15.5161
  0
VERTEX
  8
0
 10
137.8402
 20
15.5275
  0
VERTEX
  8
0
 10
137.8392
 20
15.5352
  0
VERTEX
  8
0
 10
137.8402
 20
15.539
  0
VERTEX
  8
0
 10
137.8411
 20
15.5447
  0
VERTEX
  8
0
 10
137.8421
 20
15.5476
  0
VERTEX
  8
0
 10
137.843
 20
15.5495
  0
VERTEX
  8
0
 10
137.8449
 20
15.5523
  0
VERTEX
  8
0
 10
137.8468
 20
15.5542
  0
VERTEX
  8
0
 10
137.8592
 20
15.5657
  0
VERTEX
  8
0
 10
137.8764
 20
15.578
  0
VERTEX
  8
0
 10
137.9345
 20
15.6171
  0
VERTEX
  8
0
 10
137.9669
 20
15.639
  0
VERTEX
  8
0
 10
138.0269
 20
15.6771
  0
VERTEX
  8
0
 10
138.0993
 20
15.721
  0
VERTEX
  8
0
 10
138.1556
 20
15.7562
  0
VERTEX
  8
0
 10
138.2575
 20
15.8124
  0
VERTEX
  8
0
 10
138.3614
 20
15.8668
  0
VERTEX
  8
0
 10
138.4709
 20
15.9182
  0
VERTEX
  8
0
 10
138.5815
 20
15.9668
  0
VERTEX
  8
0
 10
138.693
 20
16.0116
  0
VERTEX
  8
0
 10
138.7806
 20
16.0411
  0
VERTEX
  8
0
 10
138.8368
 20
16.0583
  0
VERTEX
  8
0
 10
138.8921
 20
16.0716
  0
VERTEX
  8
0
 10
138.955
 20
16.0821
  0
VERTEX
  8
0
 10
139.0112
 20
16.0859
  0
VERTEX
  8
0
 10
139.0369
 20
16.084
  0
VERTEX
  8
0
 10
139.0617
 20
16.0802
  0
VERTEX
  8
0
 10
139.1017
 20
16.064
  0
VERTEX
  8
0
 10
139.1246
 20
16.0497
  0
VERTEX
  8
0
 10
139.1456
 20
16.0306
  0
VERTEX
  8
0
 10
139.1646
 20
16.0078
  0
VERTEX
  8
0
 10
139.1808
 20
15.983
  0
VERTEX
  8
0
 10
139.2123
 20
15.923
  0
VERTEX
  8
0
 10
139.2408
 20
15.8487
  0
VERTEX
  8
0
 10
139.2494
 20
15.8277
  0
VERTEX
  8
0
 10
139.2637
 20
15.7839
  0
SEQEND
  0
POLYLINE
  8
0
 66
     1
 10
0
 20
0
  0
VERTEX
  8
0
 10
137.5982
 20
14.8968
  0
VERTEX
  8
0
 10
137.6039
 20
14.9006
  0
VERTEX
  8
0
 10
137.6077
 20
14.9034
  0
VERTEX
  8
0
 10
137.6134
 20
14.9063
  0
VERTEX
  8
0
 10
137.6163
 20
14.9063
  0
VERTEX
  8
0
 10
137.6191
 20
14.9063
  0
VERTEX
  8
0
 10
137.6239
 20
14.9034
  0
VERTEX
  8
0
 10
137.6334
 20
14.8977
  0
VERTEX
  8
0
 10
137.6401
 20
14.892
  0
VERTEX
  8
0
 10
137.6458
 20
14.8882
  0
VERTEX
  8
0
 10
137.6525
 20
14.8853
  0
VERTEX
  8
0
 10
137.6629
 20
14.8806
  0
VERTEX
  8
0
 10
137.6944
 20
14.871
  0
VERTEX
  8
0
 10
137.7058
 20
14.8691
  0
VERTEX
  8
0
 10
137.762
 20
14.8739
  0
VERTEX
  8
0
 10
137.8164
 20
14.8901
  0
VERTEX
  8
0
 10
137.9183
 20
14.9377
  0
VERTEX
  8
0
 10
138.0155
 20
14.9959
  0
VERTEX
  8
0
 10
138.3109
 20
15.1921
  0
VERTEX
  8
0
 10
138.3642
 20
15.2265
  0
VERTEX
  8
0
 10
138.4328
 20
15.2674
  0
VERTEX
  8
0
 10
138.53
 20
15.3217
  0
VERTEX
  8
0
 10
138.6339
 20
15.3751
  0
VERTEX
  8
0
 10
138.7073
 20
15.4113
  0
VERTEX
  8
0
 10
138.7644
 20
15.4351
  0
VERTEX
  8
0
 10
138.7987
 20
15.4475
  0
VERTEX
  8
0
 10
138.8349
 20
15.4561
  0
VERTEX
  8
0
 10
138.8702
 20
15.4608
  0
VERTEX
  8
0
 10
138.9073
 20
15.4628
  0
VERTEX
  8
0
 10
138.9559
 20
15.458
  0
VERTEX
  8
0
 10
138.9893
 20
15.4447
  0
VERTEX
  8
0
 10
139.0055
 20
15.4323
  0
VERTEX
  8
0
 10
139.0169
 20
15.4161
  0
VERTEX
  8
0
 10
139.0274
 20
15.3942
  0
VERTEX
  8
0
 10
139.0398
 20
15.3627
  0
VERTEX
  8
0
 10
139.056
 20
15.3093
  0
VERTEX
  8
0
 10
139.0608
 20
15.2903
  0
VERTEX
  8
0
 10
139.0712
 20
15.2531
  0
VERTEX
  8
0
 10
139.075
 20
15.2436
  0
VERTEX
  8
0
 10
139.0827
 20
15.2245
  0
VERTEX
  8
0
 10
139.0836
 20
15.2217
  0
VERTEX
  8
0
 10
139.0846
 20
15.215
  0
VERTEX
  8
0
 10
139.0836
 20
15.2055
  0
VERTEX
  8
0
 10
139.0836
 20
15.2036
  0
VERTEX
  8
0
 10
139.0846
 20
15.2036
  0
VERTEX
  8
0
 10
139.0893
 20
15.2017
  0
VERTEX
  8
0
 10
139.0979
 20
15.1979
  0
VERTEX
  8
0
 10
139.3933
 20
15.3694
  0
VERTEX
  8
0
 10
139.5915
 20
15.4637
  0
VERTEX
  8
0
 10
139.6439
 20
15.4856
  0
VERTEX
  8
0
 10
139.6982
 20
15.5056
  0
VERTEX
  8
0
 10
139.7287
 20
15.5123
  0
VERTEX
  8
0
 10
139.7601
 20
15.5142
  0
VERTEX
  8
0
 10
139.7763
 20
15.5123
  0
VERTEX
  8
0
 10
139.8021
 20
15.5018
  0
VERTEX
  8
0
 10
139.8192
 20
15.4875
  0
VERTEX
  8
0
 10
139.8278
 20
15.478
  0
VERTEX
  8
0
 10
139.8402
 20
15.4447
  0
VERTEX
  8
0
 10
139.8507
 20
15.3675
  0
VERTEX
  8
0
 10
139.8507
 20
15.3684
  0
VERTEX
  8
0
 10
139.8554
 20
15.3332
  0
VERTEX
  8
0
 10
139.8649
 20
15.2665
  0
VERTEX
  8
0
 10
139.9526
 20
15.3379
  0
VERTEX
  8
0
 10
139.9974
 20
15.3722
  0
VERTEX
  8
0
 10
140.0727
 20
15.4256
  0
VERTEX
  8
0
 10
140.1479
 20
15.4723
  0
VERTEX
  8
0
 10
140.2042
 20
15.5009
  0
VERTEX
  8
0
 10
140.2642
 20
15.5218
  0
VERTEX
  8
0
 10
140.3156
 20
15.5333
  0
VERTEX
  8
0
 10
140.369
 20
15.538
  0
VERTEX
  8
0
 10
140.3985
 20
15.5342
  0
VERTEX
  8
0
 10
140.429
 20
15.5209
  0
VERTEX
  8
0
 10
140.4509
 20
15.5047
  0
VERTEX
  8
0
 10
140.4671
 20
15.4847
  0
VERTEX
  8
0
 10
140.4795
 20
15.4532
  0
VERTEX
  8
0
 10
140.4843
 20
15.4142
  0
VERTEX
  8
0
 10
140.4795
 20
15.3713
  0
VERTEX
  8
0
 10
140.4652
 20
15.3341
  0
VERTEX
  8
0
 10
140.2947
 20
15.0197
  0
VERTEX
  8
0
 10
140.2947
 20
15.0187
  0
VERTEX
  8
0
 10
140.2871
 20
15.0063
  0
VERTEX
  8
0
 10
140.247
 20
14.9492
  0
VERTEX
  8
0
 10
140.2337
 20
14.9311
  0
VERTEX
  8
0
 10
140.2089
 20
14.8939
  0
VERTEX
  8
0
 10
140.1984
 20
14.8939
  0
VERTEX
  8
0
 10
140.208
 20
14.9168
  0
VERTEX
  8
0
 10
140.2108
 20
14.9235
  0
VERTEX
  8
0
 10
140.2251
 20
14.9501
  0
VERTEX
  8
0
 10
140.2327
 20
14.9711
  0
VERTEX
  8
0
 10
140.2346
 20
14.9854
  0
VERTEX
  8
0
 10
140.2337
 20
14.9921
  0
VERTEX
  8
0
 10
140.2308
 20
14.9997
  0
VERTEX
  8
0
 10
140.2232
 20
15.0083
  0
VERTEX
  8
0
 10
140.2137
 20
15.0168
  0
VERTEX
  8
0
 10
140.1956
 20
15.0245
  0
VERTEX
  8
0
 10
140.1765
 20
15.0273
  0
VERTEX
  8
0
 10
140.1451
 20
15.0225
  0
VERTEX
  8
0
 10
140.1184
 20
15.0111
  0
VERTEX
  8
0
 10
140.0984
 20
14.9987
  0
VERTEX
  8
0
 10
140.0622
 20
14.973
  0
VERTEX
  8
0
 10
139.8649
 20
14.8244
  0
VERTEX
  8
0
 10
139.8354
 20
14.8034
  0
VERTEX
  8
0
 10
139.804
 20
14.7834
  0
VERTEX
  8
0
 10
139.7563
 20
14.7615
  0
VERTEX
  8
0
 10
139.7201
 20
14.7548
  0
VERTEX
  8
0
 10
139.7077
 20
14.7567
  0
VERTEX
  8
0
 10
139.6934
 20
14.7634
  0
VERTEX
  8
0
 10
139.6839
 20
14.771
  0
VERTEX
  8
0
 10
139.6763
 20
14.7824
  0
VERTEX
  8
0
 10
139.6715
 20
14.7929
  0
VERTEX
  8
0
 10
139.6706
 20
14.8024
  0
VERTEX
  8
0
 10
139.6725
 20
14.8167
  0
VERTEX
  8
0
 10
139.6782
 20
14.8301
  0
VERTEX
  8
0
 10
139.6868
 20
14.8444
  0
VERTEX
  8
0
 10
139.7001
 20
14.8615
  0
VERTEX
  8
0
 10
139.7382
 20
14.9053
  0
VERTEX
  8
0
 10
139.7592
 20
14.9301
  0
VERTEX
  8
0
 10
139.7744
 20
14.9492
  0
VERTEX
  8
0
 10
139.782
 20
14.9616
  0
VERTEX
  8
0
 10
139.7897
 20
14.973
  0
VERTEX
  8
0
 10
139.8002
 20
14.994
  0
VERTEX
  8
0
 10
139.803
 20
15.0121
  0
VERTEX
  8
0
 10
139.8021
 20
15.0216
  0
VERTEX
  8
0
 10
139.7982
 20
15.0311
  0
VERTEX
  8
0
 10
139.7935
 20
15.0368
  0
VERTEX
  8
0
 10
139.7868
 20
15.0416
  0
VERTEX
  8
0
 10
139.7773
 20
15.0454
  0
VERTEX
  8
0
 10
139.7659
 20
15.0464
  0
VERTEX
  8
0
 10
139.7592
 20
15.0464
  0
VERTEX
  8
0
 10
139.7563
 20
15.0464
  0
VERTEX
  8
0
 10
139.7173
 20
15.034
  0
VERTEX
  8
0
 10
139.6296
 20
14.9882
  0
VERTEX
  8
0
 10
139.5591
 20
14.9463
  0
VERTEX
  8
0
 10
139.5105
 20
14.9139
  0
VERTEX
  8
0
 10
139.2456
 20
14.7281
  0
VERTEX
  8
0
 10
139.2447
 20
14.7272
  0
VERTEX
  8
0
 10
139.2037
 20
14.6995
  0
VERTEX
  8
0
 10
139.2046
 20
14.6995
  0
VERTEX
  8
0
 10
139.1532
 20
14.669
  0
VERTEX
  8
0
 10
139.0903
 20
14.6386
  0
VERTEX
  8
0
 10
139.0912
 20
14.6386
  0
VERTEX
  8
0
 10
139.0531
 20
14.63
  0
VERTEX
  8
0
 10
139.0484
 20
14.63
  0
VERTEX
  8
0
 10
139.0303
 20
14.6328
  0
VERTEX
  8
0
 10
139.0207
 20
14.6357
  0
VERTEX
  8
0
 10
139.0122
 20
14.6395
  0
VERTEX
  8
0
 10
139.0026
 20
14.6462
  0
VERTEX
  8
0
 10
138.995
 20
14.6586
  0
VERTEX
  8
0
 10
138.9893
 20
14.6719
  0
VERTEX
  8
0
 10
138.9874
 20
14.6862
  0
VERTEX
  8
0
 10
138.9883
 20
14.6957
  0
VERTEX
  8
0
 10
138.9893
 20
14.7024
  0
VERTEX
  8
0
 10
139.0179
 20
14.7672
  0
VERTEX
  8
0
 10
139.0455
 20
14.832
  0
VERTEX
  8
0
 10
139.0636
 20
14.8739
  0
VERTEX
  8
0
 10
139.075
 20
14.9092
  0
VERTEX
  8
0
 10
139.0779
 20
14.9349
  0
VERTEX
  8
0
 10
139.076
 20
14.9492
  0
VERTEX
  8
0
 10
139.0684
 20
14.9673
  0
VERTEX
  8
0
 10
139.0569
 20
14.9825
  0
VERTEX
  8
0
 10
139.0436
 20
14.9921
  0
VERTEX
  8
0
 10
139.0179
 20
15.0035
  0
VERTEX
  8
0
 10
138.9912
 20
15.0073
  0
VERTEX
  8
0
 10
138.9483
 20
15.0035
  0
VERTEX
  8
0
 10
138.9045
 20
14.993
  0
VERTEX
  8
0
 10
138.8559
 20
14.9749
  0
VERTEX
  8
0
 10
138.8092
 20
14.9501
  0
VERTEX
  8
0
 10
138.2566
 20
14.6128
  0
VERTEX
  8
0
 10
138.1832
 20
14.5699
  0
VERTEX
  8
0
 10
138.1079
 20
14.5318
  0
VERTEX
  8
0
 10
138.1089
 20
14.5318
  0
VERTEX
  8
0
 10
138.0622
 20
14.5109
  0
VERTEX
  8
0
 10
138.0145
 20
14.4937
  0
VERTEX
  8
0
 10
137.9879
 20
14.4871
  0
VERTEX
  8
0
 10
137.924
 20
14.4756
  0
VERTEX
  8
0
 10
137.8669
 20
14.468
  0
VERTEX
  8
0
 10
137.8183
 20
14.4651
  0
VERTEX
  8
0
 10
137.783
 20
14.4661
  0
VERTEX
  8
0
 10
137.7487
 20
14.4728
  0
VERTEX
  8
0
 10
137.7182
 20
14.4813
  0
VERTEX
  8
0
 10
137.6887
 20
14.4937
  0
VERTEX
  8
0
 10
137.681
 20
14.4975
  0
VERTEX
  8
0
 10
137.6706
 20
14.5033
  0
VERTEX
  8
0
 10
137.6629
 20
14.508
  0
VERTEX
  8
0
 10
137.6601
 20
14.5099
  0
VERTEX
  8
0
 10
137.6553
 20
14.5156
  0
VERTEX
  8
0
 10
137.6487
 20
14.5252
  0
VERTEX
  8
0
 10
137.6458
 20
14.5318
  0
VERTEX
  8
0
 10
137.6429
 20
14.5376
  0
VERTEX
  8
0
 10
137.6401
 20
14.5461
  0
VERTEX
  8
0
 10
137.6382
 20
14.5566
  0
VERTEX
  8
0
 10
137.6382
 20
14.5557
  0
VERTEX
  8
0
 10
137.5982
 20
14.8968
  0
SEQEND
  0
POLYLINE
  8
0
 66
     1
 10
0
 20
0
  0
VERTEX
  8
0
 10
135.0922
 20
15.7715
  0
VERTEX
  8
0
 10
135.0903
 20
15.782
  0
VERTEX
  8
0
 10
135.0893
 20
15.7905
  0
VERTEX
  8
0
 10
135.0903
 20
15.7943
  0
VERTEX
  8
0
 10
135.0912
 20
15.7982
  0
VERTEX
  8
0
 10
135.0941
 20
15.8029
  0
VERTEX
  8
0
 10
135.0979
 20
15.8058
  0
VERTEX
  8
0
 10
135.1113
 20
15.8105
  0
VERTEX
  8
0
 10
135.1313
 20
15.8134
  0
VERTEX
  8
0
 10
135.1341
 20
15.8134
  0
VERTEX
  8
0
 10
137.1322
 20
15.7791
  0
VERTEX
  8
0
 10
137.1398
 20
15.7877
  0
VERTEX
  8
0
 10
137.136
 20
15.7972
  0
VERTEX
  8
0
 10
137.1332
 20
15.8048
  0
VERTEX
  8
0
 10
137.1275
 20
15.8115
  0
VERTEX
  8
0
 10
137.1217
 20
15.8153
  0
VERTEX
  8
0
 10
137.1113
 20
15.8191
  0
VERTEX
  8
0
 10
137.0989
 20
15.821
  0
VERTEX
  8
0
 10
137.036
 20
15.8201
  0
VERTEX
  8
0
 10
137.0255
 20
15.821
  0
VERTEX
  8
0
 10
137.0217
 20
15.8229
  0
VERTEX
  8
0
 10
136.9455
 20
15.8734
  0
VERTEX
  8
0
 10
136.9397
 20
15.8763
  0
VERTEX
  8
0
 10
136.9045
 20
15.8772
  0
VERTEX
  8
0
 10
136.8778
 20
15.8772
  0
VERTEX
  8
0
 10
136.854
 20
15.8801
  0
VERTEX
  8
0
 10
136.8292
 20
15.8858
  0
VERTEX
  8
0
 10
136.8073
 20
15.8953
  0
VERTEX
  8
0
 10
136.7844
 20
15.9134
  0
VERTEX
  8
0
 10
136.7663
 20
15.9354
  0
VERTEX
  8
0
 10
136.7463
 20
15.9659
  0
VERTEX
  8
0
 10
136.7311
 20
15.9868
  0
VERTEX
  8
0
 10
136.7215
 20
15.9944
  0
VERTEX
  8
0
 10
136.6939
 20
16.0059
  0
VERTEX
  8
0
 10
136.6177
 20
16.0211
  0
VERTEX
  8
0
 10
136.5948
 20
16.0249
  0
VERTEX
  8
0
 10
136.5719
 20
16.0306
  0
VERTEX
  8
0
 10
136.5481
 20
16.0402
  0
VERTEX
  8
0
 10
136.5281
 20
16.0516
  0
VERTEX
  8
0
 10
136.5129
 20
16.0611
  0
VERTEX
  8
0
 10
136.5033
 20
16.0707
  0
VERTEX
  8
0
 10
136.491
 20
16.0859
  0
VERTEX
  8
0
 10
136.4776
 20
16.105
  0
VERTEX
  8
0
 10
136.43
 20
16.1745
  0
VERTEX
  8
0
 10
136.4204
 20
16.1964
  0
VERTEX
  8
0
 10
136.4166
 20
16.2126
  0
VERTEX
  8
0
 10
136.4157
 20
16.2184
  0
VERTEX
  8
0
 10
136.4147
 20
16.2336
  0
VERTEX
  8
0
 10
136.4147
 20
16.2469
  0
VERTEX
  8
0
 10
136.4147
 20
16.2565
  0
VERTEX
  8
0
 10
136.4166
 20
16.306
  0
VERTEX
  8
0
 10
136.4214
 20
16.3432
  0
VERTEX
  8
0
 10
136.4271
 20
16.3565
  0
VERTEX
  8
0
 10
136.4328
 20
16.3622
  0
VERTEX
  8
0
 10
136.4271
 20
16.3565
  0
VERTEX
  8
0
 10
136.5958
 20
16.3689
  0
VERTEX
  8
0
 10
137.7935
 20
16.3479
  0
VERTEX
  8
0
 10
137.8345
 20
16.4785
  0
VERTEX
  8
0
 10
137.8573
 20
16.5423
  0
VERTEX
  8
0
 10
137.8964
 20
16.6309
  0
VERTEX
  8
0
 10
137.9459
 20
16.7253
  0
VERTEX
  8
0
 10
137.9974
 20
16.8072
  0
VERTEX
  8
0
 10
138.0536
 20
16.8853
  0
VERTEX
  8
0
 10
138.1108
 20
16.9558
  0
VERTEX
  8
0
 10
138.1727
 20
17.0225
  0
VERTEX
  8
0
 10
138.2366
 20
17.0816
  0
VERTEX
  8
0
 10
138.3032
 20
17.1359
  0
VERTEX
  8
0
 10
138.3766
 20
17.1874
  0
VERTEX
  8
0
 10
138.4519
 20
17.235
  0
VERTEX
  8
0
 10
138.5357
 20
17.2798
  0
VERTEX
  8
0
 10
138.6205
 20
17.3189
  0
VERTEX
  8
0
 10
138.7092
 20
17.3513
  0
VERTEX
  8
0
 10
138.7987
 20
17.3789
  0
VERTEX
  8
0
 10
138.8892
 20
17.3999
  0
VERTEX
  8
0
 10
138.9807
 20
17.4151
  0
VERTEX
  8
0
 10
139.0731
 20
17.4237
  0
VERTEX
  8
0
 10
139.1656
 20
17.4275
  0
VERTEX
  8
0
 10
139.258
 20
17.4237
  0
VERTEX
  8
0
 10
139.3485
 20
17.4151
  0
VERTEX
  8
0
 10
139.439
 20
17.4008
  0
VERTEX
  8
0
 10
139.5286
 20
17.3808
  0
VERTEX
  8
0
 10
139.6163
 20
17.3532
  0
VERTEX
  8
0
 10
139.7011
 20
17.3217
  0
VERTEX
  8
0
 10
139.784
 20
17.2836
  0
VERTEX
  8
0
 10
139.8659
 20
17.2407
  0
VERTEX
  8
0
 10
139.945
 20
17.1912
  0
VERTEX
  8
0
 10
140.0203
 20
17.1369
  0
VERTEX
  8
0
 10
140.0946
 20
17.075
  0
VERTEX
  8
0
 10
140.1651
 20
17.0083
  0
VERTEX
  8
0
 10
140.2289
 20
16.9387
  0
VERTEX
  8
0
 10
140.289
 20
16.8653
  0
VERTEX
  8
0
 10
140.3442
 20
16.7872
  0
VERTEX
  8
0
 10
140.3938
 20
16.7062
  0
VERTEX
  8
0
 10
140.4281
 20
16.6443
  0
VERTEX
  8
0
 10
140.4595
 20
16.5804
  0
VERTEX
  8
0
 10
140.4805
 20
16.5299
  0
VERTEX
  8
0
 10
140.4986
 20
16.4775
  0
VERTEX
  8
0
 10
140.5262
 20
16.3822
  0
VERTEX
  8
0
 10
140.5615
 20
16.2231
  0
VERTEX
  8
0
 10
140.4957
 20
16.2298
  0
VERTEX
  8
0
 10
140.4471
 20
16.2317
  0
VERTEX
  8
0
 10
140.4004
 20
16.2288
  0
VERTEX
  8
0
 10
140.3528
 20
16.2193
  0
VERTEX
  8
0
 10
140.3118
 20
16.2069
  0
VERTEX
  8
0
 10
140.2737
 20
16.1879
  0
VERTEX
  8
0
 10
140.2204
 20
16.1526
  0
VERTEX
  8
0
 10
140.1479
 20
16.0954
  0
VERTEX
  8
0
 10
140.1365
 20
16.1002
  0
VERTEX
  8
0
 10
140.1375
 20
16.1259
  0
VERTEX
  8
0
 10
140.1384
 20
16.1459
  0
VERTEX
  8
0
 10
140.1336
 20
16.1917
  0
VERTEX
  8
0
 10
140.1213
 20
16.2231
  0
VERTEX
  8
0
 10
140.106
 20
16.2422
  0
VERTEX
  8
0
 10
140.0812
 20
16.2603
  0
VERTEX
  8
0
 10
140.065
 20
16.2689
  0
VERTEX
  8
0
 10
140.0507
 20
16.2746
  0
VERTEX
  8
0
 10
140.0098
 20
16.2841
  0
VERTEX
  8
0
 10
139.9736
 20
16.2879
  0
VERTEX
  8
0
 10
139.9174
 20
16.2841
  0
VERTEX
  8
0
 10
139.8621
 20
16.2765
  0
VERTEX
  8
0
 10
139.7982
 20
16.2631
  0
VERTEX
  8
0
 10
139.7363
 20
16.245
  0
VERTEX
  8
0
 10
139.621
 20
16.2002
  0
VERTEX
  8
0
 10
139.5267
 20
16.1526
  0
VERTEX
  8
0
 10
139.4609
 20
16.1107
  0
VERTEX
  8
0
 10
139.4114
 20
16.0726
  0
VERTEX
  8
0
 10
139.3695
 20
16.0316
  0
VERTEX
  8
0
 10
139.3018
 20
15.962
  0
VERTEX
  8
0
 10
139.2875
 20
15.962
  0
VERTEX
  8
0
 10
139.2913
 20
15.9944
  0
VERTEX
  8
0
 10
139.2952
 20
16.0106
  0
VERTEX
  8
0
 10
139.3133
 20
16.0773
  0
VERTEX
  8
0
 10
139.3142
 20
16.084
  0
VERTEX
  8
0
 10
139.3133
 20
16.0907
  0
VERTEX
  8
0
 10
139.3037
 20
16.1212
  0
VERTEX
  8
0
 10
139.298
 20
16.1364
  0
VERTEX
  8
0
 10
139.2923
 20
16.1488
  0
VERTEX
  8
0
 10
139.2913
 20
16.1488
  0
VERTEX
  8
0
 10
139.2742
 20
16.1726
  0
VERTEX
  8
0
 10
139.2532
 20
16.1888
  0
VERTEX
  8
0
 10
139.2132
 20
16.206
  0
VERTEX
  8
0
 10
139.1713
 20
16.2155
  0
VERTEX
  8
0
 10
139.1303
 20
16.2184
  0
VERTEX
  8
0
 10
139.0827
 20
16.2203
  0
VERTEX
  8
0
 10
138.9931
 20
16.2164
  0
VERTEX
  8
0
 10
138.934
 20
16.2088
  0
VERTEX
  8
0
 10
138.8902
 20
16.1983
  0
VERTEX
  8
0
 10
138.8083
 20
16.1745
  0
VERTEX
  8
0
 10
138.6587
 20
16.124
  0
VERTEX
  8
0
 10
138.5624
 20
16.0878
  0
VERTEX
  8
0
 10
138.4414
 20
16.0364
  0
VERTEX
  8
0
 10
138.3071
 20
15.9735
  0
VERTEX
  8
0
 10
138.1699
 20
15.903
  0
VERTEX
  8
0
 10
138.0346
 20
15.8267
  0
VERTEX
  8
0
 10
137.9812
 20
15.7943
  0
VERTEX
  8
0
 10
137.8659
 20
15.7276
  0
VERTEX
  8
0
 10
137.8287
 20
15.7048
  0
VERTEX
  8
0
 10
137.8164
 20
15.6981
  0
VERTEX
  8
0
 10
137.8068
 20
15.6952
  0
VERTEX
  8
0
 10
137.8021
 20
15.6962
  0
VERTEX
  8
0
 10
137.7982
 20
15.6972
  0
VERTEX
  8
0
 10
137.7925
 20
15.7019
  0
VERTEX
  8
0
 10
137.7897
 20
15.7067
  0
VERTEX
  8
0
 10
137.784
 20
15.7238
  0
VERTEX
  8
0
 10
137.7782
 20
15.7534
  0
VERTEX
  8
0
 10
137.7725
 20
15.7915
  0
VERTEX
  8
0
 10
137.7668
 20
15.8429
  0
VERTEX
  8
0
 10
137.762
 20
15.8915
  0
VERTEX
  8
0
 10
137.7573
 20
15.9535
  0
VERTEX
  8
0
 10
137.7563
 20
16.004
  0
VERTEX
  8
0
 10
137.7582
 20
16.0611
  0
VERTEX
  8
0
 10
137.7639
 20
16.1364
  0
VERTEX
  8
0
 10
137.7687
 20
16.185
  0
VERTEX
  8
0
 10
137.7801
 20
16.2803
  0
VERTEX
  8
0
 10
137.7706
 20
16.2917
  0
VERTEX
  8
0
 10
136.5786
 20
16.3127
  0
VERTEX
  8
0
 10
136.5243
 20
16.3165
  0
VERTEX
  8
0
 10
136.5091
 20
16.3155
  0
VERTEX
  8
0
 10
136.4986
 20
16.3108
  0
VERTEX
  8
0
 10
136.4948
 20
16.3089
  0
VERTEX
  8
0
 10
136.4929
 20
16.306
  0
VERTEX
  8
0
 10
136.4891
 20
16.2955
  0
VERTEX
  8
0
 10
136.4862
 20
16.2727
  0
VERTEX
  8
0
 10
136.4852
 20
16.2603
  0
VERTEX
  8
0
 10
136.4824
 20
16.246
  0
VERTEX
  8
0
 10
136.4748
 20
16.2193
  0
VERTEX
  8
0
 10
136.5072
 20
16.1669
  0
VERTEX
  8
0
 10
136.5262
 20
16.1393
  0
VERTEX
  8
0
 10
136.5434
 20
16.1183
  0
VERTEX
  8
0
 10
136.5529
 20
16.1088
  0
VERTEX
  8
0
 10
136.5624
 20
16.1012
  0
VERTEX
  8
0
 10
136.5786
 20
16.0935
  0
VERTEX
  8
0
 10
136.5986
 20
16.0878
  0
VERTEX
  8
0
 10
136.6272
 20
16.0821
  0
VERTEX
  8
0
 10
136.6606
 20
16.0783
  0
VERTEX
  8
0
 10
136.7244
 20
16.0688
  0
VERTEX
  8
0
 10
136.7473
 20
16.0602
  0
VERTEX
  8
0
 10
136.7635
 20
16.0468
  0
VERTEX
  8
0
 10
136.7949
 20
16.004
  0
VERTEX
  8
0
 10
136.8235
 20
15.9649
  0
VERTEX
  8
0
 10
136.8426
 20
15.9497
  0
VERTEX
  8
0
 10
136.8626
 20
15.943
  0
VERTEX
  8
0
 10
136.9035
 20
15.9382
  0
VERTEX
  8
0
 10
136.9064
 20
15.9382
  0
VERTEX
  8
0
 10
136.9455
 20
15.9382
  0
VERTEX
  8
0
 10
136.9636
 20
15.9373
  0
VERTEX
  8
0
 10
136.9664
 20
15.9363
  0
VERTEX
  8
0
 10
137.0388
 20
15.8877
  0
VERTEX
  8
0
 10
137.0446
 20
15.8858
  0
VERTEX
  8
0
 10
137.0646
 20
15.8839
  0
VERTEX
  8
0
 10
137.1436
 20
15.8791
  0
VERTEX
  8
0
 10
137.1598
 20
15.8744
  0
VERTEX
  8
0
 10
137.1665
 20
15.8687
  0
VERTEX
  8
0
 10
137.1875
 20
15.8391
  0
VERTEX
  8
0
 10
137.2018
 20
15.821
  0
VERTEX
  8
0
 10
137.2161
 20
15.8048
  0
VERTEX
  8
0
 10
137.2427
 20
15.7839
  0
VERTEX
  8
0
 10
137.2561
 20
15.7791
  0
VERTEX
  8
0
 10
137.2742
 20
15.7762
  0
VERTEX
  8
0
 10
137.7096
 20
15.7715
  0
VERTEX
  8
0
 10
137.7173
 20
15.7686
  0
VERTEX
  8
0
 10
137.7249
 20
15.761
  0
VERTEX
  8
0
 10
137.7277
 20
15.7553
  0
VERTEX
  8
0
 10
137.7287
 20
15.7515
  0
VERTEX
  8
0
 10
137.7268
 20
15.7419
  0
VERTEX
  8
0
 10
137.7192
 20
15.7248
  0
VERTEX
  8
0
 10
135.156
 20
15.7696
  0
VERTEX
  8
0
 10
135.0922
 20
15.7715
  0
SEQEND
  0
POLYLINE
  8
0
 66
     1
 10
0
 20
0
  0
VERTEX
  8
0
 10
137.0608
 20
14.7234
  0
VERTEX
  8
0
 10
137.0608
 20
14.7281
  0
VERTEX
  8
0
 10
137.0617
 20
14.731
  0
VERTEX
  8
0
 10
137.0617
 20
14.7329
  0
VERTEX
  8
0
 10
137.0627
 20
14.7329
  0
VERTEX
  8
0
 10
137.0646
 20
14.7348
  0
VERTEX
  8
0
 10
137.0703
 20
14.7367
  0
VERTEX
  8
0
 10
137.0722
 20
14.7367
  0
VERTEX
  8
0
 10
137.0836
 20
14.7443
  0
VERTEX
  8
0
 10
137.0893
 20
14.7472
  0
VERTEX
  8
0
 10
137.0979
 20
14.751
  0
VERTEX
  8
0
 10
137.1084
 20
14.7548
  0
VERTEX
  8
0
 10
137.1141
 20
14.7577
  0
VERTEX
  8
0
 10
137.1255
 20
14.7672
  0
VERTEX
  8
0
 10
137.136
 20
14.7805
  0
VERTEX
  8
0
 10
137.1417
 20
14.7958
  0
VERTEX
  8
0
 10
137.1446
 20
14.812
  0
VERTEX
  8
0
 10
137.1589
 20
15.4351
  0
VERTEX
  8
0
 10
137.1589
 20
15.4551
  0
VERTEX
  8
0
 10
137.157
 20
15.4732
  0
VERTEX
  8
0
 10
137.1551
 20
15.4942
  0
VERTEX
  8
0
 10
137.1522
 20
15.5094
  0
VERTEX
  8
0
 10
137.1503
 20
15.5161
  0
VERTEX
  8
0
 10
137.1436
 20
15.5237
  0
VERTEX
  8
0
 10
137.1303
 20
15.5333
  0
VERTEX
  8
0
 10
137.1208
 20
15.5371
  0
VERTEX
  8
0
 10
137.1122
 20
15.5399
  0
VERTEX
  8
0
 10
137.0884
 20
15.5476
  0
VERTEX
  8
0
 10
137.0808
 20
15.5504
  0
VERTEX
  8
0
 10
137.0779
 20
15.5514
  0
VERTEX
  8
0
 10
137.076
 20
15.5533
  0
VERTEX
  8
0
 10
137.075
 20
15.5571
  0
VERTEX
  8
0
 10
137.0741
 20
15.5618
  0
VERTEX
  8
0
 10
137.075
 20
15.5666
  0
VERTEX
  8
0
 10
137.076
 20
15.5723
  0
VERTEX
  8
0
 10
137.3561
 20
15.5752
  0
VERTEX
  8
0
 10
137.3609
 20
15.5752
  0
VERTEX
  8
0
 10
137.4295
 20
15.5704
  0
VERTEX
  8
0
 10
137.4886
 20
15.558
  0
VERTEX
  8
0
 10
137.5219
 20
15.5476
  0
VERTEX
  8
0
 10
137.5581
 20
15.5295
  0
VERTEX
  8
0
 10
137.5848
 20
15.5123
  0
VERTEX
  8
0
 10
137.6086
 20
15.4923
  0
VERTEX
  8
0
 10
137.6325
 20
15.4675
  0
VERTEX
  8
0
 10
137.6487
 20
15.4447
  0
VERTEX
  8
0
 10
137.6591
 20
15.4218
  0
VERTEX
  8
0
 10
137.6668
 20
15.3989
  0
VERTEX
  8
0
 10
137.6715
 20
15.3703
  0
VERTEX
  8
0
 10
137.6744
 20
15.3437
  0
VERTEX
  8
0
 10
137.6715
 20
15.3132
  0
VERTEX
  8
0
 10
137.6658
 20
15.2846
  0
VERTEX
  8
0
 10
137.6572
 20
15.2598
  0
VERTEX
  8
0
 10
137.6458
 20
15.2341
  0
VERTEX
  8
0
 10
137.6267
 20
15.2074
  0
VERTEX
  8
0
 10
137.5972
 20
15.176
  0
VERTEX
  8
0
 10
137.5705
 20
15.1531
  0
VERTEX
  8
0
 10
137.54
 20
15.1331
  0
VERTEX
  8
0
 10
137.5038
 20
15.1159
  0
VERTEX
  8
0
 10
137.4714
 20
15.1064
  0
VERTEX
  8
0
 10
137.4486
 20
15.1035
  0
VERTEX
  8
0
 10
137.4085
 20
15.1026
  0
VERTEX
  8
0
 10
137.3742
 20
15.1026
  0
VERTEX
  8
0
 10
137.358
 20
15.1026
  0
VERTEX
  8
0
 10
137.3447
 20
15.1035
  0
VERTEX
  8
0
 10
137.3295
 20
15.1064
  0
VERTEX
  8
0
 10
137.318
 20
15.1102
  0
VERTEX
  8
0
 10
137.3152
 20
15.1121
  0
VERTEX
  8
0
 10
137.3066
 20
15.1159
  0
VERTEX
  8
0
 10
137.2904
 20
15.1255
  0
VERTEX
  8
0
 10
137.2904
 20
15.1321
  0
VERTEX
  8
0
 10
137.2913
 20
15.1369
  0
VERTEX
  8
0
 10
137.2923
 20
15.1378
  0
VERTEX
  8
0
 10
137.2942
 20
15.1388
  0
VERTEX
  8
0
 10
137.3018
 20
15.1388
  0
VERTEX
  8
0
 10
137.3247
 20
15.1407
  0
VERTEX
  8
0
 10
137.3275
 20
15.1407
  0
VERTEX
  8
0
 10
137.3485
 20
15.1369
  0
VERTEX
  8
0
 10
137.3618
 20
15.134
  0
VERTEX
  8
0
 10
137.3771
 20
15.1331
  0
VERTEX
  8
0
 10
137.4114
 20
15.134
  0
VERTEX
  8
0
 10
137.4467
 20
15.1407
  0
VERTEX
  8
0
 10
137.48
 20
15.1512
  0
VERTEX
  8
0
 10
137.5095
 20
15.1645
  0
VERTEX
  8
0
 10
137.5353
 20
15.1845
  0
VERTEX
  8
0
 10
137.5553
 20
15.2083
  0
VERTEX
  8
0
 10
137.5658
 20
15.2303
  0
VERTEX
  8
0
 10
137.5734
 20
15.2531
  0
VERTEX
  8
0
 10
137.5791
 20
15.2817
  0
VERTEX
  8
0
 10
137.581
 20
15.3084
  0
VERTEX
  8
0
 10
137.5791
 20
15.3389
  0
VERTEX
  8
0
 10
137.5743
 20
15.3675
  0
VERTEX
  8
0
 10
137.5648
 20
15.3999
  0
VERTEX
  8
0
 10
137.5534
 20
15.4237
  0
VERTEX
  8
0
 10
137.54
 20
15.4427
  0
VERTEX
  8
0
 10
137.5248
 20
15.4599
  0
VERTEX
  8
0
 10
137.5076
 20
15.4751
  0
VERTEX
  8
0
 10
137.4876
 20
15.4885
  0
VERTEX
  8
0
 10
137.4505
 20
15.5066
  0
VERTEX
  8
0
 10
137.4085
 20
15.5199
  0
VERTEX
  8
0
 10
137.3638
 20
15.5285
  0
VERTEX
  8
0
 10
137.3199
 20
15.5314
  0
VERTEX
  8
0
 10
137.3047
 20
15.5304
  0
VERTEX
  8
0
 10
137.2952
 20
15.5285
  0
VERTEX
  8
0
 10
137.2904
 20
15.5266
  0
VERTEX
  8
0
 10
137.2847
 20
15.5237
  0
VERTEX
  8
0
 10
137.277
 20
15.519
  0
VERTEX
  8
0
 10
137.2666
 20
15.5123
  0
VERTEX
  8
0
 10
137.2675
 20
15.5037
  0
VERTEX
  8
0
 10
137.2675
 20
15.5028
  0
VERTEX
  8
0
 10
137.2628
 20
15.457
  0
VERTEX
  8
0
 10
137.2504
 20
14.8796
  0
VERTEX
  8
0
 10
137.2504
 20
14.873
  0
VERTEX
  8
0
 10
137.2523
 20
14.8406
  0
VERTEX
  8
0
 10
137.257
 20
14.8072
  0
VERTEX
  8
0
 10
137.2704
 20
14.77
  0
VERTEX
  8
0
 10
137.2761
 20
14.7624
  0
VERTEX
  8
0
 10
137.2818
 20
14.7577
  0
VERTEX
  8
0
 10
137.2961
 20
14.7519
  0
VERTEX
  8
0
 10
137.3285
 20
14.7424
  0
VERTEX
  8
0
 10
137.3295
 20
14.7424
  0
VERTEX
  8
0
 10
137.3428
 20
14.7376
  0
VERTEX
  8
0
 10
137.3676
 20
14.7281
  0
VERTEX
  8
0
 10
137.3657
 20
14.7062
  0
VERTEX
  8
0
 10
137.0693
 20
14.7157
  0
VERTEX
  8
0
 10
137.0608
 20
14.7234
  0
SEQEND
  0
POLYLINE
  8
0
 66
     1
 10
0
 20
0
  0
VERTEX
  8
0
 10
136.4719
 20
15.579
  0
VERTEX
  8
0
 10
136.4814
 20
15.5885
  0
VERTEX
  8
0
 10
136.4938
 20
15.5904
  0
VERTEX
  8
0
 10
136.4957
 20
15.5904
  0
VERTEX
  8
0
 10
136.5958
 20
15.5819
  0
VERTEX
  8
0
 10
136.8797
 20
15.5752
  0
VERTEX
  8
0
 10
137.0284
 20
15.5771
  0
VERTEX
  8
0
 10
137.035
 20
15.5666
  0
VERTEX
  8
0
 10
137.0379
 20
15.5618
  0
VERTEX
  8
0
 10
137.0398
 20
15.5552
  0
VERTEX
  8
0
 10
137.0398
 20
15.5495
  0
VERTEX
  8
0
 10
137.036
 20
15.5171
  0
VERTEX
  8
0
 10
137.0331
 20
15.4913
  0
VERTEX
  8
0
 10
137.0284
 20
15.457
  0
VERTEX
  8
0
 10
137.0284
 20
15.4532
  0
VERTEX
  8
0
 10
137.0274
 20
15.4323
  0
VERTEX
  8
0
 10
137.0236
 20
15.4237
  0
VERTEX
  8
0
 10
137.0217
 20
15.4218
  0
VERTEX
  8
0
 10
137.0188
 20
15.4199
  0
VERTEX
  8
0
 10
137.016
 20
15.4189
  0
VERTEX
  8
0
 10
137.0141
 20
15.418
  0
VERTEX
  8
0
 10
137.0103
 20
15.418
  0
VERTEX
  8
0
 10
137.0093
 20
15.4189
  0
VERTEX
  8
0
 10
137.0064
 20
15.4199
  0
VERTEX
  8
0
 10
137.0026
 20
15.4265
  0
VERTEX
  8
0
 10
136.9988
 20
15.4351
  0
VERTEX
  8
0
 10
136.9969
 20
15.4399
  0
VERTEX
  8
0
 10
136.995
 20
15.4485
  0
VERTEX
  8
0
 10
136.9931
 20
15.4656
  0
VERTEX
  8
0
 10
136.9902
 20
15.4847
  0
VERTEX
  8
0
 10
136.9845
 20
15.4999
  0
VERTEX
  8
0
 10
136.9817
 20
15.5047
  0
VERTEX
  8
0
 10
136.9788
 20
15.5066
  0
VERTEX
  8
0
 10
136.9502
 20
15.5171
  0
VERTEX
  8
0
 10
136.934
 20
15.5237
  0
VERTEX
  8
0
 10
136.8988
 20
15.5266
  0
VERTEX
  8
0
 10
136.8464
 20
15.5342
  0
VERTEX
  8
0
 10
136.7282
 20
15.5342
  0
VERTEX
  8
0
 10
136.6987
 20
15.5314
  0
VERTEX
  8
0
 10
136.6796
 20
15.5247
  0
VERTEX
  8
0
 10
136.6749
 20
15.5199
  0
VERTEX
  8
0
 10
136.6701
 20
15.5152
  0
VERTEX
  8
0
 10
136.6644
 20
15.4999
  0
VERTEX
  8
0
 10
136.6625
 20
15.479
  0
VERTEX
  8
0
 10
136.6625
 20
15.2789
  0
VERTEX
  8
0
 10
136.6577
 20
15.2274
  0
VERTEX
  8
0
 10
136.6587
 20
15.2169
  0
VERTEX
  8
0
 10
136.6606
 20
15.2093
  0
VERTEX
  8
0
 10
136.6634
 20
15.2045
  0
VERTEX
  8
0
 10
136.6691
 20
15.1931
  0
VERTEX
  8
0
 10
136.7063
 20
15.1883
  0
VERTEX
  8
0
 10
136.8626
 20
15.1883
  0
VERTEX
  8
0
 10
136.8902
 20
15.1912
  0
VERTEX
  8
0
 10
136.9102
 20
15.2007
  0
VERTEX
  8
0
 10
136.9245
 20
15.2112
  0
VERTEX
  8
0
 10
136.9359
 20
15.2265
  0
VERTEX
  8
0
 10
136.935
 20
15.2265
  0
VERTEX
  8
0
 10
136.9436
 20
15.2426
  0
VERTEX
  8
0
 10
136.954
 20
15.2655
  0
VERTEX
  8
0
 10
136.954
 20
15.2665
  0
VERTEX
  8
0
 10
136.9636
 20
15.2712
  0
VERTEX
  8
0
 10
136.9712
 20
15.2627
  0
VERTEX
  8
0
 10
136.9693
 20
15.2055
  0
VERTEX
  8
0
 10
136.9683
 20
15.0397
  0
VERTEX
  8
0
 10
136.9569
 20
15.0292
  0
VERTEX
  8
0
 10
136.9493
 20
15.0378
  0
VERTEX
  8
0
 10
136.9455
 20
15.0435
  0
VERTEX
  8
0
 10
136.9436
 20
15.0464
  0
VERTEX
  8
0
 10
136.9416
 20
15.0502
  0
VERTEX
  8
0
 10
136.935
 20
15.073
  0
VERTEX
  8
0
 10
136.9293
 20
15.0911
  0
VERTEX
  8
0
 10
136.9226
 20
15.1045
  0
VERTEX
  8
0
 10
136.915
 20
15.114
  0
VERTEX
  8
0
 10
136.9093
 20
15.1188
  0
VERTEX
  8
0
 10
136.8902
 20
15.1255
  0
VERTEX
  8
0
 10
136.8521
 20
15.1321
  0
VERTEX
  8
0
 10
136.793
 20
15.1388
  0
VERTEX
  8
0
 10
136.7196
 20
15.1359
  0
VERTEX
  8
0
 10
136.6968
 20
15.1369
  0
VERTEX
  8
0
 10
136.6806
 20
15.134
  0
VERTEX
  8
0
 10
136.6672
 20
15.1283
  0
VERTEX
  8
0
 10
136.6644
 20
15.1264
  0
VERTEX
  8
0
 10
136.6587
 20
15.1226
  0
VERTEX
  8
0
 10
136.6558
 20
14.8101
  0
VERTEX
  8
0
 10
136.6568
 20
14.8024
  0
VERTEX
  8
0
 10
136.6587
 20
14.7967
  0
VERTEX
  8
0
 10
136.6644
 20
14.7891
  0
VERTEX
  8
0
 10
136.672
 20
14.7834
  0
VERTEX
  8
0
 10
136.7034
 20
14.771
  0
VERTEX
  8
0
 10
136.7425
 20
14.7662
  0
VERTEX
  8
0
 10
136.814
 20
14.7681
  0
VERTEX
  8
0
 10
136.8911
 20
14.7796
  0
VERTEX
  8
0
 10
136.9216
 20
14.7853
  0
VERTEX
  8
0
 10
136.9493
 20
14.792
  0
VERTEX
  8
0
 10
136.9798
 20
14.8024
  0
VERTEX
  8
0
 10
137.0045
 20
14.8148
  0
VERTEX
  8
0
 10
137.0274
 20
14.8301
  0
VERTEX
  8
0
 10
137.0484
 20
14.851
  0
VERTEX
  8
0
 10
137.0608
 20
14.8653
  0
VERTEX
  8
0
 10
137.0627
 20
14.8672
  0
VERTEX
  8
0
 10
137.0674
 20
14.872
  0
VERTEX
  8
0
 10
137.0808
 20
14.8806
  0
VERTEX
  8
0
 10
137.0903
 20
14.8701
  0
VERTEX
  8
0
 10
137.0884
 20
14.851
  0
VERTEX
  8
0
 10
137.0884
 20
14.852
  0
VERTEX
  8
0
 10
137.0865
 20
14.8406
  0
VERTEX
  8
0
 10
137.0817
 20
14.8263
  0
VERTEX
  8
0
 10
137.076
 20
14.8129
  0
VERTEX
  8
0
 10
137.0569
 20
14.7862
  0
VERTEX
  8
0
 10
137.035
 20
14.7605
  0
VERTEX
  8
0
 10
137.0093
 20
14.7376
  0
VERTEX
  8
0
 10
136.9893
 20
14.7243
  0
VERTEX
  8
0
 10
136.9731
 20
14.7186
  0
VERTEX
  8
0
 10
136.9521
 20
14.7157
  0
VERTEX
  8
0
 10
136.9502
 20
14.7157
  0
VERTEX
  8
0
 10
136.7901
 20
14.7186
  0
VERTEX
  8
0
 10
136.6882
 20
14.7272
  0
VERTEX
  8
0
 10
136.4833
 20
14.7262
  0
VERTEX
  8
0
 10
136.4748
 20
14.7348
  0
VERTEX
  8
0
 10
136.4786
 20
14.7405
  0
VERTEX
  8
0
 10
136.4795
 20
14.7424
  0
VERTEX
  8
0
 10
136.4833
 20
14.7453
  0
VERTEX
  8
0
 10
136.4919
 20
14.7519
  0
VERTEX
  8
0
 10
136.5052
 20
14.7605
  0
VERTEX
  8
0
 10
136.5214
 20
14.7729
  0
VERTEX
  8
0
 10
136.5281
 20
14.7767
  0
VERTEX
  8
0
 10
136.5348
 20
14.7853
  0
VERTEX
  8
0
 10
136.5415
 20
14.7967
  0
VERTEX
  8
0
 10
136.5548
 20
14.8215
  0
VERTEX
  8
0
 10
136.5558
 20
14.8234
  0
VERTEX
  8
0
 10
136.5519
 20
14.8768
  0
VERTEX
  8
0
 10
136.5567
 20
15.2989
  0
VERTEX
  8
0
 10
136.5615
 20
15.479
  0
VERTEX
  8
0
 10
136.5615
 20
15.4952
  0
VERTEX
  8
0
 10
136.5596
 20
15.5161
  0
VERTEX
  8
0
 10
136.5548
 20
15.5285
  0
VERTEX
  8
0
 10
136.5491
 20
15.5361
  0
VERTEX
  8
0
 10
136.5405
 20
15.5418
  0
VERTEX
  8
0
 10
136.511
 20
15.5552
  0
VERTEX
  8
0
 10
136.4719
 20
15.5666
  0
VERTEX
  8
0
 10
136.4719
 20
15.579
  0
SEQEND
  0
POLYLINE
  8
0
 66
     1
 10
0
 20
0
  0
VERTEX
  8
0
 10
135.8735
 20
15.5904
  0
VERTEX
  8
0
 10
135.883
 20
15.5981
  0
VERTEX
  8
0
 10
136.1441
 20
15.5847
  0
VERTEX
  8
0
 10
136.4366
 20
15.5885
  0
VERTEX
  8
0
 10
136.449
 20
15.5761
  0
VERTEX
  8
0
 10
136.4471
 20
15.5409
  0
VERTEX
  8
0
 10
136.4462
 20
15.5409
  0
VERTEX
  8
0
 10
136.4443
 20
15.5237
  0
VERTEX
  8
0
 10
136.4386
 20
15.4799
  0
VERTEX
  8
0
 10
136.4386
 20
15.4723
  0
VERTEX
  8
0
 10
136.4366
 20
15.4532
  0
VERTEX
  8
0
 10
136.4357
 20
15.4485
  0
VERTEX
  8
0
 10
136.43
 20
15.4361
  0
VERTEX
  8
0
 10
136.4271
 20
15.4294
  0
VERTEX
  8
0
 10
136.4252
 20
15.4294
  0
VERTEX
  8
0
 10
136.4195
 20
15.4294
  0
VERTEX
  8
0
 10
136.41
 20
15.4399
  0
VERTEX
  8
0
 10
136.41
 20
15.4466
  0
VERTEX
  8
0
 10
136.41
 20
15.4599
  0
VERTEX
  8
0
 10
136.409
 20
15.4685
  0
VERTEX
  8
0
 10
136.4062
 20
15.4809
  0
VERTEX
  8
0
 10
136.3985
 20
15.4942
  0
VERTEX
  8
0
 10
136.3852
 20
15.5133
  0
VERTEX
  8
0
 10
136.3738
 20
15.5228
  0
VERTEX
  8
0
 10
136.3537
 20
15.5323
  0
VERTEX
  8
0
 10
136.3309
 20
15.538
  0
VERTEX
  8
0
 10
136.2928
 20
15.5437
  0
VERTEX
  8
0
 10
136.2527
 20
15.5457
  0
VERTEX
  8
0
 10
136.228
 20
15.5457
  0
VERTEX
  8
0
 10
136.1079
 20
15.5447
  0
VERTEX
  8
0
 10
136.0917
 20
15.5428
  0
VERTEX
  8
0
 10
136.0784
 20
15.5371
  0
VERTEX
  8
0
 10
136.0698
 20
15.5314
  0
VERTEX
  8
0
 10
136.0679
 20
15.5285
  0
VERTEX
  8
0
 10
136.0622
 20
15.5094
  0
VERTEX
  8
0
 10
136.0574
 20
15.4227
  0
VERTEX
  8
0
 10
136.0574
 20
15.2893
  0
VERTEX
  8
0
 10
136.0574
 20
15.2503
  0
VERTEX
  8
0
 10
136.0555
 20
15.2303
  0
VERTEX
  8
0
 10
136.0546
 20
15.2274
  0
VERTEX
  8
0
 10
136.0555
 20
15.2217
  0
VERTEX
  8
0
 10
136.0574
 20
15.2169
  0
VERTEX
  8
0
 10
136.0622
 20
15.2122
  0
VERTEX
  8
0
 10
136.0669
 20
15.2083
  0
VERTEX
  8
0
 10
136.0812
 20
15.2026
  0
VERTEX
  8
0
 10
136.1012
 20
15.2007
  0
VERTEX
  8
0
 10
136.2499
 20
15.2007
  0
VERTEX
  8
0
 10
136.2956
 20
15.2055
  0
VERTEX
  8
0
 10
136.3223
 20
15.216
  0
VERTEX
  8
0
 10
136.3299
 20
15.2217
  0
VERTEX
  8
0
 10
136.3404
 20
15.235
  0
VERTEX
  8
0
 10
136.3461
 20
15.2426
  0
VERTEX
  8
0
 10
136.349
 20
15.2512
  0
VERTEX
  8
0
 10
136.3547
 20
15.2655
  0
VERTEX
  8
0
 10
136.3585
 20
15.2703
  0
VERTEX
  8
0
 10
136.3661
 20
15.2808
  0
VERTEX
  8
0
 10
136.3776
 20
15.2703
  0
VERTEX
  8
0
 10
136.3738
 20
15.0902
  0
VERTEX
  8
0
 10
136.3738
 20
15.054
  0
VERTEX
  8
0
 10
136.3614
 20
15.0416
  0
VERTEX
  8
0
 10
136.3528
 20
15.0473
  0
VERTEX
  8
0
 10
136.3433
 20
15.0835
  0
VERTEX
  8
0
 10
136.3328
 20
15.1054
  0
VERTEX
  8
0
 10
136.3223
 20
15.1188
  0
VERTEX
  8
0
 10
136.309
 20
15.1283
  0
VERTEX
  8
0
 10
136.2832
 20
15.1407
  0
VERTEX
  8
0
 10
136.2518
 20
15.1445
  0
VERTEX
  8
0
 10
136.2518
 20
15.1455
  0
VERTEX
  8
0
 10
136.1146
 20
15.1493
  0
VERTEX
  8
0
 10
136.106
 20
15.1493
  0
VERTEX
  8
0
 10
136.0765
 20
15.1464
  0
VERTEX
  8
0
 10
136.0612
 20
15.1416
  0
VERTEX
  8
0
 10
136.0584
 20
15.1397
  0
VERTEX
  8
0
 10
136.0555
 20
15.1359
  0
VERTEX
  8
0
 10
136.0546
 20
15.1321
  0
VERTEX
  8
0
 10
136.0536
 20
15.1283
  0
VERTEX
  8
0
 10
136.0517
 20
14.8234
  0
VERTEX
  8
0
 10
136.0517
 20
14.8158
  0
VERTEX
  8
0
 10
136.0546
 20
14.8101
  0
VERTEX
  8
0
 10
136.0612
 20
14.8005
  0
VERTEX
  8
0
 10
136.0689
 20
14.7948
  0
VERTEX
  8
0
 10
136.1012
 20
14.7824
  0
VERTEX
  8
0
 10
136.1403
 20
14.7786
  0
VERTEX
  8
0
 10
136.1394
 20
14.7786
  0
VERTEX
  8
0
 10
136.1803
 20
14.7796
  0
VERTEX
  8
0
 10
136.2289
 20
14.7834
  0
VERTEX
  8
0
 10
136.2785
 20
14.7891
  0
VERTEX
  8
0
 10
136.2794
 20
14.7891
  0
VERTEX
  8
0
 10
136.3214
 20
14.7967
  0
VERTEX
  8
0
 10
136.3452
 20
14.8015
  0
VERTEX
  8
0
 10
136.369
 20
14.8101
  0
VERTEX
  8
0
 10
136.3909
 20
14.8196
  0
VERTEX
  8
0
 10
136.4138
 20
14.831
  0
VERTEX
  8
0
 10
136.4443
 20
14.852
  0
VERTEX
  8
0
 10
136.4624
 20
14.8682
  0
VERTEX
  8
0
 10
136.4738
 20
14.8787
  0
VERTEX
  8
0
 10
136.4757
 20
14.8806
  0
VERTEX
  8
0
 10
136.4805
 20
14.8844
  0
VERTEX
  8
0
 10
136.491
 20
14.8901
  0
VERTEX
  8
0
 10
136.4995
 20
14.8806
  0
VERTEX
  8
0
 10
136.4986
 20
14.8653
  0
VERTEX
  8
0
 10
136.4967
 20
14.8577
  0
VERTEX
  8
0
 10
136.4929
 20
14.8463
  0
VERTEX
  8
0
 10
136.4881
 20
14.8348
  0
VERTEX
  8
0
 10
136.4719
 20
14.8091
  0
VERTEX
  8
0
 10
136.4509
 20
14.7834
  0
VERTEX
  8
0
 10
136.4204
 20
14.751
  0
VERTEX
  8
0
 10
136.4033
 20
14.7376
  0
VERTEX
  8
0
 10
136.3842
 20
14.731
  0
VERTEX
  8
0
 10
136.3833
 20
14.731
  0
VERTEX
  8
0
 10
136.348
 20
14.7262
  0
VERTEX
  8
0
 10
136.3414
 20
14.7262
  0
VERTEX
  8
0
 10
136.0222
 20
14.7415
  0
VERTEX
  8
0
 10
135.9993
 20
14.7415
  0
VERTEX
  8
0
 10
135.9402
 20
14.7396
  0
VERTEX
  8
0
 10
135.9145
 20
14.7386
  0
VERTEX
  8
0
 10
135.9135
 20
14.7386
  0
VERTEX
  8
0
 10
135.9012
 20
14.7386
  0
VERTEX
  8
0
 10
135.8926
 20
14.7386
  0
VERTEX
  8
0
 10
135.8878
 20
14.7396
  0
VERTEX
  8
0
 10
135.884
 20
14.7405
  0
VERTEX
  8
0
 10
135.883
 20
14.7415
  0
VERTEX
  8
0
 10
135.883
 20
14.7424
  0
VERTEX
  8
0
 10
135.8821
 20
14.7443
  0
VERTEX
  8
0
 10
135.8811
 20
14.7472
  0
VERTEX
  8
0
 10
135.8821
 20
14.7491
  0
VERTEX
  8
0
 10
135.883
 20
14.7519
  0
VERTEX
  8
0
 10
135.885
 20
14.7577
  0
VERTEX
  8
0
 10
135.8888
 20
14.7634
  0
VERTEX
  8
0
 10
135.8935
 20
14.7672
  0
VERTEX
  8
0
 10
135.8983
 20
14.77
  0
VERTEX
  8
0
 10
135.9107
 20
14.7758
  0
VERTEX
  8
0
 10
135.9164
 20
14.7786
  0
VERTEX
  8
0
 10
135.9231
 20
14.7815
  0
VERTEX
  8
0
 10
135.9326
 20
14.7881
  0
VERTEX
  8
0
 10
135.9374
 20
14.7939
  0
VERTEX
  8
0
 10
135.9402
 20
14.8015
  0
VERTEX
  8
0
 10
135.9412
 20
14.8129
  0
VERTEX
  8
0
 10
135.9564
 20
15.4713
  0
VERTEX
  8
0
 10
135.9602
 20
15.5123
  0
VERTEX
  8
0
 10
135.9602
 20
15.5209
  0
VERTEX
  8
0
 10
135.9602
 20
15.5323
  0
VERTEX
  8
0
 10
135.9421
 20
15.5495
  0
VERTEX
  8
0
 10
135.9316
 20
15.5561
  0
VERTEX
  8
0
 10
135.9231
 20
15.5618
  0
VERTEX
  8
0
 10
135.8973
 20
15.5695
  0
VERTEX
  8
0
 10
135.8735
 20
15.5771
  0
VERTEX
  8
0
 10
135.8735
 20
15.5904
  0
SEQEND
  0
POLYLINE
  8
0
 66
     1
 10
0
 20
0
  0
VERTEX
  8
0
 10
135.3266
 20
15.6095
  0
VERTEX
  8
0
 10
135.3352
 20
15.6
  0
VERTEX
  8
0
 10
135.3285
 20
15.5904
  0
VERTEX
  8
0
 10
135.3247
 20
15.5857
  0
VERTEX
  8
0
 10
135.3199
 20
15.5828
  0
VERTEX
  8
0
 10
135.3085
 20
15.5761
  0
VERTEX
  8
0
 10
135.3009
 20
15.5704
  0
VERTEX
  8
0
 10
135.2951
 20
15.5666
  0
VERTEX
  8
0
 10
135.2894
 20
15.5609
  0
VERTEX
  8
0
 10
135.2866
 20
15.5561
  0
VERTEX
  8
0
 10
135.278
 20
15.538
  0
VERTEX
  8
0
 10
135.2732
 20
15.519
  0
VERTEX
  8
0
 10
135.2685
 20
15.4847
  0
VERTEX
  8
0
 10
135.2666
 20
15.4513
  0
VERTEX
  8
0
 10
135.2666
 20
15.2379
  0
VERTEX
  8
0
 10
135.2799
 20
15.235
  0
VERTEX
  8
0
 10
135.4667
 20
15.3732
  0
VERTEX
  8
0
 10
135.5105
 20
15.4075
  0
VERTEX
  8
0
 10
135.5295
 20
15.4237
  0
VERTEX
  8
0
 10
135.5295
 20
15.4246
  0
VERTEX
  8
0
 10
135.5867
 20
15.477
  0
VERTEX
  8
0
 10
135.6105
 20
15.5018
  0
VERTEX
  8
0
 10
135.621
 20
15.5142
  0
VERTEX
  8
0
 10
135.6248
 20
15.5228
  0
VERTEX
  8
0
 10
135.6258
 20
15.5352
  0
VERTEX
  8
0
 10
135.6248
 20
15.5447
  0
VERTEX
  8
0
 10
135.621
 20
15.5533
  0
VERTEX
  8
0
 10
135.6143
 20
15.5609
  0
VERTEX
  8
0
 10
135.6086
 20
15.5647
  0
VERTEX
  8
0
 10
135.5839
 20
15.579
  0
VERTEX
  8
0
 10
135.58
 20
15.5819
  0
VERTEX
  8
0
 10
135.5781
 20
15.5847
  0
VERTEX
  8
0
 10
135.5772
 20
15.5876
  0
VERTEX
  8
0
 10
135.5772
 20
15.5885
  0
VERTEX
  8
0
 10
135.5781
 20
15.5942
  0
VERTEX
  8
0
 10
135.581
 20
15.6019
  0
VERTEX
  8
0
 10
135.8287
 20
15.599
  0
VERTEX
  8
0
 10
135.8383
 20
15.5895
  0
VERTEX
  8
0
 10
135.8383
 20
15.5838
  0
VERTEX
  8
0
 10
135.8373
 20
15.5819
  0
VERTEX
  8
0
 10
135.8297
 20
15.5771
  0
VERTEX
  8
0
 10
135.8173
 20
15.5704
  0
VERTEX
  8
0
 10
135.8116
 20
15.5685
  0
VERTEX
  8
0
 10
135.7897
 20
15.5609
  0
VERTEX
  8
0
 10
135.7658
 20
15.5514
  0
VERTEX
  8
0
 10
135.7554
 20
15.5466
  0
VERTEX
  8
0
 10
135.6944
 20
15.5066
  0
VERTEX
  8
0
 10
135.6201
 20
15.4475
  0
VERTEX
  8
0
 10
135.5467
 20
15.3875
  0
VERTEX
  8
0
 10
135.3714
 20
15.2369
  0
VERTEX
  8
0
 10
135.3666
 20
15.2331
  0
VERTEX
  8
0
 10
135.3638
 20
15.2293
  0
VERTEX
  8
0
 10
135.3609
 20
15.2226
  0
VERTEX
  8
0
 10
135.3609
 20
15.215
  0
VERTEX
  8
0
 10
135.3628
 20
15.2036
  0
VERTEX
  8
0
 10
135.3704
 20
15.1921
  0
VERTEX
  8
0
 10
135.6334
 20
14.9073
  0
VERTEX
  8
0
 10
135.702
 20
14.8339
  0
VERTEX
  8
0
 10
135.7344
 20
14.8024
  0
VERTEX
  8
0
 10
135.7582
 20
14.7853
  0
VERTEX
  8
0
 10
135.7763
 20
14.7777
  0
VERTEX
  8
0
 10
135.8049
 20
14.77
  0
VERTEX
  8
0
 10
135.8325
 20
14.7634
  0
VERTEX
  8
0
 10
135.844
 20
14.7586
  0
VERTEX
  8
0
 10
135.8459
 20
14.7567
  0
VERTEX
  8
0
 10
135.8535
 20
14.751
  0
VERTEX
  8
0
 10
135.8354
 20
14.7434
  0
VERTEX
  8
0
 10
135.824
 20
14.7396
  0
VERTEX
  8
0
 10
135.8173
 20
14.7386
  0
VERTEX
  8
0
 10
135.8106
 20
14.7386
  0
VERTEX
  8
0
 10
135.803
 20
14.7386
  0
VERTEX
  8
0
 10
135.7925
 20
14.7396
  0
VERTEX
  8
0
 10
135.7458
 20
14.7424
  0
VERTEX
  8
0
 10
135.7239
 20
14.7415
  0
VERTEX
  8
0
 10
135.723
 20
14.7415
  0
VERTEX
  8
0
 10
135.6858
 20
14.7367
  0
VERTEX
  8
0
 10
135.6801
 20
14.7367
  0
VERTEX
  8
0
 10
135.662
 20
14.7453
  0
VERTEX
  8
0
 10
135.6458
 20
14.7605
  0
VERTEX
  8
0
 10
135.6305
 20
14.7796
  0
VERTEX
  8
0
 10
135.6153
 20
14.7967
  0
VERTEX
  8
0
 10
135.6077
 20
14.8053
  0
VERTEX
  8
0
 10
135.2761
 20
15.1464
  0
VERTEX
  8
0
 10
135.2618
 20
15.1331
  0
VERTEX
  8
0
 10
135.258
 20
14.8396
  0
VERTEX
  8
0
 10
135.2589
 20
14.8358
  0
VERTEX
  8
0
 10
135.2608
 20
14.831
  0
VERTEX
  8
0
 10
135.2675
 20
14.8215
  0
VERTEX
  8
0
 10
135.2666
 20
14.8215
  0
VERTEX
  8
0
 10
135.277
 20
14.8091
  0
VERTEX
  8
0
 10
135.2923
 20
14.7939
  0
VERTEX
  8
0
 10
135.298
 20
14.7872
  0
VERTEX
  8
0
 10
135.3028
 20
14.7843
  0
VERTEX
  8
0
 10
135.3104
 20
14.7815
  0
VERTEX
  8
0
 10
135.3342
 20
14.7729
  0
VERTEX
  8
0
 10
135.3523
 20
14.7653
  0
VERTEX
  8
0
 10
135.3552
 20
14.7643
  0
VERTEX
  8
0
 10
135.3571
 20
14.7624
  0
VERTEX
  8
0
 10
135.359
 20
14.7605
  0
VERTEX
  8
0
 10
135.359
 20
14.7586
  0
VERTEX
  8
0
 10
135.359
 20
14.7577
  0
VERTEX
  8
0
 10
135.359
 20
14.7558
  0
VERTEX
  8
0
 10
135.359
 20
14.7548
  0
VERTEX
  8
0
 10
135.3571
 20
14.7529
  0
VERTEX
  8
0
 10
135.3561
 20
14.7519
  0
VERTEX
  8
0
 10
135.3533
 20
14.75
  0
VERTEX
  8
0
 10
135.3514
 20
14.75
  0
VERTEX
  8
0
 10
135.3476
 20
14.7491
  0
VERTEX
  8
0
 10
135.3447
 20
14.7491
  0
VERTEX
  8
0
 10
135.339
 20
14.7491
  0
VERTEX
  8
0
 10
135.3342
 20
14.75
  0
VERTEX
  8
0
 10
135.3094
 20
14.7538
  0
VERTEX
  8
0
 10
135.2942
 20
14.7558
  0
VERTEX
  8
0
 10
135.2837
 20
14.7567
  0
VERTEX
  8
0
 10
135.1894
 20
14.7567
  0
VERTEX
  8
0
 10
135.1151
 20
14.7567
  0
VERTEX
  8
0
 10
135.1141
 20
14.7577
  0
VERTEX
  8
0
 10
135.1113
 20
14.7653
  0
VERTEX
  8
0
 10
135.1113
 20
14.7805
  0
VERTEX
  8
0
 10
135.1284
 20
14.792
  0
VERTEX
  8
0
 10
135.1427
 20
14.8024
  0
VERTEX
  8
0
 10
135.1513
 20
14.8101
  0
VERTEX
  8
0
 10
135.1579
 20
14.8196
  0
VERTEX
  8
0
 10
135.1627
 20
14.831
  0
VERTEX
  8
0
 10
135.1646
 20
14.8425
  0
VERTEX
  8
0
 10
135.1665
 20
15.3055
  0
VERTEX
  8
0
 10
135.176
 20
15.5142
  0
VERTEX
  8
0
 10
135.1741
 20
15.5333
  0
VERTEX
  8
0
 10
135.1665
 20
15.5514
  0
VERTEX
  8
0
 10
135.1608
 20
15.5609
  0
VERTEX
  8
0
 10
135.1589
 20
15.5628
  0
VERTEX
  8
0
 10
135.1046
 20
15.5885
  0
VERTEX
  8
0
 10
135.0989
 20
15.5933
  0
VERTEX
  8
0
 10
135.0979
 20
15.6028
  0
VERTEX
  8
0
 10
135.0989
 20
15.6038
  0
VERTEX
  8
0
 10
135.1027
 20
15.6076
  0
VERTEX
  8
0
 10
135.1074
 20
15.6095
  0
VERTEX
  8
0
 10
135.1113
 20
15.6095
  0
VERTEX
  8
0
 10
135.3266
 20
15.6095
  0
SEQEND
  0
POLYLINE
  8
0
 66
     1
 10
0
 20
0
  0
VERTEX
  8
0
 10
141.7106
 20
14.7195
  0
VERTEX
  8
0
 10
141.7277
 20
14.7072
  0
VERTEX
  8
0
 10
141.7354
 20
14.7014
  0
VERTEX
  8
0
 10
141.7611
 20
14.69
  0
VERTEX
  8
0
 10
141.7963
 20
14.6805
  0
VERTEX
  8
0
 10
141.8306
 20
14.6757
  0
VERTEX
  8
0
 10
141.8669
 20
14.6738
  0
VERTEX
  8
0
 10
141.9135
 20
14.6767
  0
VERTEX
  8
0
 10
141.9593
 20
14.6852
  0
VERTEX
  8
0
 10
141.9955
 20
14.6967
  0
VERTEX
  8
0
 10
142.0298
 20
14.7138
  0
VERTEX
  8
0
 10
142.0612
 20
14.7348
  0
VERTEX
  8
0
 10
142.0993
 20
14.7681
  0
VERTEX
  8
0
 10
142.1308
 20
14.8043
  0
VERTEX
  8
0
 10
142.1518
 20
14.8348
  0
VERTEX
  8
0
 10
142.1718
 20
14.8787
  0
VERTEX
  8
0
 10
142.188
 20
14.9425
  0
VERTEX
  8
0
 10
142.187
 20
14.9425
  0
VERTEX
  8
0
 10
142.1946
 20
14.9987
  0
VERTEX
  8
0
 10
142.1975
 20
15.0559
  0
VERTEX
  8
0
 10
142.1975
 20
15.0568
  0
VERTEX
  8
0
 10
142.1937
 20
15.1226
  0
VERTEX
  8
0
 10
142.1822
 20
15.1864
  0
VERTEX
  8
0
 10
142.1679
 20
15.235
  0
VERTEX
  8
0
 10
142.146
 20
15.2798
  0
VERTEX
  8
0
 10
142.1146
 20
15.3265
  0
VERTEX
  8
0
 10
142.0993
 20
15.3475
  0
VERTEX
  8
0
 10
142.0851
 20
15.3656
  0
VERTEX
  8
0
 10
142.066
 20
15.3884
  0
VERTEX
  8
0
 10
142.045
 20
15.4084
  0
VERTEX
  8
0
 10
142.025
 20
15.4237
  0
VERTEX
  8
0
 10
142.005
 20
15.437
  0
VERTEX
  8
0
 10
141.965
 20
15.4551
  0
VERTEX
  8
0
 10
141.9126
 20
15.4713
  0
VERTEX
  8
0
 10
141.8583
 20
15.4809
  0
VERTEX
  8
0
 10
141.8106
 20
15.4847
  0
VERTEX
  8
0
 10
141.7716
 20
15.4818
  0
VERTEX
  8
0
 10
141.7344
 20
15.4742
  0
VERTEX
  8
0
 10
141.6953
 20
15.4618
  0
VERTEX
  8
0
 10
141.6582
 20
15.4437
  0
VERTEX
  8
0
 10
141.6248
 20
15.4208
  0
VERTEX
  8
0
 10
141.5943
 20
15.3942
  0
VERTEX
  8
0
 10
141.5686
 20
15.3637
  0
VERTEX
  8
0
 10
141.5467
 20
15.3313
  0
VERTEX
  8
0
 10
141.5238
 20
15.2855
  0
VERTEX
  8
0
 10
141.5067
 20
15.2274
  0
VERTEX
  8
0
 10
141.4972
 20
15.1693
  0
VERTEX
  8
0
 10
141.4952
 20
15.1245
  0
VERTEX
  8
0
 10
141.4991
 20
15.0721
  0
VERTEX
  8
0
 10
141.4991
 20
15.073
  0
VERTEX
  8
0
 10
141.5134
 20
14.9882
  0
VERTEX
  8
0
 10
141.5124
 20
14.9892
  0
VERTEX
  8
0
 10
141.582
 20
14.831
  0
VERTEX
  8
0
 10
141.5829
 20
14.8301
  0
VERTEX
  8
0
 10
141.601
 20
14.8034
  0
VERTEX
  8
0
 10
141.6134
 20
14.7881
  0
VERTEX
  8
0
 10
141.6239
 20
14.7777
  0
VERTEX
  8
0
 10
141.6306
 20
14.771
  0
VERTEX
  8
0
 10
141.6372
 20
14.7672
  0
VERTEX
  8
0
 10
141.6487
 20
14.7624
  0
VERTEX
  8
0
 10
141.6572
 20
14.7605
  0
VERTEX
  8
0
 10
141.6677
 20
14.7624
  0
VERTEX
  8
0
 10
141.6801
 20
14.7672
  0
VERTEX
  8
0
 10
141.6896
 20
14.7748
  0
VERTEX
  8
0
 10
141.6944
 20
14.7786
  0
VERTEX
  8
0
 10
141.7201
 20
14.8072
  0
VERTEX
  8
0
 10
141.723
 20
14.8101
  0
VERTEX
  8
0
 10
141.7277
 20
14.8129
  0
VERTEX
  8
0
 10
141.7325
 20
14.8158
  0
VERTEX
  8
0
 10
141.7344
 20
14.8158
  0
VERTEX
  8
0
 10
141.7382
 20
14.8139
  0
VERTEX
  8
0
 10
141.7411
 20
14.8129
  0
VERTEX
  8
0
 10
141.742
 20
14.811
  0
VERTEX
  8
0
 10
141.743
 20
14.8082
  0
VERTEX
  8
0
 10
141.7439
 20
14.8034
  0
VERTEX
  8
0
 10
141.7411
 20
14.7881
  0
VERTEX
  8
0
 10
141.7354
 20
14.77
  0
VERTEX
  8
0
 10
141.7363
 20
14.771
  0
VERTEX
  8
0
 10
141.7306
 20
14.7586
  0
VERTEX
  8
0
 10
141.723
 20
14.7453
  0
VERTEX
  8
0
 10
141.7106
 20
14.7195
  0
SEQEND
  0
POLYLINE
  8
0
 66
     1
 10
0
 20
0
  0
VERTEX
  8
0
 10
140.53
 20
15.5256
  0
VERTEX
  8
0
 10
140.5424
 20
15.538
  0
VERTEX
  8
0
 10
140.5538
 20
15.538
  0
VERTEX
  8
0
 10
140.7273
 20
15.5247
  0
VERTEX
  8
0
 10
141.0731
 20
15.5266
  0
VERTEX
  8
0
 10
141.0798
 20
15.5256
  0
VERTEX
  8
0
 10
141.0855
 20
15.5228
  0
VERTEX
  8
0
 10
141.0893
 20
15.5199
  0
VERTEX
  8
0
 10
141.0922
 20
15.5161
  0
VERTEX
  8
0
 10
141.0941
 20
15.5104
  0
VERTEX
  8
0
 10
141.0951
 20
15.5047
  0
VERTEX
  8
0
 10
141.0951
 20
15.4971
  0
VERTEX
  8
0
 10
141.0941
 20
15.4885
  0
VERTEX
  8
0
 10
141.0893
 20
15.4513
  0
VERTEX
  8
0
 10
141.0884
 20
15.4304
  0
VERTEX
  8
0
 10
141.0855
 20
15.3922
  0
VERTEX
  8
0
 10
141.0808
 20
15.3732
  0
VERTEX
  8
0
 10
141.0779
 20
15.3694
  0
VERTEX
  8
0
 10
141.075
 20
15.3656
  0
VERTEX
  8
0
 10
141.0731
 20
15.3637
  0
VERTEX
  8
0
 10
141.0703
 20
15.3627
  0
VERTEX
  8
0
 10
141.0693
 20
15.3627
  0
VERTEX
  8
0
 10
141.0646
 20
15.3608
  0
VERTEX
  8
0
 10
141.055
 20
15.3703
  0
VERTEX
  8
0
 10
141.0493
 20
15.417
  0
VERTEX
  8
0
 10
141.0398
 20
15.4447
  0
VERTEX
  8
0
 10
141.0341
 20
15.4513
  0
VERTEX
  8
0
 10
141.0293
 20
15.4551
  0
VERTEX
  8
0
 10
141.0017
 20
15.4675
  0
VERTEX
  8
0
 10
140.9731
 20
15.4761
  0
VERTEX
  8
0
 10
140.9369
 20
15.4828
  0
VERTEX
  8
0
 10
140.9016
 20
15.4847
  0
VERTEX
  8
0
 10
140.7644
 20
15.4809
  0
VERTEX
  8
0
 10
140.7358
 20
15.4742
  0
VERTEX
  8
0
 10
140.733
 20
15.4713
  0
VERTEX
  8
0
 10
140.7292
 20
15.4656
  0
VERTEX
  8
0
 10
140.7244
 20
15.4561
  0
VERTEX
  8
0
 10
140.7235
 20
15.4447
  0
VERTEX
  8
0
 10
140.7206
 20
15.1559
  0
VERTEX
  8
0
 10
140.7301
 20
15.1397
  0
VERTEX
  8
0
 10
140.9083
 20
15.1369
  0
VERTEX
  8
0
 10
140.9426
 20
15.1407
  0
VERTEX
  8
0
 10
140.9655
 20
15.1502
  0
VERTEX
  8
0
 10
140.976
 20
15.1578
  0
VERTEX
  8
0
 10
140.9864
 20
15.1683
  0
VERTEX
  8
0
 10
140.9902
 20
15.1721
  0
VERTEX
  8
0
 10
140.9902
 20
15.1731
  0
VERTEX
  8
0
 10
140.9912
 20
15.174
  0
VERTEX
  8
0
 10
140.9931
 20
15.1807
  0
VERTEX
  8
0
 10
140.9979
 20
15.1931
  0
VERTEX
  8
0
 10
141.0026
 20
15.2045
  0
VERTEX
  8
0
 10
141.0055
 20
15.2093
  0
VERTEX
  8
0
 10
141.015
 20
15.2179
  0
VERTEX
  8
0
 10
141.0226
 20
15.2122
  0
VERTEX
  8
0
 10
141.0255
 20
15.2074
  0
VERTEX
  8
0
 10
141.0274
 20
15.2026
  0
VERTEX
  8
0
 10
141.0226
 20
15.1683
  0
VERTEX
  8
0
 10
141.0207
 20
14.9863
  0
VERTEX
  8
0
 10
141.0131
 20
14.9844
  0
VERTEX
  8
0
 10
141.0074
 20
14.9835
  0
VERTEX
  8
0
 10
141.0045
 20
14.9835
  0
VERTEX
  8
0
 10
141.0026
 20
14.9844
  0
VERTEX
  8
0
 10
141.0017
 20
14.9854
  0
VERTEX
  8
0
 10
140.9988
 20
14.9873
  0
VERTEX
  8
0
 10
140.995
 20
14.994
  0
VERTEX
  8
0
 10
140.9941
 20
14.9978
  0
VERTEX
  8
0
 10
140.9845
 20
15.0225
  0
VERTEX
  8
0
 10
140.9836
 20
15.0254
  0
VERTEX
  8
0
 10
140.9798
 20
15.033
  0
VERTEX
  8
0
 10
140.975
 20
15.0406
  0
VERTEX
  8
0
 10
140.9702
 20
15.0473
  0
VERTEX
  8
0
 10
140.9598
 20
15.0578
  0
VERTEX
  8
0
 10
140.9502
 20
15.0654
  0
VERTEX
  8
0
 10
140.9235
 20
15.0769
  0
VERTEX
  8
0
 10
140.8931
 20
15.0826
  0
VERTEX
  8
0
 10
140.8673
 20
15.0845
  0
VERTEX
  8
0
 10
140.8359
 20
15.0845
  0
VERTEX
  8
0
 10
140.7416
 20
15.0845
  0
VERTEX
  8
0
 10
140.7206
 20
15.0759
  0
VERTEX
  8
0
 10
140.7158
 20
14.7853
  0
VERTEX
  8
0
 10
140.7149
 20
14.7643
  0
VERTEX
  8
0
 10
140.7158
 20
14.7538
  0
VERTEX
  8
0
 10
140.7206
 20
14.7443
  0
VERTEX
  8
0
 10
140.7273
 20
14.7348
  0
VERTEX
  8
0
 10
140.7349
 20
14.7262
  0
VERTEX
  8
0
 10
140.7435
 20
14.7186
  0
VERTEX
  8
0
 10
140.7539
 20
14.7129
  0
VERTEX
  8
0
 10
140.7673
 20
14.7053
  0
VERTEX
  8
0
 10
140.7797
 20
14.7005
  0
VERTEX
  8
0
 10
140.7978
 20
14.6948
  0
VERTEX
  8
0
 10
140.8054
 20
14.6919
  0
VERTEX
  8
0
 10
140.8073
 20
14.69
  0
VERTEX
  8
0
 10
140.8092
 20
14.6881
  0
VERTEX
  8
0
 10
140.8111
 20
14.6843
  0
VERTEX
  8
0
 10
140.8111
 20
14.6814
  0
VERTEX
  8
0
 10
140.8111
 20
14.6767
  0
VERTEX
  8
0
 10
140.8083
 20
14.6681
  0
VERTEX
  8
0
 10
140.5396
 20
14.6709
  0
VERTEX
  8
0
 10
140.5262
 20
14.6833
  0
VERTEX
  8
0
 10
140.5338
 20
14.6938
  0
VERTEX
  8
0
 10
140.5386
 20
14.6986
  0
VERTEX
  8
0
 10
140.5405
 20
14.6995
  0
VERTEX
  8
0
 10
140.5481
 20
14.7014
  0
VERTEX
  8
0
 10
140.5472
 20
14.7014
  0
VERTEX
  8
0
 10
140.5615
 20
14.7062
  0
VERTEX
  8
0
 10
140.5739
 20
14.7138
  0
VERTEX
  8
0
 10
140.5901
 20
14.7253
  0
VERTEX
  8
0
 10
140.6015
 20
14.7405
  0
VERTEX
  8
0
 10
140.6063
 20
14.7519
  0
VERTEX
  8
0
 10
140.6082
 20
14.7643
  0
VERTEX
  8
0
 10
140.6158
 20
15.3332
  0
VERTEX
  8
0
 10
140.6167
 20
15.4123
  0
VERTEX
  8
0
 10
140.6158
 20
15.4589
  0
VERTEX
  8
0
 10
140.6091
 20
15.4818
  0
VERTEX
  8
0
 10
140.6043
 20
15.4875
  0
VERTEX
  8
0
 10
140.5967
 20
15.4932
  0
VERTEX
  8
0
 10
140.5901
 20
15.4961
  0
VERTEX
  8
0
 10
140.5796
 20
15.5009
  0
VERTEX
  8
0
 10
140.5548
 20
15.5075
  0
VERTEX
  8
0
 10
140.5462
 20
15.5104
  0
VERTEX
  8
0
 10
140.5424
 20
15.5123
  0
VERTEX
  8
0
 10
140.5376
 20
15.5161
  0
VERTEX
  8
0
 10
140.53
 20
15.5256
  0
SEQEND
  0
POLYLINE
  8
0
 66
     1
 10
0
 20
0
  0
VERTEX
  8
0
 10
144.4586
 20
15.0083
  0
VERTEX
  8
0
 10
144.3528
 20
15.2741
  0
VERTEX
  8
0
 10
144.3452
 20
15.2912
  0
VERTEX
  8
0
 10
144.3404
 20
15.3017
  0
VERTEX
  8
0
 10
144.3376
 20
15.3055
  0
VERTEX
  8
0
 10
144.3347
 20
15.3084
  0
VERTEX
  8
0
 10
144.329
 20
15.3103
  0
VERTEX
  8
0
 10
144.3175
 20
15.3113
  0
VERTEX
  8
0
 10
144.309
 20
15.3017
  0
VERTEX
  8
0
 10
144.2432
 20
15.1693
  0
VERTEX
  8
0
 10
144.2213
 20
15.1407
  0
VERTEX
  8
0
 10
144.2194
 20
15.1369
  0
VERTEX
  8
0
 10
144.1994
 20
15.0835
  0
VERTEX
  8
0
 10
144.1927
 20
15.0683
  0
VERTEX
  8
0
 10
144.1841
 20
15.0511
  0
VERTEX
  8
0
 10
144.1737
 20
15.0292
  0
VERTEX
  8
0
 10
144.1708
 20
15.0168
  0
VERTEX
  8
0
 10
144.1708
 20
15.0121
  0
VERTEX
  8
0
 10
144.1727
 20
15.0083
  0
VERTEX
  8
0
 10
144.1765
 20
15.0035
  0
VERTEX
  8
0
 10
144.1794
 20
15.0016
  0
VERTEX
  8
0
 10
144.1851
 20
14.9997
  0
VERTEX
  8
0
 10
144.207
 20
14.9968
  0
VERTEX
  8
0
 10
144.2575
 20
14.994
  0
VERTEX
  8
0
 10
144.4271
 20
14.9921
  0
VERTEX
  8
0
 10
144.4366
 20
14.993
  0
VERTEX
  8
0
 10
144.4433
 20
14.9949
  0
VERTEX
  8
0
 10
144.45
 20
14.9987
  0
VERTEX
  8
0
 10
144.4586
 20
15.0083
  0
SEQEND
  0
POLYLINE
  8
0
 66
     1
 10
0
 20
0
  0
VERTEX
  8
0
 10
143.8821
 20
14.6357
  0
VERTEX
  8
0
 10
143.9021
 20
14.6433
  0
VERTEX
  8
0
 10
143.9107
 20
14.6471
  0
VERTEX
  8
0
 10
143.9259
 20
14.6586
  0
VERTEX
  8
0
 10
143.9402
 20
14.6709
  0
VERTEX
  8
0
 10
143.9545
 20
14.6871
  0
VERTEX
  8
0
 10
143.9669
 20
14.7053
  0
VERTEX
  8
0
 10
143.9869
 20
14.7443
  0
VERTEX
  8
0
 10
143.9869
 20
14.7434
  0
VERTEX
  8
0
 10
144.0117
 20
14.7967
  0
VERTEX
  8
0
 10
144.0117
 20
14.7977
  0
VERTEX
  8
0
 10
144.0393
 20
14.8568
  0
VERTEX
  8
0
 10
144.0584
 20
14.8987
  0
VERTEX
  8
0
 10
144.3261
 20
15.4294
  0
VERTEX
  8
0
 10
144.3471
 20
15.4637
  0
VERTEX
  8
0
 10
144.3576
 20
15.4742
  0
VERTEX
  8
0
 10
144.3595
 20
15.4742
  0
VERTEX
  8
0
 10
144.3633
 20
15.4751
  0
VERTEX
  8
0
 10
144.3661
 20
15.4751
  0
VERTEX
  8
0
 10
144.3671
 20
15.4742
  0
VERTEX
  8
0
 10
144.37
 20
15.4723
  0
VERTEX
  8
0
 10
144.3719
 20
15.4694
  0
VERTEX
  8
0
 10
144.3823
 20
15.4475
  0
VERTEX
  8
0
 10
144.3947
 20
15.4199
  0
VERTEX
  8
0
 10
144.6825
 20
14.6786
  0
VERTEX
  8
0
 10
144.6863
 20
14.669
  0
VERTEX
  8
0
 10
144.6882
 20
14.6662
  0
VERTEX
  8
0
 10
144.6939
 20
14.6586
  0
VERTEX
  8
0
 10
144.7015
 20
14.6519
  0
VERTEX
  8
0
 10
144.7082
 20
14.6452
  0
VERTEX
  8
0
 10
144.7168
 20
14.6405
  0
VERTEX
  8
0
 10
144.7339
 20
14.6309
  0
VERTEX
  8
0
 10
144.7492
 20
14.6233
  0
VERTEX
  8
0
 10
144.7501
 20
14.6233
  0
VERTEX
  8
0
 10
144.7654
 20
14.6195
  0
VERTEX
  8
0
 10
144.7673
 20
14.6185
  0
VERTEX
  8
0
 10
144.7682
 20
14.6147
  0
VERTEX
  8
0
 10
144.7682
 20
14.6062
  0
VERTEX
  8
0
 10
144.7682
 20
14.6033
  0
VERTEX
  8
0
 10
144.5205
 20
14.609
  0
VERTEX
  8
0
 10
144.5138
 20
14.6157
  0
VERTEX
  8
0
 10
144.5234
 20
14.6214
  0
VERTEX
  8
0
 10
144.5262
 20
14.6233
  0
VERTEX
  8
0
 10
144.5615
 20
14.6433
  0
VERTEX
  8
0
 10
144.5662
 20
14.6462
  0
VERTEX
  8
0
 10
144.5739
 20
14.6567
  0
VERTEX
  8
0
 10
144.5786
 20
14.6681
  0
VERTEX
  8
0
 10
144.5805
 20
14.6757
  0
VERTEX
  8
0
 10
144.5777
 20
14.6891
  0
VERTEX
  8
0
 10
144.5586
 20
14.7443
  0
VERTEX
  8
0
 10
144.5367
 20
14.8034
  0
VERTEX
  8
0
 10
144.5138
 20
14.8539
  0
VERTEX
  8
0
 10
144.4976
 20
14.8891
  0
VERTEX
  8
0
 10
144.4881
 20
14.9073
  0
VERTEX
  8
0
 10
144.4805
 20
14.9187
  0
VERTEX
  8
0
 10
144.471
 20
14.9254
  0
VERTEX
  8
0
 10
144.4605
 20
14.9301
  0
VERTEX
  8
0
 10
144.45
 20
14.932
  0
VERTEX
  8
0
 10
144.4357
 20
14.933
  0
VERTEX
  8
0
 10
144.4147
 20
14.9339
  0
VERTEX
  8
0
 10
144.1708
 20
14.9368
  0
VERTEX
  8
0
 10
144.1451
 20
14.9349
  0
VERTEX
  8
0
 10
144.1317
 20
14.9301
  0
VERTEX
  8
0
 10
144.1251
 20
14.9244
  0
VERTEX
  8
0
 10
144.1165
 20
14.9139
  0
VERTEX
  8
0
 10
144.1108
 20
14.9034
  0
VERTEX
  8
0
 10
144.1041
 20
14.8882
  0
VERTEX
  8
0
 10
144.0965
 20
14.872
  0
VERTEX
  8
0
 10
144.0593
 20
14.7996
  0
VERTEX
  8
0
 10
144.0469
 20
14.7758
  0
VERTEX
  8
0
 10
144.0374
 20
14.7529
  0
VERTEX
  8
0
 10
144.0279
 20
14.7253
  0
VERTEX
  8
0
 10
144.0241
 20
14.7024
  0
VERTEX
  8
0
 10
144.0279
 20
14.6891
  0
VERTEX
  8
0
 10
144.0336
 20
14.6748
  0
VERTEX
  8
0
 10
144.0431
 20
14.6624
  0
VERTEX
  8
0
 10
144.0536
 20
14.6538
  0
VERTEX
  8
0
 10
144.0603
 20
14.65
  0
VERTEX
  8
0
 10
144.0822
 20
14.6405
  0
VERTEX
  8
0
 10
144.0917
 20
14.6357
  0
VERTEX
  8
0
 10
144.1022
 20
14.6309
  0
VERTEX
  8
0
 10
144.1051
 20
14.629
  0
VERTEX
  8
0
 10
144.106
 20
14.6281
  0
VERTEX
  8
0
 10
144.107
 20
14.6271
  0
VERTEX
  8
0
 10
144.107
 20
14.6243
  0
VERTEX
  8
0
 10
144.107
 20
14.6214
  0
VERTEX
  8
0
 10
144.106
 20
14.6195
  0
VERTEX
  8
0
 10
144.1041
 20
14.6176
  0
VERTEX
  8
0
 10
144.1003
 20
14.6147
  0
VERTEX
  8
0
 10
144.0889
 20
14.61
  0
VERTEX
  8
0
 10
144.0784
 20
14.609
  0
VERTEX
  8
0
 10
144.0698
 20
14.609
  0
VERTEX
  8
0
 10
144.0527
 20
14.6109
  0
VERTEX
  8
0
 10
144.0374
 20
14.6128
  0
VERTEX
  8
0
 10
144.0145
 20
14.6147
  0
VERTEX
  8
0
 10
143.9926
 20
14.6166
  0
VERTEX
  8
0
 10
143.9821
 20
14.6166
  0
VERTEX
  8
0
 10
143.9421
 20
14.6166
  0
VERTEX
  8
0
 10
143.9126
 20
14.6176
  0
VERTEX
  8
0
 10
143.8935
 20
14.6166
  0
VERTEX
  8
0
 10
143.8888
 20
14.6166
  0
VERTEX
  8
0
 10
143.885
 20
14.6185
  0
VERTEX
  8
0
 10
143.8821
 20
14.6195
  0
VERTEX
  8
0
 10
143.8811
 20
14.6214
  0
VERTEX
  8
0
 10
143.8802
 20
14.6233
  0
VERTEX
  8
0
 10
143.8802
 20
14.6262
  0
VERTEX
  8
0
 10
143.8802
 20
14.63
  0
VERTEX
  8
0
 10
143.8821
 20
14.6357
  0
SEQEND
  0
POLYLINE
  8
0
 66
     1
 10
0
 20
0
  0
VERTEX
  8
0
 10
143.5048
 20
15.3627
  0
VERTEX
  8
0
 10
143.4952
 20
14.7367
  0
VERTEX
  8
0
 10
143.4972
 20
14.7205
  0
VERTEX
  8
0
 10
143.5019
 20
14.7081
  0
VERTEX
  8
0
 10
143.5086
 20
14.6995
  0
VERTEX
  8
0
 10
143.5162
 20
14.6938
  0
VERTEX
  8
0
 10
143.5524
 20
14.6786
  0
VERTEX
  8
0
 10
143.5953
 20
14.6662
  0
VERTEX
  8
0
 10
143.661
 20
14.6538
  0
VERTEX
  8
0
 10
143.6725
 20
14.6528
  0
VERTEX
  8
0
 10
143.6811
 20
14.6538
  0
VERTEX
  8
0
 10
143.7268
 20
14.6652
  0
VERTEX
  8
0
 10
143.7277
 20
14.6662
  0
VERTEX
  8
0
 10
143.7659
 20
14.6795
  0
VERTEX
  8
0
 10
143.7973
 20
14.6938
  0
VERTEX
  8
0
 10
143.824
 20
14.7129
  0
VERTEX
  8
0
 10
143.8535
 20
14.7396
  0
VERTEX
  8
0
 10
143.8792
 20
14.7691
  0
VERTEX
  8
0
 10
143.8926
 20
14.7901
  0
VERTEX
  8
0
 10
143.9116
 20
14.831
  0
VERTEX
  8
0
 10
143.9326
 20
14.9044
  0
VERTEX
  8
0
 10
143.9326
 20
14.9053
  0
VERTEX
  8
0
 10
143.9393
 20
15.1016
  0
VERTEX
  8
0
 10
143.9326
 20
15.1445
  0
VERTEX
  8
0
 10
143.9269
 20
15.1683
  0
VERTEX
  8
0
 10
143.9126
 20
15.2074
  0
VERTEX
  8
0
 10
143.8983
 20
15.2379
  0
VERTEX
  8
0
 10
143.884
 20
15.2674
  0
VERTEX
  8
0
 10
143.8611
 20
15.3027
  0
VERTEX
  8
0
 10
143.8354
 20
15.3332
  0
VERTEX
  8
0
 10
143.803
 20
15.3646
  0
VERTEX
  8
0
 10
143.7725
 20
15.3865
  0
VERTEX
  8
0
 10
143.7277
 20
15.4094
  0
VERTEX
  8
0
 10
143.6753
 20
15.4275
  0
VERTEX
  8
0
 10
143.6105
 20
15.4437
  0
VERTEX
  8
0
 10
143.561
 20
15.4485
  0
VERTEX
  8
0
 10
143.5438
 20
15.4466
  0
VERTEX
  8
0
 10
143.5248
 20
15.4389
  0
VERTEX
  8
0
 10
143.5181
 20
15.4332
  0
VERTEX
  8
0
 10
143.5124
 20
15.4275
  0
VERTEX
  8
0
 10
143.5
 20
15.4094
  0
VERTEX
  8
0
 10
143.4943
 20
15.3884
  0
VERTEX
  8
0
 10
143.4972
 20
15.3741
  0
VERTEX
  8
0
 10
143.5048
 20
15.3627
  0
SEQEND
  0
POLYLINE
  8
0
 66
     1
 10
0
 20
0
  0
VERTEX
  8
0
 10
143.318
 20
15.4856
  0
VERTEX
  8
0
 10
143.5915
 20
15.4856
  0
VERTEX
  8
0
 10
143.6563
 20
15.4809
  0
VERTEX
  8
0
 10
143.6563
 20
15.4799
  0
VERTEX
  8
0
 10
143.7392
 20
15.4618
  0
VERTEX
  8
0
 10
143.7973
 20
15.4418
  0
VERTEX
  8
0
 10
143.8449
 20
15.418
  0
VERTEX
  8
0
 10
143.8831
 20
15.3932
  0
VERTEX
  8
0
 10
143.9193
 20
15.3627
  0
VERTEX
  8
0
 10
143.9478
 20
15.3294
  0
VERTEX
  8
0
 10
143.9736
 20
15.2912
  0
VERTEX
  8
0
 10
143.9983
 20
15.2388
  0
VERTEX
  8
0
 10
144.0164
 20
15.1836
  0
VERTEX
  8
0
 10
144.0288
 20
15.1226
  0
VERTEX
  8
0
 10
144.0326
 20
15.0616
  0
VERTEX
  8
0
 10
144.0288
 20
14.9959
  0
VERTEX
  8
0
 10
144.0164
 20
14.9311
  0
VERTEX
  8
0
 10
143.9983
 20
14.8758
  0
VERTEX
  8
0
 10
143.9736
 20
14.8244
  0
VERTEX
  8
0
 10
143.9421
 20
14.7786
  0
VERTEX
  8
0
 10
143.9002
 20
14.731
  0
VERTEX
  8
0
 10
143.8564
 20
14.691
  0
VERTEX
  8
0
 10
143.8154
 20
14.6643
  0
VERTEX
  8
0
 10
143.7744
 20
14.6433
  0
VERTEX
  8
0
 10
143.7325
 20
14.6281
  0
VERTEX
  8
0
 10
143.6934
 20
14.6204
  0
VERTEX
  8
0
 10
143.6544
 20
14.6176
  0
VERTEX
  8
0
 10
143.6534
 20
14.6176
  0
VERTEX
  8
0
 10
143.6306
 20
14.6176
  0
VERTEX
  8
0
 10
143.5181
 20
14.6243
  0
VERTEX
  8
0
 10
143.4867
 20
14.6252
  0
VERTEX
  8
0
 10
143.4428
 20
14.6262
  0
VERTEX
  8
0
 10
143.4009
 20
14.6252
  0
VERTEX
  8
0
 10
143.319
 20
14.6233
  0
VERTEX
  8
0
 10
143.3152
 20
14.629
  0
VERTEX
  8
0
 10
143.3123
 20
14.6328
  0
VERTEX
  8
0
 10
143.3123
 20
14.6338
  0
VERTEX
  8
0
 10
143.3123
 20
14.6357
  0
VERTEX
  8
0
 10
143.3123
 20
14.6386
  0
VERTEX
  8
0
 10
143.3161
 20
14.6405
  0
VERTEX
  8
0
 10
143.3209
 20
14.6433
  0
VERTEX
  8
0
 10
143.3228
 20
14.6443
  0
VERTEX
  8
0
 10
143.338
 20
14.649
  0
VERTEX
  8
0
 10
143.3457
 20
14.6538
  0
VERTEX
  8
0
 10
143.3542
 20
14.6576
  0
VERTEX
  8
0
 10
143.3609
 20
14.6614
  0
VERTEX
  8
0
 10
143.3666
 20
14.6662
  0
VERTEX
  8
0
 10
143.378
 20
14.6767
  0
VERTEX
  8
0
 10
143.3876
 20
14.6891
  0
VERTEX
  8
0
 10
143.3933
 20
14.7005
  0
VERTEX
  8
0
 10
143.3962
 20
14.71
  0
VERTEX
  8
0
 10
143.3981
 20
14.7253
  0
VERTEX
  8
0
 10
143.399
 20
14.7538
  0
VERTEX
  8
0
 10
143.4009
 20
15.4027
  0
VERTEX
  8
0
 10
143.4
 20
15.4103
  0
VERTEX
  8
0
 10
143.3971
 20
15.4189
  0
VERTEX
  8
0
 10
143.3933
 20
15.4256
  0
VERTEX
  8
0
 10
143.3885
 20
15.4304
  0
VERTEX
  8
0
 10
143.38
 20
15.4389
  0
VERTEX
  8
0
 10
143.3685
 20
15.4456
  0
VERTEX
  8
0
 10
143.3485
 20
15.4551
  0
VERTEX
  8
0
 10
143.3428
 20
15.457
  0
VERTEX
  8
0
 10
143.3304
 20
15.4599
  0
VERTEX
  8
0
 10
143.3256
 20
15.4618
  0
VERTEX
  8
0
 10
143.3209
 20
15.4647
  0
VERTEX
  8
0
 10
143.3161
 20
15.4666
  0
VERTEX
  8
0
 10
143.3161
 20
15.4675
  0
VERTEX
  8
0
 10
143.3152
 20
15.4694
  0
VERTEX
  8
0
 10
143.3152
 20
15.4723
  0
VERTEX
  8
0
 10
143.3161
 20
15.478
  0
VERTEX
  8
0
 10
143.318
 20
15.4856
  0
SEQEND
  0
POLYLINE
  8
0
 66
     1
 10
0
 20
0
  0
VERTEX
  8
0
 10
142.4424
 20
15.0931
  0
VERTEX
  8
0
 10
142.571
 20
15.0864
  0
VERTEX
  8
0
 10
142.5758
 20
15.0864
  0
VERTEX
  8
0
 10
142.6139
 20
15.0921
  0
VERTEX
  8
0
 10
142.651
 20
15.1073
  0
VERTEX
  8
0
 10
142.671
 20
15.1197
  0
VERTEX
  8
0
 10
142.6892
 20
15.1359
  0
VERTEX
  8
0
 10
142.7044
 20
15.1521
  0
VERTEX
  8
0
 10
142.7158
 20
15.1702
  0
VERTEX
  8
0
 10
142.732
 20
15.2103
  0
VERTEX
  8
0
 10
142.7377
 20
15.2541
  0
VERTEX
  8
0
 10
142.7358
 20
15.2827
  0
VERTEX
  8
0
 10
142.7301
 20
15.3103
  0
VERTEX
  8
0
 10
142.7206
 20
15.3379
  0
VERTEX
  8
0
 10
142.7082
 20
15.3627
  0
VERTEX
  8
0
 10
142.693
 20
15.3856
  0
VERTEX
  8
0
 10
142.6768
 20
15.4056
  0
VERTEX
  8
0
 10
142.6615
 20
15.4199
  0
VERTEX
  8
0
 10
142.6444
 20
15.4304
  0
VERTEX
  8
0
 10
142.6244
 20
15.4408
  0
VERTEX
  8
0
 10
142.5796
 20
15.4532
  0
VERTEX
  8
0
 10
142.5415
 20
15.4608
  0
VERTEX
  8
0
 10
142.5043
 20
15.4628
  0
VERTEX
  8
0
 10
142.4757
 20
15.4599
  0
VERTEX
  8
0
 10
142.4557
 20
15.4523
  0
VERTEX
  8
0
 10
142.4481
 20
15.4466
  0
VERTEX
  8
0
 10
142.4433
 20
15.4399
  0
VERTEX
  8
0
 10
142.4366
 20
15.4237
  0
VERTEX
  8
0
 10
142.4338
 20
15.4056
  0
VERTEX
  8
0
 10
142.4309
 20
15.1083
  0
VERTEX
  8
0
 10
142.4424
 20
15.0931
  0
SEQEND
  0
POLYLINE
  8
0
 66
     1
 10
0
 20
0
  0
VERTEX
  8
0
 10
143.0036
 20
15.4732
  0
VERTEX
  8
0
 10
143.0036
 20
15.4894
  0
VERTEX
  8
0
 10
143.257
 20
15.4885
  0
VERTEX
  8
0
 10
143.2628
 20
15.4875
  0
VERTEX
  8
0
 10
143.2675
 20
15.4847
  0
VERTEX
  8
0
 10
143.2704
 20
15.4828
  0
VERTEX
  8
0
 10
143.2723
 20
15.4809
  0
VERTEX
  8
0
 10
143.2732
 20
15.479
  0
VERTEX
  8
0
 10
143.2732
 20
15.4751
  0
VERTEX
  8
0
 10
143.2732
 20
15.4723
  0
VERTEX
  8
0
 10
143.2723
 20
15.4704
  0
VERTEX
  8
0
 10
143.2685
 20
15.4647
  0
VERTEX
  8
0
 10
143.2647
 20
15.4618
  0
VERTEX
  8
0
 10
143.2647
 20
15.4608
  0
VERTEX
  8
0
 10
143.2532
 20
15.4551
  0
VERTEX
  8
0
 10
143.2523
 20
15.4551
  0
VERTEX
  8
0
 10
143.2313
 20
15.4485
  0
VERTEX
  8
0
 10
143.2199
 20
15.4447
  0
VERTEX
  8
0
 10
143.2123
 20
15.4399
  0
VERTEX
  8
0
 10
143.2018
 20
15.4313
  0
VERTEX
  8
0
 10
143.1942
 20
15.4218
  0
VERTEX
  8
0
 10
143.1884
 20
15.4065
  0
VERTEX
  8
0
 10
143.1856
 20
15.3903
  0
VERTEX
  8
0
 10
143.1789
 20
14.7739
  0
VERTEX
  8
0
 10
143.1827
 20
14.7195
  0
VERTEX
  8
0
 10
143.1922
 20
14.6929
  0
VERTEX
  8
0
 10
143.1989
 20
14.6843
  0
VERTEX
  8
0
 10
143.2094
 20
14.6776
  0
VERTEX
  8
0
 10
143.2227
 20
14.6709
  0
VERTEX
  8
0
 10
143.2447
 20
14.6643
  0
VERTEX
  8
0
 10
143.2551
 20
14.6605
  0
VERTEX
  8
0
 10
143.2618
 20
14.6576
  0
VERTEX
  8
0
 10
143.2685
 20
14.6557
  0
VERTEX
  8
0
 10
143.2809
 20
14.649
  0
VERTEX
  8
0
 10
143.2809
 20
14.6366
  0
VERTEX
  8
0
 10
143.2713
 20
14.6262
  0
VERTEX
  8
0
 10
142.9235
 20
14.629
  0
VERTEX
  8
0
 10
142.8931
 20
14.6338
  0
VERTEX
  8
0
 10
142.8416
 20
14.6586
  0
VERTEX
  8
0
 10
142.8216
 20
14.6729
  0
VERTEX
  8
0
 10
142.8073
 20
14.6852
  0
VERTEX
  8
0
 10
142.7959
 20
14.6976
  0
VERTEX
  8
0
 10
142.7787
 20
14.7224
  0
VERTEX
  8
0
 10
142.7377
 20
14.7815
  0
VERTEX
  8
0
 10
142.7215
 20
14.8063
  0
VERTEX
  8
0
 10
142.6043
 20
15.0063
  0
VERTEX
  8
0
 10
142.5901
 20
15.0264
  0
VERTEX
  8
0
 10
142.5824
 20
15.033
  0
VERTEX
  8
0
 10
142.5739
 20
15.0368
  0
VERTEX
  8
0
 10
142.5519
 20
15.0397
  0
VERTEX
  8
0
 10
142.5176
 20
15.0435
  0
VERTEX
  8
0
 10
142.4957
 20
15.0454
  0
VERTEX
  8
0
 10
142.4805
 20
15.0464
  0
VERTEX
  8
0
 10
142.469
 20
15.0454
  0
VERTEX
  8
0
 10
142.4605
 20
15.0435
  0
VERTEX
  8
0
 10
142.4481
 20
15.0387
  0
VERTEX
  8
0
 10
142.4309
 20
15.0302
  0
VERTEX
  8
0
 10
142.4319
 20
15.0225
  0
VERTEX
  8
0
 10
142.4271
 20
14.9882
  0
VERTEX
  8
0
 10
142.4271
 20
14.7348
  0
VERTEX
  8
0
 10
142.429
 20
14.7243
  0
VERTEX
  8
0
 10
142.4357
 20
14.71
  0
VERTEX
  8
0
 10
142.4462
 20
14.6948
  0
VERTEX
  8
0
 10
142.4586
 20
14.6862
  0
VERTEX
  8
0
 10
142.469
 20
14.6814
  0
VERTEX
  8
0
 10
142.5014
 20
14.669
  0
VERTEX
  8
0
 10
142.5148
 20
14.6633
  0
VERTEX
  8
0
 10
142.5148
 20
14.6643
  0
VERTEX
  8
0
 10
142.5396
 20
14.6528
  0
VERTEX
  8
0
 10
142.5396
 20
14.6357
  0
VERTEX
  8
0
 10
142.2461
 20
14.6433
  0
VERTEX
  8
0
 10
142.2451
 20
14.649
  0
VERTEX
  8
0
 10
142.2451
 20
14.6538
  0
VERTEX
  8
0
 10
142.2451
 20
14.6557
  0
VERTEX
  8
0
 10
142.248
 20
14.6614
  0
VERTEX
  8
0
 10
142.2508
 20
14.6662
  0
VERTEX
  8
0
 10
142.2994
 20
14.6833
  0
VERTEX
  8
0
 10
142.3013
 20
14.6852
  0
VERTEX
  8
0
 10
142.3109
 20
14.7014
  0
VERTEX
  8
0
 10
142.3185
 20
14.7214
  0
VERTEX
  8
0
 10
142.3214
 20
14.7386
  0
VERTEX
  8
0
 10
142.3347
 20
15.4075
  0
VERTEX
  8
0
 10
142.3318
 20
15.4275
  0
VERTEX
  8
0
 10
142.3252
 20
15.4437
  0
VERTEX
  8
0
 10
142.3185
 20
15.4523
  0
VERTEX
  8
0
 10
142.309
 20
15.4589
  0
VERTEX
  8
0
 10
142.3013
 20
15.4628
  0
VERTEX
  8
0
 10
142.2918
 20
15.4666
  0
VERTEX
  8
0
 10
142.268
 20
15.4732
  0
VERTEX
  8
0
 10
142.2689
 20
15.4732
  0
VERTEX
  8
0
 10
142.2604
 20
15.477
  0
VERTEX
  8
0
 10
142.2566
 20
15.479
  0
VERTEX
  8
0
 10
142.2547
 20
15.4818
  0
VERTEX
  8
0
 10
142.2518
 20
15.4875
  0
VERTEX
  8
0
 10
142.2508
 20
15.4932
  0
VERTEX
  8
0
 10
142.2518
 20
15.499
  0
VERTEX
  8
0
 10
142.2528
 20
15.5018
  0
VERTEX
  8
0
 10
142.2556
 20
15.5028
  0
VERTEX
  8
0
 10
142.2604
 20
15.5056
  0
VERTEX
  8
0
 10
142.3137
 20
15.5037
  0
VERTEX
  8
0
 10
142.5586
 20
15.5047
  0
VERTEX
  8
0
 10
142.6082
 20
15.5018
  0
VERTEX
  8
0
 10
142.6577
 20
15.4932
  0
VERTEX
  8
0
 10
142.6968
 20
15.4809
  0
VERTEX
  8
0
 10
142.733
 20
15.4637
  0
VERTEX
  8
0
 10
142.7501
 20
15.4523
  0
VERTEX
  8
0
 10
142.7663
 20
15.437
  0
VERTEX
  8
0
 10
142.7816
 20
15.4189
  0
VERTEX
  8
0
 10
142.7949
 20
15.3999
  0
VERTEX
  8
0
 10
142.8063
 20
15.3751
  0
VERTEX
  8
0
 10
142.8159
 20
15.3494
  0
VERTEX
  8
0
 10
142.8216
 20
15.3227
  0
VERTEX
  8
0
 10
142.8235
 20
15.2951
  0
VERTEX
  8
0
 10
142.8206
 20
15.2655
  0
VERTEX
  8
0
 10
142.8159
 20
15.236
  0
VERTEX
  8
0
 10
142.8044
 20
15.2074
  0
VERTEX
  8
0
 10
142.7921
 20
15.1798
  0
VERTEX
  8
0
 10
142.7768
 20
15.1569
  0
VERTEX
  8
0
 10
142.7597
 20
15.1369
  0
VERTEX
  8
0
 10
142.7397
 20
15.1188
  0
VERTEX
  8
0
 10
142.7168
 20
15.1026
  0
VERTEX
  8
0
 10
142.6987
 20
15.0911
  0
VERTEX
  8
0
 10
142.6901
 20
15.0864
  0
VERTEX
  8
0
 10
142.6844
 20
15.0807
  0
VERTEX
  8
0
 10
142.6796
 20
15.074
  0
VERTEX
  8
0
 10
142.6777
 20
15.0692
  0
VERTEX
  8
0
 10
142.6768
 20
15.0664
  0
VERTEX
  8
0
 10
142.6777
 20
15.0588
  0
VERTEX
  8
0
 10
142.6825
 20
15.0492
  0
VERTEX
  8
0
 10
142.8492
 20
14.7834
  0
VERTEX
  8
0
 10
142.8702
 20
14.7519
  0
VERTEX
  8
0
 10
142.8969
 20
14.7205
  0
VERTEX
  8
0
 10
142.9293
 20
14.6871
  0
VERTEX
  8
0
 10
142.9578
 20
14.6681
  0
VERTEX
  8
0
 10
142.9731
 20
14.6614
  0
VERTEX
  8
0
 10
142.9902
 20
14.6586
  0
VERTEX
  8
0
 10
143.0188
 20
14.6624
  0
VERTEX
  8
0
 10
143.0455
 20
14.6738
  0
VERTEX
  8
0
 10
143.0655
 20
14.6862
  0
VERTEX
  8
0
 10
143.0712
 20
14.6938
  0
VERTEX
  8
0
 10
143.075
 20
14.7043
  0
VERTEX
  8
0
 10
143.0789
 20
14.7519
  0
VERTEX
  8
0
 10
143.0836
 20
14.8444
  0
VERTEX
  8
0
 10
143.0903
 20
15.4056
  0
VERTEX
  8
0
 10
143.0893
 20
15.4161
  0
VERTEX
  8
0
 10
143.0836
 20
15.4275
  0
VERTEX
  8
0
 10
143.077
 20
15.4389
  0
VERTEX
  8
0
 10
143.0703
 20
15.4447
  0
VERTEX
  8
0
 10
143.0655
 20
15.4466
  0
VERTEX
  8
0
 10
143.0274
 20
15.4618
  0
VERTEX
  8
0
 10
143.0198
 20
15.4647
  0
VERTEX
  8
0
 10
143.0036
 20
15.4732
  0
SEQEND
  0
POLYLINE
  8
0
 66
     1
 10
0
 20
0
  0
VERTEX
  8
0
 10
141.1351
 20
15.5266
  0
VERTEX
  8
0
 10
141.3971
 20
15.5237
  0
VERTEX
  8
0
 10
141.4009
 20
15.5199
  0
VERTEX
  8
0
 10
141.4028
 20
15.5171
  0
VERTEX
  8
0
 10
141.4038
 20
15.5142
  0
VERTEX
  8
0
 10
141.4047
 20
15.5104
  0
VERTEX
  8
0
 10
141.4038
 20
15.5066
  0
VERTEX
  8
0
 10
141.4028
 20
15.5037
  0
VERTEX
  8
0
 10
141.399
 20
15.4971
  0
VERTEX
  8
0
 10
141.3962
 20
15.4952
  0
VERTEX
  8
0
 10
141.338
 20
15.4675
  0
VERTEX
  8
0
 10
141.3361
 20
15.4666
  0
VERTEX
  8
0
 10
141.3352
 20
15.4656
  0
VERTEX
  8
0
 10
141.3275
 20
15.4485
  0
VERTEX
  8
0
 10
141.3237
 20
15.4304
  0
VERTEX
  8
0
 10
141.319
 20
15.3827
  0
VERTEX
  8
0
 10
141.3161
 20
15.3332
  0
VERTEX
  8
0
 10
141.3094
 20
14.9111
  0
VERTEX
  8
0
 10
141.3075
 20
14.7662
  0
VERTEX
  8
0
 10
141.3094
 20
14.7453
  0
VERTEX
  8
0
 10
141.3133
 20
14.7348
  0
VERTEX
  8
0
 10
141.3171
 20
14.73
  0
VERTEX
  8
0
 10
141.3228
 20
14.7262
  0
VERTEX
  8
0
 10
141.3342
 20
14.7205
  0
VERTEX
  8
0
 10
141.3504
 20
14.7157
  0
VERTEX
  8
0
 10
141.378
 20
14.7072
  0
VERTEX
  8
0
 10
141.3809
 20
14.7072
  0
VERTEX
  8
0
 10
141.4867
 20
14.7148
  0
VERTEX
  8
0
 10
141.521
 20
14.7148
  0
VERTEX
  8
0
 10
141.5372
 20
14.7195
  0
VERTEX
  8
0
 10
141.5391
 20
14.7205
  0
VERTEX
  8
0
 10
141.5477
 20
14.7205
  0
VERTEX
  8
0
 10
141.5496
 20
14.7214
  0
VERTEX
  8
0
 10
141.5496
 20
14.7224
  0
VERTEX
  8
0
 10
141.5515
 20
14.7253
  0
VERTEX
  8
0
 10
141.5515
 20
14.7281
  0
VERTEX
  8
0
 10
141.5515
 20
14.73
  0
VERTEX
  8
0
 10
141.5505
 20
14.7329
  0
VERTEX
  8
0
 10
141.5505
 20
14.7338
  0
VERTEX
  8
0
 10
141.4867
 20
14.8082
  0
VERTEX
  8
0
 10
141.459
 20
14.8491
  0
VERTEX
  8
0
 10
141.4362
 20
14.8958
  0
VERTEX
  8
0
 10
141.42
 20
14.9454
  0
VERTEX
  8
0
 10
141.4095
 20
15.0073
  0
VERTEX
  8
0
 10
141.4057
 20
15.0692
  0
VERTEX
  8
0
 10
141.4095
 20
15.1369
  0
VERTEX
  8
0
 10
141.4238
 20
15.2026
  0
VERTEX
  8
0
 10
141.4438
 20
15.2646
  0
VERTEX
  8
0
 10
141.4714
 20
15.3227
  0
VERTEX
  8
0
 10
141.501
 20
15.3656
  0
VERTEX
  8
0
 10
141.5353
 20
15.4056
  0
VERTEX
  8
0
 10
141.5734
 20
15.4389
  0
VERTEX
  8
0
 10
141.6153
 20
15.4666
  0
VERTEX
  8
0
 10
141.6687
 20
15.4923
  0
VERTEX
  8
0
 10
141.7239
 20
15.5123
  0
VERTEX
  8
0
 10
141.7868
 20
15.5237
  0
VERTEX
  8
0
 10
141.8487
 20
15.5275
  0
VERTEX
  8
0
 10
141.9126
 20
15.5237
  0
VERTEX
  8
0
 10
141.9755
 20
15.5113
  0
VERTEX
  8
0
 10
142.0336
 20
15.4913
  0
VERTEX
  8
0
 10
142.0879
 20
15.4647
  0
VERTEX
  8
0
 10
142.1298
 20
15.4361
  0
VERTEX
  8
0
 10
142.1679
 20
15.4046
  0
VERTEX
  8
0
 10
142.1984
 20
15.3684
  0
VERTEX
  8
0
 10
142.2261
 20
15.3294
  0
VERTEX
  8
0
 10
142.2518
 20
15.2741
  0
VERTEX
  8
0
 10
142.2718
 20
15.2169
  0
VERTEX
  8
0
 10
142.2842
 20
15.1531
  0
VERTEX
  8
0
 10
142.288
 20
15.0892
  0
VERTEX
  8
0
 10
142.2832
 20
15.0225
  0
VERTEX
  8
0
 10
142.2709
 20
14.9578
  0
VERTEX
  8
0
 10
142.2499
 20
14.8968
  0
VERTEX
  8
0
 10
142.2223
 20
14.8396
  0
VERTEX
  8
0
 10
142.1927
 20
14.7958
  0
VERTEX
  8
0
 10
142.1584
 20
14.7567
  0
VERTEX
  8
0
 10
142.1174
 20
14.7214
  0
VERTEX
  8
0
 10
142.0717
 20
14.691
  0
VERTEX
  8
0
 10
142.0174
 20
14.6652
  0
VERTEX
  8
0
 10
141.9669
 20
14.649
  0
VERTEX
  8
0
 10
141.9107
 20
14.6395
  0
VERTEX
  8
0
 10
141.8487
 20
14.6366
  0
VERTEX
  8
0
 10
141.8002
 20
14.6376
  0
VERTEX
  8
0
 10
141.7506
 20
14.6414
  0
VERTEX
  8
0
 10
141.7239
 20
14.6462
  0
VERTEX
  8
0
 10
141.6972
 20
14.6548
  0
VERTEX
  8
0
 10
141.6744
 20
14.6624
  0
VERTEX
  8
0
 10
141.6677
 20
14.6643
  0
VERTEX
  8
0
 10
141.661
 20
14.6652
  0
VERTEX
  8
0
 10
141.6458
 20
14.6662
  0
VERTEX
  8
0
 10
141.6372
 20
14.6662
  0
VERTEX
  8
0
 10
141.6334
 20
14.6662
  0
VERTEX
  8
0
 10
141.6201
 20
14.6643
  0
VERTEX
  8
0
 10
141.5743
 20
14.6576
  0
VERTEX
  8
0
 10
141.5534
 20
14.6548
  0
VERTEX
  8
0
 10
141.5315
 20
14.6538
  0
VERTEX
  8
0
 10
141.5324
 20
14.6538
  0
VERTEX
  8
0
 10
141.5257
 20
14.6538
  0
VERTEX
  8
0
 10
141.2732
 20
14.6681
  0
VERTEX
  8
0
 10
141.1408
 20
14.6614
  0
VERTEX
  8
0
 10
141.136
 20
14.6671
  0
VERTEX
  8
0
 10
141.1332
 20
14.6719
  0
VERTEX
  8
0
 10
141.1322
 20
14.6757
  0
VERTEX
  8
0
 10
141.1322
 20
14.6786
  0
VERTEX
  8
0
 10
141.1322
 20
14.6805
  0
VERTEX
  8
0
 10
141.1332
 20
14.6814
  0
VERTEX
  8
0
 10
141.1379
 20
14.6871
  0
VERTEX
  8
0
 10
141.1465
 20
14.6919
  0
VERTEX
  8
0
 10
141.1713
 20
14.7033
  0
VERTEX
  8
0
 10
141.1875
 20
14.7148
  0
VERTEX
  8
0
 10
141.2008
 20
14.731
  0
VERTEX
  8
0
 10
141.2065
 20
14.7462
  0
VERTEX
  8
0
 10
141.2094
 20
14.7624
  0
VERTEX
  8
0
 10
141.2189
 20
15.4399
  0
VERTEX
  8
0
 10
141.218
 20
15.4523
  0
VERTEX
  8
0
 10
141.2142
 20
15.4618
  0
VERTEX
  8
0
 10
141.2075
 20
15.4694
  0
VERTEX
  8
0
 10
141.197
 20
15.477
  0
VERTEX
  8
0
 10
141.1837
 20
15.4847
  0
VERTEX
  8
0
 10
141.1665
 20
15.4894
  0
VERTEX
  8
0
 10
141.1437
 20
15.4961
  0
VERTEX
  8
0
 10
141.1351
 20
15.5018
  0
VERTEX
  8
0
 10
141.1332
 20
15.5028
  0
VERTEX
  8
0
 10
141.1303
 20
15.5085
  0
VERTEX
  8
0
 10
141.1303
 20
15.5075
  0
VERTEX
  8
0
 10
141.1284
 20
15.5104
  0
VERTEX
  8
0
 10
141.1284
 20
15.5123
  0
VERTEX
  8
0
 10
141.1294
 20
15.518
  0
VERTEX
  8
0
 10
141.1351
 20
15.5266
  0
SEQEND
  0
POLYLINE
  8
0
 66
     1
 10
0
 20
0
  0
VERTEX
  8
0
 10
140.3928
 20
13.8286
  0
VERTEX
  8
0
 10
140.308
 20
13.6181
  0
VERTEX
  8
0
 10
140.289
 20
13.558
  0
VERTEX
  8
0
 10
140.2842
 20
13.5142
  0
VERTEX
  8
0
 10
140.2851
 20
13.5075
  0
VERTEX
  8
0
 10
140.2871
 20
13.5009
  0
VERTEX
  8
0
 10
140.2909
 20
13.4971
  0
VERTEX
  8
0
 10
140.2947
 20
13.4942
  0
VERTEX
  8
0
 10
140.3013
 20
13.4913
  0
VERTEX
  8
0
 10
140.3071
 20
13.4904
  0
VERTEX
  8
0
 10
140.3194
 20
13.4923
  0
VERTEX
  8
0
 10
140.3309
 20
13.4961
  0
VERTEX
  8
0
 10
140.3299
 20
13.4961
  0
VERTEX
  8
0
 10
140.3604
 20
13.519
  0
VERTEX
  8
0
 10
140.3947
 20
13.5533
  0
VERTEX
  8
0
 10
140.4366
 20
13.6038
  0
VERTEX
  8
0
 10
140.4366
 20
13.6028
  0
VERTEX
  8
0
 10
140.4595
 20
13.6324
  0
VERTEX
  8
0
 10
140.51
 20
13.701
  0
VERTEX
  8
0
 10
140.5338
 20
13.7343
  0
VERTEX
  8
0
 10
140.5586
 20
13.7753
  0
VERTEX
  8
0
 10
140.5881
 20
13.8325
  0
VERTEX
  8
0
 10
140.612
 20
13.8925
  0
VERTEX
  8
0
 10
140.6215
 20
13.9306
  0
VERTEX
  8
0
 10
140.6253
 20
13.9706
  0
VERTEX
  8
0
 10
140.6225
 20
13.9887
  0
VERTEX
  8
0
 10
140.6148
 20
14.0059
  0
VERTEX
  8
0
 10
140.5967
 20
14.0287
  0
VERTEX
  8
0
 10
140.572
 20
14.0478
  0
VERTEX
  8
0
 10
140.5529
 20
14.0573
  0
VERTEX
  8
0
 10
140.5376
 20
14.0592
  0
VERTEX
  8
0
 10
140.5329
 20
14.0583
  0
VERTEX
  8
0
 10
140.5281
 20
14.0564
  0
VERTEX
  8
0
 10
140.5176
 20
14.0468
  0
VERTEX
  8
0
 10
140.5053
 20
14.0306
  0
VERTEX
  8
0
 10
140.4881
 20
14.003
  0
VERTEX
  8
0
 10
140.4729
 20
13.9754
  0
VERTEX
  8
0
 10
140.3928
 20
13.8286
  0
SEQEND
  0
POLYLINE
  8
0
 66
     1
 10
0
 20
0
  0
VERTEX
  8
0
 10
137.4076
 20
14.1221
  0
VERTEX
  8
0
 10
137.459
 20
14.1488
  0
VERTEX
  8
0
 10
137.4848
 20
14.1612
  0
VERTEX
  8
0
 10
137.5724
 20
14.2012
  0
VERTEX
  8
0
 10
137.6477
 20
14.2536
  0
VERTEX
  8
0
 10
137.6801
 20
14.2774
  0
VERTEX
  8
0
 10
137.7096
 20
14.3041
  0
VERTEX
  8
0
 10
137.7192
 20
14.3146
  0
VERTEX
  8
0
 10
137.7268
 20
14.327
  0
VERTEX
  8
0
 10
137.7268
 20
14.3279
  0
VERTEX
  8
0
 10
137.7296
 20
14.3394
  0
VERTEX
  8
0
 10
137.7211
 20
14.3575
  0
VERTEX
  8
0
 10
137.7182
 20
14.3603
  0
VERTEX
  8
0
 10
137.7096
 20
14.3641
  0
VERTEX
  8
0
 10
137.6992
 20
14.3651
  0
VERTEX
  8
0
 10
137.6791
 20
14.3632
  0
VERTEX
  8
0
 10
137.6534
 20
14.3556
  0
VERTEX
  8
0
 10
137.6077
 20
14.3365
  0
VERTEX
  8
0
 10
137.582
 20
14.3241
  0
VERTEX
  8
0
 10
137.561
 20
14.3117
  0
VERTEX
  8
0
 10
137.4981
 20
14.2679
  0
VERTEX
  8
0
 10
137.4428
 20
14.2269
  0
VERTEX
  8
0
 10
137.4257
 20
14.2136
  0
VERTEX
  8
0
 10
137.4019
 20
14.1917
  0
VERTEX
  8
0
 10
137.3647
 20
14.1507
  0
VERTEX
  8
0
 10
137.3275
 20
14.104
  0
VERTEX
  8
0
 10
137.2999
 20
14.063
  0
VERTEX
  8
0
 10
137.2828
 20
14.0221
  0
VERTEX
  8
0
 10
137.278
 20
13.9792
  0
VERTEX
  8
0
 10
137.2809
 20
13.9592
  0
VERTEX
  8
0
 10
137.2875
 20
13.942
  0
VERTEX
  8
0
 10
137.2961
 20
13.9315
  0
VERTEX
  8
0
 10
137.3056
 20
13.9239
  0
VERTEX
  8
0
 10
137.3228
 20
13.9173
  0
VERTEX
  8
0
 10
137.3409
 20
13.9144
  0
VERTEX
  8
0
 10
137.3552
 20
13.9154
  0
VERTEX
  8
0
 10
137.3561
 20
13.9154
  0
VERTEX
  8
0
 10
137.3657
 20
13.9173
  0
VERTEX
  8
0
 10
137.3647
 20
13.9173
  0
VERTEX
  8
0
 10
137.4285
 20
13.9363
  0
VERTEX
  8
0
 10
137.5219
 20
13.9792
  0
VERTEX
  8
0
 10
137.5229
 20
13.9792
  0
VERTEX
  8
0
 10
137.8735
 20
14.164
  0
VERTEX
  8
0
 10
137.8964
 20
14.1783
  0
VERTEX
  8
0
 10
137.9545
 20
14.2212
  0
VERTEX
  8
0
 10
138.0012
 20
14.2565
  0
VERTEX
  8
0
 10
138.0336
 20
14.2774
  0
VERTEX
  8
0
 10
138.087
 20
14.3041
  0
VERTEX
  8
0
 10
138.1603
 20
14.3298
  0
VERTEX
  8
0
 10
138.2299
 20
14.3479
  0
VERTEX
  8
0
 10
138.3013
 20
14.3622
  0
VERTEX
  8
0
 10
138.3204
 20
14.3651
  0
VERTEX
  8
0
 10
138.3366
 20
14.366
  0
VERTEX
  8
0
 10
138.3471
 20
14.366
  0
VERTEX
  8
0
 10
138.3566
 20
14.3651
  0
VERTEX
  8
0
 10
138.369
 20
14.3622
  0
VERTEX
  8
0
 10
138.3766
 20
14.3584
  0
VERTEX
  8
0
 10
138.3823
 20
14.3537
  0
VERTEX
  8
0
 10
138.3852
 20
14.3479
  0
VERTEX
  8
0
 10
138.39
 20
14.3365
  0
VERTEX
  8
0
 10
138.3928
 20
14.3203
  0
VERTEX
  8
0
 10
138.369
 20
14.2965
  0
VERTEX
  8
0
 10
138.3118
 20
14.2955
  0
VERTEX
  8
0
 10
138.2842
 20
14.2927
  0
VERTEX
  8
0
 10
138.248
 20
14.2851
  0
VERTEX
  8
0
 10
138.1994
 20
14.2717
  0
VERTEX
  8
0
 10
138.1556
 20
14.2555
  0
VERTEX
  8
0
 10
138.1136
 20
14.2384
  0
VERTEX
  8
0
 10
138.0669
 20
14.2164
  0
VERTEX
  8
0
 10
138.0241
 20
14.1926
  0
VERTEX
  8
0
 10
137.9964
 20
14.1745
  0
VERTEX
  8
0
 10
137.9707
 20
14.1526
  0
VERTEX
  8
0
 10
137.9526
 20
14.1326
  0
VERTEX
  8
0
 10
137.9374
 20
14.1107
  0
VERTEX
  8
0
 10
137.9326
 20
14.0983
  0
VERTEX
  8
0
 10
137.9307
 20
14.085
  0
VERTEX
  8
0
 10
137.9316
 20
14.0792
  0
VERTEX
  8
0
 10
137.9326
 20
14.0726
  0
VERTEX
  8
0
 10
137.9345
 20
14.0621
  0
VERTEX
  8
0
 10
137.9374
 20
14.0573
  0
VERTEX
  8
0
 10
137.9421
 20
14.0516
  0
VERTEX
  8
0
 10
137.9497
 20
14.0449
  0
VERTEX
  8
0
 10
137.9621
 20
14.0402
  0
VERTEX
  8
0
 10
137.9745
 20
14.0383
  0
VERTEX
  8
0
 10
137.9821
 20
14.0383
  0
VERTEX
  8
0
 10
137.9869
 20
14.0392
  0
VERTEX
  8
0
 10
138.0117
 20
14.0478
  0
VERTEX
  8
0
 10
138.0384
 20
14.0602
  0
VERTEX
  8
0
 10
138.0565
 20
14.0707
  0
VERTEX
  8
0
 10
138.0765
 20
14.0831
  0
VERTEX
  8
0
 10
138.1165
 20
14.1107
  0
VERTEX
  8
0
 10
138.1546
 20
14.1374
  0
VERTEX
  8
0
 10
138.1965
 20
14.1707
  0
VERTEX
  8
0
 10
138.1975
 20
14.1707
  0
VERTEX
  8
0
 10
138.2299
 20
14.1974
  0
VERTEX
  8
0
 10
138.2299
 20
14.1983
  0
VERTEX
  8
0
 10
138.2585
 20
14.2212
  0
VERTEX
  8
0
 10
138.2766
 20
14.2346
  0
VERTEX
  8
0
 10
138.2918
 20
14.2403
  0
VERTEX
  8
0
 10
138.3118
 20
14.2431
  0
VERTEX
  8
0
 10
138.328
 20
14.2412
  0
VERTEX
  8
0
 10
138.3404
 20
14.2365
  0
VERTEX
  8
0
 10
138.3471
 20
14.2317
  0
VERTEX
  8
0
 10
138.3576
 20
14.2212
  0
VERTEX
  8
0
 10
138.3471
 20
14.186
  0
VERTEX
  8
0
 10
138.3395
 20
14.1698
  0
VERTEX
  8
0
 10
138.3318
 20
14.1593
  0
VERTEX
  8
0
 10
138.3061
 20
14.1288
  0
VERTEX
  8
0
 10
138.3061
 20
14.1297
  0
VERTEX
  8
0
 10
138.2909
 20
14.1107
  0
VERTEX
  8
0
 10
138.2794
 20
14.0916
  0
VERTEX
  8
0
 10
138.2728
 20
14.0802
  0
VERTEX
  8
0
 10
138.2718
 20
14.0716
  0
VERTEX
  8
0
 10
138.2728
 20
14.063
  0
VERTEX
  8
0
 10
138.2766
 20
14.0554
  0
VERTEX
  8
0
 10
138.2832
 20
14.0468
  0
VERTEX
  8
0
 10
138.2823
 20
14.0468
  0
VERTEX
  8
0
 10
138.2909
 20
14.0364
  0
VERTEX
  8
0
 10
138.3194
 20
14.0383
  0
VERTEX
  8
0
 10
138.3337
 20
14.0402
  0
VERTEX
  8
0
 10
138.3499
 20
14.044
  0
VERTEX
  8
0
 10
138.368
 20
14.0516
  0
VERTEX
  8
0
 10
138.3671
 20
14.0516
  0
VERTEX
  8
0
 10
138.4004
 20
14.0659
  0
VERTEX
  8
0
 10
138.4366
 20
14.0859
  0
VERTEX
  8
0
 10
138.4357
 20
14.0859
  0
VERTEX
  8
0
 10
138.5148
 20
14.1326
  0
VERTEX
  8
0
 10
138.5967
 20
14.186
  0
VERTEX
  8
0
 10
138.6891
 20
14.2546
  0
VERTEX
  8
0
 10
138.6901
 20
14.2555
  0
VERTEX
  8
0
 10
138.732
 20
14.2936
  0
VERTEX
  8
0
 10
138.7749
 20
14.3365
  0
VERTEX
  8
0
 10
138.793
 20
14.3537
  0
VERTEX
  8
0
 10
138.8121
 20
14.366
  0
VERTEX
  8
0
 10
138.8273
 20
14.3718
  0
VERTEX
  8
0
 10
138.8416
 20
14.3737
  0
VERTEX
  8
0
 10
138.8521
 20
14.3727
  0
VERTEX
  8
0
 10
138.8607
 20
14.3689
  0
VERTEX
  8
0
 10
138.8702
 20
14.3613
  0
VERTEX
  8
0
 10
138.8778
 20
14.3517
  0
VERTEX
  8
0
 10
138.8826
 20
14.3394
  0
VERTEX
  8
0
 10
138.8845
 20
14.3298
  0
VERTEX
  8
0
 10
138.8826
 20
14.3213
  0
VERTEX
  8
0
 10
138.8816
 20
14.3174
  0
VERTEX
  8
0
 10
138.8654
 20
14.2965
  0
VERTEX
  8
0
 10
138.8187
 20
14.2574
  0
VERTEX
  8
0
 10
138.793
 20
14.2355
  0
VERTEX
  8
0
 10
138.7663
 20
14.206
  0
VERTEX
  8
0
 10
138.7511
 20
14.186
  0
VERTEX
  8
0
 10
138.7396
 20
14.1698
  0
VERTEX
  8
0
 10
138.733
 20
14.1564
  0
VERTEX
  8
0
 10
138.7273
 20
14.1431
  0
VERTEX
  8
0
 10
138.7225
 20
14.125
  0
VERTEX
  8
0
 10
138.7206
 20
14.1088
  0
VERTEX
  8
0
 10
138.7215
 20
14.1002
  0
VERTEX
  8
0
 10
138.7244
 20
14.0945
  0
VERTEX
  8
0
 10
138.7273
 20
14.0907
  0
VERTEX
  8
0
 10
138.7301
 20
14.0878
  0
VERTEX
  8
0
 10
138.7368
 20
14.085
  0
VERTEX
  8
0
 10
138.7425
 20
14.084
  0
VERTEX
  8
0
 10
138.7673
 20
14.0878
  0
VERTEX
  8
0
 10
138.794
 20
14.0992
  0
VERTEX
  8
0
 10
138.8864
 20
14.1574
  0
VERTEX
  8
0
 10
138.8854
 20
14.1574
  0
VERTEX
  8
0
 10
138.9941
 20
14.2384
  0
VERTEX
  8
0
 10
138.995
 20
14.2384
  0
VERTEX
  8
0
 10
139.0874
 20
14.3098
  0
VERTEX
  8
0
 10
139.1341
 20
14.346
  0
VERTEX
  8
0
 10
139.1494
 20
14.3575
  0
VERTEX
  8
0
 10
139.1627
 20
14.367
  0
VERTEX
  8
0
 10
139.1722
 20
14.3718
  0
VERTEX
  8
0
 10
139.1827
 20
14.3765
  0
VERTEX
  8
0
 10
139.1961
 20
14.3794
  0
VERTEX
  8
0
 10
139.2075
 20
14.3803
  0
VERTEX
  8
0
 10
139.2208
 20
14.3784
  0
VERTEX
  8
0
 10
139.2323
 20
14.3737
  0
VERTEX
  8
0
 10
139.2399
 20
14.3679
  0
VERTEX
  8
0
 10
139.2456
 20
14.3613
  0
VERTEX
  8
0
 10
139.2504
 20
14.3527
  0
VERTEX
  8
0
 10
139.2513
 20
14.346
  0
VERTEX
  8
0
 10
139.2504
 20
14.3441
  0
VERTEX
  8
0
 10
139.2504
 20
14.3432
  0
VERTEX
  8
0
 10
139.2494
 20
14.3384
  0
VERTEX
  8
0
 10
139.2447
 20
14.3279
  0
VERTEX
  8
0
 10
139.2447
 20
14.326
  0
VERTEX
  8
0
 10
139.2408
 20
14.3213
  0
VERTEX
  8
0
 10
139.2313
 20
14.3108
  0
VERTEX
  8
0
 10
139.2237
 20
14.3022
  0
VERTEX
  8
0
 10
139.2046
 20
14.2803
  0
VERTEX
  8
0
 10
139.1837
 20
14.2574
  0
VERTEX
  8
0
 10
139.177
 20
14.2498
  0
VERTEX
  8
0
 10
139.1541
 20
14.2193
  0
VERTEX
  8
0
 10
139.1341
 20
14.1869
  0
VERTEX
  8
0
 10
139.1151
 20
14.1431
  0
VERTEX
  8
0
 10
139.1093
 20
14.1078
  0
VERTEX
  8
0
 10
139.1103
 20
14.0945
  0
VERTEX
  8
0
 10
139.117
 20
14.0802
  0
VERTEX
  8
0
 10
139.1246
 20
14.0697
  0
VERTEX
  8
0
 10
139.136
 20
14.0621
  0
VERTEX
  8
0
 10
139.1522
 20
14.0554
  0
VERTEX
  8
0
 10
139.1713
 20
14.0535
  0
VERTEX
  8
0
 10
139.1875
 20
14.0545
  0
VERTEX
  8
0
 10
139.1989
 20
14.0554
  0
VERTEX
  8
0
 10
139.198
 20
14.0554
  0
VERTEX
  8
0
 10
139.2399
 20
14.0678
  0
VERTEX
  8
0
 10
139.2942
 20
14.0897
  0
VERTEX
  8
0
 10
139.2952
 20
14.0897
  0
VERTEX
  8
0
 10
139.3476
 20
14.1154
  0
VERTEX
  8
0
 10
139.3866
 20
14.1364
  0
VERTEX
  8
0
 10
139.4266
 20
14.1612
  0
VERTEX
  8
0
 10
139.5038
 20
14.2136
  0
VERTEX
  8
0
 10
139.5829
 20
14.2679
  0
VERTEX
  8
0
 10
139.6115
 20
14.2889
  0
VERTEX
  8
0
 10
139.6467
 20
14.3146
  0
VERTEX
  8
0
 10
139.6477
 20
14.3146
  0
VERTEX
  8
0
 10
139.6629
 20
14.3279
  0
VERTEX
  8
0
 10
139.6782
 20
14.3432
  0
VERTEX
  8
0
 10
139.7058
 20
14.3775
  0
VERTEX
  8
0
 10
139.7859
 20
14.4813
  0
VERTEX
  8
0
 10
139.7801
 20
14.4871
  0
VERTEX
  8
0
 10
139.7477
 20
14.4813
  0
VERTEX
  8
0
 10
139.7354
 20
14.4785
  0
VERTEX
  8
0
 10
139.6915
 20
14.468
  0
VERTEX
  8
0
 10
139.6487
 20
14.4585
  0
VERTEX
  8
0
 10
139.641
 20
14.4556
  0
VERTEX
  8
0
 10
139.6153
 20
14.447
  0
VERTEX
  8
0
 10
139.6001
 20
14.4442
  0
VERTEX
  8
0
 10
139.5972
 20
14.4451
  0
VERTEX
  8
0
 10
139.5953
 20
14.4461
  0
VERTEX
  8
0
 10
139.5934
 20
14.447
  0
VERTEX
  8
0
 10
139.5924
 20
14.4489
  0
VERTEX
  8
0
 10
139.5915
 20
14.4518
  0
VERTEX
  8
0
 10
139.5915
 20
14.4547
  0
VERTEX
  8
0
 10
139.5943
 20
14.4737
  0
VERTEX
  8
0
 10
139.602
 20
14.4909
  0
VERTEX
  8
0
 10
139.6124
 20
14.5042
  0
VERTEX
  8
0
 10
139.622
 20
14.5109
  0
VERTEX
  8
0
 10
139.6248
 20
14.5128
  0
VERTEX
  8
0
 10
139.6296
 20
14.5128
  0
VERTEX
  8
0
 10
139.6344
 20
14.5128
  0
VERTEX
  8
0
 10
139.6372
 20
14.5118
  0
VERTEX
  8
0
 10
139.6563
 20
14.5052
  0
VERTEX
  8
0
 10
139.6591
 20
14.5042
  0
VERTEX
  8
0
 10
139.662
 20
14.5042
  0
VERTEX
  8
0
 10
139.6658
 20
14.5052
  0
VERTEX
  8
0
 10
139.6763
 20
14.5071
  0
VERTEX
  8
0
 10
139.7115
 20
14.508
  0
VERTEX
  8
0
 10
139.722
 20
14.509
  0
VERTEX
  8
0
 10
139.7487
 20
14.5128
  0
VERTEX
  8
0
 10
139.7697
 20
14.5156
  0
VERTEX
  8
0
 10
139.7897
 20
14.5185
  0
VERTEX
  8
0
 10
139.8183
 20
14.5242
  0
VERTEX
  8
0
 10
139.8192
 20
14.5242
  0
VERTEX
  8
0
 10
139.8297
 20
14.529
  0
VERTEX
  8
0
 10
139.8592
 20
14.5566
  0
VERTEX
  8
0
 10
139.8583
 20
14.5566
  0
VERTEX
  8
0
 10
139.8754
 20
14.5747
  0
VERTEX
  8
0
 10
139.884
 20
14.5861
  0
VERTEX
  8
0
 10
139.8907
 20
14.6023
  0
VERTEX
  8
0
 10
139.8992
 20
14.63
  0
VERTEX
  8
0
 10
139.9288
 20
14.6414
  0
VERTEX
  8
0
 10
139.945
 20
14.6433
  0
VERTEX
  8
0
 10
139.9574
 20
14.6414
  0
VERTEX
  8
0
 10
139.9764
 20
14.6338
  0
VERTEX
  8
0
 10
139.986
 20
14.6281
  0
VERTEX
  8
0
 10
139.9974
 20
14.6195
  0
VERTEX
  8
0
 10
139.9974
 20
14.5928
  0
VERTEX
  8
0
 10
139.9536
 20
14.5547
  0
VERTEX
  8
0
 10
139.9536
 20
14.5452
  0
VERTEX
  8
0
 10
139.9831
 20
14.5433
  0
VERTEX
  8
0
 10
139.9955
 20
14.5423
  0
VERTEX
  8
0
 10
140.0098
 20
14.5433
  0
VERTEX
  8
0
 10
140.0565
 20
14.548
  0
VERTEX
  8
0
 10
140.0898
 20
14.5509
  0
VERTEX
  8
0
 10
140.106
 20
14.5518
  0
VERTEX
  8
0
 10
140.1136
 20
14.5528
  0
VERTEX
  8
0
 10
140.1498
 20
14.5576
  0
VERTEX
  8
0
 10
140.166
 20
14.5585
  0
VERTEX
  8
0
 10
140.1727
 20
14.5576
  0
VERTEX
  8
0
 10
140.1803
 20
14.5547
  0
VERTEX
  8
0
 10
140.1841
 20
14.5518
  0
VERTEX
  8
0
 10
140.187
 20
14.548
  0
VERTEX
  8
0
 10
140.1861
 20
14.548
  0
VERTEX
  8
0
 10
140.187
 20
14.5471
  0
VERTEX
  8
0
 10
140.188
 20
14.5452
  0
VERTEX
  8
0
 10
140.188
 20
14.5433
  0
VERTEX
  8
0
 10
140.187
 20
14.5414
  0
VERTEX
  8
0
 10
140.1851
 20
14.5385
  0
VERTEX
  8
0
 10
140.1832
 20
14.5376
  0
VERTEX
  8
0
 10
140.1794
 20
14.5356
  0
VERTEX
  8
0
 10
140.1737
 20
14.5337
  0
VERTEX
  8
0
 10
140.1518
 20
14.5328
  0
VERTEX
  8
0
 10
140.1174
 20
14.529
  0
VERTEX
  8
0
 10
140.0612
 20
14.5233
  0
VERTEX
  8
0
 10
140.0041
 20
14.5185
  0
VERTEX
  8
0
 10
139.9793
 20
14.5156
  0
VERTEX
  8
0
 10
139.9564
 20
14.5128
  0
VERTEX
  8
0
 10
139.9221
 20
14.5061
  0
VERTEX
  8
0
 10
139.9097
 20
14.5013
  0
VERTEX
  8
0
 10
139.8907
 20
14.488
  0
VERTEX
  8
0
 10
139.8745
 20
14.4718
  0
VERTEX
  8
0
 10
139.8392
 20
14.4261
  0
VERTEX
  8
0
 10
139.8078
 20
14.3775
  0
VERTEX
  8
0
 10
139.7868
 20
14.347
  0
VERTEX
  8
0
 10
139.7868
 20
14.346
  0
VERTEX
  8
0
 10
139.7573
 20
14.307
  0
VERTEX
  8
0
 10
139.7239
 20
14.2612
  0
VERTEX
  8
0
 10
139.7058
 20
14.2336
  0
VERTEX
  8
0
 10
139.6925
 20
14.2022
  0
VERTEX
  8
0
 10
139.6839
 20
14.164
  0
VERTEX
  8
0
 10
139.683
 20
14.1517
  0
VERTEX
  8
0
 10
139.682
 20
14.1393
  0
VERTEX
  8
0
 10
139.6839
 20
14.124
  0
VERTEX
  8
0
 10
139.6877
 20
14.1145
  0
VERTEX
  8
0
 10
139.6906
 20
14.1107
  0
VERTEX
  8
0
 10
139.6963
 20
14.1059
  0
VERTEX
  8
0
 10
139.7058
 20
14.1021
  0
VERTEX
  8
0
 10
139.7134
 20
14.1012
  0
VERTEX
  8
0
 10
139.7382
 20
14.104
  0
VERTEX
  8
0
 10
139.7678
 20
14.1174
  0
VERTEX
  8
0
 10
139.7897
 20
14.1307
  0
VERTEX
  8
0
 10
139.8183
 20
14.1488
  0
VERTEX
  8
0
 10
139.8669
 20
14.1812
  0
VERTEX
  8
0
 10
139.8888
 20
14.1964
  0
VERTEX
  8
0
 10
139.925
 20
14.2231
  0
VERTEX
  8
0
 10
139.9564
 20
14.2498
  0
VERTEX
  8
0
 10
139.9926
 20
14.2831
  0
VERTEX
  8
0
 10
140.0155
 20
14.3127
  0
VERTEX
  8
0
 10
140.0555
 20
14.366
  0
VERTEX
  8
0
 10
140.0736
 20
14.3813
  0
VERTEX
  8
0
 10
140.0803
 20
14.3841
  0
VERTEX
  8
0
 10
140.0965
 20
14.3861
  0
VERTEX
  8
0
 10
140.106
 20
14.3841
  0
VERTEX
  8
0
 10
140.1136
 20
14.3813
  0
VERTEX
  8
0
 10
140.1194
 20
14.3765
  0
VERTEX
  8
0
 10
140.1241
 20
14.3708
  0
VERTEX
  8
0
 10
140.1279
 20
14.3622
  0
VERTEX
  8
0
 10
140.1289
 20
14.3546
  0
VERTEX
  8
0
 10
140.127
 20
14.3394
  0
VERTEX
  8
0
 10
140.1213
 20
14.327
  0
VERTEX
  8
0
 10
140.1136
 20
14.3146
  0
VERTEX
  8
0
 10
140.107
 20
14.307
  0
VERTEX
  8
0
 10
140.0641
 20
14.2622
  0
VERTEX
  8
0
 10
140.0498
 20
14.245
  0
VERTEX
  8
0
 10
140.0355
 20
14.2231
  0
VERTEX
  8
0
 10
140.0241
 20
14.2002
  0
VERTEX
  8
0
 10
140.0174
 20
14.1764
  0
VERTEX
  8
0
 10
140.0155
 20
14.1631
  0
VERTEX
  8
0
 10
140.0145
 20
14.1517
  0
VERTEX
  8
0
 10
140.0155
 20
14.1345
  0
VERTEX
  8
0
 10
140.0203
 20
14.1231
  0
VERTEX
  8
0
 10
140.025
 20
14.1174
  0
VERTEX
  8
0
 10
140.0317
 20
14.1126
  0
VERTEX
  8
0
 10
140.0479
 20
14.105
  0
VERTEX
  8
0
 10
140.0603
 20
14.1031
  0
VERTEX
  8
0
 10
140.0889
 20
14.105
  0
VERTEX
  8
0
 10
140.1174
 20
14.1107
  0
VERTEX
  8
0
 10
140.1632
 20
14.1231
  0
VERTEX
  8
0
 10
140.2061
 20
14.1393
  0
VERTEX
  8
0
 10
140.207
 20
14.1393
  0
VERTEX
  8
0
 10
140.3242
 20
14.1869
  0
VERTEX
  8
0
 10
140.3595
 20
14.2031
  0
VERTEX
  8
0
 10
140.4376
 20
14.2441
  0
VERTEX
  8
0
 10
140.511
 20
14.2841
  0
VERTEX
  8
0
 10
140.5891
 20
14.3279
  0
VERTEX
  8
0
 10
140.6225
 20
14.3517
  0
VERTEX
  8
0
 10
140.6367
 20
14.3651
  0
VERTEX
  8
0
 10
140.8178
 20
14.6262
  0
VERTEX
  8
0
 10
140.8302
 20
14.6414
  0
VERTEX
  8
0
 10
140.8578
 20
14.7005
  0
VERTEX
  8
0
 10
140.8654
 20
14.7072
  0
VERTEX
  8
0
 10
140.874
 20
14.7138
  0
VERTEX
  8
0
 10
140.8892
 20
14.7186
  0
VERTEX
  8
0
 10
140.9007
 20
14.7205
  0
VERTEX
  8
0
 10
140.9093
 20
14.7195
  0
VERTEX
  8
0
 10
140.9188
 20
14.7157
  0
VERTEX
  8
0
 10
140.9264
 20
14.7091
  0
VERTEX
  8
0
 10
140.9312
 20
14.7033
  0
VERTEX
  8
0
 10
140.935
 20
14.6919
  0
VERTEX
  8
0
 10
140.9369
 20
14.6805
  0
VERTEX
  8
0
 10
140.9331
 20
14.6605
  0
VERTEX
  8
0
 10
140.9245
 20
14.6395
  0
VERTEX
  8
0
 10
140.9188
 20
14.63
  0
VERTEX
  8
0
 10
140.9112
 20
14.6214
  0
VERTEX
  8
0
 10
140.8816
 20
14.5871
  0
VERTEX
  8
0
 10
140.6844
 20
14.2927
  0
VERTEX
  8
0
 10
140.6282
 20
14.206
  0
VERTEX
  8
0
 10
140.9274
 20
14.2803
  0
VERTEX
  8
0
 10
141.0836
 20
14.3117
  0
VERTEX
  8
0
 10
141.1379
 20
14.3289
  0
VERTEX
  8
0
 10
141.1942
 20
14.3394
  0
VERTEX
  8
0
 10
141.2218
 20
14.3556
  0
VERTEX
  8
0
 10
141.2285
 20
14.3575
  0
VERTEX
  8
0
 10
141.2342
 20
14.3584
  0
VERTEX
  8
0
 10
141.2399
 20
14.3575
  0
VERTEX
  8
0
 10
141.2466
 20
14.3546
  0
VERTEX
  8
0
 10
141.2551
 20
14.3479
  0
VERTEX
  8
0
 10
141.2618
 20
14.3394
  0
VERTEX
  8
0
 10
141.2656
 20
14.3298
  0
VERTEX
  8
0
 10
141.2666
 20
14.3194
  0
VERTEX
  8
0
 10
141.2647
 20
14.307
  0
VERTEX
  8
0
 10
141.2609
 20
14.2955
  0
VERTEX
  8
0
 10
141.2494
 20
14.2784
  0
VERTEX
  8
0
 10
141.2304
 20
14.2584
  0
VERTEX
  8
0
 10
141.2056
 20
14.2317
  0
VERTEX
  8
0
 10
141.1942
 20
14.2174
  0
VERTEX
  8
0
 10
141.1846
 20
14.205
  0
VERTEX
  8
0
 10
141.1637
 20
14.1764
  0
VERTEX
  8
0
 10
141.1341
 20
14.1316
  0
VERTEX
  8
0
 10
141.1275
 20
14.1221
  0
VERTEX
  8
0
 10
141.1227
 20
14.1145
  0
VERTEX
  8
0
 10
141.1151
 20
14.0973
  0
VERTEX
  8
0
 10
141.1132
 20
14.0821
  0
VERTEX
  8
0
 10
141.1141
 20
14.0735
  0
VERTEX
  8
0
 10
141.117
 20
14.0659
  0
VERTEX
  8
0
 10
141.1208
 20
14.0621
  0
VERTEX
  8
0
 10
141.1255
 20
14.0592
  0
VERTEX
  8
0
 10
141.1322
 20
14.0554
  0
VERTEX
  8
0
 10
141.137
 20
14.0554
  0
VERTEX
  8
0
 10
141.1589
 20
14.0592
  0
VERTEX
  8
0
 10
141.1989
 20
14.0811
  0
VERTEX
  8
0
 10
141.2142
 20
14.0916
  0
VERTEX
  8
0
 10
141.2294
 20
14.1012
  0
VERTEX
  8
0
 10
141.2399
 20
14.1078
  0
VERTEX
  8
0
 10
141.2694
 20
14.1221
  0
VERTEX
  8
0
 10
141.3199
 20
14.1507
  0
VERTEX
  8
0
 10
141.3657
 20
14.1764
  0
VERTEX
  8
0
 10
141.4028
 20
14.1983
  0
VERTEX
  8
0
 10
141.4409
 20
14.2212
  0
VERTEX
  8
0
 10
141.4724
 20
14.2431
  0
VERTEX
  8
0
 10
141.4924
 20
14.2574
  0
VERTEX
  8
0
 10
141.5143
 20
14.2755
  0
VERTEX
  8
0
 10
141.5372
 20
14.2993
  0
VERTEX
  8
0
 10
141.5381
 20
14.2993
  0
VERTEX
  8
0
 10
141.581
 20
14.3394
  0
VERTEX
  8
0
 10
141.6096
 20
14.3603
  0
VERTEX
  8
0
 10
141.6172
 20
14.3632
  0
VERTEX
  8
0
 10
141.6267
 20
14.3641
  0
VERTEX
  8
0
 10
141.6334
 20
14.3632
  0
VERTEX
  8
0
 10
141.6382
 20
14.3613
  0
VERTEX
  8
0
 10
141.6429
 20
14.3584
  0
VERTEX
  8
0
 10
141.6458
 20
14.3537
  0
VERTEX
  8
0
 10
141.6496
 20
14.3451
  0
VERTEX
  8
0
 10
141.6506
 20
14.3375
  0
VERTEX
  8
0
 10
141.6487
 20
14.3251
  0
VERTEX
  8
0
 10
141.6448
 20
14.3165
  0
VERTEX
  8
0
 10
141.6391
 20
14.3089
  0
VERTEX
  8
0
 10
141.6182
 20
14.2822
  0
VERTEX
  8
0
 10
141.6001
 20
14.2603
  0
VERTEX
  8
0
 10
141.5686
 20
14.2174
  0
VERTEX
  8
0
 10
141.5505
 20
14.1926
  0
VERTEX
  8
0
 10
141.5305
 20
14.1583
  0
VERTEX
  8
0
 10
141.5048
 20
14.0973
  0
VERTEX
  8
0
 10
141.4991
 20
14.063
  0
VERTEX
  8
0
 10
141.501
 20
14.0545
  0
VERTEX
  8
0
 10
141.5067
 20
14.0383
  0
VERTEX
  8
0
 10
141.5153
 20
14.0268
  0
VERTEX
  8
0
 10
141.5238
 20
14.0202
  0
VERTEX
  8
0
 10
141.541
 20
14.0135
  0
VERTEX
  8
0
 10
141.5648
 20
14.0106
  0
VERTEX
  8
0
 10
141.582
 20
14.0116
  0
VERTEX
  8
0
 10
141.5934
 20
14.0125
  0
VERTEX
  8
0
 10
141.6639
 20
14.0249
  0
VERTEX
  8
0
 10
141.6629
 20
14.0249
  0
VERTEX
  8
0
 10
141.7563
 20
14.0487
  0
VERTEX
  8
0
 10
141.8507
 20
14.0764
  0
VERTEX
  8
0
 10
141.8497
 20
14.0764
  0
VERTEX
  8
0
 10
141.9145
 20
14.0983
  0
VERTEX
  8
0
 10
141.9145
 20
14.0992
  0
VERTEX
  8
0
 10
141.9841
 20
14.1269
  0
VERTEX
  8
0
 10
142.0755
 20
14.1679
  0
VERTEX
  8
0
 10
142.1975
 20
14.2288
  0
VERTEX
  8
0
 10
142.2184
 20
14.2412
  0
VERTEX
  8
0
 10
142.2356
 20
14.2565
  0
VERTEX
  8
0
 10
142.5519
 20
14.5566
  0
VERTEX
  8
0
 10
142.5634
 20
14.5671
  0
VERTEX
  8
0
 10
142.5777
 20
14.5757
  0
VERTEX
  8
0
 10
142.5996
 20
14.5861
  0
VERTEX
  8
0
 10
142.6196
 20
14.589
  0
VERTEX
  8
0
 10
142.6301
 20
14.5871
  0
VERTEX
  8
0
 10
142.6425
 20
14.5823
  0
VERTEX
  8
0
 10
142.6529
 20
14.5747
  0
VERTEX
  8
0
 10
142.6596
 20
14.5661
  0
VERTEX
  8
0
 10
142.6625
 20
14.5604
  0
VERTEX
  8
0
 10
142.6634
 20
14.5547
  0
VERTEX
  8
0
 10
142.6625
 20
14.548
  0
VERTEX
  8
0
 10
142.6606
 20
14.5433
  0
VERTEX
  8
0
 10
142.6577
 20
14.5395
  0
VERTEX
  8
0
 10
142.6548
 20
14.5376
  0
VERTEX
  8
0
 10
142.369
 20
14.3022
  0
VERTEX
  8
0
 10
142.328
 20
14.2641
  0
VERTEX
  8
0
 10
142.2909
 20
14.2222
  0
VERTEX
  8
0
 10
142.2318
 20
14.144
  0
VERTEX
  8
0
 10
142.1765
 20
14.063
  0
VERTEX
  8
0
 10
142.166
 20
14.0449
  0
VERTEX
  8
0
 10
142.1584
 20
14.0306
  0
VERTEX
  8
0
 10
142.1527
 20
14.0173
  0
VERTEX
  8
0
 10
142.1432
 20
13.9897
  0
VERTEX
  8
0
 10
142.1422
 20
13.9897
  0
VERTEX
  8
0
 10
142.1394
 20
13.9601
  0
VERTEX
  8
0
 10
142.1422
 20
13.9325
  0
VERTEX
  8
0
 10
142.1527
 20
13.9106
  0
VERTEX
  8
0
 10
142.1622
 20
13.8982
  0
VERTEX
  8
0
 10
142.1737
 20
13.8887
  0
VERTEX
  8
0
 10
142.1994
 20
13.8782
  0
VERTEX
  8
0
 10
142.2261
 20
13.8744
  0
VERTEX
  8
0
 10
142.2604
 20
13.8772
  0
VERTEX
  8
0
 10
142.3061
 20
13.8858
  0
VERTEX
  8
0
 10
142.673
 20
13.9735
  0
VERTEX
  8
0
 10
142.9407
 20
14.0221
  0
VERTEX
  8
0
 10
143.3904
 20
14.0754
  0
VERTEX
  8
0
 10
143.7373
 20
14.1012
  0
VERTEX
  8
0
 10
143.8459
 20
14.1088
  0
VERTEX
  8
0
 10
143.9021
 20
14.1097
  0
VERTEX
  8
0
 10
143.9536
 20
14.1097
  0
VERTEX
  8
0
 10
144.0288
 20
14.1088
  0
VERTEX
  8
0
 10
144.0488
 20
14.1088
  0
VERTEX
  8
0
 10
144.065
 20
14.1107
  0
VERTEX
  8
0
 10
144.0736
 20
14.1116
  0
VERTEX
  8
0
 10
144.0822
 20
14.1145
  0
VERTEX
  8
0
 10
144.1051
 20
14.1221
  0
VERTEX
  8
0
 10
144.1127
 20
14.1231
  0
VERTEX
  8
0
 10
144.1155
 20
14.1221
  0
VERTEX
  8
0
 10
144.1222
 20
14.1193
  0
VERTEX
  8
0
 10
144.126
 20
14.1164
  0
VERTEX
  8
0
 10
144.1298
 20
14.1116
  0
VERTEX
  8
0
 10
144.1317
 20
14.1059
  0
VERTEX
  8
0
 10
144.1317
 20
14.1021
  0
VERTEX
  8
0
 10
144.1317
 20
14.0983
  0
VERTEX
  8
0
 10
144.1298
 20
14.0954
  0
VERTEX
  8
0
 10
144.127
 20
14.0916
  0
VERTEX
  8
0
 10
144.1203
 20
14.0831
  0
VERTEX
  8
0
 10
144.1146
 20
14.0764
  0
VERTEX
  8
0
 10
144.1079
 20
14.0678
  0
VERTEX
  8
0
 10
144.0974
 20
14.0497
  0
VERTEX
  8
0
 10
144.0479
 20
14.0545
  0
VERTEX
  8
0
 10
144.0231
 20
14.0564
  0
VERTEX
  8
0
 10
143.9507
 20
14.0535
  0
VERTEX
  8
0
 10
143.762
 20
14.0468
  0
VERTEX
  8
0
 10
143.6963
 20
14.043
  0
VERTEX
  8
0
 10
143.5743
 20
14.0325
  0
VERTEX
  8
0
 10
143.016
 20
13.9792
  0
VERTEX
  8
0
 10
142.7787
 20
13.9363
  0
VERTEX
  8
0
 10
142.2842
 20
13.8182
  0
VERTEX
  8
0
 10
142.2566
 20
13.8134
  0
VERTEX
  8
0
 10
142.2299
 20
13.8115
  0
VERTEX
  8
0
 10
142.2308
 20
13.8115
  0
VERTEX
  8
0
 10
142.2042
 20
13.8134
  0
VERTEX
  8
0
 10
142.1803
 20
13.8182
  0
VERTEX
  8
0
 10
142.1594
 20
13.8248
  0
VERTEX
  8
0
 10
142.1384
 20
13.8344
  0
VERTEX
  8
0
 10
142.1155
 20
13.8525
  0
VERTEX
  8
0
 10
142.0965
 20
13.8791
  0
VERTEX
  8
0
 10
142.0803
 20
13.9115
  0
VERTEX
  8
0
 10
142.0774
 20
13.9335
  0
VERTEX
  8
0
 10
142.0803
 20
13.9725
  0
VERTEX
  8
0
 10
142.0917
 20
14.0116
  0
VERTEX
  8
0
 10
142.1184
 20
14.0735
  0
VERTEX
  8
0
 10
142.1518
 20
14.1326
  0
VERTEX
  8
0
 10
142.1413
 20
14.1421
  0
VERTEX
  8
0
 10
142.0488
 20
14.0992
  0
VERTEX
  8
0
 10
142.0012
 20
14.0792
  0
VERTEX
  8
0
 10
141.9393
 20
14.0535
  0
VERTEX
  8
0
 10
141.8592
 20
14.023
  0
VERTEX
  8
0
 10
141.783
 20
13.9973
  0
VERTEX
  8
0
 10
141.7134
 20
13.9754
  0
VERTEX
  8
0
 10
141.6258
 20
13.9554
  0
VERTEX
  8
0
 10
141.5877
 20
13.9506
  0
VERTEX
  8
0
 10
141.5496
 20
13.9487
  0
VERTEX
  8
0
 10
141.5134
 20
13.9535
  0
VERTEX
  8
0
 10
141.5134
 20
13.9525
  0
VERTEX
  8
0
 10
141.4819
 20
13.9649
  0
VERTEX
  8
0
 10
141.4648
 20
13.9773
  0
VERTEX
  8
0
 10
141.4524
 20
13.9944
  0
VERTEX
  8
0
 10
141.4476
 20
14.0059
  0
VERTEX
  8
0
 10
141.4428
 20
14.0183
  0
VERTEX
  8
0
 10
141.4362
 20
14.044
  0
VERTEX
  8
0
 10
141.4352
 20
14.0583
  0
VERTEX
  8
0
 10
141.4371
 20
14.0811
  0
VERTEX
  8
0
 10
141.4419
 20
14.104
  0
VERTEX
  8
0
 10
141.4552
 20
14.1421
  0
VERTEX
  8
0
 10
141.4705
 20
14.1793
  0
VERTEX
  8
0
 10
141.4648
 20
14.185
  0
VERTEX
  8
0
 10
141.4066
 20
14.1402
  0
VERTEX
  8
0
 10
141.3666
 20
14.1088
  0
VERTEX
  8
0
 10
141.3552
 20
14.1012
  0
VERTEX
  8
0
 10
141.3399
 20
14.0926
  0
VERTEX
  8
0
 10
141.2265
 20
14.0297
  0
VERTEX
  8
0
 10
141.1942
 20
14.0135
  0
VERTEX
  8
0
 10
141.1751
 20
14.0049
  0
VERTEX
  8
0
 10
141.176
 20
14.0049
  0
VERTEX
  8
0
 10
141.1503
 20
13.9963
  0
VERTEX
  8
0
 10
141.1208
 20
13.9916
  0
VERTEX
  8
0
 10
141.1093
 20
13.9906
  0
VERTEX
  8
0
 10
141.0979
 20
13.9906
  0
VERTEX
  8
0
 10
141.0731
 20
13.9935
  0
VERTEX
  8
0
 10
141.0569
 20
13.9992
  0
VERTEX
  8
0
 10
141.0493
 20
14.0049
  0
VERTEX
  8
0
 10
141.0427
 20
14.0125
  0
VERTEX
  8
0
 10
141.036
 20
14.0297
  0
VERTEX
  8
0
 10
141.0341
 20
14.0449
  0
VERTEX
  8
0
 10
141.0379
 20
14.0802
  0
VERTEX
  8
0
 10
141.0512
 20
14.1212
  0
VERTEX
  8
0
 10
141.0665
 20
14.1526
  0
VERTEX
  8
0
 10
141.0827
 20
14.1841
  0
VERTEX
  8
0
 10
141.097
 20
14.206
  0
VERTEX
  8
0
 10
141.1275
 20
14.2507
  0
VERTEX
  8
0
 10
141.1189
 20
14.2593
  0
VERTEX
  8
0
 10
140.9521
 20
14.2326
  0
VERTEX
  8
0
 10
140.6587
 20
14.1574
  0
VERTEX
  8
0
 10
140.611
 20
14.1431
  0
VERTEX
  8
0
 10
140.5872
 20
14.1326
  0
VERTEX
  8
0
 10
140.5767
 20
14.125
  0
VERTEX
  8
0
 10
140.5681
 20
14.1145
  0
VERTEX
  8
0
 10
140.5653
 20
14.1088
  0
VERTEX
  8
0
 10
140.5615
 20
14.0992
  0
VERTEX
  8
0
 10
140.5958
 20
14.0773
  0
VERTEX
  8
0
 10
140.6272
 20
14.0526
  0
VERTEX
  8
0
 10
140.6434
 20
14.0354
  0
VERTEX
  8
0
 10
140.6568
 20
14.0164
  0
VERTEX
  8
0
 10
140.6653
 20
13.9954
  0
VERTEX
  8
0
 10
140.6682
 20
13.963
  0
VERTEX
  8
0
 10
140.6634
 20
13.9106
  0
VERTEX
  8
0
 10
140.6472
 20
13.8515
  0
VERTEX
  8
0
 10
140.6253
 20
13.801
  0
VERTEX
  8
0
 10
140.5986
 20
13.7496
  0
VERTEX
  8
0
 10
140.5624
 20
13.6933
  0
VERTEX
  8
0
 10
140.5624
 20
13.6943
  0
VERTEX
  8
0
 10
140.5348
 20
13.6571
  0
VERTEX
  8
0
 10
140.4729
 20
13.5876
  0
VERTEX
  8
0
 10
140.4729
 20
13.5866
  0
VERTEX
  8
0
 10
140.4195
 20
13.5285
  0
VERTEX
  8
0
 10
140.3633
 20
13.4723
  0
VERTEX
  8
0
 10
140.3642
 20
13.4723
  0
VERTEX
  8
0
 10
140.3433
 20
13.4551
  0
VERTEX
  8
0
 10
140.3194
 20
13.4389
  0
VERTEX
  8
0
 10
140.3204
 20
13.4389
  0
VERTEX
  8
0
 10
140.3109
 20
13.4351
  0
VERTEX
  8
0
 10
140.2966
 20
13.4342
  0
VERTEX
  8
0
 10
140.2851
 20
13.4361
  0
VERTEX
  8
0
 10
140.2737
 20
13.4399
  0
VERTEX
  8
0
 10
140.2594
 20
13.4513
  0
VERTEX
  8
0
 10
140.2489
 20
13.4637
  0
VERTEX
  8
0
 10
140.2375
 20
13.4894
  0
VERTEX
  8
0
 10
140.2346
 20
13.5104
  0
VERTEX
  8
0
 10
140.2413
 20
13.5552
  0
VERTEX
  8
0
 10
140.2766
 20
13.6667
  0
VERTEX
  8
0
 10
140.3223
 20
13.7972
  0
VERTEX
  8
0
 10
140.3414
 20
13.842
  0
VERTEX
  8
0
 10
140.3804
 20
13.9239
  0
VERTEX
  8
0
 10
140.4081
 20
13.9754
  0
VERTEX
  8
0
 10
140.4443
 20
14.0449
  0
VERTEX
  8
0
 10
140.4395
 20
14.0507
  0
VERTEX
  8
0
 10
140.3461
 20
14.0278
  0
VERTEX
  8
0
 10
140.3404
 20
14.0421
  0
VERTEX
  8
0
 10
140.3376
 20
14.0545
  0
VERTEX
  8
0
 10
140.3385
 20
14.0602
  0
VERTEX
  8
0
 10
140.3414
 20
14.0659
  0
VERTEX
  8
0
 10
140.3433
 20
14.0678
  0
VERTEX
  8
0
 10
140.3452
 20
14.0707
  0
VERTEX
  8
0
 10
140.3614
 20
14.084
  0
VERTEX
  8
0
 10
140.3795
 20
14.0954
  0
VERTEX
  8
0
 10
140.3785
 20
14.0954
  0
VERTEX
  8
0
 10
140.4214
 20
14.1193
  0
VERTEX
  8
0
 10
140.4538
 20
14.1316
  0
VERTEX
  8
0
 10
140.4976
 20
14.145
  0
VERTEX
  8
0
 10
140.51
 20
14.1507
  0
VERTEX
  8
0
 10
140.5176
 20
14.1564
  0
VERTEX
  8
0
 10
140.5291
 20
14.1698
  0
VERTEX
  8
0
 10
140.5357
 20
14.1783
  0
VERTEX
  8
0
 10
140.5415
 20
14.1888
  0
VERTEX
  8
0
 10
140.5462
 20
14.1974
  0
VERTEX
  8
0
 10
140.5472
 20
14.1974
  0
VERTEX
  8
0
 10
140.5529
 20
14.2107
  0
VERTEX
  8
0
 10
140.5596
 20
14.225
  0
VERTEX
  8
0
 10
140.572
 20
14.2555
  0
VERTEX
  8
0
 10
140.5662
 20
14.2612
  0
VERTEX
  8
0
 10
140.4062
 20
14.1802
  0
VERTEX
  8
0
 10
140.3252
 20
14.1412
  0
VERTEX
  8
0
 10
140.2556
 20
14.1107
  0
VERTEX
  8
0
 10
140.1908
 20
14.084
  0
VERTEX
  8
0
 10
140.1508
 20
14.0707
  0
VERTEX
  8
0
 10
140.1108
 20
14.0611
  0
VERTEX
  8
0
 10
140.0755
 20
14.0564
  0
VERTEX
  8
0
 10
140.0412
 20
14.0545
  0
VERTEX
  8
0
 10
140.0145
 20
14.0583
  0
VERTEX
  8
0
 10
139.9907
 20
14.0678
  0
VERTEX
  8
0
 10
139.9755
 20
14.0792
  0
VERTEX
  8
0
 10
139.965
 20
14.0907
  0
VERTEX
  8
0
 10
139.9574
 20
14.1097
  0
VERTEX
  8
0
 10
139.9545
 20
14.1316
  0
VERTEX
  8
0
 10
139.9555
 20
14.1488
  0
VERTEX
  8
0
 10
139.9574
 20
14.1726
  0
VERTEX
  8
0
 10
139.9478
 20
14.1774
  0
VERTEX
  8
0
 10
139.8726
 20
14.1202
  0
VERTEX
  8
0
 10
139.8287
 20
14.0888
  0
VERTEX
  8
0
 10
139.7916
 20
14.0659
  0
VERTEX
  8
0
 10
139.7925
 20
14.0659
  0
VERTEX
  8
0
 10
139.7468
 20
14.0468
  0
VERTEX
  8
0
 10
139.7249
 20
14.0411
  0
VERTEX
  8
0
 10
139.7039
 20
14.0402
  0
VERTEX
  8
0
 10
139.6839
 20
14.0421
  0
VERTEX
  8
0
 10
139.6629
 20
14.0516
  0
VERTEX
  8
0
 10
139.6439
 20
14.0659
  0
VERTEX
  8
0
 10
139.6305
 20
14.0831
  0
VERTEX
  8
0
 10
139.6182
 20
14.1145
  0
VERTEX
  8
0
 10
139.6144
 20
14.144
  0
VERTEX
  8
0
 10
139.6153
 20
14.1717
  0
VERTEX
  8
0
 10
139.621
 20
14.2079
  0
VERTEX
  8
0
 10
139.6144
 20
14.2136
  0
VERTEX
  8
0
 10
139.5114
 20
14.1478
  0
VERTEX
  8
0
 10
139.4486
 20
14.1097
  0
VERTEX
  8
0
 10
139.3933
 20
14.0754
  0
VERTEX
  8
0
 10
139.3314
 20
14.044
  0
VERTEX
  8
0
 10
139.2656
 20
14.0202
  0
VERTEX
  8
0
 10
139.2132
 20
14.0087
  0
VERTEX
  8
0
 10
139.1598
 20
14.004
  0
VERTEX
  8
0
 10
139.1322
 20
14.0087
  0
VERTEX
  8
0
 10
139.1008
 20
14.0221
  0
VERTEX
  8
0
 10
139.076
 20
14.0402
  0
VERTEX
  8
0
 10
139.056
 20
14.0659
  0
VERTEX
  8
0
 10
139.0436
 20
14.0945
  0
VERTEX
  8
0
 10
139.0407
 20
14.1183
  0
VERTEX
  8
0
 10
139.0436
 20
14.1497
  0
VERTEX
  8
0
 10
139.0579
 20
14.2012
  0
VERTEX
  8
0
 10
139.0036
 20
14.1621
  0
VERTEX
  8
0
 10
138.976
 20
14.1431
  0
VERTEX
  8
0
 10
138.9169
 20
14.104
  0
VERTEX
  8
0
 10
138.9159
 20
14.1031
  0
VERTEX
  8
0
 10
138.8711
 20
14.0764
  0
VERTEX
  8
0
 10
138.8711
 20
14.0773
  0
VERTEX
  8
0
 10
138.8435
 20
14.0611
  0
VERTEX
  8
0
 10
138.8121
 20
14.0449
  0
VERTEX
  8
0
 10
138.7816
 20
14.0306
  0
VERTEX
  8
0
 10
138.7482
 20
14.0202
  0
VERTEX
  8
0
 10
138.7254
 20
14.0154
  0
VERTEX
  8
0
 10
138.7006
 20
14.0135
  0
VERTEX
  8
0
 10
138.6863
 20
14.0154
  0
VERTEX
  8
0
 10
138.6691
 20
14.023
  0
VERTEX
  8
0
 10
138.6568
 20
14.0325
  0
VERTEX
  8
0
 10
138.6472
 20
14.0449
  0
VERTEX
  8
0
 10
138.6386
 20
14.063
  0
VERTEX
  8
0
 10
138.6358
 20
14.0773
  0
VERTEX
  8
0
 10
138.6396
 20
14.105
  0
VERTEX
  8
0
 10
138.6529
 20
14.1469
  0
VERTEX
  8
0
 10
138.6472
 20
14.1517
  0
VERTEX
  8
0
 10
138.5519
 20
14.0954
  0
VERTEX
  8
0
 10
138.5014
 20
14.063
  0
VERTEX
  8
0
 10
138.5014
 20
14.0621
  0
VERTEX
  8
0
 10
138.4328
 20
14.0192
  0
VERTEX
  8
0
 10
138.3604
 20
13.983
  0
VERTEX
  8
0
 10
138.3614
 20
13.983
  0
VERTEX
  8
0
 10
138.3242
 20
13.9716
  0
VERTEX
  8
0
 10
138.2861
 20
13.9668
  0
VERTEX
  8
0
 10
138.2861
 20
13.9678
  0
VERTEX
  8
0
 10
138.2823
 20
13.9678
  0
VERTEX
  8
0
 10
138.2585
 20
13.9735
  0
VERTEX
  8
0
 10
138.2461
 20
13.9782
  0
VERTEX
  8
0
 10
138.2366
 20
13.983
  0
VERTEX
  8
0
 10
138.228
 20
13.9887
  0
VERTEX
  8
0
 10
138.2204
 20
13.9954
  0
VERTEX
  8
0
 10
138.2108
 20
14.0049
  0
VERTEX
  8
0
 10
138.2042
 20
14.0135
  0
VERTEX
  8
0
 10
138.1965
 20
14.0325
  0
VERTEX
  8
0
 10
138.1946
 20
14.0487
  0
VERTEX
  8
0
 10
138.1965
 20
14.0707
  0
VERTEX
  8
0
 10
138.2051
 20
14.104
  0
VERTEX
  8
0
 10
138.1994
 20
14.1107
  0
VERTEX
  8
0
 10
138.1232
 20
14.0554
  0
VERTEX
  8
0
 10
138.1232
 20
14.0545
  0
VERTEX
  8
0
 10
138.0746
 20
14.0211
  0
VERTEX
  8
0
 10
138.0317
 20
13.9954
  0
VERTEX
  8
0
 10
138.0317
 20
13.9963
  0
VERTEX
  8
0
 10
137.9879
 20
13.9763
  0
VERTEX
  8
0
 10
137.9497
 20
13.9706
  0
VERTEX
  8
0
 10
137.9288
 20
13.9735
  0
VERTEX
  8
0
 10
137.9031
 20
13.984
  0
VERTEX
  8
0
 10
137.8907
 20
13.9935
  0
VERTEX
  8
0
 10
137.8792
 20
14.0049
  0
VERTEX
  8
0
 10
137.8764
 20
14.0087
  0
VERTEX
  8
0
 10
137.8707
 20
14.0164
  0
VERTEX
  8
0
 10
137.8602
 20
14.064
  0
VERTEX
  8
0
 10
137.8592
 20
14.0754
  0
VERTEX
  8
0
 10
137.8592
 20
14.0878
  0
VERTEX
  8
0
 10
137.8526
 20
14.0935
  0
VERTEX
  8
0
 10
137.5324
 20
13.9277
  0
VERTEX
  8
0
 10
137.5315
 20
13.9277
  0
VERTEX
  8
0
 10
137.481
 20
13.9058
  0
VERTEX
  8
0
 10
137.4257
 20
13.8849
  0
VERTEX
  8
0
 10
137.3599
 20
13.8677
  0
VERTEX
  8
0
 10
137.3056
 20
13.861
  0
VERTEX
  8
0
 10
137.3066
 20
13.861
  0
VERTEX
  8
0
 10
137.2818
 20
13.8639
  0
VERTEX
  8
0
 10
137.2589
 20
13.8753
  0
VERTEX
  8
0
 10
137.2399
 20
13.8887
  0
VERTEX
  8
0
 10
137.2275
 20
13.9058
  0
VERTEX
  8
0
 10
137.2161
 20
13.9325
  0
VERTEX
  8
0
 10
137.2123
 20
13.9573
  0
VERTEX
  8
0
 10
137.2161
 20
13.9963
  0
VERTEX
  8
0
 10
137.2294
 20
14.044
  0
VERTEX
  8
0
 10
137.2456
 20
14.084
  0
VERTEX
  8
0
 10
137.2656
 20
14.1221
  0
VERTEX
  8
0
 10
137.2875
 20
14.1564
  0
VERTEX
  8
0
 10
137.3133
 20
14.1907
  0
VERTEX
  8
0
 10
137.3428
 20
14.2231
  0
VERTEX
  8
0
 10
137.3752
 20
14.2536
  0
VERTEX
  8
0
 10
137.4104
 20
14.2831
  0
VERTEX
  8
0
 10
137.4514
 20
14.3146
  0
VERTEX
  8
0
 10
137.4972
 20
14.3441
  0
VERTEX
  8
0
 10
137.5362
 20
14.3689
  0
VERTEX
  8
0
 10
137.5705
 20
14.387
  0
VERTEX
  8
0
 10
137.6029
 20
14.4013
  0
VERTEX
  8
0
 10
137.6563
 20
14.4194
  0
VERTEX
  8
0
 10
137.7106
 20
14.4251
  0
VERTEX
  8
0
 10
137.742
 20
14.4213
  0
VERTEX
  8
0
 10
137.7659
 20
14.4127
  0
VERTEX
  8
0
 10
137.7773
 20
14.4022
  0
VERTEX
  8
0
 10
137.7878
 20
14.3889
  0
VERTEX
  8
0
 10
137.7954
 20
14.3727
  0
VERTEX
  8
0
 10
137.7973
 20
14.3575
  0
VERTEX
  8
0
 10
137.7935
 20
14.3298
  0
VERTEX
  8
0
 10
137.784
 20
14.306
  0
VERTEX
  8
0
 10
137.7611
 20
14.2746
  0
VERTEX
  8
0
 10
137.7363
 20
14.2498
  0
VERTEX
  8
0
 10
137.6953
 20
14.2203
  0
VERTEX
  8
0
 10
137.6953
 20
14.2193
  0
VERTEX
  8
0
 10
137.6401
 20
14.186
  0
VERTEX
  8
0
 10
137.641
 20
14.1869
  0
VERTEX
  8
0
 10
137.5019
 20
14.105
  0
VERTEX
  8
0
 10
137.4676
 20
14.084
  0
VERTEX
  8
0
 10
137.4667
 20
14.084
  0
VERTEX
  8
0
 10
137.4428
 20
14.0716
  0
VERTEX
  8
0
 10
137.4238
 20
14.0678
  0
VERTEX
  8
0
 10
137.42
 20
14.0678
  0
VERTEX
  8
0
 10
137.4152
 20
14.0697
  0
VERTEX
  8
0
 10
137.4114
 20
14.0735
  0
VERTEX
  8
0
 10
137.4076
 20
14.0792
  0
VERTEX
  8
0
 10
137.4038
 20
14.0878
  0
VERTEX
  8
0
 10
137.4028
 20
14.0945
  0
VERTEX
  8
0
 10
137.4038
 20
14.104
  0
VERTEX
  8
0
 10
137.4076
 20
14.1221
  0
SEQEND
  0
POLYLINE
  8
0
 66
     1
 10
0
 20
0
  0
VERTEX
  8
0
 10
136.3566
 20
13.8582
  0
VERTEX
  8
0
 10
136.3509
 20
13.861
  0
VERTEX
  8
0
 10
136.3452
 20
13.8639
  0
VERTEX
  8
0
 10
136.3433
 20
13.8639
  0
VERTEX
  8
0
 10
136.3385
 20
13.8639
  0
VERTEX
  8
0
 10
136.3309
 20
13.861
  0
VERTEX
  8
0
 10
136.3204
 20
13.8563
  0
VERTEX
  8
0
 10
136.308
 20
13.8515
  0
VERTEX
  8
0
 10
136.2966
 20
13.8487
  0
VERTEX
  8
0
 10
136.2918
 20
13.8477
  0
VERTEX
  8
0
 10
136.2842
 20
13.8487
  0
VERTEX
  8
0
 10
136.2747
 20
13.8534
  0
VERTEX
  8
0
 10
136.267
 20
13.8582
  0
VERTEX
  8
0
 10
136.2585
 20
13.8668
  0
VERTEX
  8
0
 10
136.2728
 20
13.8906
  0
VERTEX
  8
0
 10
136.2842
 20
13.9049
  0
VERTEX
  8
0
 10
136.2928
 20
13.9125
  0
VERTEX
  8
0
 10
136.3032
 20
13.9201
  0
VERTEX
  8
0
 10
136.3137
 20
13.9249
  0
VERTEX
  8
0
 10
136.3252
 20
13.9287
  0
VERTEX
  8
0
 10
136.3823
 20
13.9497
  0
VERTEX
  8
0
 10
136.3957
 20
13.9563
  0
VERTEX
  8
0
 10
136.4004
 20
13.9592
  0
VERTEX
  8
0
 10
136.4014
 20
13.9611
  0
VERTEX
  8
0
 10
136.4281
 20
14.023
  0
VERTEX
  8
0
 10
136.53
 20
14.2603
  0
VERTEX
  8
0
 10
136.5262
 20
14.265
  0
VERTEX
  8
0
 10
136.5253
 20
14.265
  0
VERTEX
  8
0
 10
136.5214
 20
14.2679
  0
VERTEX
  8
0
 10
136.5195
 20
14.2679
  0
VERTEX
  8
0
 10
136.5186
 20
14.2679
  0
VERTEX
  8
0
 10
136.5157
 20
14.2679
  0
VERTEX
  8
0
 10
136.5072
 20
14.2641
  0
VERTEX
  8
0
 10
136.5024
 20
14.2622
  0
VERTEX
  8
0
 10
136.4852
 20
14.2593
  0
VERTEX
  8
0
 10
136.4729
 20
14.2565
  0
VERTEX
  8
0
 10
136.4433
 20
14.2479
  0
VERTEX
  8
0
 10
136.4062
 20
14.2346
  0
VERTEX
  8
0
 10
136.3614
 20
14.2203
  0
VERTEX
  8
0
 10
136.2985
 20
14.2002
  0
VERTEX
  8
0
 10
136.2804
 20
14.1936
  0
VERTEX
  8
0
 10
136.2413
 20
14.1764
  0
VERTEX
  8
0
 10
136.2003
 20
14.1593
  0
VERTEX
  8
0
 10
136.188
 20
14.1536
  0
VERTEX
  8
0
 10
136.1737
 20
14.1459
  0
VERTEX
  8
0
 10
136.1479
 20
14.1326
  0
VERTEX
  8
0
 10
136.1279
 20
14.125
  0
VERTEX
  8
0
 10
136.1098
 20
14.1231
  0
VERTEX
  8
0
 10
136.1022
 20
14.124
  0
VERTEX
  8
0
 10
136.0955
 20
14.1269
  0
VERTEX
  8
0
 10
136.0927
 20
14.1288
  0
VERTEX
  8
0
 10
136.0908
 20
14.1316
  0
VERTEX
  8
0
 10
136.0889
 20
14.1355
  0
VERTEX
  8
0
 10
136.0889
 20
14.1393
  0
VERTEX
  8
0
 10
136.0898
 20
14.1469
  0
VERTEX
  8
0
 10
136.0927
 20
14.1555
  0
VERTEX
  8
0
 10
136.0955
 20
14.1612
  0
VERTEX
  8
0
 10
136.0993
 20
14.1659
  0
VERTEX
  8
0
 10
136.107
 20
14.1774
  0
VERTEX
  8
0
 10
136.1136
 20
14.186
  0
VERTEX
  8
0
 10
136.1279
 20
14.2012
  0
VERTEX
  8
0
 10
136.1375
 20
14.2088
  0
VERTEX
  8
0
 10
136.1632
 20
14.2203
  0
VERTEX
  8
0
 10
136.2232
 20
14.2403
  0
VERTEX
  8
0
 10
136.47
 20
14.3127
  0
VERTEX
  8
0
 10
136.5157
 20
14.327
  0
VERTEX
  8
0
 10
136.5462
 20
14.3375
  0
VERTEX
  8
0
 10
136.5653
 20
14.346
  0
VERTEX
  8
0
 10
136.5729
 20
14.3527
  0
VERTEX
  8
0
 10
136.5758
 20
14.3556
  0
VERTEX
  8
0
 10
136.6005
 20
14.4013
  0
VERTEX
  8
0
 10
136.6024
 20
14.4042
  0
VERTEX
  8
0
 10
136.6177
 20
14.4194
  0
VERTEX
  8
0
 10
136.6253
 20
14.4261
  0
VERTEX
  8
0
 10
136.6301
 20
14.4289
  0
VERTEX
  8
0
 10
136.6377
 20
14.4327
  0
VERTEX
  8
0
 10
136.652
 20
14.4385
  0
VERTEX
  8
0
 10
136.6606
 20
14.4289
  0
VERTEX
  8
0
 10
136.6663
 20
14.4213
  0
VERTEX
  8
0
 10
136.6691
 20
14.4156
  0
VERTEX
  8
0
 10
136.6701
 20
14.4108
  0
VERTEX
  8
0
 10
136.6682
 20
14.4003
  0
VERTEX
  8
0
 10
136.6625
 20
14.3851
  0
VERTEX
  8
0
 10
136.6701
 20
14.3765
  0
VERTEX
  8
0
 10
136.9779
 20
14.4575
  0
VERTEX
  8
0
 10
137.0103
 20
14.4632
  0
VERTEX
  8
0
 10
137.0455
 20
14.4651
  0
VERTEX
  8
0
 10
137.0846
 20
14.4632
  0
VERTEX
  8
0
 10
137.1227
 20
14.4566
  0
VERTEX
  8
0
 10
137.1484
 20
14.4499
  0
VERTEX
  8
0
 10
137.1713
 20
14.4394
  0
VERTEX
  8
0
 10
137.1827
 20
14.4308
  0
VERTEX
  8
0
 10
137.1961
 20
14.4146
  0
VERTEX
  8
0
 10
137.2018
 20
14.3984
  0
VERTEX
  8
0
 10
137.2037
 20
14.3832
  0
VERTEX
  8
0
 10
137.2018
 20
14.3622
  0
VERTEX
  8
0
 10
137.197
 20
14.3498
  0
VERTEX
  8
0
 10
137.1713
 20
14.3146
  0
VERTEX
  8
0
 10
137.1417
 20
14.2841
  0
VERTEX
  8
0
 10
137.1417
 20
14.2831
  0
VERTEX
  8
0
 10
137.075
 20
14.2288
  0
VERTEX
  8
0
 10
137.0026
 20
14.1774
  0
VERTEX
  8
0
 10
136.9731
 20
14.1555
  0
VERTEX
  8
0
 10
136.915
 20
14.1145
  0
VERTEX
  8
0
 10
136.955
 20
14.1116
  0
VERTEX
  8
0
 10
136.9931
 20
14.104
  0
VERTEX
  8
0
 10
137.0169
 20
14.0973
  0
VERTEX
  8
0
 10
137.0388
 20
14.0869
  0
VERTEX
  8
0
 10
137.0493
 20
14.0783
  0
VERTEX
  8
0
 10
137.0617
 20
14.0611
  0
VERTEX
  8
0
 10
137.0712
 20
14.0402
  0
VERTEX
  8
0
 10
137.0741
 20
14.0202
  0
VERTEX
  8
0
 10
137.0712
 20
13.9916
  0
VERTEX
  8
0
 10
137.0608
 20
13.9687
  0
VERTEX
  8
0
 10
137.0465
 20
13.9458
  0
VERTEX
  8
0
 10
137.0293
 20
13.9258
  0
VERTEX
  8
0
 10
137.0122
 20
13.9115
  0
VERTEX
  8
0
 10
136.9931
 20
13.8992
  0
VERTEX
  8
0
 10
136.9921
 20
13.8992
  0
VERTEX
  8
0
 10
136.9378
 20
13.8706
  0
VERTEX
  8
0
 10
136.8826
 20
13.8448
  0
VERTEX
  8
0
 10
136.8816
 20
13.8448
  0
VERTEX
  8
0
 10
136.7882
 20
13.8086
  0
VERTEX
  8
0
 10
136.692
 20
13.7743
  0
VERTEX
  8
0
 10
136.693
 20
13.7753
  0
VERTEX
  8
0
 10
136.4204
 20
13.6867
  0
VERTEX
  8
0
 10
136.349
 20
13.659
  0
VERTEX
  8
0
 10
136.349
 20
13.6581
  0
VERTEX
  8
0
 10
136.3395
 20
13.6266
  0
VERTEX
  8
0
 10
136.3309
 20
13.6095
  0
VERTEX
  8
0
 10
136.3261
 20
13.6009
  0
VERTEX
  8
0
 10
136.3175
 20
13.5923
  0
VERTEX
  8
0
 10
136.3061
 20
13.5809
  0
VERTEX
  8
0
 10
136.3004
 20
13.5761
  0
VERTEX
  8
0
 10
136.2956
 20
13.5742
  0
VERTEX
  8
0
 10
136.289
 20
13.5733
  0
VERTEX
  8
0
 10
136.2842
 20
13.5742
  0
VERTEX
  8
0
 10
136.2794
 20
13.5761
  0
VERTEX
  8
0
 10
136.2756
 20
13.579
  0
VERTEX
  8
0
 10
136.2728
 20
13.5828
  0
VERTEX
  8
0
 10
136.2699
 20
13.5895
  0
VERTEX
  8
0
 10
136.2689
 20
13.5971
  0
VERTEX
  8
0
 10
136.2689
 20
13.6047
  0
VERTEX
  8
0
 10
136.2699
 20
13.6152
  0
VERTEX
  8
0
 10
136.2709
 20
13.6228
  0
VERTEX
  8
0
 10
136.2699
 20
13.6314
  0
VERTEX
  8
0
 10
136.268
 20
13.6352
  0
VERTEX
  8
0
 10
136.267
 20
13.6371
  0
VERTEX
  8
0
 10
136.2632
 20
13.639
  0
VERTEX
  8
0
 10
136.2604
 20
13.64
  0
VERTEX
  8
0
 10
136.2594
 20
13.6409
  0
VERTEX
  8
0
 10
136.2566
 20
13.64
  0
VERTEX
  8
0
 10
136.2442
 20
13.6362
  0
VERTEX
  8
0
 10
135.944
 20
13.5342
  0
VERTEX
  8
0
 10
135.8802
 20
13.5085
  0
VERTEX
  8
0
 10
135.8211
 20
13.4875
  0
VERTEX
  8
0
 10
135.7315
 20
13.4294
  0
VERTEX
  8
0
 10
135.7249
 20
13.4275
  0
VERTEX
  8
0
 10
135.7211
 20
13.4275
  0
VERTEX
  8
0
 10
135.7087
 20
13.4294
  0
VERTEX
  8
0
 10
135.6953
 20
13.4342
  0
VERTEX
  8
0
 10
135.6801
 20
13.4466
  0
VERTEX
  8
0
 10
135.6715
 20
13.457
  0
VERTEX
  8
0
 10
135.6706
 20
13.4599
  0
VERTEX
  8
0
 10
135.6696
 20
13.4647
  0
VERTEX
  8
0
 10
135.6706
 20
13.4694
  0
VERTEX
  8
0
 10
135.6715
 20
13.4723
  0
VERTEX
  8
0
 10
135.6772
 20
13.479
  0
VERTEX
  8
0
 10
135.6887
 20
13.4866
  0
VERTEX
  8
0
 10
135.7049
 20
13.4952
  0
VERTEX
  8
0
 10
135.7125
 20
13.498
  0
VERTEX
  8
0
 10
135.763
 20
13.5152
  0
VERTEX
  8
0
 10
135.8364
 20
13.5485
  0
VERTEX
  8
0
 10
136.2832
 20
13.7067
  0
VERTEX
  8
0
 10
136.2937
 20
13.7134
  0
VERTEX
  8
0
 10
136.3042
 20
13.7276
  0
VERTEX
  8
0
 10
136.3042
 20
13.7267
  0
VERTEX
  8
0
 10
136.3166
 20
13.7515
  0
VERTEX
  8
0
 10
136.329
 20
13.7829
  0
VERTEX
  8
0
 10
136.3566
 20
13.8582
  0
SEQEND
  0
POLYLINE
  8
0
 66
     1
 10
0
 20
0
  0
VERTEX
  8
0
 10
136.3881
 20
13.7457
  0
VERTEX
  8
0
 10
136.7835
 20
13.8744
  0
VERTEX
  8
0
 10
136.7901
 20
13.8772
  0
VERTEX
  8
0
 10
136.8654
 20
13.9115
  0
VERTEX
  8
0
 10
136.9321
 20
13.942
  0
VERTEX
  8
0
 10
136.9312
 20
13.9411
  0
VERTEX
  8
0
 10
136.9578
 20
13.9544
  0
VERTEX
  8
0
 10
136.9578
 20
13.9554
  0
VERTEX
  8
0
 10
136.9769
 20
13.9697
  0
VERTEX
  8
0
 10
136.9874
 20
13.9868
  0
VERTEX
  8
0
 10
136.9902
 20
13.9935
  0
VERTEX
  8
0
 10
136.9931
 20
14.0078
  0
VERTEX
  8
0
 10
136.9798
 20
14.0364
  0
VERTEX
  8
0
 10
136.975
 20
14.0402
  0
VERTEX
  8
0
 10
136.9588
 20
14.0487
  0
VERTEX
  8
0
 10
136.9369
 20
14.0526
  0
VERTEX
  8
0
 10
136.9035
 20
14.0507
  0
VERTEX
  8
0
 10
136.8578
 20
14.044
  0
VERTEX
  8
0
 10
136.8063
 20
14.0335
  0
VERTEX
  8
0
 10
136.7835
 20
14.0278
  0
VERTEX
  8
0
 10
136.6482
 20
13.9849
  0
VERTEX
  8
0
 10
136.6082
 20
13.9706
  0
VERTEX
  8
0
 10
136.4719
 20
13.9106
  0
VERTEX
  8
0
 10
136.4528
 20
13.8992
  0
VERTEX
  8
0
 10
136.4366
 20
13.8782
  0
VERTEX
  8
0
 10
136.4224
 20
13.8506
  0
VERTEX
  8
0
 10
136.4052
 20
13.8086
  0
VERTEX
  8
0
 10
136.3919
 20
13.7781
  0
VERTEX
  8
0
 10
136.3861
 20
13.7619
  0
VERTEX
  8
0
 10
136.3842
 20
13.7572
  0
VERTEX
  8
0
 10
136.3833
 20
13.7534
  0
VERTEX
  8
0
 10
136.3842
 20
13.7524
  0
VERTEX
  8
0
 10
136.3842
 20
13.7505
  0
VERTEX
  8
0
 10
136.3861
 20
13.7486
  0
VERTEX
  8
0
 10
136.3881
 20
13.7457
  0
SEQEND
  0
POLYLINE
  8
0
 66
     1
 10
0
 20
0
  0
VERTEX
  8
0
 10
136.4995
 20
13.9906
  0
VERTEX
  8
0
 10
136.7225
 20
14.0831
  0
VERTEX
  8
0
 10
136.7425
 20
14.0916
  0
VERTEX
  8
0
 10
136.7987
 20
14.1202
  0
VERTEX
  8
0
 10
136.7978
 20
14.1202
  0
VERTEX
  8
0
 10
136.8464
 20
14.1459
  0
VERTEX
  8
0
 10
136.8654
 20
14.1583
  0
VERTEX
  8
0
 10
136.8664
 20
14.1583
  0
VERTEX
  8
0
 10
136.9826
 20
14.2422
  0
VERTEX
  8
0
 10
136.9817
 20
14.2412
  0
VERTEX
  8
0
 10
137.0636
 20
14.3032
  0
VERTEX
  8
0
 10
137.0646
 20
14.3041
  0
VERTEX
  8
0
 10
137.0874
 20
14.3241
  0
VERTEX
  8
0
 10
137.0931
 20
14.3317
  0
VERTEX
  8
0
 10
137.1122
 20
14.3594
  0
VERTEX
  8
0
 10
137.1084
 20
14.367
  0
VERTEX
  8
0
 10
137.1055
 20
14.3708
  0
VERTEX
  8
0
 10
137.1027
 20
14.3746
  0
VERTEX
  8
0
 10
137.097
 20
14.3813
  0
VERTEX
  8
0
 10
137.0922
 20
14.3851
  0
VERTEX
  8
0
 10
137.0779
 20
14.3908
  0
VERTEX
  8
0
 10
137.0655
 20
14.3927
  0
VERTEX
  8
0
 10
136.9988
 20
14.3832
  0
VERTEX
  8
0
 10
136.9455
 20
14.3756
  0
VERTEX
  8
0
 10
136.9312
 20
14.3727
  0
VERTEX
  8
0
 10
136.8521
 20
14.3527
  0
VERTEX
  8
0
 10
136.6148
 20
14.2917
  0
VERTEX
  8
0
 10
136.4776
 20
13.9944
  0
VERTEX
  8
0
 10
136.4995
 20
13.9906
  0
SEQEND
  0
TEXT
  8
0
 10
104.8853
 20
32.1925
 40
4
  1
A
  7
HIGHWAYC2K
  0
TEXT
  8
0
 10
108.0053
 20
32.1925
 40
4
  1
D
  7
HIGHWAYC2K
  0
TEXT
  8
0
 10
110.9653
 20
32.1925
 40
4
  1
O
  7
HIGHWAYC2K
  0
TEXT
  8
0
 10
114.1253
 20
32.1925
 40
4
  1
P
  7
HIGHWAYC2K
  0
TEXT
  8
0
 10
116.8453
 20
32.1925
 40
4
  1
T
  7
HIGHWAYC2K
  0
TEXT
  8
0
 10
119.1253
 20
32.1925
 40
4
  1
-
  7
HIGHWAYC2K
  0
TEXT
  8
0
 10
120.7653
 20
32.1925
 40
4
  1
A
  7
HIGHWAYC2K
  0
TEXT
  8
0
 10
123.5653
 20
32.1925
 40
4
  1
-
  7
HIGHWAYC2K
  0
TEXT
  8
0
 10
125.5253
 20
32.1925
 40
4
  1
H
  7
HIGHWAYC2K
  0
TEXT
  8
0
 10
128.6453
 20
32.1925
 40
4
  1
I
  7
HIGHWAYC2K
  0
TEXT
  8
0
 10
130.0053
 20
32.1925
 40
4
  1
G
  7
HIGHWAYC2K
  0
TEXT
  8
0
 10
133.0453
 20
32.1925
 40
4
  1
H
  7
HIGHWAYC2K
  0
TEXT
  8
0
 10
135.8453
 20
32.1925
 40
4
  1
W
  7
HIGHWAYC2K
  0
TEXT
  8
0
 10
139.1253
 20
32.1925
 40
4
  1
A
  7
HIGHWAYC2K
  0
TEXT
  8
0
 10
141.9253
 20
32.1925
 40
4
  1
Y
  7
HIGHWAYC2K
  0
POLYLINE
  8
0
 66
     1
 10
0
 20
0
  0
VERTEX
  8
0
 10
129.0773
 20
13.4048
  0
VERTEX
  8
0
 10
129.09
 20
13.4042
  0
VERTEX
  8
0
 10
129.103
 20
13.4036
  0
VERTEX
  8
0
 10
129.1164
 20
13.4029
  0
VERTEX
  8
0
 10
129.1301
 20
13.4022
  0
VERTEX
  8
0
 10
129.1442
 20
13.4015
  0
VERTEX
  8
0
 10
129.1587
 20
13.4008
  0
VERTEX
  8
0
 10
129.1735
 20
13.4
  0
VERTEX
  8
0
 10
129.1887
 20
13.3992
  0
VERTEX
  8
0
 10
129.2043
 20
13.3983
  0
VERTEX
  8
0
 10
129.2203
 20
13.3974
  0
VERTEX
  8
0
 10
129.2367
 20
13.3965
  0
VERTEX
  8
0
 10
129.2535
 20
13.3955
  0
VERTEX
  8
0
 10
129.2707
 20
13.3944
  0
VERTEX
  8
0
 10
129.2882
 20
13.3934
  0
VERTEX
  8
0
 10
129.3062
 20
13.3922
  0
VERTEX
  8
0
 10
129.3246
 20
13.391
  0
VERTEX
  8
0
 10
129.3434
 20
13.3897
  0
VERTEX
  8
0
 10
129.3627
 20
13.3884
  0
VERTEX
  8
0
 10
129.3823
 20
13.387
  0
VERTEX
  8
0
 10
129.4024
 20
13.3855
  0
VERTEX
  8
0
 10
129.423
 20
13.384
  0
VERTEX
  8
0
 10
129.4439
 20
13.3823
  0
VERTEX
  8
0
 10
129.4653
 20
13.3806
  0
VERTEX
  8
0
 10
129.4872
 20
13.3788
  0
VERTEX
  8
0
 10
129.5095
 20
13.377
  0
VERTEX
  8
0
 10
129.5322
 20
13.375
  0
VERTEX
  8
0
 10
129.5554
 20
13.3729
  0
VERTEX
  8
0
 10
129.5791
 20
13.3708
  0
VERTEX
  8
0
 10
129.6032
 20
13.3686
  0
VERTEX
  8
0
 10
129.6279
 20
13.3662
  0
VERTEX
  8
0
 10
129.6529
 20
13.3638
  0
VERTEX
  8
0
 10
129.6785
 20
13.3612
  0
VERTEX
  8
0
 10
129.7045
 20
13.3585
  0
VERTEX
  8
0
 10
129.7311
 20
13.3558
  0
VERTEX
  8
0
 10
129.7581
 20
13.3529
  0
VERTEX
  8
0
 10
129.7856
 20
13.3499
  0
VERTEX
  8
0
 10
129.8136
 20
13.3467
  0
VERTEX
  8
0
 10
129.8422
 20
13.3435
  0
VERTEX
  8
0
 10
129.8712
 20
13.3401
  0
VERTEX
  8
0
 10
129.9007
 20
13.3366
  0
VERTEX
  8
0
 10
129.9308
 20
13.333
  0
VERTEX
  8
0
 10
129.9614
 20
13.3292
  0
VERTEX
  8
0
 10
129.9614
 20
13.3292
  0
VERTEX
  8
0
 10
129.992
 20
13.3253
  0
VERTEX
  8
0
 10
130.0224
 20
13.3214
  0
VERTEX
  8
0
 10
130.0524
 20
13.3173
  0
VERTEX
  8
0
 10
130.0823
 20
13.3132
  0
VERTEX
  8
0
 10
130.1119
 20
13.309
  0
VERTEX
  8
0
 10
130.1413
 20
13.3048
  0
VERTEX
  8
0
 10
130.1707
 20
13.3004
  0
VERTEX
  8
0
 10
130.1999
 20
13.296
  0
VERTEX
  8
0
 10
130.229
 20
13.2915
  0
VERTEX
  8
0
 10
130.2581
 20
13.2869
  0
VERTEX
  8
0
 10
130.2872
 20
13.2822
  0
VERTEX
  8
0
 10
130.3164
 20
13.2775
  0
VERTEX
  8
0
 10
130.3456
 20
13.2726
  0
VERTEX
  8
0
 10
130.375
 20
13.2677
  0
VERTEX
  8
0
 10
130.4044
 20
13.2627
  0
VERTEX
  8
0
 10
130.4341
 20
13.2576
  0
VERTEX
  8
0
 10
130.464
 20
13.2524
  0
VERTEX
  8
0
 10
130.4941
 20
13.2472
  0
VERTEX
  8
0
 10
130.5246
 20
13.2418
  0
VERTEX
  8
0
 10
130.5553
 20
13.2364
  0
VERTEX
  8
0
 10
130.5864
 20
13.2308
  0
VERTEX
  8
0
 10
130.5864
 20
13.2308
  0
VERTEX
  8
0
 10
130.6274
 20
13.2231
  0
VERTEX
  8
0
 10
130.6818
 20
13.2124
  0
VERTEX
  8
0
 10
130.7453
 20
13.1994
  0
VERTEX
  8
0
 10
130.8139
 20
13.1852
  0
VERTEX
  8
0
 10
130.8835
 20
13.1707
  0
VERTEX
  8
0
 10
130.9497
 20
13.1568
  0
VERTEX
  8
0
 10
131.0084
 20
13.1444
  0
VERTEX
  8
0
 10
131.0556
 20
13.1343
  0
VERTEX
  8
0
 10
131.0869
 20
13.1277
  0
VERTEX
  8
0
 10
131.0983
 20
13.1252
  0
VERTEX
  8
0
 10
131.0983
 20
13.1252
  0
VERTEX
  8
0
 10
131.0983
 20
13.1162
  0
VERTEX
  8
0
 10
131.0983
 20
13.1162
  0
VERTEX
  8
0
 10
131.0969
 20
13.1164
  0
VERTEX
  8
0
 10
131.0927
 20
13.117
  0
VERTEX
  8
0
 10
131.0858
 20
13.118
  0
VERTEX
  8
0
 10
131.0765
 20
13.1194
  0
VERTEX
  8
0
 10
131.0647
 20
13.121
  0
VERTEX
  8
0
 10
131.0507
 20
13.123
  0
VERTEX
  8
0
 10
131.0346
 20
13.1252
  0
VERTEX
  8
0
 10
131.0165
 20
13.1276
  0
VERTEX
  8
0
 10
130.9966
 20
13.1302
  0
VERTEX
  8
0
 10
130.9749
 20
13.133
  0
VERTEX
  8
0
 10
130.9516
 20
13.1359
  0
VERTEX
  8
0
 10
130.9268
 20
13.139
  0
VERTEX
  8
0
 10
130.9006
 20
13.1421
  0
VERTEX
  8
0
 10
130.8733
 20
13.1452
  0
VERTEX
  8
0
 10
130.8449
 20
13.1483
  0
VERTEX
  8
0
 10
130.8155
 20
13.1515
  0
VERTEX
  8
0
 10
130.7852
 20
13.1545
  0
VERTEX
  8
0
 10
130.7543
 20
13.1575
  0
VERTEX
  8
0
 10
130.7228
 20
13.1604
  0
VERTEX
  8
0
 10
130.6909
 20
13.1632
  0
VERTEX
  8
0
 10
130.6586
 20
13.1657
  0
VERTEX
  8
0
 10
130.6262
 20
13.1681
  0
VERTEX
  8
0
 10
130.5937
 20
13.1702
  0
VERTEX
  8
0
 10
130.5613
 20
13.1721
  0
VERTEX
  8
0
 10
130.5291
 20
13.1737
  0
VERTEX
  8
0
 10
130.4973
 20
13.1749
  0
VERTEX
  8
0
 10
130.4659
 20
13.1758
  0
VERTEX
  8
0
 10
130.4659
 20
13.1758
  0
VERTEX
  8
0
 10
130.4345
 20
13.1765
  0
VERTEX
  8
0
 10
130.4026
 20
13.1771
  0
VERTEX
  8
0
 10
130.3702
 20
13.1777
  0
VERTEX
  8
0
 10
130.3375
 20
13.1783
  0
VERTEX
  8
0
 10
130.3045
 20
13.1788
  0
VERTEX
  8
0
 10
130.2712
 20
13.1793
  0
VERTEX
  8
0
 10
130.2377
 20
13.1797
  0
VERTEX
  8
0
 10
130.204
 20
13.18
  0
VERTEX
  8
0
 10
130.1704
 20
13.1803
  0
VERTEX
  8
0
 10
130.1367
 20
13.1806
  0
VERTEX
  8
0
 10
130.1031
 20
13.1808
  0
VERTEX
  8
0
 10
130.0696
 20
13.1809
  0
VERTEX
  8
0
 10
130.0362
 20
13.1809
  0
VERTEX
  8
0
 10
130.0032
 20
13.1809
  0
VERTEX
  8
0
 10
129.9705
 20
13.1807
  0
VERTEX
  8
0
 10
129.9381
 20
13.1805
  0
VERTEX
  8
0
 10
129.9062
 20
13.1802
  0
VERTEX
  8
0
 10
129.8748
 20
13.1799
  0
VERTEX
  8
0
 10
129.844
 20
13.1794
  0
VERTEX
  8
0
 10
129.8138
 20
13.1788
  0
VERTEX
  8
0
 10
129.7843
 20
13.1782
  0
VERTEX
  8
0
 10
129.7555
 20
13.1774
  0
VERTEX
  8
0
 10
129.7276
 20
13.1765
  0
VERTEX
  8
0
 10
129.7006
 20
13.1756
  0
VERTEX
  8
0
 10
129.6745
 20
13.1745
  0
VERTEX
  8
0
 10
129.6494
 20
13.1733
  0
VERTEX
  8
0
 10
129.6254
 20
13.172
  0
VERTEX
  8
0
 10
129.6254
 20
13.172
  0
VERTEX
  8
0
 10
129.5951
 20
13.1702
  0
VERTEX
  8
0
 10
129.5658
 20
13.1684
  0
VERTEX
  8
0
 10
129.5374
 20
13.1666
  0
VERTEX
  8
0
 10
129.51
 20
13.1648
  0
VERTEX
  8
0
 10
129.4834
 20
13.1629
  0
VERTEX
  8
0
 10
129.4578
 20
13.1611
  0
VERTEX
  8
0
 10
129.433
 20
13.1593
  0
VERTEX
  8
0
 10
129.409
 20
13.1575
  0
VERTEX
  8
0
 10
129.3858
 20
13.1557
  0
VERTEX
  8
0
 10
129.3634
 20
13.1539
  0
VERTEX
  8
0
 10
129.3416
 20
13.1521
  0
VERTEX
  8
0
 10
129.3206
 20
13.1503
  0
VERTEX
  8
0
 10
129.3002
 20
13.1485
  0
VERTEX
  8
0
 10
129.2805
 20
13.1467
  0
VERTEX
  8
0
 10
129.2613
 20
13.1449
  0
VERTEX
  8
0
 10
129.2428
 20
13.1431
  0
VERTEX
  8
0
 10
129.2247
 20
13.1413
  0
VERTEX
  8
0
 10
129.2072
 20
13.1395
  0
VERTEX
  8
0
 10
129.1901
 20
13.1377
  0
VERTEX
  8
0
 10
129.1735
 20
13.1359
  0
VERTEX
  8
0
 10
129.1573
 20
13.134
  0
VERTEX
  8
0
 10
129.1415
 20
13.1322
  0
VERTEX
  8
0
 10
129.126
 20
13.1304
  0
VERTEX
  8
0
 10
129.1109
 20
13.1285
  0
VERTEX
  8
0
 10
129.096
 20
13.1267
  0
VERTEX
  8
0
 10
129.0814
 20
13.1249
  0
VERTEX
  8
0
 10
129.0671
 20
13.123
  0
VERTEX
  8
0
 10
129.0529
 20
13.1211
  0
VERTEX
  8
0
 10
129.0389
 20
13.1193
  0
VERTEX
  8
0
 10
129.025
 20
13.1174
  0
VERTEX
  8
0
 10
129.0112
 20
13.1155
  0
VERTEX
  8
0
 10
128.9975
 20
13.1136
  0
VERTEX
  8
0
 10
128.9839
 20
13.1117
  0
VERTEX
  8
0
 10
128.9703
 20
13.1098
  0
VERTEX
  8
0
 10
128.9566
 20
13.1079
  0
VERTEX
  8
0
 10
128.9429
 20
13.106
  0
VERTEX
  8
0
 10
128.9291
 20
13.1041
  0
VERTEX
  8
0
 10
128.9152
 20
13.1021
  0
VERTEX
  8
0
 10
128.9011
 20
13.1002
  0
VERTEX
  8
0
 10
128.8869
 20
13.0982
  0
VERTEX
  8
0
 10
128.8725
 20
13.0963
  0
VERTEX
  8
0
 10
128.8725
 20
13.0963
  0
VERTEX
  8
0
 10
128.8411
 20
13.092
  0
VERTEX
  8
0
 10
128.8098
 20
13.0875
  0
VERTEX
  8
0
 10
128.7785
 20
13.083
  0
VERTEX
  8
0
 10
128.7472
 20
13.0783
  0
VERTEX
  8
0
 10
128.716
 20
13.0735
  0
VERTEX
  8
0
 10
128.6848
 20
13.0686
  0
VERTEX
  8
0
 10
128.6538
 20
13.0636
  0
VERTEX
  8
0
 10
128.6228
 20
13.0585
  0
VERTEX
  8
0
 10
128.5919
 20
13.0533
  0
VERTEX
  8
0
 10
128.5611
 20
13.048
  0
VERTEX
  8
0
 10
128.5305
 20
13.0427
  0
VERTEX
  8
0
 10
128.4999
 20
13.0372
  0
VERTEX
  8
0
 10
128.4696
 20
13.0317
  0
VERTEX
  8
0
 10
128.4393
 20
13.0261
  0
VERTEX
  8
0
 10
128.4093
 20
13.0204
  0
VERTEX
  8
0
 10
128.3794
 20
13.0146
  0
VERTEX
  8
0
 10
128.3497
 20
13.0088
  0
VERTEX
  8
0
 10
128.3202
 20
13.003
  0
VERTEX
  8
0
 10
128.291
 20
12.997
  0
VERTEX
  8
0
 10
128.291
 20
12.997
  0
VERTEX
  8
0
 10
128.2631
 20
12.9913
  0
VERTEX
  8
0
 10
128.2348
 20
12.9854
  0
VERTEX
  8
0
 10
128.2062
 20
12.9793
  0
VERTEX
  8
0
 10
128.1772
 20
12.9731
  0
VERTEX
  8
0
 10
128.148
 20
12.9668
  0
VERTEX
  8
0
 10
128.1184
 20
12.9602
  0
VERTEX
  8
0
 10
128.0887
 20
12.9536
  0
VERTEX
  8
0
 10
128.0587
 20
12.9467
  0
VERTEX
  8
0
 10
128.0285
 20
12.9398
  0
VERTEX
  8
0
 10
127.9981
 20
12.9326
  0
VERTEX
  8
0
 10
127.9676
 20
12.9254
  0
VERTEX
  8
0
 10
127.937
 20
12.918
  0
VERTEX
  8
0
 10
127.9062
 20
12.9105
  0
VERTEX
  8
0
 10
127.8754
 20
12.9028
  0
VERTEX
  8
0
 10
127.8446
 20
12.895
  0
VERTEX
  8
0
 10
127.8137
 20
12.8871
  0
VERTEX
  8
0
 10
127.7828
 20
12.879
  0
VERTEX
  8
0
 10
127.7519
 20
12.8708
  0
VERTEX
  8
0
 10
127.7211
 20
12.8625
  0
VERTEX
  8
0
 10
127.6904
 20
12.8541
  0
VERTEX
  8
0
 10
127.6904
 20
12.8541
  0
VERTEX
  8
0
 10
127.6619
 20
12.8462
  0
VERTEX
  8
0
 10
127.6347
 20
12.8386
  0
VERTEX
  8
0
 10
127.6086
 20
12.8312
  0
VERTEX
  8
0
 10
127.5836
 20
12.8241
  0
VERTEX
  8
0
 10
127.5595
 20
12.8171
  0
VERTEX
  8
0
 10
127.5361
 20
12.8102
  0
VERTEX
  8
0
 10
127.5133
 20
12.8034
  0
VERTEX
  8
0
 10
127.491
 20
12.7966
  0
VERTEX
  8
0
 10
127.4691
 20
12.7899
  0
VERTEX
  8
0
 10
127.4472
 20
12.7831
  0
VERTEX
  8
0
 10
127.4255
 20
12.7762
  0
VERTEX
  8
0
 10
127.4036
 20
12.7691
  0
VERTEX
  8
0
 10
127.3815
 20
12.762
  0
VERTEX
  8
0
 10
127.3591
 20
12.7546
  0
VERTEX
  8
0
 10
127.3361
 20
12.7469
  0
VERTEX
  8
0
 10
127.3124
 20
12.7389
  0
VERTEX
  8
0
 10
127.288
 20
12.7307
  0
VERTEX
  8
0
 10
127.2626
 20
12.722
  0
VERTEX
  8
0
 10
127.2361
 20
12.7129
  0
VERTEX
  8
0
 10
127.2084
 20
12.7033
  0
VERTEX
  8
0
 10
127.1793
 20
12.6933
  0
VERTEX
  8
0
 10
127.1793
 20
12.6933
  0
VERTEX
  8
0
 10
127.1464
 20
12.6818
  0
VERTEX
  8
0
 10
127.1106
 20
12.6691
  0
VERTEX
  8
0
 10
127.0729
 20
12.6555
  0
VERTEX
  8
0
 10
127.0337
 20
12.6413
  0
VERTEX
  8
0
 10
126.994
 20
12.6266
  0
VERTEX
  8
0
 10
126.9544
 20
12.6118
  0
VERTEX
  8
0
 10
126.9156
 20
12.5971
  0
VERTEX
  8
0
 10
126.8784
 20
12.5828
  0
VERTEX
  8
0
 10
126.8435
 20
12.5691
  0
VERTEX
  8
0
 10
126.8116
 20
12.5562
  0
VERTEX
  8
0
 10
126.8116
 20
12.5562
  0
VERTEX
  8
0
 10
126.7661
 20
12.5367
  0
VERTEX
  8
0
 10
126.7013
 20
12.5078
  0
VERTEX
  8
0
 10
126.6237
 20
12.4726
  0
VERTEX
  8
0
 10
126.5399
 20
12.4342
  0
VERTEX
  8
0
 10
126.4565
 20
12.3958
  0
VERTEX
  8
0
 10
126.3802
 20
12.3605
  0
VERTEX
  8
0
 10
126.3175
 20
12.3314
  0
VERTEX
  8
0
 10
126.275
 20
12.3116
  0
VERTEX
  8
0
 10
126.2594
 20
12.3043
  0
VERTEX
  8
0
 10
126.2594
 20
12.3043
  0
VERTEX
  8
0
 10
125.1428
 20
12.3051
  0
VERTEX
  8
0
 10
125.1428
 20
12.3051
  0
VERTEX
  8
0
 10
125.1514
 20
12.31
  0
VERTEX
  8
0
 10
125.1738
 20
12.3225
  0
VERTEX
  8
0
 10
125.2051
 20
12.3395
  0
VERTEX
  8
0
 10
125.2406
 20
12.358
  0
VERTEX
  8
0
 10
125.2406
 20
12.358
  0
VERTEX
  8
0
 10
125.2552
 20
12.3654
  0
VERTEX
  8
0
 10
125.2704
 20
12.3731
  0
VERTEX
  8
0
 10
125.2862
 20
12.3811
  0
VERTEX
  8
0
 10
125.3026
 20
12.3894
  0
VERTEX
  8
0
 10
125.3195
 20
12.398
  0
VERTEX
  8
0
 10
125.3372
 20
12.4069
  0
VERTEX
  8
0
 10
125.3554
 20
12.416
  0
VERTEX
  8
0
 10
125.3744
 20
12.4254
  0
VERTEX
  8
0
 10
125.3941
 20
12.4351
  0
VERTEX
  8
0
 10
125.4145
 20
12.4451
  0
VERTEX
  8
0
 10
125.4356
 20
12.4553
  0
VERTEX
  8
0
 10
125.4575
 20
12.4659
  0
VERTEX
  8
0
 10
125.4802
 20
12.4767
  0
VERTEX
  8
0
 10
125.5038
 20
12.4877
  0
VERTEX
  8
0
 10
125.5281
 20
12.4991
  0
VERTEX
  8
0
 10
125.5533
 20
12.5107
  0
VERTEX
  8
0
 10
125.5794
 20
12.5225
  0
VERTEX
  8
0
 10
125.6065
 20
12.5347
  0
VERTEX
  8
0
 10
125.6344
 20
12.5471
  0
VERTEX
  8
0
 10
125.6633
 20
12.5597
  0
VERTEX
  8
0
 10
125.6633
 20
12.5597
  0
VERTEX
  8
0
 10
125.6915
 20
12.5719
  0
VERTEX
  8
0
 10
125.7203
 20
12.5841
  0
VERTEX
  8
0
 10
125.7496
 20
12.5964
  0
VERTEX
  8
0
 10
125.7794
 20
12.6087
  0
VERTEX
  8
0
 10
125.8096
 20
12.6209
  0
VERTEX
  8
0
 10
125.8402
 20
12.6332
  0
VERTEX
  8
0
 10
125.8711
 20
12.6454
  0
VERTEX
  8
0
 10
125.9022
 20
12.6575
  0
VERTEX
  8
0
 10
125.9337
 20
12.6696
  0
VERTEX
  8
0
 10
125.9653
 20
12.6816
  0
VERTEX
  8
0
 10
125.9971
 20
12.6935
  0
VERTEX
  8
0
 10
126.029
 20
12.7053
  0
VERTEX
  8
0
 10
126.0609
 20
12.717
  0
VERTEX
  8
0
 10
126.0929
 20
12.7285
  0
VERTEX
  8
0
 10
126.1249
 20
12.7399
  0
VERTEX
  8
0
 10
126.1568
 20
12.7511
  0
VERTEX
  8
0
 10
126.1885
 20
12.7621
  0
VERTEX
  8
0
 10
126.2202
 20
12.7729
  0
VERTEX
  8
0
 10
126.2516
 20
12.7836
  0
VERTEX
  8
0
 10
126.2828
 20
12.7939
  0
VERTEX
  8
0
 10
126.3137
 20
12.8041
  0
VERTEX
  8
0
 10
126.3137
 20
12.8041
  0
VERTEX
  8
0
 10
126.3406
 20
12.8128
  0
VERTEX
  8
0
 10
126.3673
 20
12.8214
  0
VERTEX
  8
0
 10
126.394
 20
12.8298
  0
VERTEX
  8
0
 10
126.4207
 20
12.8382
  0
VERTEX
  8
0
 10
126.4474
 20
12.8464
  0
VERTEX
  8
0
 10
126.4741
 20
12.8546
  0
VERTEX
  8
0
 10
126.5009
 20
12.8627
  0
VERTEX
  8
0
 10
126.5277
 20
12.8707
  0
VERTEX
  8
0
 10
126.5546
 20
12.8786
  0
VERTEX
  8
0
 10
126.5816
 20
12.8864
  0
VERTEX
  8
0
 10
126.6088
 20
12.8942
  0
VERTEX
  8
0
 10
126.6361
 20
12.9019
  0
VERTEX
  8
0
 10
126.6636
 20
12.9096
  0
VERTEX
  8
0
 10
126.6914
 20
12.9172
  0
VERTEX
  8
0
 10
126.7193
 20
12.9248
  0
VERTEX
  8
0
 10
126.7476
 20
12.9324
  0
VERTEX
  8
0
 10
126.7761
 20
12.9399
  0
VERTEX
  8
0
 10
126.8049
 20
12.9474
  0
VERTEX
  8
0
 10
126.8341
 20
12.9549
  0
VERTEX
  8
0
 10
126.8636
 20
12.9624
  0
VERTEX
  8
0
 10
126.8935
 20
12.9699
  0
VERTEX
  8
0
 10
126.9239
 20
12.9774
  0
VERTEX
  8
0
 10
126.9546
 20
12.9849
  0
VERTEX
  8
0
 10
126.9858
 20
12.9924
  0
VERTEX
  8
0
 10
126.9858
 20
12.9924
  0
VERTEX
  8
0
 10
127.013
 20
12.9989
  0
VERTEX
  8
0
 10
127.0404
 20
13.0053
  0
VERTEX
  8
0
 10
127.0682
 20
13.0117
  0
VERTEX
  8
0
 10
127.0963
 20
13.0182
  0
VERTEX
  8
0
 10
127.1247
 20
13.0246
  0
VERTEX
  8
0
 10
127.1533
 20
13.0309
  0
VERTEX
  8
0
 10
127.1822
 20
13.0373
  0
VERTEX
  8
0
 10
127.2114
 20
13.0436
  0
VERTEX
  8
0
 10
127.2408
 20
13.0499
  0
VERTEX
  8
0
 10
127.2704
 20
13.0562
  0
VERTEX
  8
0
 10
127.3003
 20
13.0624
  0
VERTEX
  8
0
 10
127.3303
 20
13.0685
  0
VERTEX
  8
0
 10
127.3606
 20
13.0747
  0
VERTEX
  8
0
 10
127.391
 20
13.0807
  0
VERTEX
  8
0
 10
127.4216
 20
13.0867
  0
VERTEX
  8
0
 10
127.4523
 20
13.0927
  0
VERTEX
  8
0
 10
127.4831
 20
13.0985
  0
VERTEX
  8
0
 10
127.5141
 20
13.1043
  0
VERTEX
  8
0
 10
127.5452
 20
13.1101
  0
VERTEX
  8
0
 10
127.5764
 20
13.1157
  0
VERTEX
  8
0
 10
127.6077
 20
13.1213
  0
VERTEX
  8
0
 10
127.639
 20
13.1268
  0
VERTEX
  8
0
 10
127.6704
 20
13.1322
  0
VERTEX
  8
0
 10
127.7019
 20
13.1375
  0
VERTEX
  8
0
 10
127.7334
 20
13.1427
  0
VERTEX
  8
0
 10
127.7649
 20
13.1478
  0
VERTEX
  8
0
 10
127.7964
 20
13.1528
  0
VERTEX
  8
0
 10
127.8279
 20
13.1577
  0
VERTEX
  8
0
 10
127.8279
 20
13.1577
  0
VERTEX
  8
0
 10
127.8506
 20
13.1611
  0
VERTEX
  8
0
 10
127.8735
 20
13.1645
  0
VERTEX
  8
0
 10
127.8965
 20
13.1679
  0
VERTEX
  8
0
 10
127.9197
 20
13.1712
  0
VERTEX
  8
0
 10
127.9431
 20
13.1745
  0
VERTEX
  8
0
 10
127.9666
 20
13.1777
  0
VERTEX
  8
0
 10
127.9904
 20
13.1809
  0
VERTEX
  8
0
 10
128.0143
 20
13.1841
  0
VERTEX
  8
0
 10
128.0384
 20
13.1872
  0
VERTEX
  8
0
 10
128.0627
 20
13.1903
  0
VERTEX
  8
0
 10
128.0872
 20
13.1934
  0
VERTEX
  8
0
 10
128.1119
 20
13.1964
  0
VERTEX
  8
0
 10
128.1368
 20
13.1994
  0
VERTEX
  8
0
 10
128.1619
 20
13.2024
  0
VERTEX
  8
0
 10
128.1872
 20
13.2053
  0
VERTEX
  8
0
 10
128.2127
 20
13.2082
  0
VERTEX
  8
0
 10
128.2384
 20
13.2111
  0
VERTEX
  8
0
 10
128.2643
 20
13.2139
  0
VERTEX
  8
0
 10
128.2905
 20
13.2167
  0
VERTEX
  8
0
 10
128.3169
 20
13.2195
  0
VERTEX
  8
0
 10
128.3435
 20
13.2223
  0
VERTEX
  8
0
 10
128.3703
 20
13.225
  0
VERTEX
  8
0
 10
128.3974
 20
13.2277
  0
VERTEX
  8
0
 10
128.4247
 20
13.2304
  0
VERTEX
  8
0
 10
128.4523
 20
13.2331
  0
VERTEX
  8
0
 10
128.48
 20
13.2357
  0
VERTEX
  8
0
 10
128.5081
 20
13.2384
  0
VERTEX
  8
0
 10
128.5364
 20
13.241
  0
VERTEX
  8
0
 10
128.5649
 20
13.2436
  0
VERTEX
  8
0
 10
128.5937
 20
13.2461
  0
VERTEX
  8
0
 10
128.6227
 20
13.2487
  0
VERTEX
  8
0
 10
128.652
 20
13.2512
  0
VERTEX
  8
0
 10
128.6816
 20
13.2538
  0
VERTEX
  8
0
 10
128.7115
 20
13.2563
  0
VERTEX
  8
0
 10
128.7416
 20
13.2588
  0
VERTEX
  8
0
 10
128.772
 20
13.2613
  0
VERTEX
  8
0
 10
128.8026
 20
13.2638
  0
VERTEX
  8
0
 10
128.8336
 20
13.2662
  0
VERTEX
  8
0
 10
128.8648
 20
13.2687
  0
VERTEX
  8
0
 10
128.8648
 20
13.2687
  0
VERTEX
  8
0
 10
128.8967
 20
13.271
  0
VERTEX
  8
0
 10
128.9283
 20
13.273
  0
VERTEX
  8
0
 10
128.9593
 20
13.2747
  0
VERTEX
  8
0
 10
128.9896
 20
13.2762
  0
VERTEX
  8
0
 10
129.0186
 20
13.2773
  0
VERTEX
  8
0
 10
129.0463
 20
13.2783
  0
VERTEX
  8
0
 10
129.0723
 20
13.279
  0
VERTEX
  8
0
 10
129.0963
 20
13.2796
  0
VERTEX
  8
0
 10
129.118
 20
13.28
  0
VERTEX
  8
0
 10
129.1372
 20
13.2803
  0
VERTEX
  8
0
 10
129.1535
 20
13.2804
  0
VERTEX
  8
0
 10
129.1667
 20
13.2805
  0
VERTEX
  8
0
 10
129.1765
 20
13.2806
  0
VERTEX
  8
0
 10
129.1826
 20
13.2806
  0
VERTEX
  8
0
 10
129.1846
 20
13.2806
  0
VERTEX
  8
0
 10
129.1846
 20
13.2806
  0
VERTEX
  8
0
 10
129.1846
 20
13.2858
  0
VERTEX
  8
0
 10
129.1846
 20
13.2858
  0
VERTEX
  8
0
 10
129.1848
 20
13.2915
  0
VERTEX
  8
0
 10
129.1848
 20
13.2915
  0
VERTEX
  8
0
 10
129.1796
 20
13.2918
  0
VERTEX
  8
0
 10
129.1647
 20
13.2926
  0
VERTEX
  8
0
 10
129.1411
 20
13.2938
  0
VERTEX
  8
0
 10
129.1099
 20
13.2954
  0
VERTEX
  8
0
 10
129.0721
 20
13.2972
  0
VERTEX
  8
0
 10
129.0288
 20
13.2992
  0
VERTEX
  8
0
 10
128.981
 20
13.3013
  0
VERTEX
  8
0
 10
128.9297
 20
13.3034
  0
VERTEX
  8
0
 10
128.876
 20
13.3054
  0
VERTEX
  8
0
 10
128.821
 20
13.3072
  0
VERTEX
  8
0
 10
128.7656
 20
13.3088
  0
VERTEX
  8
0
 10
128.7109
 20
13.31
  0
VERTEX
  8
0
 10
128.658
 20
13.3108
  0
VERTEX
  8
0
 10
128.6079
 20
13.3111
  0
VERTEX
  8
0
 10
128.5617
 20
13.3107
  0
VERTEX
  8
0
 10
128.5203
 20
13.3097
  0
VERTEX
  8
0
 10
128.4849
 20
13.3079
  0
VERTEX
  8
0
 10
128.4849
 20
13.3079
  0
VERTEX
  8
0
 10
128.4541
 20
13.3057
  0
VERTEX
  8
0
 10
128.424
 20
13.3036
  0
VERTEX
  8
0
 10
128.3947
 20
13.3015
  0
VERTEX
  8
0
 10
128.3661
 20
13.2994
  0
VERTEX
  8
0
 10
128.3383
 20
13.2974
  0
VERTEX
  8
0
 10
128.3111
 20
13.2953
  0
VERTEX
  8
0
 10
128.2845
 20
13.2933
  0
VERTEX
  8
0
 10
128.2586
 20
13.2913
  0
VERTEX
  8
0
 10
128.2334
 20
13.2893
  0
VERTEX
  8
0
 10
128.2087
 20
13.2873
  0
VERTEX
  8
0
 10
128.1845
 20
13.2854
  0
VERTEX
  8
0
 10
128.161
 20
13.2834
  0
VERTEX
  8
0
 10
128.1379
 20
13.2815
  0
VERTEX
  8
0
 10
128.1153
 20
13.2795
  0
VERTEX
  8
0
 10
128.0933
 20
13.2776
  0
VERTEX
  8
0
 10
128.0716
 20
13.2757
  0
VERTEX
  8
0
 10
128.0504
 20
13.2737
  0
VERTEX
  8
0
 10
128.0297
 20
13.2718
  0
VERTEX
  8
0
 10
128.0093
 20
13.2699
  0
VERTEX
  8
0
 10
127.9892
 20
13.2679
  0
VERTEX
  8
0
 10
127.9696
 20
13.266
  0
VERTEX
  8
0
 10
127.9502
 20
13.264
  0
VERTEX
  8
0
 10
127.9311
 20
13.2621
  0
VERTEX
  8
0
 10
127.9123
 20
13.2601
  0
VERTEX
  8
0
 10
127.8938
 20
13.2581
  0
VERTEX
  8
0
 10
127.8755
 20
13.2561
  0
VERTEX
  8
0
 10
127.8574
 20
13.2541
  0
VERTEX
  8
0
 10
127.8395
 20
13.2521
  0
VERTEX
  8
0
 10
127.8218
 20
13.25
  0
VERTEX
  8
0
 10
127.8042
 20
13.2479
  0
VERTEX
  8
0
 10
127.7867
 20
13.2458
  0
VERTEX
  8
0
 10
127.7693
 20
13.2437
  0
VERTEX
  8
0
 10
127.752
 20
13.2416
  0
VERTEX
  8
0
 10
127.7347
 20
13.2394
  0
VERTEX
  8
0
 10
127.7175
 20
13.2372
  0
VERTEX
  8
0
 10
127.7175
 20
13.2372
  0
VERTEX
  8
0
 10
127.6932
 20
13.234
  0
VERTEX
  8
0
 10
127.6684
 20
13.2307
  0
VERTEX
  8
0
 10
127.6431
 20
13.2273
  0
VERTEX
  8
0
 10
127.6174
 20
13.2237
  0
VERTEX
  8
0
 10
127.5913
 20
13.2201
  0
VERTEX
  8
0
 10
127.5648
 20
13.2163
  0
VERTEX
  8
0
 10
127.5378
 20
13.2124
  0
VERTEX
  8
0
 10
127.5105
 20
13.2083
  0
VERTEX
  8
0
 10
127.4829
 20
13.2041
  0
VERTEX
  8
0
 10
127.4549
 20
13.1998
  0
VERTEX
  8
0
 10
127.4265
 20
13.1954
  0
VERTEX
  8
0
 10
127.3979
 20
13.1909
  0
VERTEX
  8
0
 10
127.3689
 20
13.1862
  0
VERTEX
  8
0
 10
127.3396
 20
13.1814
  0
VERTEX
  8
0
 10
127.3101
 20
13.1765
  0
VERTEX
  8
0
 10
127.2803
 20
13.1714
  0
VERTEX
  8
0
 10
127.2502
 20
13.1663
  0
VERTEX
  8
0
 10
127.2199
 20
13.161
  0
VERTEX
  8
0
 10
127.1894
 20
13.1555
  0
VERTEX
  8
0
 10
127.1587
 20
13.15
  0
VERTEX
  8
0
 10
127.1278
 20
13.1443
  0
VERTEX
  8
0
 10
127.0967
 20
13.1385
  0
VERTEX
  8
0
 10
127.0655
 20
13.1326
  0
VERTEX
  8
0
 10
127.0341
 20
13.1265
  0
VERTEX
  8
0
 10
127.0026
 20
13.1203
  0
VERTEX
  8
0
 10
127.0026
 20
13.1203
  0
VERTEX
  8
0
 10
126.9685
 20
13.1135
  0
VERTEX
  8
0
 10
126.9324
 20
13.1061
  0
VERTEX
  8
0
 10
126.8945
 20
13.0983
  0
VERTEX
  8
0
 10
126.8555
 20
13.0901
  0
VERTEX
  8
0
 10
126.8156
 20
13.0816
  0
VERTEX
  8
0
 10
126.7753
 20
13.0729
  0
VERTEX
  8
0
 10
126.735
 20
13.0641
  0
VERTEX
  8
0
 10
126.6952
 20
13.0552
  0
VERTEX
  8
0
 10
126.6562
 20
13.0464
  0
VERTEX
  8
0
 10
126.6185
 20
13.0378
  0
VERTEX
  8
0
 10
126.5825
 20
13.0294
  0
VERTEX
  8
0
 10
126.5486
 20
13.0213
  0
VERTEX
  8
0
 10
126.5486
 20
13.0213
  0
VERTEX
  8
0
 10
126.5175
 20
13.0137
  0
VERTEX
  8
0
 10
126.4869
 20
13.0062
  0
VERTEX
  8
0
 10
126.4568
 20
12.9987
  0
VERTEX
  8
0
 10
126.4271
 20
12.9913
  0
VERTEX
  8
0
 10
126.3979
 20
12.9838
  0
VERTEX
  8
0
 10
126.369
 20
12.9764
  0
VERTEX
  8
0
 10
126.3405
 20
12.969
  0
VERTEX
  8
0
 10
126.3124
 20
12.9615
  0
VERTEX
  8
0
 10
126.2845
 20
12.9541
  0
VERTEX
  8
0
 10
126.2569
 20
12.9466
  0
VERTEX
  8
0
 10
126.2296
 20
12.9391
  0
VERTEX
  8
0
 10
126.2024
 20
12.9315
  0
VERTEX
  8
0
 10
126.1754
 20
12.9239
  0
VERTEX
  8
0
 10
126.1485
 20
12.9163
  0
VERTEX
  8
0
 10
126.1218
 20
12.9086
  0
VERTEX
  8
0
 10
126.0951
 20
12.9008
  0
VERTEX
  8
0
 10
126.0684
 20
12.8929
  0
VERTEX
  8
0
 10
126.0417
 20
12.885
  0
VERTEX
  8
0
 10
126.0151
 20
12.877
  0
VERTEX
  8
0
 10
125.9883
 20
12.8688
  0
VERTEX
  8
0
 10
125.9615
 20
12.8606
  0
VERTEX
  8
0
 10
125.9345
 20
12.8522
  0
VERTEX
  8
0
 10
125.9074
 20
12.8438
  0
VERTEX
  8
0
 10
125.8801
 20
12.8352
  0
VERTEX
  8
0
 10
125.8526
 20
12.8264
  0
VERTEX
  8
0
 10
125.8526
 20
12.8264
  0
VERTEX
  8
0
 10
125.8226
 20
12.8168
  0
VERTEX
  8
0
 10
125.7928
 20
12.8071
  0
VERTEX
  8
0
 10
125.7631
 20
12.7974
  0
VERTEX
  8
0
 10
125.7335
 20
12.7876
  0
VERTEX
  8
0
 10
125.7042
 20
12.7778
  0
VERTEX
  8
0
 10
125.6751
 20
12.7679
  0
VERTEX
  8
0
 10
125.6462
 20
12.758
  0
VERTEX
  8
0
 10
125.6176
 20
12.7481
  0
VERTEX
  8
0
 10
125.5893
 20
12.7382
  0
VERTEX
  8
0
 10
125.5612
 20
12.7283
  0
VERTEX
  8
0
 10
125.5335
 20
12.7184
  0
VERTEX
  8
0
 10
125.5061
 20
12.7085
  0
VERTEX
  8
0
 10
125.4791
 20
12.6986
  0
VERTEX
  8
0
 10
125.4525
 20
12.6888
  0
VERTEX
  8
0
 10
125.4262
 20
12.679
  0
VERTEX
  8
0
 10
125.4004
 20
12.6693
  0
VERTEX
  8
0
 10
125.375
 20
12.6596
  0
VERTEX
  8
0
 10
125.3501
 20
12.65
  0
VERTEX
  8
0
 10
125.3257
 20
12.6405
  0
VERTEX
  8
0
 10
125.3018
 20
12.631
  0
VERTEX
  8
0
 10
125.2784
 20
12.6217
  0
VERTEX
  8
0
 10
125.2556
 20
12.6124
  0
VERTEX
  8
0
 10
125.2333
 20
12.6033
  0
VERTEX
  8
0
 10
125.2333
 20
12.6033
  0
VERTEX
  8
0
 10
125.2008
 20
12.5895
  0
VERTEX
  8
0
 10
125.1634
 20
12.5728
  0
VERTEX
  8
0
 10
125.1219
 20
12.5537
  0
VERTEX
  8
0
 10
125.0773
 20
12.5328
  0
VERTEX
  8
0
 10
125.0305
 20
12.5104
  0
VERTEX
  8
0
 10
124.9823
 20
12.4871
  0
VERTEX
  8
0
 10
124.9336
 20
12.4634
  0
VERTEX
  8
0
 10
124.8854
 20
12.4396
  0
VERTEX
  8
0
 10
124.8384
 20
12.4164
  0
VERTEX
  8
0
 10
124.7936
 20
12.3941
  0
VERTEX
  8
0
 10
124.7519
 20
12.3732
  0
VERTEX
  8
0
 10
124.7142
 20
12.3542
  0
VERTEX
  8
0
 10
124.6814
 20
12.3377
  0
VERTEX
  8
0
 10
124.6543
 20
12.3239
  0
VERTEX
  8
0
 10
124.6338
 20
12.3136
  0
VERTEX
  8
0
 10
124.6209
 20
12.307
  0
VERTEX
  8
0
 10
124.6164
 20
12.3047
  0
VERTEX
  8
0
 10
124.6164
 20
12.3047
  0
VERTEX
  8
0
 10
123.5304
 20
12.3056
  0
VERTEX
  8
0
 10
123.5304
 20
12.3056
  0
VERTEX
  8
0
 10
123.5372
 20
12.3088
  0
VERTEX
  8
0
 10
123.5563
 20
12.3177
  0
VERTEX
  8
0
 10
123.5855
 20
12.3314
  0
VERTEX
  8
0
 10
123.6228
 20
12.3488
  0
VERTEX
  8
0
 10
123.6661
 20
12.3689
  0
VERTEX
  8
0
 10
123.7132
 20
12.3908
  0
VERTEX
  8
0
 10
123.7622
 20
12.4133
  0
VERTEX
  8
0
 10
123.8109
 20
12.4356
  0
VERTEX
  8
0
 10
123.8572
 20
12.4566
  0
VERTEX
  8
0
 10
123.8991
 20
12.4752
  0
VERTEX
  8
0
 10
123.9345
 20
12.4905
  0
VERTEX
  8
0
 10
123.9345
 20
12.4905
  0
VERTEX
  8
0
 10
123.9633
 20
12.5028
  0
VERTEX
  8
0
 10
123.9924
 20
12.5151
  0
VERTEX
  8
0
 10
124.0216
 20
12.5274
  0
VERTEX
  8
0
 10
124.051
 20
12.5397
  0
VERTEX
  8
0
 10
124.0806
 20
12.552
  0
VERTEX
  8
0
 10
124.1103
 20
12.5644
  0
VERTEX
  8
0
 10
124.1401
 20
12.5767
  0
VERTEX
  8
0
 10
124.1701
 20
12.589
  0
VERTEX
  8
0
 10
124.2001
 20
12.6012
  0
VERTEX
  8
0
 10
124.2303
 20
12.6134
  0
VERTEX
  8
0
 10
124.2605
 20
12.6256
  0
VERTEX
  8
0
 10
124.2908
 20
12.6377
  0
VERTEX
  8
0
 10
124.3212
 20
12.6498
  0
VERTEX
  8
0
 10
124.3517
 20
12.6617
  0
VERTEX
  8
0
 10
124.3821
 20
12.6736
  0
VERTEX
  8
0
 10
124.4126
 20
12.6854
  0
VERTEX
  8
0
 10
124.4432
 20
12.6971
  0
VERTEX
  8
0
 10
124.4737
 20
12.7086
  0
VERTEX
  8
0
 10
124.5042
 20
12.7201
  0
VERTEX
  8
0
 10
124.5347
 20
12.7314
  0
VERTEX
  8
0
 10
124.5652
 20
12.7426
  0
VERTEX
  8
0
 10
124.5957
 20
12.7536
  0
VERTEX
  8
0
 10
124.6261
 20
12.7644
  0
VERTEX
  8
0
 10
124.6564
 20
12.7751
  0
VERTEX
  8
0
 10
124.6564
 20
12.7751
  0
VERTEX
  8
0
 10
124.6868
 20
12.7857
  0
VERTEX
  8
0
 10
124.7173
 20
12.7962
  0
VERTEX
  8
0
 10
124.7479
 20
12.8066
  0
VERTEX
  8
0
 10
124.7785
 20
12.8169
  0
VERTEX
  8
0
 10
124.8093
 20
12.8272
  0
VERTEX
  8
0
 10
124.84
 20
12.8373
  0
VERTEX
  8
0
 10
124.8708
 20
12.8474
  0
VERTEX
  8
0
 10
124.9017
 20
12.8573
  0
VERTEX
  8
0
 10
124.9325
 20
12.8672
  0
VERTEX
  8
0
 10
124.9633
 20
12.877
  0
VERTEX
  8
0
 10
124.9941
 20
12.8866
  0
VERTEX
  8
0
 10
125.0248
 20
12.8961
  0
VERTEX
  8
0
 10
125.0555
 20
12.9056
  0
VERTEX
  8
0
 10
125.0861
 20
12.9149
  0
VERTEX
  8
0
 10
125.1166
 20
12.9241
  0
VERTEX
  8
0
 10
125.147
 20
12.9331
  0
VERTEX
  8
0
 10
125.1773
 20
12.9421
  0
VERTEX
  8
0
 10
125.2074
 20
12.9509
  0
VERTEX
  8
0
 10
125.2374
 20
12.9595
  0
VERTEX
  8
0
 10
125.2672
 20
12.9681
  0
VERTEX
  8
0
 10
125.2968
 20
12.9765
  0
VERTEX
  8
0
 10
125.3262
 20
12.9847
  0
VERTEX
  8
0
 10
125.3553
 20
12.9928
  0
VERTEX
  8
0
 10
125.3843
 20
13.0007
  0
VERTEX
  8
0
 10
125.3843
 20
13.0007
  0
VERTEX
  8
0
 10
125.4099
 20
13.0077
  0
VERTEX
  8
0
 10
125.4356
 20
13.0146
  0
VERTEX
  8
0
 10
125.4614
 20
13.0215
  0
VERTEX
  8
0
 10
125.4873
 20
13.0284
  0
VERTEX
  8
0
 10
125.5132
 20
13.0352
  0
VERTEX
  8
0
 10
125.5393
 20
13.042
  0
VERTEX
  8
0
 10
125.5655
 20
13.0487
  0
VERTEX
  8
0
 10
125.5918
 20
13.0555
  0
VERTEX
  8
0
 10
125.6183
 20
13.0622
  0
VERTEX
  8
0
 10
125.6449
 20
13.0688
  0
VERTEX
  8
0
 10
125.6717
 20
13.0755
  0
VERTEX
  8
0
 10
125.6987
 20
13.0821
  0
VERTEX
  8
0
 10
125.7258
 20
13.0887
  0
VERTEX
  8
0
 10
125.7532
 20
13.0952
  0
VERTEX
  8
0
 10
125.7808
 20
13.1018
  0
VERTEX
  8
0
 10
125.8086
 20
13.1083
  0
VERTEX
  8
0
 10
125.8366
 20
13.1148
  0
VERTEX
  8
0
 10
125.8649
 20
13.1212
  0
VERTEX
  8
0
 10
125.8935
 20
13.1277
  0
VERTEX
  8
0
 10
125.9223
 20
13.1341
  0
VERTEX
  8
0
 10
125.9515
 20
13.1405
  0
VERTEX
  8
0
 10
125.9809
 20
13.1469
  0
VERTEX
  8
0
 10
126.0106
 20
13.1533
  0
VERTEX
  8
0
 10
126.0407
 20
13.1597
  0
VERTEX
  8
0
 10
126.0711
 20
13.1661
  0
VERTEX
  8
0
 10
126.1018
 20
13.1724
  0
VERTEX
  8
0
 10
126.1329
 20
13.1787
  0
VERTEX
  8
0
 10
126.1329
 20
13.1787
  0
VERTEX
  8
0
 10
126.1576
 20
13.1837
  0
VERTEX
  8
0
 10
126.182
 20
13.1886
  0
VERTEX
  8
0
 10
126.2061
 20
13.1934
  0
VERTEX
  8
0
 10
126.23
 20
13.1981
  0
VERTEX
  8
0
 10
126.2536
 20
13.2027
  0
VERTEX
  8
0
 10
126.2771
 20
13.2073
  0
VERTEX
  8
0
 10
126.3004
 20
13.2118
  0
VERTEX
  8
0
 10
126.3236
 20
13.2162
  0
VERTEX
  8
0
 10
126.3467
 20
13.2206
  0
VERTEX
  8
0
 10
126.3697
 20
13.2249
  0
VERTEX
  8
0
 10
126.3927
 20
13.2291
  0
VERTEX
  8
0
 10
126.4157
 20
13.2333
  0
VERTEX
  8
0
 10
126.4388
 20
13.2374
  0
VERTEX
  8
0
 10
126.4619
 20
13.2415
  0
VERTEX
  8
0
 10
126.4851
 20
13.2455
  0
VERTEX
  8
0
 10
126.5084
 20
13.2495
  0
VERTEX
  8
0
 10
126.5319
 20
13.2535
  0
VERTEX
  8
0
 10
126.5555
 20
13.2574
  0
VERTEX
  8
0
 10
126.5794
 20
13.2614
  0
VERTEX
  8
0
 10
126.6036
 20
13.2652
  0
VERTEX
  8
0
 10
126.628
 20
13.2691
  0
VERTEX
  8
0
 10
126.6527
 20
13.273
  0
VERTEX
  8
0
 10
126.6777
 20
13.2768
  0
VERTEX
  8
0
 10
126.7032
 20
13.2806
  0
VERTEX
  8
0
 10
126.729
 20
13.2845
  0
VERTEX
  8
0
 10
126.7553
 20
13.2883
  0
VERTEX
  8
0
 10
126.782
 20
13.2921
  0
VERTEX
  8
0
 10
126.8092
 20
13.296
  0
VERTEX
  8
0
 10
126.8369
 20
13.2998
  0
VERTEX
  8
0
 10
126.8652
 20
13.3037
  0
VERTEX
  8
0
 10
126.8941
 20
13.3075
  0
VERTEX
  8
0
 10
126.9236
 20
13.3114
  0
VERTEX
  8
0
 10
126.9537
 20
13.3153
  0
VERTEX
  8
0
 10
126.9846
 20
13.3193
  0
VERTEX
  8
0
 10
126.9846
 20
13.3193
  0
VERTEX
  8
0
 10
127.0129
 20
13.3228
  0
VERTEX
  8
0
 10
127.0422
 20
13.3264
  0
VERTEX
  8
0
 10
127.0723
 20
13.33
  0
VERTEX
  8
0
 10
127.1031
 20
13.3335
  0
VERTEX
  8
0
 10
127.1346
 20
13.3371
  0
VERTEX
  8
0
 10
127.1666
 20
13.3407
  0
VERTEX
  8
0
 10
127.1992
 20
13.3442
  0
VERTEX
  8
0
 10
127.2322
 20
13.3478
  0
VERTEX
  8
0
 10
127.2656
 20
13.3513
  0
VERTEX
  8
0
 10
127.2993
 20
13.3548
  0
VERTEX
  8
0
 10
127.3332
 20
13.3583
  0
VERTEX
  8
0
 10
127.3672
 20
13.3617
  0
VERTEX
  8
0
 10
127.4013
 20
13.3651
  0
VERTEX
  8
0
 10
127.4353
 20
13.3685
  0
VERTEX
  8
0
 10
127.4692
 20
13.3718
  0
VERTEX
  8
0
 10
127.503
 20
13.3751
  0
VERTEX
  8
0
 10
127.5365
 20
13.3783
  0
VERTEX
  8
0
 10
127.5697
 20
13.3815
  0
VERTEX
  8
0
 10
127.6025
 20
13.3846
  0
VERTEX
  8
0
 10
127.6025
 20
13.3846
  0
VERTEX
  8
0
 10
127.636
 20
13.3877
  0
VERTEX
  8
0
 10
127.6713
 20
13.3906
  0
VERTEX
  8
0
 10
127.7079
 20
13.3934
  0
VERTEX
  8
0
 10
127.7454
 20
13.396
  0
VERTEX
  8
0
 10
127.7834
 20
13.3986
  0
VERTEX
  8
0
 10
127.8215
 20
13.401
  0
VERTEX
  8
0
 10
127.8594
 20
13.4032
  0
VERTEX
  8
0
 10
127.8965
 20
13.4053
  0
VERTEX
  8
0
 10
127.9325
 20
13.4073
  0
VERTEX
  8
0
 10
127.967
 20
13.4091
  0
VERTEX
  8
0
 10
127.9996
 20
13.4107
  0
VERTEX
  8
0
 10
128.0298
 20
13.4121
  0
VERTEX
  8
0
 10
128.0574
 20
13.4134
  0
VERTEX
  8
0
 10
128.0818
 20
13.4145
  0
VERTEX
  8
0
 10
128.1027
 20
13.4154
  0
VERTEX
  8
0
 10
128.1196
 20
13.4161
  0
VERTEX
  8
0
 10
128.1322
 20
13.4166
  0
VERTEX
  8
0
 10
128.1401
 20
13.4169
  0
VERTEX
  8
0
 10
128.1428
 20
13.4171
  0
VERTEX
  8
0
 10
128.1428
 20
13.4171
  0
VERTEX
  8
0
 10
128.1428
 20
13.42
  0
VERTEX
  8
0
 10
128.1428
 20
13.42
  0
VERTEX
  8
0
 10
128.19
 20
13.4193
  0
VERTEX
  8
0
 10
128.3128
 20
13.4177
  0
VERTEX
  8
0
 10
128.4831
 20
13.4154
  0
VERTEX
  8
0
 10
128.6728
 20
13.4126
  0
VERTEX
  8
0
 10
128.8539
 20
13.4097
  0
VERTEX
  8
0
 10
128.9981
 20
13.407
  0
VERTEX
  8
0
 10
129.0773
 20
13.4048
  0
SEQEND
  0
POLYLINE
  8
0
 66
     1
 10
0
 20
0
  0
VERTEX
  8
0
 10
130.755
 20
16.5506
  0
VERTEX
  8
0
 10
130.7944
 20
16.3897
  0
VERTEX
  8
0
 10
130.7944
 20
16.3897
  0
VERTEX
  8
0
 10
130.801
 20
16.3894
  0
VERTEX
  8
0
 10
130.8197
 20
16.3886
  0
VERTEX
  8
0
 10
130.8488
 20
16.3873
  0
VERTEX
  8
0
 10
130.8867
 20
16.3856
  0
VERTEX
  8
0
 10
130.9319
 20
16.3834
  0
VERTEX
  8
0
 10
130.9826
 20
16.381
  0
VERTEX
  8
0
 10
131.0374
 20
16.3782
  0
VERTEX
  8
0
 10
131.0945
 20
16.3752
  0
VERTEX
  8
0
 10
131.1524
 20
16.372
  0
VERTEX
  8
0
 10
131.2094
 20
16.3686
  0
VERTEX
  8
0
 10
131.264
 20
16.3651
  0
VERTEX
  8
0
 10
131.3144
 20
16.3616
  0
VERTEX
  8
0
 10
131.3591
 20
16.358
  0
VERTEX
  8
0
 10
131.3966
 20
16.3545
  0
VERTEX
  8
0
 10
131.3966
 20
16.3545
  0
VERTEX
  8
0
 10
131.4271
 20
16.3515
  0
VERTEX
  8
0
 10
131.4566
 20
16.3489
  0
VERTEX
  8
0
 10
131.4852
 20
16.3466
  0
VERTEX
  8
0
 10
131.5128
 20
16.3448
  0
VERTEX
  8
0
 10
131.5394
 20
16.3433
  0
VERTEX
  8
0
 10
131.5651
 20
16.3422
  0
VERTEX
  8
0
 10
131.5898
 20
16.3414
  0
VERTEX
  8
0
 10
131.6136
 20
16.3409
  0
VERTEX
  8
0
 10
131.6365
 20
16.3407
  0
VERTEX
  8
0
 10
131.6583
 20
16.3408
  0
VERTEX
  8
0
 10
131.6793
 20
16.3412
  0
VERTEX
  8
0
 10
131.6992
 20
16.3419
  0
VERTEX
  8
0
 10
131.7183
 20
16.3427
  0
VERTEX
  8
0
 10
131.7364
 20
16.3439
  0
VERTEX
  8
0
 10
131.7535
 20
16.3452
  0
VERTEX
  8
0
 10
131.7697
 20
16.3467
  0
VERTEX
  8
0
 10
131.785
 20
16.3484
  0
VERTEX
  8
0
 10
131.7994
 20
16.3503
  0
VERTEX
  8
0
 10
131.8128
 20
16.3523
  0
VERTEX
  8
0
 10
131.8253
 20
16.3545
  0
VERTEX
  8
0
 10
131.8369
 20
16.3568
  0
VERTEX
  8
0
 10
131.8475
 20
16.3591
  0
VERTEX
  8
0
 10
131.8572
 20
16.3616
  0
VERTEX
  8
0
 10
131.866
 20
16.3642
  0
VERTEX
  8
0
 10
131.8739
 20
16.3668
  0
VERTEX
  8
0
 10
131.8808
 20
16.3694
  0
VERTEX
  8
0
 10
131.8869
 20
16.3721
  0
VERTEX
  8
0
 10
131.892
 20
16.3748
  0
VERTEX
  8
0
 10
131.8962
 20
16.3775
  0
VERTEX
  8
0
 10
131.8995
 20
16.3802
  0
VERTEX
  8
0
 10
131.8995
 20
16.3802
  0
VERTEX
  8
0
 10
131.9336
 20
16.4636
  0
VERTEX
  8
0
 10
131.9336
 20
16.4636
  0
VERTEX
  8
0
 10
131.9592
 20
16.4827
  0
VERTEX
  8
0
 10
131.9984
 20
16.4889
  0
VERTEX
  8
0
 10
131.9984
 20
16.4889
  0
VERTEX
  8
0
 10
132.1499
 20
16.4733
  0
VERTEX
  8
0
 10
132.2917
 20
16.4512
  0
VERTEX
  8
0
 10
132.2917
 20
16.4512
  0
VERTEX
  8
0
 10
132.3288
 20
16.4346
  0
VERTEX
  8
0
 10
132.3288
 20
16.4346
  0
VERTEX
  8
0
 10
132.3292
 20
16.4333
  0
VERTEX
  8
0
 10
132.3304
 20
16.4295
  0
VERTEX
  8
0
 10
132.3325
 20
16.4232
  0
VERTEX
  8
0
 10
132.3353
 20
16.4147
  0
VERTEX
  8
0
 10
132.3389
 20
16.4041
  0
VERTEX
  8
0
 10
132.3431
 20
16.3913
  0
VERTEX
  8
0
 10
132.348
 20
16.3767
  0
VERTEX
  8
0
 10
132.3535
 20
16.3602
  0
VERTEX
  8
0
 10
132.3597
 20
16.342
  0
VERTEX
  8
0
 10
132.3664
 20
16.3222
  0
VERTEX
  8
0
 10
132.3736
 20
16.3009
  0
VERTEX
  8
0
 10
132.3814
 20
16.2783
  0
VERTEX
  8
0
 10
132.3895
 20
16.2544
  0
VERTEX
  8
0
 10
132.3982
 20
16.2294
  0
VERTEX
  8
0
 10
132.4072
 20
16.2035
  0
VERTEX
  8
0
 10
132.4166
 20
16.1766
  0
VERTEX
  8
0
 10
132.4263
 20
16.1489
  0
VERTEX
  8
0
 10
132.4364
 20
16.1206
  0
VERTEX
  8
0
 10
132.4467
 20
16.0917
  0
VERTEX
  8
0
 10
132.4572
 20
16.0624
  0
VERTEX
  8
0
 10
132.4679
 20
16.0328
  0
VERTEX
  8
0
 10
132.4788
 20
16.003
  0
VERTEX
  8
0
 10
132.4898
 20
15.9731
  0
VERTEX
  8
0
 10
132.4898
 20
15.9731
  0
VERTEX
  8
0
 10
132.5012
 20
15.9424
  0
VERTEX
  8
0
 10
132.5131
 20
15.9098
  0
VERTEX
  8
0
 10
132.5255
 20
15.8757
  0
VERTEX
  8
0
 10
132.5383
 20
15.8402
  0
VERTEX
  8
0
 10
132.5514
 20
15.8036
  0
VERTEX
  8
0
 10
132.5647
 20
15.7661
  0
VERTEX
  8
0
 10
132.5783
 20
15.7279
  0
VERTEX
  8
0
 10
132.5919
 20
15.6893
  0
VERTEX
  8
0
 10
132.6056
 20
15.6504
  0
VERTEX
  8
0
 10
132.6192
 20
15.6115
  0
VERTEX
  8
0
 10
132.6328
 20
15.5729
  0
VERTEX
  8
0
 10
132.6461
 20
15.5346
  0
VERTEX
  8
0
 10
132.6592
 20
15.497
  0
VERTEX
  8
0
 10
132.6719
 20
15.4603
  0
VERTEX
  8
0
 10
132.6843
 20
15.4246
  0
VERTEX
  8
0
 10
132.6961
 20
15.3903
  0
VERTEX
  8
0
 10
132.7074
 20
15.3575
  0
VERTEX
  8
0
 10
132.7181
 20
15.3265
  0
VERTEX
  8
0
 10
132.728
 20
15.2975
  0
VERTEX
  8
0
 10
132.7372
 20
15.2707
  0
VERTEX
  8
0
 10
132.7456
 20
15.2463
  0
VERTEX
  8
0
 10
132.753
 20
15.2245
  0
VERTEX
  8
0
 10
132.7594
 20
15.2056
  0
VERTEX
  8
0
 10
132.7648
 20
15.1898
  0
VERTEX
  8
0
 10
132.769
 20
15.1774
  0
VERTEX
  8
0
 10
132.7719
 20
15.1684
  0
VERTEX
  8
0
 10
132.7736
 20
15.1632
  0
VERTEX
  8
0
 10
132.7736
 20
15.1632
  0
VERTEX
  8
0
 10
132.785
 20
15.1323
  0
VERTEX
  8
0
 10
132.7806
 20
15.1027
  0
VERTEX
  8
0
 10
132.7806
 20
15.1027
  0
VERTEX
  8
0
 10
132.7351
 20
15.0712
  0
VERTEX
  8
0
 10
132.6832
 20
15.0364
  0
VERTEX
  8
0
 10
132.6832
 20
15.0364
  0
VERTEX
  8
0
 10
132.6864
 20
14.9812
  0
VERTEX
  8
0
 10
132.7234
 20
14.8818
  0
VERTEX
  8
0
 10
132.7826
 20
14.7557
  0
VERTEX
  8
0
 10
132.8522
 20
14.6203
  0
VERTEX
  8
0
 10
132.9203
 20
14.4929
  0
VERTEX
  8
0
 10
132.9752
 20
14.3909
  0
VERTEX
  8
0
 10
133.0052
 20
14.3317
  0
VERTEX
  8
0
 10
133.0052
 20
14.3317
  0
VERTEX
  8
0
 10
133.0122
 20
14.3152
  0
VERTEX
  8
0
 10
133.0193
 20
14.2977
  0
VERTEX
  8
0
 10
133.0266
 20
14.279
  0
VERTEX
  8
0
 10
133.0339
 20
14.2592
  0
VERTEX
  8
0
 10
133.0411
 20
14.2383
  0
VERTEX
  8
0
 10
133.0482
 20
14.2161
  0
VERTEX
  8
0
 10
133.0549
 20
14.1928
  0
VERTEX
  8
0
 10
133.0613
 20
14.1682
  0
VERTEX
  8
0
 10
133.0673
 20
14.1423
  0
VERTEX
  8
0
 10
133.0727
 20
14.115
  0
VERTEX
  8
0
 10
133.0774
 20
14.0865
  0
VERTEX
  8
0
 10
133.0814
 20
14.0565
  0
VERTEX
  8
0
 10
133.0846
 20
14.0251
  0
VERTEX
  8
0
 10
133.0868
 20
13.9923
  0
VERTEX
  8
0
 10
133.0868
 20
13.9923
  0
VERTEX
  8
0
 10
133.0875
 20
13.9761
  0
VERTEX
  8
0
 10
133.0882
 20
13.9599
  0
VERTEX
  8
0
 10
133.0888
 20
13.9436
  0
VERTEX
  8
0
 10
133.0891
 20
13.9272
  0
VERTEX
  8
0
 10
133.0893
 20
13.9107
  0
VERTEX
  8
0
 10
133.0893
 20
13.8941
  0
VERTEX
  8
0
 10
133.089
 20
13.8773
  0
VERTEX
  8
0
 10
133.0885
 20
13.8603
  0
VERTEX
  8
0
 10
133.0876
 20
13.8431
  0
VERTEX
  8
0
 10
133.0864
 20
13.8257
  0
VERTEX
  8
0
 10
133.0849
 20
13.8079
  0
VERTEX
  8
0
 10
133.0829
 20
13.7899
  0
VERTEX
  8
0
 10
133.0806
 20
13.7715
  0
VERTEX
  8
0
 10
133.0778
 20
13.7527
  0
VERTEX
  8
0
 10
133.0745
 20
13.7335
  0
VERTEX
  8
0
 10
133.0707
 20
13.7139
  0
VERTEX
  8
0
 10
133.0664
 20
13.6939
  0
VERTEX
  8
0
 10
133.0616
 20
13.6734
  0
VERTEX
  8
0
 10
133.0561
 20
13.6523
  0
VERTEX
  8
0
 10
133.05
 20
13.6308
  0
VERTEX
  8
0
 10
133.0433
 20
13.6086
  0
VERTEX
  8
0
 10
133.0359
 20
13.5859
  0
VERTEX
  8
0
 10
133.0278
 20
13.5625
  0
VERTEX
  8
0
 10
133.019
 20
13.5385
  0
VERTEX
  8
0
 10
133.0094
 20
13.5138
  0
VERTEX
  8
0
 10
132.999
 20
13.4884
  0
VERTEX
  8
0
 10
132.9878
 20
13.4622
  0
VERTEX
  8
0
 10
132.9758
 20
13.4353
  0
VERTEX
  8
0
 10
132.9629
 20
13.4075
  0
VERTEX
  8
0
 10
132.9629
 20
13.4075
  0
VERTEX
  8
0
 10
132.9473
 20
13.3762
  0
VERTEX
  8
0
 10
132.932
 20
13.3478
  0
VERTEX
  8
0
 10
132.917
 20
13.3222
  0
VERTEX
  8
0
 10
132.9022
 20
13.299
  0
VERTEX
  8
0
 10
132.8878
 20
13.2777
  0
VERTEX
  8
0
 10
132.8738
 20
13.2581
  0
VERTEX
  8
0
 10
132.8601
 20
13.2397
  0
VERTEX
  8
0
 10
132.8469
 20
13.2223
  0
VERTEX
  8
0
 10
132.8469
 20
13.2223
  0
VERTEX
  8
0
 10
132.835
 20
13.207
  0
VERTEX
  8
0
 10
132.8225
 20
13.1913
  0
VERTEX
  8
0
 10
132.8091
 20
13.1749
  0
VERTEX
  8
0
 10
132.7944
 20
13.1579
  0
VERTEX
  8
0
 10
132.7782
 20
13.1398
  0
VERTEX
  8
0
 10
132.7602
 20
13.1206
  0
VERTEX
  8
0
 10
132.74
 20
13.1001
  0
VERTEX
  8
0
 10
132.7173
 20
13.0781
  0
VERTEX
  8
0
 10
132.692
 20
13.0544
  0
VERTEX
  8
0
 10
132.692
 20
13.0544
  0
VERTEX
  8
0
 10
132.6653
 20
13.0302
  0
VERTEX
  8
0
 10
132.6391
 20
13.0071
  0
VERTEX
  8
0
 10
132.6137
 20
12.9856
  0
VERTEX
  8
0
 10
132.5896
 20
12.9659
  0
VERTEX
  8
0
 10
132.567
 20
12.9487
  0
VERTEX
  8
0
 10
132.5463
 20
12.9342
  0
VERTEX
  8
0
 10
132.5279
 20
12.9229
  0
VERTEX
  8
0
 10
132.5122
 20
12.9154
  0
VERTEX
  8
0
 10
132.4996
 20
12.9118
  0
VERTEX
  8
0
 10
132.4996
 20
12.9118
  0
VERTEX
  8
0
 10
132.4583
 20
12.9152
  0
VERTEX
  8
0
 10
132.4238
 20
12.9336
  0
VERTEX
  8
0
 10
132.4238
 20
12.9336
  0
VERTEX
  8
0
 10
132.3946
 20
12.9949
  0
VERTEX
  8
0
 10
132.3946
 20
12.9949
  0
VERTEX
  8
0
 10
132.6377
 20
13.2065
  0
VERTEX
  8
0
 10
132.6377
 20
13.2065
  0
VERTEX
  8
0
 10
132.6138
 20
13.2218
  0
VERTEX
  8
0
 10
132.5628
 20
13.2554
  0
VERTEX
  8
0
 10
132.5158
 20
13.2887
  0
VERTEX
  8
0
 10
132.5158
 20
13.2887
  0
VERTEX
  8
0
 10
132.4936
 20
13.306
  0
VERTEX
  8
0
 10
132.4692
 20
13.3256
  0
VERTEX
  8
0
 10
132.4429
 20
13.3471
  0
VERTEX
  8
0
 10
132.4154
 20
13.3701
  0
VERTEX
  8
0
 10
132.3872
 20
13.3942
  0
VERTEX
  8
0
 10
132.3587
 20
13.4192
  0
VERTEX
  8
0
 10
132.3304
 20
13.4445
  0
VERTEX
  8
0
 10
132.3029
 20
13.4699
  0
VERTEX
  8
0
 10
132.2768
 20
13.495
  0
VERTEX
  8
0
 10
132.2524
 20
13.5195
  0
VERTEX
  8
0
 10
132.2524
 20
13.5195
  0
VERTEX
  8
0
 10
132.2318
 20
13.5408
  0
VERTEX
  8
0
 10
132.2122
 20
13.5614
  0
VERTEX
  8
0
 10
132.1935
 20
13.5816
  0
VERTEX
  8
0
 10
132.1755
 20
13.6016
  0
VERTEX
  8
0
 10
132.1578
 20
13.6217
  0
VERTEX
  8
0
 10
132.1403
 20
13.6423
  0
VERTEX
  8
0
 10
132.1228
 20
13.6635
  0
VERTEX
  8
0
 10
132.105
 20
13.6857
  0
VERTEX
  8
0
 10
132.0868
 20
13.7092
  0
VERTEX
  8
0
 10
132.0678
 20
13.7342
  0
VERTEX
  8
0
 10
132.0479
 20
13.761
  0
VERTEX
  8
0
 10
132.0479
 20
13.761
  0
VERTEX
  8
0
 10
132.0267
 20
13.7903
  0
VERTEX
  8
0
 10
132.0071
 20
13.8181
  0
VERTEX
  8
0
 10
131.988
 20
13.8459
  0
VERTEX
  8
0
 10
131.9683
 20
13.8753
  0
VERTEX
  8
0
 10
131.9468
 20
13.9078
  0
VERTEX
  8
0
 10
131.9468
 20
13.9078
  0
VERTEX
  8
0
 10
131.9225
 20
13.9455
  0
VERTEX
  8
0
 10
131.8962
 20
13.9873
  0
VERTEX
  8
0
 10
131.8698
 20
14.0305
  0
VERTEX
  8
0
 10
131.8452
 20
14.0722
  0
VERTEX
  8
0
 10
131.8241
 20
14.1096
  0
VERTEX
  8
0
 10
131.8241
 20
14.1096
  0
VERTEX
  8
0
 10
131.8085
 20
14.139
  0
VERTEX
  8
0
 10
131.7928
 20
14.1694
  0
VERTEX
  8
0
 10
131.7775
 20
14.2003
  0
VERTEX
  8
0
 10
131.7626
 20
14.2312
  0
VERTEX
  8
0
 10
131.7484
 20
14.2614
  0
VERTEX
  8
0
 10
131.7351
 20
14.2905
  0
VERTEX
  8
0
 10
131.7229
 20
14.3177
  0
VERTEX
  8
0
 10
131.7121
 20
14.3426
  0
VERTEX
  8
0
 10
131.7028
 20
14.3646
  0
VERTEX
  8
0
 10
131.6953
 20
14.3831
  0
VERTEX
  8
0
 10
131.6899
 20
14.3975
  0
VERTEX
  8
0
 10
131.6867
 20
14.4073
  0
VERTEX
  8
0
 10
131.6867
 20
14.4073
  0
VERTEX
  8
0
 10
131.6742
 20
14.4556
  0
VERTEX
  8
0
 10
131.6543
 20
14.5389
  0
VERTEX
  8
0
 10
131.6407
 20
14.6081
  0
VERTEX
  8
0
 10
131.6407
 20
14.6081
  0
VERTEX
  8
0
 10
131.6367
 20
14.6457
  0
VERTEX
  8
0
 10
131.6363
 20
14.6752
  0
VERTEX
  8
0
 10
131.6394
 20
14.709
  0
VERTEX
  8
0
 10
131.6394
 20
14.709
  0
VERTEX
  8
0
 10
131.6504
 20
14.7585
  0
VERTEX
  8
0
 10
131.6672
 20
14.8114
  0
VERTEX
  8
0
 10
131.6798
 20
14.845
  0
VERTEX
  8
0
 10
131.6798
 20
14.845
  0
VERTEX
  8
0
 10
131.7295
 20
14.9622
  0
VERTEX
  8
0
 10
131.7295
 20
14.9622
  0
VERTEX
  8
0
 10
131.7514
 20
15.0171
  0
VERTEX
  8
0
 10
131.7678
 20
15.0724
  0
VERTEX
  8
0
 10
131.7678
 20
15.0724
  0
VERTEX
  8
0
 10
131.7729
 20
15.1112
  0
VERTEX
  8
0
 10
131.7695
 20
15.1532
  0
VERTEX
  8
0
 10
131.7695
 20
15.1532
  0
VERTEX
  8
0
 10
131.7619
 20
15.1895
  0
VERTEX
  8
0
 10
131.7505
 20
15.2249
  0
VERTEX
  8
0
 10
131.7366
 20
15.2589
  0
VERTEX
  8
0
 10
131.7214
 20
15.2909
  0
VERTEX
  8
0
 10
131.7061
 20
15.3207
  0
VERTEX
  8
0
 10
131.692
 20
15.3477
  0
VERTEX
  8
0
 10
131.692
 20
15.3477
  0
VERTEX
  8
0
 10
131.6812
 20
15.3679
  0
VERTEX
  8
0
 10
131.6686
 20
15.3903
  0
VERTEX
  8
0
 10
131.6543
 20
15.4144
  0
VERTEX
  8
0
 10
131.6385
 20
15.4399
  0
VERTEX
  8
0
 10
131.6214
 20
15.4666
  0
VERTEX
  8
0
 10
131.603
 20
15.4941
  0
VERTEX
  8
0
 10
131.5836
 20
15.5221
  0
VERTEX
  8
0
 10
131.5633
 20
15.5501
  0
VERTEX
  8
0
 10
131.5633
 20
15.5501
  0
VERTEX
  8
0
 10
131.5214
 20
15.6014
  0
VERTEX
  8
0
 10
131.4686
 20
15.6611
  0
VERTEX
  8
0
 10
131.4311
 20
15.7008
  0
VERTEX
  8
0
 10
131.4311
 20
15.7008
  0
VERTEX
  8
0
 10
131.3975
 20
15.7315
  0
VERTEX
  8
0
 10
131.3495
 20
15.773
  0
VERTEX
  8
0
 10
131.3037
 20
15.8098
  0
VERTEX
  8
0
 10
131.3037
 20
15.8098
  0
VERTEX
  8
0
 10
131.2655
 20
15.837
  0
VERTEX
  8
0
 10
131.23
 20
15.8601
  0
VERTEX
  8
0
 10
131.1981
 20
15.8793
  0
VERTEX
  8
0
 10
131.1981
 20
15.8793
  0
VERTEX
  8
0
 10
131.1594
 20
15.8998
  0
VERTEX
  8
0
 10
131.1239
 20
15.9108
  0
VERTEX
  8
0
 10
131.1239
 20
15.9108
  0
VERTEX
  8
0
 10
131.0884
 20
15.9132
  0
VERTEX
  8
0
 10
131.048
 20
15.9058
  0
VERTEX
  8
0
 10
131.048
 20
15.9058
  0
VERTEX
  8
0
 10
130.9923
 20
15.8848
  0
VERTEX
  8
0
 10
130.9346
 20
15.8572
  0
VERTEX
  8
0
 10
130.9346
 20
15.8572
  0
VERTEX
  8
0
 10
130.9114
 20
15.8462
  0
VERTEX
  8
0
 10
130.8907
 20
15.8366
  0
VERTEX
  8
0
 10
130.8677
 20
15.8249
  0
VERTEX
  8
0
 10
130.8379
 20
15.8076
  0
VERTEX
  8
0
 10
130.8379
 20
15.8076
  0
VERTEX
  8
0
 10
130.7941
 20
15.7796
  0
VERTEX
  8
0
 10
130.7399
 20
15.7449
  0
VERTEX
  8
0
 10
130.6871
 20
15.7138
  0
VERTEX
  8
0
 10
130.6472
 20
15.6967
  0
VERTEX
  8
0
 10
130.6472
 20
15.6967
  0
VERTEX
  8
0
 10
130.6154
 20
15.691
  0
VERTEX
  8
0
 10
130.592
 20
15.6914
  0
VERTEX
  8
0
 10
130.5666
 20
15.6972
  0
VERTEX
  8
0
 10
130.5666
 20
15.6972
  0
VERTEX
  8
0
 10
130.5207
 20
15.7191
  0
VERTEX
  8
0
 10
130.4766
 20
15.751
  0
VERTEX
  8
0
 10
130.4766
 20
15.751
  0
VERTEX
  8
0
 10
130.4246
 20
15.7929
  0
VERTEX
  8
0
 10
130.3493
 20
15.853
  0
VERTEX
  8
0
 10
130.2899
 20
15.8981
  0
VERTEX
  8
0
 10
130.2899
 20
15.8981
  0
VERTEX
  8
0
 10
130.2664
 20
15.9138
  0
VERTEX
  8
0
 10
130.242
 20
15.9289
  0
VERTEX
  8
0
 10
130.2166
 20
15.9433
  0
VERTEX
  8
0
 10
130.1902
 20
15.957
  0
VERTEX
  8
0
 10
130.1628
 20
15.9699
  0
VERTEX
  8
0
 10
130.1342
 20
15.982
  0
VERTEX
  8
0
 10
130.1045
 20
15.9931
  0
VERTEX
  8
0
 10
130.0736
 20
16.0031
  0
VERTEX
  8
0
 10
130.0415
 20
16.0121
  0
VERTEX
  8
0
 10
130.008
 20
16.0199
  0
VERTEX
  8
0
 10
130.008
 20
16.0199
  0
VERTEX
  8
0
 10
129.9717
 20
16.0266
  0
VERTEX
  8
0
 10
129.9315
 20
16.0325
  0
VERTEX
  8
0
 10
129.8888
 20
16.0376
  0
VERTEX
  8
0
 10
129.8447
 20
16.0419
  0
VERTEX
  8
0
 10
129.8003
 20
16.0455
  0
VERTEX
  8
0
 10
129.7568
 20
16.0483
  0
VERTEX
  8
0
 10
129.7153
 20
16.0505
  0
VERTEX
  8
0
 10
129.677
 20
16.0521
  0
VERTEX
  8
0
 10
129.643
 20
16.053
  0
VERTEX
  8
0
 10
129.6146
 20
16.0534
  0
VERTEX
  8
0
 10
129.6146
 20
16.0534
  0
VERTEX
  8
0
 10
129.583
 20
16.0524
  0
VERTEX
  8
0
 10
129.5608
 20
16.0531
  0
VERTEX
  8
0
 10
129.5306
 20
16.0609
  0
VERTEX
  8
0
 10
129.5306
 20
16.0609
  0
VERTEX
  8
0
 10
129.5089
 20
16.0745
  0
VERTEX
  8
0
 10
129.4848
 20
16.0995
  0
VERTEX
  8
0
 10
129.4597
 20
16.1322
  0
VERTEX
  8
0
 10
129.435
 20
16.1689
  0
VERTEX
  8
0
 10
129.4121
 20
16.206
  0
VERTEX
  8
0
 10
129.3924
 20
16.2397
  0
VERTEX
  8
0
 10
129.3924
 20
16.2397
  0
VERTEX
  8
0
 10
129.3737
 20
16.2701
  0
VERTEX
  8
0
 10
129.3539
 20
16.2995
  0
VERTEX
  8
0
 10
129.3337
 20
16.3279
  0
VERTEX
  8
0
 10
129.3139
 20
16.355
  0
VERTEX
  8
0
 10
129.2955
 20
16.3806
  0
VERTEX
  8
0
 10
129.2794
 20
16.4045
  0
VERTEX
  8
0
 10
129.2794
 20
16.4045
  0
VERTEX
  8
0
 10
129.2568
 20
16.4466
  0
VERTEX
  8
0
 10
129.2359
 20
16.4946
  0
VERTEX
  8
0
 10
129.2206
 20
16.5339
  0
VERTEX
  8
0
 10
129.2146
 20
16.5503
  0
VERTEX
  8
0
 10
129.2146
 20
16.5503
  0
VERTEX
  8
0
 10
130.755
 20
16.5506
  0
SEQEND
  0
POLYLINE
  8
0
 66
     1
 10
0
 20
0
  0
VERTEX
  8
0
 10
130.6267
 20
16.3893
  0
VERTEX
  8
0
 10
130.6572
 20
16.2516
  0
VERTEX
  8
0
 10
130.6572
 20
16.2516
  0
VERTEX
  8
0
 10
131.8762
 20
16.179
  0
VERTEX
  8
0
 10
131.8762
 20
16.179
  0
VERTEX
  8
0
 10
131.9199
 20
16.1633
  0
VERTEX
  8
0
 10
131.9199
 20
16.1633
  0
VERTEX
  8
0
 10
131.908
 20
16.1116
  0
VERTEX
  8
0
 10
131.9201
 20
16.069
  0
VERTEX
  8
0
 10
131.9201
 20
16.069
  0
VERTEX
  8
0
 10
131.9629
 20
16.0611
  0
VERTEX
  8
0
 10
132.0094
 20
16.0854
  0
VERTEX
  8
0
 10
132.0094
 20
16.0854
  0
VERTEX
  8
0
 10
132.0323
 20
16.1504
  0
VERTEX
  8
0
 10
132.0296
 20
16.2231
  0
VERTEX
  8
0
 10
132.0296
 20
16.2231
  0
VERTEX
  8
0
 10
132.0268
 20
16.259
  0
VERTEX
  8
0
 10
132.0291
 20
16.2856
  0
VERTEX
  8
0
 10
132.0354
 20
16.3058
  0
VERTEX
  8
0
 10
132.0446
 20
16.3225
  0
VERTEX
  8
0
 10
132.0556
 20
16.3388
  0
VERTEX
  8
0
 10
132.0556
 20
16.3388
  0
VERTEX
  8
0
 10
132.226
 20
16.3159
  0
VERTEX
  8
0
 10
132.226
 20
16.3159
  0
VERTEX
  8
0
 10
132.6037
 20
15.1721
  0
VERTEX
  8
0
 10
132.6037
 20
15.1721
  0
VERTEX
  8
0
 10
132.4886
 20
15.0937
  0
VERTEX
  8
0
 10
132.4886
 20
15.0937
  0
VERTEX
  8
0
 10
132.4916
 20
15.0879
  0
VERTEX
  8
0
 10
132.4998
 20
15.0713
  0
VERTEX
  8
0
 10
132.5126
 20
15.0456
  0
VERTEX
  8
0
 10
132.5292
 20
15.0125
  0
VERTEX
  8
0
 10
132.5486
 20
14.9735
  0
VERTEX
  8
0
 10
132.57
 20
14.9303
  0
VERTEX
  8
0
 10
132.5928
 20
14.8845
  0
VERTEX
  8
0
 10
132.616
 20
14.8376
  0
VERTEX
  8
0
 10
132.6388
 20
14.7914
  0
VERTEX
  8
0
 10
132.6605
 20
14.7474
  0
VERTEX
  8
0
 10
132.6801
 20
14.7072
  0
VERTEX
  8
0
 10
132.6969
 20
14.6724
  0
VERTEX
  8
0
 10
132.6969
 20
14.6724
  0
VERTEX
  8
0
 10
132.7126
 20
14.6395
  0
VERTEX
  8
0
 10
132.7292
 20
14.6043
  0
VERTEX
  8
0
 10
132.7462
 20
14.5675
  0
VERTEX
  8
0
 10
132.7635
 20
14.5299
  0
VERTEX
  8
0
 10
132.7805
 20
14.4923
  0
VERTEX
  8
0
 10
132.7972
 20
14.4553
  0
VERTEX
  8
0
 10
132.813
 20
14.4197
  0
VERTEX
  8
0
 10
132.8277
 20
14.3864
  0
VERTEX
  8
0
 10
132.8409
 20
14.3559
  0
VERTEX
  8
0
 10
132.8523
 20
14.3291
  0
VERTEX
  8
0
 10
132.8616
 20
14.3068
  0
VERTEX
  8
0
 10
132.8684
 20
14.2896
  0
VERTEX
  8
0
 10
132.8684
 20
14.2896
  0
VERTEX
  8
0
 10
132.8834
 20
14.2497
  0
VERTEX
  8
0
 10
132.9004
 20
14.2026
  0
VERTEX
  8
0
 10
132.9171
 20
14.1538
  0
VERTEX
  8
0
 10
132.9311
 20
14.1088
  0
VERTEX
  8
0
 10
132.9401
 20
14.0731
  0
VERTEX
  8
0
 10
132.9401
 20
14.0731
  0
VERTEX
  8
0
 10
132.9448
 20
14.0407
  0
VERTEX
  8
0
 10
132.9471
 20
14.003
  0
VERTEX
  8
0
 10
132.9471
 20
13.9625
  0
VERTEX
  8
0
 10
132.945
 20
13.9212
  0
VERTEX
  8
0
 10
132.9407
 20
13.8814
  0
VERTEX
  8
0
 10
132.9407
 20
13.8814
  0
VERTEX
  8
0
 10
132.9342
 20
13.8413
  0
VERTEX
  8
0
 10
132.926
 20
13.7996
  0
VERTEX
  8
0
 10
132.917
 20
13.7589
  0
VERTEX
  8
0
 10
132.908
 20
13.7217
  0
VERTEX
  8
0
 10
132.9
 20
13.6906
  0
VERTEX
  8
0
 10
132.9
 20
13.6906
  0
VERTEX
  8
0
 10
132.8808
 20
13.6274
  0
VERTEX
  8
0
 10
132.8553
 20
13.5519
  0
VERTEX
  8
0
 10
132.8359
 20
13.5004
  0
VERTEX
  8
0
 10
132.8359
 20
13.5004
  0
VERTEX
  8
0
 10
132.7639
 20
13.3668
  0
VERTEX
  8
0
 10
132.6776
 20
13.2525
  0
VERTEX
  8
0
 10
132.6776
 20
13.2525
  0
VERTEX
  8
0
 10
132.6518
 20
13.2654
  0
VERTEX
  8
0
 10
132.6103
 20
13.3003
  0
VERTEX
  8
0
 10
132.5603
 20
13.3482
  0
VERTEX
  8
0
 10
132.5088
 20
13.4006
  0
VERTEX
  8
0
 10
132.4629
 20
13.4485
  0
VERTEX
  8
0
 10
132.4297
 20
13.4832
  0
VERTEX
  8
0
 10
132.4297
 20
13.4832
  0
VERTEX
  8
0
 10
132.4077
 20
13.506
  0
VERTEX
  8
0
 10
132.387
 20
13.528
  0
VERTEX
  8
0
 10
132.3674
 20
13.5492
  0
VERTEX
  8
0
 10
132.3487
 20
13.57
  0
VERTEX
  8
0
 10
132.3308
 20
13.5905
  0
VERTEX
  8
0
 10
132.3134
 20
13.6108
  0
VERTEX
  8
0
 10
132.2963
 20
13.6311
  0
VERTEX
  8
0
 10
132.2795
 20
13.6517
  0
VERTEX
  8
0
 10
132.2627
 20
13.6727
  0
VERTEX
  8
0
 10
132.2457
 20
13.6943
  0
VERTEX
  8
0
 10
132.2285
 20
13.7166
  0
VERTEX
  8
0
 10
132.2107
 20
13.7399
  0
VERTEX
  8
0
 10
132.1923
 20
13.7643
  0
VERTEX
  8
0
 10
132.1923
 20
13.7643
  0
VERTEX
  8
0
 10
132.1639
 20
13.8046
  0
VERTEX
  8
0
 10
132.1236
 20
13.8647
  0
VERTEX
  8
0
 10
132.0775
 20
13.9352
  0
VERTEX
  8
0
 10
132.0318
 20
14.0066
  0
VERTEX
  8
0
 10
131.9927
 20
14.0693
  0
VERTEX
  8
0
 10
131.9662
 20
14.1137
  0
VERTEX
  8
0
 10
131.9662
 20
14.1137
  0
VERTEX
  8
0
 10
131.9473
 20
14.1487
  0
VERTEX
  8
0
 10
131.9274
 20
14.1872
  0
VERTEX
  8
0
 10
131.9079
 20
14.2265
  0
VERTEX
  8
0
 10
131.8902
 20
14.264
  0
VERTEX
  8
0
 10
131.8755
 20
14.2968
  0
VERTEX
  8
0
 10
131.8652
 20
14.3222
  0
VERTEX
  8
0
 10
131.8652
 20
14.3222
  0
VERTEX
  8
0
 10
131.8526
 20
14.3557
  0
VERTEX
  8
0
 10
131.8411
 20
14.386
  0
VERTEX
  8
0
 10
131.8307
 20
14.4142
  0
VERTEX
  8
0
 10
131.8214
 20
14.4413
  0
VERTEX
  8
0
 10
131.8133
 20
14.4684
  0
VERTEX
  8
0
 10
131.8064
 20
14.4967
  0
VERTEX
  8
0
 10
131.8006
 20
14.5273
  0
VERTEX
  8
0
 10
131.8006
 20
14.5273
  0
VERTEX
  8
0
 10
131.7962
 20
14.5638
  0
VERTEX
  8
0
 10
131.7927
 20
14.6113
  0
VERTEX
  8
0
 10
131.7915
 20
14.6611
  0
VERTEX
  8
0
 10
131.7937
 20
14.7047
  0
VERTEX
  8
0
 10
131.7937
 20
14.7047
  0
VERTEX
  8
0
 10
131.8063
 20
14.7578
  0
VERTEX
  8
0
 10
131.8292
 20
14.8294
  0
VERTEX
  8
0
 10
131.8533
 20
14.9007
  0
VERTEX
  8
0
 10
131.8692
 20
14.9529
  0
VERTEX
  8
0
 10
131.8692
 20
14.9529
  0
VERTEX
  8
0
 10
131.8728
 20
14.9664
  0
VERTEX
  8
0
 10
131.8767
 20
14.9782
  0
VERTEX
  8
0
 10
131.8807
 20
14.9893
  0
VERTEX
  8
0
 10
131.8846
 20
15.0006
  0
VERTEX
  8
0
 10
131.8883
 20
15.0129
  0
VERTEX
  8
0
 10
131.8917
 20
15.0273
  0
VERTEX
  8
0
 10
131.8947
 20
15.0446
  0
VERTEX
  8
0
 10
131.897
 20
15.0657
  0
VERTEX
  8
0
 10
131.8987
 20
15.0915
  0
VERTEX
  8
0
 10
131.8994
 20
15.1229
  0
VERTEX
  8
0
 10
131.8994
 20
15.1229
  0
VERTEX
  8
0
 10
131.8956
 20
15.1608
  0
VERTEX
  8
0
 10
131.8848
 20
15.2044
  0
VERTEX
  8
0
 10
131.8684
 20
15.2515
  0
VERTEX
  8
0
 10
131.8481
 20
15.3003
  0
VERTEX
  8
0
 10
131.8254
 20
15.3488
  0
VERTEX
  8
0
 10
131.8019
 20
15.3951
  0
VERTEX
  8
0
 10
131.7791
 20
15.437
  0
VERTEX
  8
0
 10
131.7587
 20
15.4728
  0
VERTEX
  8
0
 10
131.7422
 20
15.5004
  0
VERTEX
  8
0
 10
131.7312
 20
15.5178
  0
VERTEX
  8
0
 10
131.7312
 20
15.5178
  0
VERTEX
  8
0
 10
131.7126
 20
15.545
  0
VERTEX
  8
0
 10
131.6916
 20
15.5742
  0
VERTEX
  8
0
 10
131.6687
 20
15.6048
  0
VERTEX
  8
0
 10
131.6443
 20
15.6363
  0
VERTEX
  8
0
 10
131.6189
 20
15.6681
  0
VERTEX
  8
0
 10
131.5929
 20
15.6996
  0
VERTEX
  8
0
 10
131.5667
 20
15.7304
  0
VERTEX
  8
0
 10
131.5409
 20
15.7599
  0
VERTEX
  8
0
 10
131.5157
 20
15.7874
  0
VERTEX
  8
0
 10
131.5157
 20
15.7874
  0
VERTEX
  8
0
 10
131.4761
 20
15.8276
  0
VERTEX
  8
0
 10
131.4224
 20
15.8791
  0
VERTEX
  8
0
 10
131.3696
 20
15.928
  0
VERTEX
  8
0
 10
131.3323
 20
15.9605
  0
VERTEX
  8
0
 10
131.3323
 20
15.9605
  0
VERTEX
  8
0
 10
131.2715
 20
16
  0
VERTEX
  8
0
 10
131.1857
 20
16.0472
  0
VERTEX
  8
0
 10
131.1224
 20
16.0728
  0
VERTEX
  8
0
 10
131.1224
 20
16.0728
  0
VERTEX
  8
0
 10
131.0813
 20
16.0727
  0
VERTEX
  8
0
 10
131.0339
 20
16.0641
  0
VERTEX
  8
0
 10
130.9848
 20
16.0499
  0
VERTEX
  8
0
 10
130.9391
 20
16.033
  0
VERTEX
  8
0
 10
130.9015
 20
16.0163
  0
VERTEX
  8
0
 10
130.8768
 20
16.0027
  0
VERTEX
  8
0
 10
130.8768
 20
16.0027
  0
VERTEX
  8
0
 10
130.8481
 20
15.9865
  0
VERTEX
  8
0
 10
130.8002
 20
15.9629
  0
VERTEX
  8
0
 10
130.7408
 20
15.9361
  0
VERTEX
  8
0
 10
130.6777
 20
15.91
  0
VERTEX
  8
0
 10
130.6188
 20
15.8888
  0
VERTEX
  8
0
 10
130.5716
 20
15.8765
  0
VERTEX
  8
0
 10
130.5716
 20
15.8765
  0
VERTEX
  8
0
 10
130.4492
 20
15.9499
  0
VERTEX
  8
0
 10
130.333
 20
16.0436
  0
VERTEX
  8
0
 10
130.333
 20
16.0436
  0
VERTEX
  8
0
 10
130.3026
 20
16.063
  0
VERTEX
  8
0
 10
130.2703
 20
16.0812
  0
VERTEX
  8
0
 10
130.2368
 20
16.0981
  0
VERTEX
  8
0
 10
130.2029
 20
16.1136
  0
VERTEX
  8
0
 10
130.1692
 20
16.1276
  0
VERTEX
  8
0
 10
130.1364
 20
16.14
  0
VERTEX
  8
0
 10
130.1053
 20
16.1505
  0
VERTEX
  8
0
 10
130.0765
 20
16.1592
  0
VERTEX
  8
0
 10
130.0509
 20
16.1658
  0
VERTEX
  8
0
 10
130.0291
 20
16.1702
  0
VERTEX
  8
0
 10
130.0117
 20
16.1722
  0
VERTEX
  8
0
 10
130.0117
 20
16.1722
  0
VERTEX
  8
0
 10
129.9308
 20
16.1725
  0
VERTEX
  8
0
 10
129.8036
 20
16.1714
  0
VERTEX
  8
0
 10
129.6814
 20
16.1734
  0
VERTEX
  8
0
 10
129.6154
 20
16.183
  0
VERTEX
  8
0
 10
129.6154
 20
16.183
  0
VERTEX
  8
0
 10
129.5419
 20
16.2573
  0
VERTEX
  8
0
 10
129.4788
 20
16.3371
  0
VERTEX
  8
0
 10
129.4788
 20
16.3371
  0
VERTEX
  8
0
 10
129.4619
 20
16.3656
  0
VERTEX
  8
0
 10
129.4492
 20
16.3794
  0
VERTEX
  8
0
 10
129.4403
 20
16.3839
  0
VERTEX
  8
0
 10
129.4351
 20
16.3846
  0
VERTEX
  8
0
 10
129.4351
 20
16.3846
  0
VERTEX
  8
0
 10
129.4352
 20
16.4183
  0
VERTEX
  8
0
 10
129.4352
 20
16.4183
  0
VERTEX
  8
0
 10
130.6267
 20
16.3893
  0
SEQEND
  0
CIRCLE
  8
0
 10
132.2326
 20
12.9251
 40
0.0786587
  0
CIRCLE
  8
0
 10
131.9468
 20
12.9419
 40
0.0621416
  0
CIRCLE
  8
0
 10
131.6539
 20
13.0069
 40
0.0494308
  0
POLYLINE
  8
0
 66
     1
 10
0
 20
0
  0
VERTEX
  8
0
 10
125.1474
 20
15.5266
  0
VERTEX
  8
0
 10
125.1474
 20
15.1027
  0
VERTEX
  8
0
 10
125.1474
 20
15.1027
  0
VERTEX
  8
0
 10
125.1373
 20
15.1027
  0
VERTEX
  8
0
 10
125.1373
 20
15.1027
  0
VERTEX
  8
0
 10
125.1373
 20
15.0926
  0
VERTEX
  8
0
 10
125.1373
 20
15.0926
  0
VERTEX
  8
0
 10
123.8951
 20
15.0926
  0
VERTEX
  8
0
 10
123.8951
 20
15.0926
  0
VERTEX
  8
0
 10
123.8951
 20
14.8201
  0
VERTEX
  8
0
 10
123.8951
 20
14.8201
  0
VERTEX
  8
0
 10
124.8468
 20
14.8201
  0
VERTEX
  8
0
 10
124.8468
 20
14.8201
  0
VERTEX
  8
0
 10
124.8468
 20
14.386
  0
VERTEX
  8
0
 10
124.8468
 20
14.386
  0
VERTEX
  8
0
 10
123.9051
 20
14.386
  0
VERTEX
  8
0
 10
123.9051
 20
14.386
  0
VERTEX
  8
0
 10
123.9051
 20
14.3759
  0
VERTEX
  8
0
 10
123.9051
 20
14.3759
  0
VERTEX
  8
0
 10
123.8951
 20
14.3759
  0
VERTEX
  8
0
 10
123.8951
 20
14.3759
  0
VERTEX
  8
0
 10
123.8951
 20
13.6694
  0
VERTEX
  8
0
 10
123.8951
 20
13.6694
  0
VERTEX
  8
0
 10
123.4643
 20
13.6694
  0
VERTEX
  8
0
 10
123.4643
 20
13.6694
  0
VERTEX
  8
0
 10
123.4643
 20
15.5266
  0
VERTEX
  8
0
 10
123.4643
 20
15.5266
  0
VERTEX
  8
0
 10
125.1474
 20
15.5266
  0
SEQEND
  0
POLYLINE
  8
0
 66
     1
 10
0
 20
0
  0
VERTEX
  8
0
 10
126.59
 20
15.5277
  0
VERTEX
  8
0
 10
126.6197
 20
15.5216
  0
VERTEX
  8
0
 10
126.6499
 20
15.5151
  0
VERTEX
  8
0
 10
126.6804
 20
15.5083
  0
VERTEX
  8
0
 10
126.7111
 20
15.5009
  0
VERTEX
  8
0
 10
126.742
 20
15.4928
  0
VERTEX
  8
0
 10
126.773
 20
15.4839
  0
VERTEX
  8
0
 10
126.8039
 20
15.474
  0
VERTEX
  8
0
 10
126.8348
 20
15.4631
  0
VERTEX
  8
0
 10
126.8654
 20
15.451
  0
VERTEX
  8
0
 10
126.8958
 20
15.4375
  0
VERTEX
  8
0
 10
126.9257
 20
15.4226
  0
VERTEX
  8
0
 10
126.9552
 20
15.4061
  0
VERTEX
  8
0
 10
126.9552
 20
15.4061
  0
VERTEX
  8
0
 10
126.9813
 20
15.3902
  0
VERTEX
  8
0
 10
127.0055
 20
15.3747
  0
VERTEX
  8
0
 10
127.0282
 20
15.3592
  0
VERTEX
  8
0
 10
127.0495
 20
15.3435
  0
VERTEX
  8
0
 10
127.0696
 20
15.3273
  0
VERTEX
  8
0
 10
127.0887
 20
15.3106
  0
VERTEX
  8
0
 10
127.1069
 20
15.293
  0
VERTEX
  8
0
 10
127.1246
 20
15.2744
  0
VERTEX
  8
0
 10
127.1419
 20
15.2544
  0
VERTEX
  8
0
 10
127.159
 20
15.233
  0
VERTEX
  8
0
 10
127.1761
 20
15.2098
  0
VERTEX
  8
0
 10
127.1933
 20
15.1846
  0
VERTEX
  8
0
 10
127.211
 20
15.1573
  0
VERTEX
  8
0
 10
127.211
 20
15.1573
  0
VERTEX
  8
0
 10
127.2191
 20
15.1442
  0
VERTEX
  8
0
 10
127.227
 20
15.1314
  0
VERTEX
  8
0
 10
127.2346
 20
15.1189
  0
VERTEX
  8
0
 10
127.242
 20
15.1065
  0
VERTEX
  8
0
 10
127.2491
 20
15.0941
  0
VERTEX
  8
0
 10
127.2559
 20
15.0818
  0
VERTEX
  8
0
 10
127.2624
 20
15.0694
  0
VERTEX
  8
0
 10
127.2687
 20
15.0568
  0
VERTEX
  8
0
 10
127.2747
 20
15.0441
  0
VERTEX
  8
0
 10
127.2805
 20
15.031
  0
VERTEX
  8
0
 10
127.2861
 20
15.0176
  0
VERTEX
  8
0
 10
127.2914
 20
15.0038
  0
VERTEX
  8
0
 10
127.2964
 20
14.9894
  0
VERTEX
  8
0
 10
127.3012
 20
14.9745
  0
VERTEX
  8
0
 10
127.3058
 20
14.9589
  0
VERTEX
  8
0
 10
127.3102
 20
14.9427
  0
VERTEX
  8
0
 10
127.3143
 20
14.9256
  0
VERTEX
  8
0
 10
127.3182
 20
14.9077
  0
VERTEX
  8
0
 10
127.3219
 20
14.8888
  0
VERTEX
  8
0
 10
127.3254
 20
14.869
  0
VERTEX
  8
0
 10
127.3287
 20
14.848
  0
VERTEX
  8
0
 10
127.3318
 20
14.826
  0
VERTEX
  8
0
 10
127.3346
 20
14.8027
  0
VERTEX
  8
0
 10
127.3373
 20
14.7781
  0
VERTEX
  8
0
 10
127.3398
 20
14.7522
  0
VERTEX
  8
0
 10
127.3421
 20
14.7248
  0
VERTEX
  8
0
 10
127.3442
 20
14.6959
  0
VERTEX
  8
0
 10
127.3461
 20
14.6654
  0
VERTEX
  8
0
 10
127.3461
 20
14.6654
  0
VERTEX
  8
0
 10
127.3471
 20
14.6416
  0
VERTEX
  8
0
 10
127.3476
 20
14.6163
  0
VERTEX
  8
0
 10
127.3475
 20
14.5896
  0
VERTEX
  8
0
 10
127.3467
 20
14.5618
  0
VERTEX
  8
0
 10
127.3452
 20
14.5329
  0
VERTEX
  8
0
 10
127.343
 20
14.5031
  0
VERTEX
  8
0
 10
127.3399
 20
14.4726
  0
VERTEX
  8
0
 10
127.336
 20
14.4415
  0
VERTEX
  8
0
 10
127.3313
 20
14.4099
  0
VERTEX
  8
0
 10
127.3256
 20
14.3781
  0
VERTEX
  8
0
 10
127.3189
 20
14.3461
  0
VERTEX
  8
0
 10
127.3112
 20
14.3141
  0
VERTEX
  8
0
 10
127.3024
 20
14.2823
  0
VERTEX
  8
0
 10
127.2925
 20
14.2507
  0
VERTEX
  8
0
 10
127.2815
 20
14.2197
  0
VERTEX
  8
0
 10
127.2692
 20
14.1892
  0
VERTEX
  8
0
 10
127.2558
 20
14.1594
  0
VERTEX
  8
0
 10
127.241
 20
14.1306
  0
VERTEX
  8
0
 10
127.2249
 20
14.1028
  0
VERTEX
  8
0
 10
127.2249
 20
14.1028
  0
VERTEX
  8
0
 10
127.2117
 20
14.081
  0
VERTEX
  8
0
 10
127.1982
 20
14.0585
  0
VERTEX
  8
0
 10
127.1837
 20
14.035
  0
VERTEX
  8
0
 10
127.1674
 20
14.0104
  0
VERTEX
  8
0
 10
127.1486
 20
13.9843
  0
VERTEX
  8
0
 10
127.1265
 20
13.9566
  0
VERTEX
  8
0
 10
127.1265
 20
13.9566
  0
VERTEX
  8
0
 10
127.1029
 20
13.9297
  0
VERTEX
  8
0
 10
127.0795
 20
13.9056
  0
VERTEX
  8
0
 10
127.0561
 20
13.8837
  0
VERTEX
  8
0
 10
127.0321
 20
13.8634
  0
VERTEX
  8
0
 10
127.007
 20
13.844
  0
VERTEX
  8
0
 10
126.9805
 20
13.8247
  0
VERTEX
  8
0
 10
126.9805
 20
13.8247
  0
VERTEX
  8
0
 10
126.9569
 20
13.8088
  0
VERTEX
  8
0
 10
126.933
 20
13.7938
  0
VERTEX
  8
0
 10
126.9082
 20
13.7796
  0
VERTEX
  8
0
 10
126.8821
 20
13.766
  0
VERTEX
  8
0
 10
126.8542
 20
13.7528
  0
VERTEX
  8
0
 10
126.824
 20
13.7397
  0
VERTEX
  8
0
 10
126.7911
 20
13.7266
  0
VERTEX
  8
0
 10
126.7911
 20
13.7266
  0
VERTEX
  8
0
 10
126.7159
 20
13.7046
  0
VERTEX
  8
0
 10
126.6183
 20
13.6798
  0
VERTEX
  8
0
 10
126.5699
 20
13.6681
  0
VERTEX
  8
0
 10
126.5699
 20
13.6681
  0
VERTEX
  8
0
 10
125.3377
 20
13.6694
  0
VERTEX
  8
0
 10
125.3377
 20
13.6694
  0
VERTEX
  8
0
 10
125.3377
 20
15.5343
  0
VERTEX
  8
0
 10
125.3377
 20
15.5343
  0
VERTEX
  8
0
 10
125.4623
 20
15.5348
  0
VERTEX
  8
0
 10
125.7615
 20
15.5354
  0
VERTEX
  8
0
 10
126.1237
 20
15.5352
  0
VERTEX
  8
0
 10
126.4371
 20
15.533
  0
VERTEX
  8
0
 10
126.59
 20
15.5277
  0
SEQEND
  0
POLYLINE
  8
0
 66
     1
 10
0
 20
0
  0
VERTEX
  8
0
 10
131.3085
 20
15.524
  0
VERTEX
  8
0
 10
131.3427
 20
15.4879
  0
VERTEX
  8
0
 10
131.3938
 20
15.4299
  0
VERTEX
  8
0
 10
131.3938
 20
15.4299
  0
VERTEX
  8
0
 10
131.4105
 20
15.4075
  0
VERTEX
  8
0
 10
131.427
 20
15.384
  0
VERTEX
  8
0
 10
131.4432
 20
15.3592
  0
VERTEX
  8
0
 10
131.4591
 20
15.3333
  0
VERTEX
  8
0
 10
131.4745
 20
15.3062
  0
VERTEX
  8
0
 10
131.4895
 20
15.2779
  0
VERTEX
  8
0
 10
131.504
 20
15.2484
  0
VERTEX
  8
0
 10
131.5179
 20
15.2177
  0
VERTEX
  8
0
 10
131.5179
 20
15.2177
  0
VERTEX
  8
0
 10
131.5358
 20
15.1669
  0
VERTEX
  8
0
 10
131.55
 20
15.1163
  0
VERTEX
  8
0
 10
131.5559
 20
15.0933
  0
VERTEX
  8
0
 10
131.5559
 20
15.0933
  0
VERTEX
  8
0
 10
130.7976
 20
15.0926
  0
VERTEX
  8
0
 10
130.7976
 20
15.0926
  0
VERTEX
  8
0
 10
130.7976
 20
13.6694
  0
VERTEX
  8
0
 10
130.7976
 20
13.6694
  0
VERTEX
  8
0
 10
130.3668
 20
13.6694
  0
VERTEX
  8
0
 10
130.3668
 20
13.6694
  0
VERTEX
  8
0
 10
130.3668
 20
15.0926
  0
VERTEX
  8
0
 10
130.3668
 20
15.0926
  0
VERTEX
  8
0
 10
129.7645
 20
15.0959
  0
VERTEX
  8
0
 10
129.7645
 20
15.0959
  0
VERTEX
  8
0
 10
129.7608
 20
15.1063
  0
VERTEX
  8
0
 10
129.7511
 20
15.1337
  0
VERTEX
  8
0
 10
129.7371
 20
15.1725
  0
VERTEX
  8
0
 10
129.7208
 20
15.2169
  0
VERTEX
  8
0
 10
129.704
 20
15.2613
  0
VERTEX
  8
0
 10
129.6885
 20
15.2999
  0
VERTEX
  8
0
 10
129.6885
 20
15.2999
  0
VERTEX
  8
0
 10
129.636
 20
15.3947
  0
VERTEX
  8
0
 10
129.636
 20
15.3947
  0
VERTEX
  8
0
 10
129.6169
 20
15.4204
  0
VERTEX
  8
0
 10
129.5992
 20
15.4423
  0
VERTEX
  8
0
 10
129.583
 20
15.4608
  0
VERTEX
  8
0
 10
129.5684
 20
15.4762
  0
VERTEX
  8
0
 10
129.5554
 20
15.4887
  0
VERTEX
  8
0
 10
129.544
 20
15.4989
  0
VERTEX
  8
0
 10
129.5344
 20
15.5068
  0
VERTEX
  8
0
 10
129.5267
 20
15.513
  0
VERTEX
  8
0
 10
129.5208
 20
15.5178
  0
VERTEX
  8
0
 10
129.5169
 20
15.5214
  0
VERTEX
  8
0
 10
129.515
 20
15.5242
  0
VERTEX
  8
0
 10
129.5152
 20
15.5266
  0
VERTEX
  8
0
 10
129.5152
 20
15.5266
  0
VERTEX
  8
0
 10
131.3085
 20
15.524
  0
SEQEND
  0
POLYLINE
  8
0
 66
     1
 10
0
 20
0
  0
VERTEX
  8
0
 10
126.4297
 20
15.0926
  0
VERTEX
  8
0
 10
126.5968
 20
15.0739
  0
VERTEX
  8
0
 10
126.5968
 20
15.0739
  0
VERTEX
  8
0
 10
126.6238
 20
15.0621
  0
VERTEX
  8
0
 10
126.6535
 20
15.0494
  0
VERTEX
  8
0
 10
126.6845
 20
15.035
  0
VERTEX
  8
0
 10
126.7159
 20
15.0184
  0
VERTEX
  8
0
 10
126.7465
 20
14.9987
  0
VERTEX
  8
0
 10
126.7751
 20
14.9754
  0
VERTEX
  8
0
 10
126.7751
 20
14.9754
  0
VERTEX
  8
0
 10
126.7984
 20
14.9526
  0
VERTEX
  8
0
 10
126.8182
 20
14.9309
  0
VERTEX
  8
0
 10
126.8347
 20
14.9103
  0
VERTEX
  8
0
 10
126.8485
 20
14.8904
  0
VERTEX
  8
0
 10
126.8597
 20
14.8712
  0
VERTEX
  8
0
 10
126.8687
 20
14.8524
  0
VERTEX
  8
0
 10
126.8759
 20
14.8339
  0
VERTEX
  8
0
 10
126.8816
 20
14.8155
  0
VERTEX
  8
0
 10
126.8861
 20
14.7971
  0
VERTEX
  8
0
 10
126.8898
 20
14.7784
  0
VERTEX
  8
0
 10
126.8931
 20
14.7593
  0
VERTEX
  8
0
 10
126.8961
 20
14.7396
  0
VERTEX
  8
0
 10
126.8994
 20
14.7191
  0
VERTEX
  8
0
 10
126.8994
 20
14.7191
  0
VERTEX
  8
0
 10
126.9043
 20
14.6517
  0
VERTEX
  8
0
 10
126.9043
 20
14.5651
  0
VERTEX
  8
0
 10
126.9001
 20
14.4971
  0
VERTEX
  8
0
 10
126.9001
 20
14.4971
  0
VERTEX
  8
0
 10
126.8945
 20
14.464
  0
VERTEX
  8
0
 10
126.8872
 20
14.4337
  0
VERTEX
  8
0
 10
126.8783
 20
14.406
  0
VERTEX
  8
0
 10
126.868
 20
14.3805
  0
VERTEX
  8
0
 10
126.8564
 20
14.3569
  0
VERTEX
  8
0
 10
126.8439
 20
14.3349
  0
VERTEX
  8
0
 10
126.8305
 20
14.3142
  0
VERTEX
  8
0
 10
126.8164
 20
14.2945
  0
VERTEX
  8
0
 10
126.8164
 20
14.2945
  0
VERTEX
  8
0
 10
126.7962
 20
14.2677
  0
VERTEX
  8
0
 10
126.7796
 20
14.2471
  0
VERTEX
  8
0
 10
126.7633
 20
14.23
  0
VERTEX
  8
0
 10
126.7444
 20
14.2133
  0
VERTEX
  8
0
 10
126.7198
 20
14.1941
  0
VERTEX
  8
0
 10
126.7198
 20
14.1941
  0
VERTEX
  8
0
 10
126.6715
 20
14.1663
  0
VERTEX
  8
0
 10
126.6119
 20
14.14
  0
VERTEX
  8
0
 10
126.5613
 20
14.1204
  0
VERTEX
  8
0
 10
126.5399
 20
14.1127
  0
VERTEX
  8
0
 10
126.5399
 20
14.1127
  0
VERTEX
  8
0
 10
125.7771
 20
14.1135
  0
VERTEX
  8
0
 10
125.7771
 20
14.1135
  0
VERTEX
  8
0
 10
125.7744
 20
15.0926
  0
VERTEX
  8
0
 10
125.7744
 20
15.0926
  0
VERTEX
  8
0
 10
126.4297
 20
15.0926
  0
SEQEND
  0
ARC
  8
0
 10
128.1354
 20
14.2464
 40
0.611027
 50
186.3147
 51
257.9825
  0
LINE
  8
0
 10
128.0082
 20
13.6488
 11
129.1135
 21
13.6509
  0
ARC
  8
0
 10
128.9611
 20
14.2648
 40
0.632576
 50
283.9422
 51
348.6339
  0
LINE
  8
0
 10
129.5812
 20
14.1402
 11
129.58
 21
15.014
  0
ARC
  8
0
 10
128.9459
 20
14.905
 40
0.643425
 50
9.761
 51
77.2913
  0
LINE
  8
0
 10
129.0875
 20
15.5326
 11
127.9952
 21
15.5322
  0
ARC
  8
0
 10
128.1196
 20
14.9531
 40
0.592234
 50
102.1326
 51
182.2499
  0
LINE
  8
0
 10
127.5279
 20
14.9299
 11
127.5281
 21
14.1792
  0
ARC
  8
0
 10
128.1725
 20
14.2749
 40
0.19216
 50
180.0007
 51
270.0007
  0
LINE
  8
0
 10
128.1725
 20
14.0827
 11
128.9523
 21
14.0815
  0
ARC
  8
0
 10
128.9523
 20
14.2749
 40
0.193418
 50
270.0007
 51
360.0007
  0
LINE
  8
0
 10
129.1458
 20
14.2749
 11
129.1445
 21
14.8779
  0
ARC
  8
0
 10
128.9523
 20
14.8779
 40
0.19216
 50
0
 51
90
  0
LINE
  8
0
 10
128.9523
 20
15.0701
 11
128.1725
 21
15.0714
  0
ARC
  8
0
 10
128.1725
 20
14.8779
 40
0.193418
 50
90
 51
180
  0
LINE
  8
0
 10
127.9791
 20
14.8779
 11
127.9804
 21
14.2749
  0
ENDSEC
  0
EOF