  0
SECTION
  2
HEADER
  9
$ACADVER
  1
AC1009
  0
ENDSEC
  0
SECTION
  2
TABLES
  0
TABLE
  2
STYLE
 70
   5
  0
STYLE
  2
STANDARD
 70
    64
 40
0.0
 41
1.0
 50
0.0
 71
     0
 42
1.0
  3
txt
  4

  0
STYLE
  2
HIGHWAYEMOD2K
 70
    64
 40
0.0
 41
1.0
 50
0.0
 71
     0
 42
1.0
  3
Highway E Mod 2K
  4

  0
STYLE
  2
HIGHWAYSIGNCADPLUS
 70
    64
 40
0.0
 41
1.0
 50
0.0
 71
     0
 42
1.0
  3
Highway SignCAD Plus
  4

  0
STYLE
  2
HIGHWAYC2K
 70
    64
 40
0.0
 41
1.0
 50
0.0
 71
     0
 42
1.0
  3
Highway C 2K
  4

  0
STYLE
  2
HIGHWAYB2K
 70
    64
 40
0.0
 41
1.0
 50
0.0
 71
     0
 42
1.0
  3
Highway B 2K
  4

  0
ENDTAB
  0
ENDSEC
  0
SECTION
  2
ENTITIES
  0
ARC
  8
0
 10
18.5
 20
108.5
 40
1.5
 50
180
 51
270
  0
ARC
  8
0
 10
39.5
 20
108.5
 40
1.5
 50
270
 51
360
  0
ARC
  8
0
 10
39.5
 20
111.5
 40
1.5
 50
0
 51
90
  0
ARC
  8
0
 10
18.5
 20
111.5
 40
1.5
 50
90
 51
180
  0
POLYLINE
  8
0
 66
     1
 10
0
 20
0
  0
VERTEX
  8
0
 10
18.5
 20
107
  0
VERTEX
  8
0
 10
39.5
 20
107
  0
SEQEND
  0
POLYLINE
  8
0
 66
     1
 10
0
 20
0
  0
VERTEX
  8
0
 10
41
 20
108.5
  0
VERTEX
  8
0
 10
41
 20
111.5
  0
SEQEND
  0
POLYLINE
  8
0
 66
     1
 10
0
 20
0
  0
VERTEX
  8
0
 10
39.5
 20
113
  0
VERTEX
  8
0
 10
18.5
 20
113
  0
SEQEND
  0
POLYLINE
  8
0
 66
     1
 10
0
 20
0
  0
VERTEX
  8
0
 10
17
 20
111.5
  0
VERTEX
  8
0
 10
17
 20
108.5
  0
SEQEND
  0
ARC
  8
0
 10
18.5
 20
108.5
 40
1
 50
180
 51
270
  0
ARC
  8
0
 10
18.5
 20
108.5
 40
0.5
 50
180
 51
270
  0
ARC
  8
0
 10
39.5
 20
108.5
 40
1
 50
270
 51
360
  0
ARC
  8
0
 10
39.5
 20
108.5
 40
0.5
 50
270
 51
360
  0
ARC
  8
0
 10
39.5
 20
111.5
 40
1
 50
0
 51
90
  0
ARC
  8
0
 10
39.5
 20
111.5
 40
0.5
 50
0
 51
90
  0
ARC
  8
0
 10
18.5
 20
111.5
 40
1
 50
90
 51
180
  0
ARC
  8
0
 10
18.5
 20
111.5
 40
0.5
 50
90
 51
180
  0
POLYLINE
  8
0
 66
     1
 10
0
 20
0
  0
VERTEX
  8
0
 10
18.5
 20
108
  0
VERTEX
  8
0
 10
39.5
 20
108
  0
SEQEND
  0
POLYLINE
  8
0
 66
     1
 10
0
 20
0
  0
VERTEX
  8
0
 10
39.5
 20
107.5
  0
VERTEX
  8
0
 10
18.5
 20
107.5
  0
SEQEND
  0
POLYLINE
  8
0
 66
     1
 10
0
 20
0
  0
VERTEX
  8
0
 10
40
 20
108.5
  0
VERTEX
  8
0
 10
40
 20
111.5
  0
SEQEND
  0
POLYLINE
  8
0
 66
     1
 10
0
 20
0
  0
VERTEX
  8
0
 10
40.5
 20
111.5
  0
VERTEX
  8
0
 10
40.5
 20
108.5
  0
SEQEND
  0
POLYLINE
  8
0
 66
     1
 10
0
 20
0
  0
VERTEX
  8
0
 10
39.5
 20
112
  0
VERTEX
  8
0
 10
18.5
 20
112
  0
SEQEND
  0
POLYLINE
  8
0
 66
     1
 10
0
 20
0
  0
VERTEX
  8
0
 10
18.5
 20
112.5
  0
VERTEX
  8
0
 10
39.5
 20
112.5
  0
SEQEND
  0
POLYLINE
  8
0
 66
     1
 10
0
 20
0
  0
VERTEX
  8
0
 10
18
 20
111.5
  0
VERTEX
  8
0
 10
18
 20
108.5
  0
SEQEND
  0
POLYLINE
  8
0
 66
     1
 10
0
 20
0
  0
VERTEX
  8
0
 10
17.5
 20
108.5
  0
VERTEX
  8
0
 10
17.5
 20
111.5
  0
SEQEND
  0
TEXT
  8
0
 10
45.35
 20
111.1788
 40
1.2
  1
1.5
 50
90
  7
HIGHWAYSIGNCADPLUS
 72
1
 11
45.35
 21
112.25
  0
LINE
  8
0
 10
43.55
 20
113
 11
41.75
 21
113
  0
LINE
  8
0
 10
43.55
 20
111.5
 11
41.75
 21
111.5
  0
TEXT
  8
0
 10
43.85
 20
109.5948
 40
1.2
  1
3
 50
90
  7
HIGHWAYSIGNCADPLUS
 72
1
 11
43.85
 21
110
  0
LINE
  8
0
 10
43.25
 20
110.7052
 11
43.25
 21
111.5
  0
LINE
  8
0
 10
43.5183
 20
110.9633
 11
43.25
 21
111.5
  0
LINE
  8
0
 10
42.9817
 20
110.9633
 11
43.25
 21
111.5
  0
LINE
  8
0
 10
43.25
 20
109.2948
 11
43.25
 21
108.5
  0
LINE
  8
0
 10
42.9817
 20
109.0367
 11
43.25
 21
108.5
  0
LINE
  8
0
 10
43.5183
 20
109.0367
 11
43.25
 21
108.5
  0
LINE
  8
0
 10
43.55
 20
108.5
 11
41.75
 21
108.5
  0
TEXT
  8
0
 10
17.5073
 20
104.15
 40
1.2
  1
3.3
  7
HIGHWAYSIGNCADPLUS
 72
1
 11
18.635
 21
104.15
  0
LINE
  8
0
 10
20.27
 20
104.45
 11
20.27
 21
106.25
  0
LINE
  8
0
 10
17
 20
104.45
 11
17
 21
106.25
  0
TEXT
  8
0
 10
23.8663
 20
104.15
 40
1.2
  1
10.3
  7
HIGHWAYSIGNCADPLUS
 72
1
 11
25.415
 21
104.15
  0
LINE
  8
0
 10
27.2637
 20
104.75
 11
30.56
 21
104.75
  0
LINE
  8
0
 10
30.0233
 20
104.4817
 11
30.56
 21
104.75
  0
LINE
  8
0
 10
30.0233
 20
105.0183
 11
30.56
 21
104.75
  0
LINE
  8
0
 10
30.56
 20
104.45
 11
30.56
 21
106.25
  0
LINE
  8
0
 10
23.5663
 20
104.75
 11
20.27
 21
104.75
  0
LINE
  8
0
 10
20.8067
 20
105.0183
 11
20.27
 21
104.75
  0
LINE
  8
0
 10
20.8067
 20
104.4817
 11
20.27
 21
104.75
  0
TEXT
  8
0
 10
31.6548
 20
104.15
 40
1.2
  1
3
  7
HIGHWAYSIGNCADPLUS
 72
1
 11
32.06
 21
104.15
  0
LINE
  8
0
 10
32.7652
 20
104.75
 11
33.56
 21
104.75
  0
LINE
  8
0
 10
33.0233
 20
104.4817
 11
33.56
 21
104.75
  0
LINE
  8
0
 10
33.0233
 20
105.0183
 11
33.56
 21
104.75
  0
LINE
  8
0
 10
33.56
 20
104.45
 11
33.56
 21
106.25
  0
LINE
  8
0
 10
31.3548
 20
104.75
 11
30.56
 21
104.75
  0
LINE
  8
0
 10
31.0967
 20
105.0183
 11
30.56
 21
104.75
  0
LINE
  8
0
 10
31.0967
 20
104.4817
 11
30.56
 21
104.75
  0
TEXT
  8
0
 10
34.6084
 20
104.15
 40
1.2
  1
4.1
  7
HIGHWAYSIGNCADPLUS
 72
1
 11
35.645
 21
104.15
  0
LINE
  8
0
 10
36.9816
 20
104.75
 11
37.73
 21
104.75
  0
LINE
  8
0
 10
37.1933
 20
104.4817
 11
37.73
 21
104.75
  0
LINE
  8
0
 10
37.1933
 20
105.0183
 11
37.73
 21
104.75
  0
LINE
  8
0
 10
37.73
 20
104.45
 11
37.73
 21
106.25
  0
LINE
  8
0
 10
34.3084
 20
104.75
 11
33.56
 21
104.75
  0
LINE
  8
0
 10
34.0967
 20
105.0183
 11
33.56
 21
104.75
  0
LINE
  8
0
 10
34.0967
 20
104.4817
 11
33.56
 21
104.75
  0
TEXT
  8
0
 10
38.2373
 20
104.15
 40
1.2
  1
3.3
  7
HIGHWAYSIGNCADPLUS
 72
1
 11
39.365
 21
104.15
  0
LINE
  8
0
 10
41
 20
104.45
 11
41
 21
106.25
  0
LINE
  8
0
 10
37.73
 20
104.45
 11
37.73
 21
106.25
  0
TEXT
  8
0
 10
45.35
 20
106.6788
 40
1.2
  1
1.5
 50
90
  7
HIGHWAYSIGNCADPLUS
 72
1
 11
45.35
 21
107.75
  0
LINE
  8
0
 10
43.55
 20
108.5
 11
41.75
 21
108.5
  0
LINE
  8
0
 10
43.55
 20
107
 11
41.75
 21
107
  0
TEXT
  8
0
 10
46.85
 20
109.5791
 40
1.2
  1
6
 50
90
  7
HIGHWAYSIGNCADPLUS
 72
1
 11
46.85
 21
110
  0
LINE
  8
0
 10
46.25
 20
110.7209
 11
46.25
 21
113
  0
LINE
  8
0
 10
46.5183
 20
112.4633
 11
46.25
 21
113
  0
LINE
  8
0
 10
45.9817
 20
112.4633
 11
46.25
 21
113
  0
LINE
  8
0
 10
46.55
 20
113
 11
41.3
 21
113
  0
LINE
  8
0
 10
46.25
 20
109.2791
 11
46.25
 21
107
  0
LINE
  8
0
 10
45.9817
 20
107.5367
 11
46.25
 21
107
  0
LINE
  8
0
 10
46.5183
 20
107.5367
 11
46.25
 21
107
  0
LINE
  8
0
 10
46.55
 20
107
 11
41.3
 21
107
  0
TEXT
  8
0
 10
28.1016
 20
101.15
 40
1.2
  1
24
  7
HIGHWAYSIGNCADPLUS
 72
1
 11
29
 21
101.15
  0
LINE
  8
0
 10
30.1984
 20
101.75
 11
41
 21
101.75
  0
LINE
  8
0
 10
40.4633
 20
101.4817
 11
41
 21
101.75
  0
LINE
  8
0
 10
40.4633
 20
102.0183
 11
41
 21
101.75
  0
LINE
  8
0
 10
41
 20
101.45
 11
41
 21
106.7
  0
LINE
  8
0
 10
27.8016
 20
101.75
 11
17
 21
101.75
  0
LINE
  8
0
 10
17.5367
 20
102.0183
 11
17
 21
101.75
  0
LINE
  8
0
 10
17.5367
 20
101.4817
 11
17
 21
101.75
  0
LINE
  8
0
 10
17
 20
101.45
 11
17
 21
106.7
  0
TEXT
  8
0
 10
17
 20
96.95
 40
1.2
  1
1.5" Radius, 0.5" Border, 0.5" Indent, Red on White; 
  7
HIGHWAYSIGNCADPLUS
 73
1
 11
17
 21
96.35
  0
TEXT
  8
0
 10
17
 20
94.55
 40
1.2
  1
[DUVAL ST.] C 2K; 
  7
HIGHWAYSIGNCADPLUS
 73
1
 11
17
 21
93.95
  0
ARC
  8
0
 10
21.5
 20
114.5
 40
1.5
 50
180
 51
270
  0
ARC
  8
0
 10
36.5
 20
114.5
 40
1.5
 50
270
 51
360
  0
ARC
  8
0
 10
36.5
 20
135.5
 40
1.5
 50
0
 51
90
  0
ARC
  8
0
 10
21.5
 20
135.5
 40
1.5
 50
90
 51
180
  0
POLYLINE
  8
0
 66
     1
 10
0
 20
0
  0
VERTEX
  8
0
 10
21.5
 20
113
  0
VERTEX
  8
0
 10
36.5
 20
113
  0
SEQEND
  0
POLYLINE
  8
0
 66
     1
 10
0
 20
0
  0
VERTEX
  8
0
 10
38
 20
114.5
  0
VERTEX
  8
0
 10
38
 20
135.5
  0
SEQEND
  0
POLYLINE
  8
0
 66
     1
 10
0
 20
0
  0
VERTEX
  8
0
 10
36.5
 20
137
  0
VERTEX
  8
0
 10
21.5
 20
137
  0
SEQEND
  0
POLYLINE
  8
0
 66
     1
 10
0
 20
0
  0
VERTEX
  8
0
 10
20
 20
135.5
  0
VERTEX
  8
0
 10
20
 20
114.5
  0
SEQEND
  0
ARC
  8
0
 10
21.5
 20
114.5
 40
1
 50
180
 51
270
  0
ARC
  8
0
 10
21.5
 20
114.5
 40
0.5
 50
180
 51
270
  0
ARC
  8
0
 10
36.5
 20
114.5
 40
1
 50
270
 51
360
  0
ARC
  8
0
 10
36.5
 20
114.5
 40
0.5
 50
270
 51
360
  0
ARC
  8
0
 10
36.5
 20
135.5
 40
1
 50
0
 51
90
  0
ARC
  8
0
 10
36.5
 20
135.5
 40
0.5
 50
0
 51
90
  0
ARC
  8
0
 10
21.5
 20
135.5
 40
1
 50
90
 51
180
  0
ARC
  8
0
 10
21.5
 20
135.5
 40
0.5
 50
90
 51
180
  0
POLYLINE
  8
0
 66
     1
 10
0
 20
0
  0
VERTEX
  8
0
 10
21.5
 20
114
  0
VERTEX
  8
0
 10
36.5
 20
114
  0
SEQEND
  0
POLYLINE
  8
0
 66
     1
 10
0
 20
0
  0
VERTEX
  8
0
 10
36.5
 20
113.5
  0
VERTEX
  8
0
 10
21.5
 20
113.5
  0
SEQEND
  0
POLYLINE
  8
0
 66
     1
 10
0
 20
0
  0
VERTEX
  8
0
 10
37
 20
114.5
  0
VERTEX
  8
0
 10
37
 20
135.5
  0
SEQEND
  0
POLYLINE
  8
0
 66
     1
 10
0
 20
0
  0
VERTEX
  8
0
 10
37.5
 20
135.5
  0
VERTEX
  8
0
 10
37.5
 20
114.5
  0
SEQEND
  0
POLYLINE
  8
0
 66
     1
 10
0
 20
0
  0
VERTEX
  8
0
 10
36.5
 20
136
  0
VERTEX
  8
0
 10
21.5
 20
136
  0
SEQEND
  0
POLYLINE
  8
0
 66
     1
 10
0
 20
0
  0
VERTEX
  8
0
 10
21.5
 20
136.5
  0
VERTEX
  8
0
 10
36.5
 20
136.5
  0
SEQEND
  0
POLYLINE
  8
0
 66
     1
 10
0
 20
0
  0
VERTEX
  8
0
 10
21
 20
135.5
  0
VERTEX
  8
0
 10
21
 20
114.5
  0
SEQEND
  0
POLYLINE
  8
0
 66
     1
 10
0
 20
0
  0
VERTEX
  8
0
 10
20.5
 20
114.5
  0
VERTEX
  8
0
 10
20.5
 20
135.5
  0
SEQEND
  0
TEXT
  8
0
 10
40.85
 20
134.4594
 40
1.2
  1
3.1
 50
90
  7
HIGHWAYSIGNCADPLUS
 72
1
 11
40.85
 21
135.4709
  0
LINE
  8
0
 10
40.55
 20
137
 11
38.75
 21
137
  0
LINE
  8
0
 10
40.55
 20
133.9418
 11
38.75
 21
133.9418
  0
TEXT
  8
0
 10
40.85
 20
123.4482
 40
1.2
  1
17.8
 50
90
  7
HIGHWAYSIGNCADPLUS
 72
1
 11
40.85
 21
125
  0
LINE
  8
0
 10
40.25
 20
126.8518
 11
40.25
 21
133.9418
  0
LINE
  8
0
 10
40.5183
 20
133.4052
 11
40.25
 21
133.9418
  0
LINE
  8
0
 10
39.9817
 20
133.4052
 11
40.25
 21
133.9418
  0
LINE
  8
0
 10
40.25
 20
123.1482
 11
40.25
 21
116.0582
  0
LINE
  8
0
 10
39.9817
 20
116.5948
 11
40.25
 21
116.0582
  0
LINE
  8
0
 10
40.5183
 20
116.5948
 11
40.25
 21
116.0582
  0
LINE
  8
0
 10
40.55
 20
116.0582
 11
38.75
 21
116.0582
  0
TEXT
  8
0
 10
21.0948
 20
138.65
 40
1.2
  1
3
  7
HIGHWAYSIGNCADPLUS
 72
1
 11
21.5
 21
138.65
  0
LINE
  8
0
 10
22.2052
 20
139.25
 11
23
 21
139.25
  0
LINE
  8
0
 10
22.4633
 20
138.9817
 11
23
 21
139.25
  0
LINE
  8
0
 10
22.4633
 20
139.5183
 11
23
 21
139.25
  0
LINE
  8
0
 10
23
 20
139.55
 11
23
 21
137.75
  0
LINE
  8
0
 10
20.7948
 20
139.25
 11
20
 21
139.25
  0
LINE
  8
0
 10
20.5367
 20
139.5183
 11
20
 21
139.25
  0
LINE
  8
0
 10
20.5367
 20
138.9817
 11
20
 21
139.25
  0
LINE
  8
0
 10
20
 20
139.55
 11
20
 21
137.75
  0
TEXT
  8
0
 10
28.1801
 20
138.65
 40
1.2
  1
12
  7
HIGHWAYSIGNCADPLUS
 72
1
 11
29
 21
138.65
  0
LINE
  8
0
 10
30.1199
 20
139.25
 11
35
 21
139.25
  0
LINE
  8
0
 10
34.4633
 20
138.9817
 11
35
 21
139.25
  0
LINE
  8
0
 10
34.4633
 20
139.5183
 11
35
 21
139.25
  0
LINE
  8
0
 10
35
 20
139.55
 11
35
 21
137.75
  0
LINE
  8
0
 10
27.8801
 20
139.25
 11
23
 21
139.25
  0
LINE
  8
0
 10
23.5367
 20
139.5183
 11
23
 21
139.25
  0
LINE
  8
0
 10
23.5367
 20
138.9817
 11
23
 21
139.25
  0
TEXT
  8
0
 10
36.0948
 20
138.65
 40
1.2
  1
3
  7
HIGHWAYSIGNCADPLUS
 72
1
 11
36.5
 21
138.65
  0
LINE
  8
0
 10
37.2052
 20
139.25
 11
38
 21
139.25
  0
LINE
  8
0
 10
37.4633
 20
138.9817
 11
38
 21
139.25
  0
LINE
  8
0
 10
37.4633
 20
139.5183
 11
38
 21
139.25
  0
LINE
  8
0
 10
38
 20
139.55
 11
38
 21
137.75
  0
LINE
  8
0
 10
35.7948
 20
139.25
 11
35
 21
139.25
  0
LINE
  8
0
 10
35.5367
 20
139.5183
 11
35
 21
139.25
  0
LINE
  8
0
 10
35.5367
 20
138.9817
 11
35
 21
139.25
  0
LINE
  8
0
 10
35
 20
139.55
 11
35
 21
137.75
  0
TEXT
  8
0
 10
40.85
 20
113.5176
 40
1.2
  1
3.1
 50
90
  7
HIGHWAYSIGNCADPLUS
 72
1
 11
40.85
 21
114.5291
  0
LINE
  8
0
 10
40.55
 20
116.0582
 11
38.75
 21
116.0582
  0
LINE
  8
0
 10
40.55
 20
113
 11
38.75
 21
113
  0
TEXT
  8
0
 10
43.85
 20
124.1016
 40
1.2
  1
24
 50
90
  7
HIGHWAYSIGNCADPLUS
 72
1
 11
43.85
 21
125
  0
LINE
  8
0
 10
43.25
 20
126.1984
 11
43.25
 21
137
  0
LINE
  8
0
 10
43.5183
 20
136.4633
 11
43.25
 21
137
  0
LINE
  8
0
 10
42.9817
 20
136.4633
 11
43.25
 21
137
  0
LINE
  8
0
 10
43.55
 20
137
 11
38.3
 21
137
  0
LINE
  8
0
 10
43.25
 20
123.8016
 11
43.25
 21
113
  0
LINE
  8
0
 10
42.9817
 20
113.5367
 11
43.25
 21
113
  0
LINE
  8
0
 10
43.5183
 20
113.5367
 11
43.25
 21
113
  0
LINE
  8
0
 10
43.55
 20
113
 11
38.3
 21
113
  0
TEXT
  8
0
 10
28.1707
 20
141.65
 40
1.2
  1
18
  7
HIGHWAYSIGNCADPLUS
 72
1
 11
29
 21
141.65
  0
LINE
  8
0
 10
30.1293
 20
142.25
 11
38
 21
142.25
  0
LINE
  8
0
 10
37.4633
 20
141.9817
 11
38
 21
142.25
  0
LINE
  8
0
 10
37.4633
 20
142.5183
 11
38
 21
142.25
  0
LINE
  8
0
 10
38
 20
142.55
 11
38
 21
137.3
  0
LINE
  8
0
 10
27.8707
 20
142.25
 11
20
 21
142.25
  0
LINE
  8
0
 10
20.5367
 20
142.5183
 11
20
 21
142.25
  0
LINE
  8
0
 10
20.5367
 20
141.9817
 11
20
 21
142.25
  0
LINE
  8
0
 10
20
 20
142.55
 11
20
 21
137.3
  0
TEXT
  8
0
 10
17
 20
99.35
 40
1.2
  1
1.5" Radius, 0.5" Border, 0.5" Indent, Red on White; 
  7
HIGHWAYSIGNCADPLUS
 73
1
 11
17
 21
98.75
  0
POLYLINE
  8
0
 66
     1
 10
0
 20
0
  0
VERTEX
  8
0
 10
29.7941
 20
133.9321
  0
VERTEX
  8
0
 10
29.8036
 20
133.8851
  0
VERTEX
  8
0
 10
29.8289
 20
133.7631
  0
VERTEX
  8
0
 10
29.8649
 20
133.5944
  0
VERTEX
  8
0
 10
29.9068
 20
133.4075
  0
VERTEX
  8
0
 10
29.9495
 20
133.2306
  0
VERTEX
  8
0
 10
29.9882
 20
133.0923
  0
VERTEX
  8
0
 10
30.018
 20
133.0208
  0
VERTEX
  8
0
 10
30.018
 20
133.0208
  0
VERTEX
  8
0
 10
30.0426
 20
132.9947
  0
VERTEX
  8
0
 10
30.069
 20
132.9729
  0
VERTEX
  8
0
 10
30.0967
 20
132.9546
  0
VERTEX
  8
0
 10
30.1251
 20
132.9389
  0
VERTEX
  8
0
 10
30.1536
 20
132.9248
  0
VERTEX
  8
0
 10
30.1819
 20
132.9115
  0
VERTEX
  8
0
 10
30.2093
 20
132.8981
  0
VERTEX
  8
0
 10
30.2093
 20
132.8981
  0
VERTEX
  8
0
 10
30.2311
 20
132.8867
  0
VERTEX
  8
0
 10
30.2503
 20
132.8763
  0
VERTEX
  8
0
 10
30.2681
 20
132.8664
  0
VERTEX
  8
0
 10
30.2858
 20
132.8562
  0
VERTEX
  8
0
 10
30.3045
 20
132.8453
  0
VERTEX
  8
0
 10
30.3254
 20
132.8329
  0
VERTEX
  8
0
 10
30.3497
 20
132.8186
  0
VERTEX
  8
0
 10
30.3786
 20
132.8017
  0
VERTEX
  8
0
 10
30.3786
 20
132.8017
  0
VERTEX
  8
0
 10
30.4036
 20
132.7874
  0
VERTEX
  8
0
 10
30.4357
 20
132.7694
  0
VERTEX
  8
0
 10
30.4735
 20
132.7484
  0
VERTEX
  8
0
 10
30.5158
 20
132.725
  0
VERTEX
  8
0
 10
30.5613
 20
132.6999
  0
VERTEX
  8
0
 10
30.6087
 20
132.6737
  0
VERTEX
  8
0
 10
30.6568
 20
132.6472
  0
VERTEX
  8
0
 10
30.7041
 20
132.6209
  0
VERTEX
  8
0
 10
30.7496
 20
132.5955
  0
VERTEX
  8
0
 10
30.7918
 20
132.5716
  0
VERTEX
  8
0
 10
30.8295
 20
132.55
  0
VERTEX
  8
0
 10
30.8613
 20
132.5312
  0
VERTEX
  8
0
 10
30.8613
 20
132.5312
  0
VERTEX
  8
0
 10
30.8885
 20
132.5149
  0
VERTEX
  8
0
 10
30.9129
 20
132.4999
  0
VERTEX
  8
0
 10
30.9351
 20
132.4862
  0
VERTEX
  8
0
 10
30.9552
 20
132.4735
  0
VERTEX
  8
0
 10
30.9737
 20
132.4616
  0
VERTEX
  8
0
 10
30.9909
 20
132.4503
  0
VERTEX
  8
0
 10
31.007
 20
132.4394
  0
VERTEX
  8
0
 10
31.0225
 20
132.4288
  0
VERTEX
  8
0
 10
31.0375
 20
132.4183
  0
VERTEX
  8
0
 10
31.0526
 20
132.4076
  0
VERTEX
  8
0
 10
31.0679
 20
132.3966
  0
VERTEX
  8
0
 10
31.0839
 20
132.3851
  0
VERTEX
  8
0
 10
31.0839
 20
132.3851
  0
VERTEX
  8
0
 10
31.1044
 20
132.3701
  0
VERTEX
  8
0
 10
31.123
 20
132.3563
  0
VERTEX
  8
0
 10
31.1403
 20
132.3434
  0
VERTEX
  8
0
 10
31.157
 20
132.3306
  0
VERTEX
  8
0
 10
31.1739
 20
132.3176
  0
VERTEX
  8
0
 10
31.1916
 20
132.3037
  0
VERTEX
  8
0
 10
31.2109
 20
132.2885
  0
VERTEX
  8
0
 10
31.2326
 20
132.2714
  0
VERTEX
  8
0
 10
31.2572
 20
132.2519
  0
VERTEX
  8
0
 10
31.2572
 20
132.2519
  0
VERTEX
  8
0
 10
31.28
 20
132.2338
  0
VERTEX
  8
0
 10
31.3049
 20
132.214
  0
VERTEX
  8
0
 10
31.3314
 20
132.1927
  0
VERTEX
  8
0
 10
31.3592
 20
132.1702
  0
VERTEX
  8
0
 10
31.3877
 20
132.1467
  0
VERTEX
  8
0
 10
31.4167
 20
132.1226
  0
VERTEX
  8
0
 10
31.4457
 20
132.0981
  0
VERTEX
  8
0
 10
31.4742
 20
132.0735
  0
VERTEX
  8
0
 10
31.5019
 20
132.0491
  0
VERTEX
  8
0
 10
31.5282
 20
132.0251
  0
VERTEX
  8
0
 10
31.5529
 20
132.0018
  0
VERTEX
  8
0
 10
31.5529
 20
132.0018
  0
VERTEX
  8
0
 10
31.5739
 20
131.9812
  0
VERTEX
  8
0
 10
31.5938
 20
131.9613
  0
VERTEX
  8
0
 10
31.6129
 20
131.9418
  0
VERTEX
  8
0
 10
31.6313
 20
131.9226
  0
VERTEX
  8
0
 10
31.6493
 20
131.9035
  0
VERTEX
  8
0
 10
31.6671
 20
131.8843
  0
VERTEX
  8
0
 10
31.685
 20
131.8648
  0
VERTEX
  8
0
 10
31.7032
 20
131.8449
  0
VERTEX
  8
0
 10
31.7219
 20
131.8244
  0
VERTEX
  8
0
 10
31.7414
 20
131.8031
  0
VERTEX
  8
0
 10
31.7618
 20
131.7809
  0
VERTEX
  8
0
 10
31.7835
 20
131.7574
  0
VERTEX
  8
0
 10
31.7835
 20
131.7574
  0
VERTEX
  8
0
 10
31.8072
 20
131.7318
  0
VERTEX
  8
0
 10
31.8331
 20
131.7036
  0
VERTEX
  8
0
 10
31.8606
 20
131.6734
  0
VERTEX
  8
0
 10
31.8891
 20
131.6417
  0
VERTEX
  8
0
 10
31.9179
 20
131.6093
  0
VERTEX
  8
0
 10
31.9465
 20
131.5767
  0
VERTEX
  8
0
 10
31.9742
 20
131.5447
  0
VERTEX
  8
0
 10
32.0004
 20
131.5138
  0
VERTEX
  8
0
 10
32.0245
 20
131.4846
  0
VERTEX
  8
0
 10
32.0459
 20
131.4579
  0
VERTEX
  8
0
 10
32.064
 20
131.4341
  0
VERTEX
  8
0
 10
32.0781
 20
131.414
  0
VERTEX
  8
0
 10
32.0781
 20
131.414
  0
VERTEX
  8
0
 10
32.0957
 20
131.387
  0
VERTEX
  8
0
 10
32.1089
 20
131.366
  0
VERTEX
  8
0
 10
32.1194
 20
131.3487
  0
VERTEX
  8
0
 10
32.1286
 20
131.3325
  0
VERTEX
  8
0
 10
32.1384
 20
131.3148
  0
VERTEX
  8
0
 10
32.1504
 20
131.2931
  0
VERTEX
  8
0
 10
32.1661
 20
131.2649
  0
VERTEX
  8
0
 10
32.1661
 20
131.2649
  0
VERTEX
  8
0
 10
32.1774
 20
131.2451
  0
VERTEX
  8
0
 10
32.1898
 20
131.2234
  0
VERTEX
  8
0
 10
32.2032
 20
131.2
  0
VERTEX
  8
0
 10
32.2175
 20
131.1752
  0
VERTEX
  8
0
 10
32.2325
 20
131.1491
  0
VERTEX
  8
0
 10
32.2481
 20
131.122
  0
VERTEX
  8
0
 10
32.2642
 20
131.0941
  0
VERTEX
  8
0
 10
32.2805
 20
131.0655
  0
VERTEX
  8
0
 10
32.2971
 20
131.0365
  0
VERTEX
  8
0
 10
32.3136
 20
131.0073
  0
VERTEX
  8
0
 10
32.33
 20
130.9781
  0
VERTEX
  8
0
 10
32.3462
 20
130.949
  0
VERTEX
  8
0
 10
32.3462
 20
130.949
  0
VERTEX
  8
0
 10
32.3562
 20
130.931
  0
VERTEX
  8
0
 10
32.366
 20
130.9134
  0
VERTEX
  8
0
 10
32.3755
 20
130.8961
  0
VERTEX
  8
0
 10
32.3849
 20
130.8789
  0
VERTEX
  8
0
 10
32.3942
 20
130.8618
  0
VERTEX
  8
0
 10
32.4035
 20
130.8446
  0
VERTEX
  8
0
 10
32.4127
 20
130.8273
  0
VERTEX
  8
0
 10
32.422
 20
130.8097
  0
VERTEX
  8
0
 10
32.4313
 20
130.7917
  0
VERTEX
  8
0
 10
32.4408
 20
130.7732
  0
VERTEX
  8
0
 10
32.4504
 20
130.7541
  0
VERTEX
  8
0
 10
32.4602
 20
130.7342
  0
VERTEX
  8
0
 10
32.4703
 20
130.7135
  0
VERTEX
  8
0
 10
32.4806
 20
130.6919
  0
VERTEX
  8
0
 10
32.4913
 20
130.6692
  0
VERTEX
  8
0
 10
32.5024
 20
130.6453
  0
VERTEX
  8
0
 10
32.5139
 20
130.6201
  0
VERTEX
  8
0
 10
32.5258
 20
130.5935
  0
VERTEX
  8
0
 10
32.5383
 20
130.5654
  0
VERTEX
  8
0
 10
32.5383
 20
130.5654
  0
VERTEX
  8
0
 10
32.5513
 20
130.5351
  0
VERTEX
  8
0
 10
32.5648
 20
130.5022
  0
VERTEX
  8
0
 10
32.5788
 20
130.467
  0
VERTEX
  8
0
 10
32.5932
 20
130.4299
  0
VERTEX
  8
0
 10
32.6078
 20
130.3911
  0
VERTEX
  8
0
 10
32.6226
 20
130.3509
  0
VERTEX
  8
0
 10
32.6375
 20
130.3096
  0
VERTEX
  8
0
 10
32.6524
 20
130.2675
  0
VERTEX
  8
0
 10
32.6672
 20
130.2249
  0
VERTEX
  8
0
 10
32.6818
 20
130.1821
  0
VERTEX
  8
0
 10
32.6961
 20
130.1394
  0
VERTEX
  8
0
 10
32.7101
 20
130.0971
  0
VERTEX
  8
0
 10
32.7237
 20
130.0554
  0
VERTEX
  8
0
 10
32.7367
 20
130.0148
  0
VERTEX
  8
0
 10
32.749
 20
129.9753
  0
VERTEX
  8
0
 10
32.7607
 20
129.9375
  0
VERTEX
  8
0
 10
32.7715
 20
129.9015
  0
VERTEX
  8
0
 10
32.7814
 20
129.8677
  0
VERTEX
  8
0
 10
32.7904
 20
129.8363
  0
VERTEX
  8
0
 10
32.7904
 20
129.8363
  0
VERTEX
  8
0
 10
32.799
 20
129.8056
  0
VERTEX
  8
0
 10
32.807
 20
129.7767
  0
VERTEX
  8
0
 10
32.8144
 20
129.7496
  0
VERTEX
  8
0
 10
32.8214
 20
129.724
  0
VERTEX
  8
0
 10
32.8278
 20
129.6997
  0
VERTEX
  8
0
 10
32.8339
 20
129.6767
  0
VERTEX
  8
0
 10
32.8396
 20
129.6547
  0
VERTEX
  8
0
 10
32.845
 20
129.6336
  0
VERTEX
  8
0
 10
32.85
 20
129.6132
  0
VERTEX
  8
0
 10
32.8549
 20
129.5933
  0
VERTEX
  8
0
 10
32.8595
 20
129.5739
  0
VERTEX
  8
0
 10
32.8639
 20
129.5546
  0
VERTEX
  8
0
 10
32.8683
 20
129.5353
  0
VERTEX
  8
0
 10
32.8726
 20
129.5159
  0
VERTEX
  8
0
 10
32.8768
 20
129.4963
  0
VERTEX
  8
0
 10
32.881
 20
129.4761
  0
VERTEX
  8
0
 10
32.8853
 20
129.4554
  0
VERTEX
  8
0
 10
32.8897
 20
129.4338
  0
VERTEX
  8
0
 10
32.8897
 20
129.4338
  0
VERTEX
  8
0
 10
32.8963
 20
129.4009
  0
VERTEX
  8
0
 10
32.9025
 20
129.3682
  0
VERTEX
  8
0
 10
32.9084
 20
129.3356
  0
VERTEX
  8
0
 10
32.9142
 20
129.3032
  0
VERTEX
  8
0
 10
32.9197
 20
129.2709
  0
VERTEX
  8
0
 10
32.925
 20
129.2387
  0
VERTEX
  8
0
 10
32.9302
 20
129.2065
  0
VERTEX
  8
0
 10
32.9352
 20
129.1743
  0
VERTEX
  8
0
 10
32.9402
 20
129.1421
  0
VERTEX
  8
0
 10
32.9451
 20
129.1099
  0
VERTEX
  8
0
 10
32.95
 20
129.0776
  0
VERTEX
  8
0
 10
32.9549
 20
129.0452
  0
VERTEX
  8
0
 10
32.9549
 20
129.0452
  0
VERTEX
  8
0
 10
32.9607
 20
129.008
  0
VERTEX
  8
0
 10
32.968
 20
128.9628
  0
VERTEX
  8
0
 10
32.9765
 20
128.9117
  0
VERTEX
  8
0
 10
32.9857
 20
128.8569
  0
VERTEX
  8
0
 10
32.9954
 20
128.8004
  0
VERTEX
  8
0
 10
33.005
 20
128.7446
  0
VERTEX
  8
0
 10
33.0142
 20
128.6914
  0
VERTEX
  8
0
 10
33.0226
 20
128.6431
  0
VERTEX
  8
0
 10
33.0299
 20
128.6018
  0
VERTEX
  8
0
 10
33.0355
 20
128.5697
  0
VERTEX
  8
0
 10
33.0392
 20
128.5488
  0
VERTEX
  8
0
 10
33.0405
 20
128.5414
  0
VERTEX
  8
0
 10
33.0405
 20
128.5414
  0
VERTEX
  8
0
 10
33.9983
 20
128.4877
  0
VERTEX
  8
0
 10
33.9983
 20
128.4877
  0
VERTEX
  8
0
 10
34.0023
 20
128.448
  0
VERTEX
  8
0
 10
34.0122
 20
128.3427
  0
VERTEX
  8
0
 10
34.025
 20
128.1925
  0
VERTEX
  8
0
 10
34.0375
 20
128.0183
  0
VERTEX
  8
0
 10
34.0467
 20
127.8409
  0
VERTEX
  8
0
 10
34.0497
 20
127.681
  0
VERTEX
  8
0
 10
34.0432
 20
127.5593
  0
VERTEX
  8
0
 10
34.0242
 20
127.4967
  0
VERTEX
  8
0
 10
34.0242
 20
127.4967
  0
VERTEX
  8
0
 10
34.0055
 20
127.4795
  0
VERTEX
  8
0
 10
33.9872
 20
127.4657
  0
VERTEX
  8
0
 10
33.9689
 20
127.455
  0
VERTEX
  8
0
 10
33.9501
 20
127.447
  0
VERTEX
  8
0
 10
33.9305
 20
127.4415
  0
VERTEX
  8
0
 10
33.9096
 20
127.4381
  0
VERTEX
  8
0
 10
33.8871
 20
127.4364
  0
VERTEX
  8
0
 10
33.8624
 20
127.4363
  0
VERTEX
  8
0
 10
33.8353
 20
127.4373
  0
VERTEX
  8
0
 10
33.8053
 20
127.4391
  0
VERTEX
  8
0
 10
33.772
 20
127.4415
  0
VERTEX
  8
0
 10
33.772
 20
127.4415
  0
VERTEX
  8
0
 10
33.7277
 20
127.4445
  0
VERTEX
  8
0
 10
33.6677
 20
127.4483
  0
VERTEX
  8
0
 10
33.596
 20
127.4525
  0
VERTEX
  8
0
 10
33.5168
 20
127.4568
  0
VERTEX
  8
0
 10
33.434
 20
127.4606
  0
VERTEX
  8
0
 10
33.3516
 20
127.4637
  0
VERTEX
  8
0
 10
33.2737
 20
127.4656
  0
VERTEX
  8
0
 10
33.2043
 20
127.4659
  0
VERTEX
  8
0
 10
33.1474
 20
127.4642
  0
VERTEX
  8
0
 10
33.1071
 20
127.4601
  0
VERTEX
  8
0
 10
33.0874
 20
127.4533
  0
VERTEX
  8
0
 10
33.0874
 20
127.4533
  0
VERTEX
  8
0
 10
33.0644
 20
127.4275
  0
VERTEX
  8
0
 10
33.0494
 20
127.4071
  0
VERTEX
  8
0
 10
33.0352
 20
127.3862
  0
VERTEX
  8
0
 10
33.0352
 20
127.3862
  0
VERTEX
  8
0
 10
33.0313
 20
126.5542
  0
VERTEX
  8
0
 10
33.0313
 20
126.5542
  0
VERTEX
  8
0
 10
33.157
 20
126.5172
  0
VERTEX
  8
0
 10
33.157
 20
126.5172
  0
VERTEX
  8
0
 10
33.1979
 20
126.5397
  0
VERTEX
  8
0
 10
33.1979
 20
126.5397
  0
VERTEX
  8
0
 10
33.2124
 20
126.5424
  0
VERTEX
  8
0
 10
33.2443
 20
126.5453
  0
VERTEX
  8
0
 10
33.2909
 20
126.5482
  0
VERTEX
  8
0
 10
33.3493
 20
126.5509
  0
VERTEX
  8
0
 10
33.4168
 20
126.5532
  0
VERTEX
  8
0
 10
33.4905
 20
126.5547
  0
VERTEX
  8
0
 10
33.5675
 20
126.5553
  0
VERTEX
  8
0
 10
33.6452
 20
126.5547
  0
VERTEX
  8
0
 10
33.7207
 20
126.5527
  0
VERTEX
  8
0
 10
33.7911
 20
126.549
  0
VERTEX
  8
0
 10
33.8537
 20
126.5434
  0
VERTEX
  8
0
 10
33.9057
 20
126.5357
  0
VERTEX
  8
0
 10
33.9442
 20
126.5256
  0
VERTEX
  8
0
 10
33.9442
 20
126.5256
  0
VERTEX
  8
0
 10
33.9738
 20
126.5145
  0
VERTEX
  8
0
 10
34.001
 20
126.5039
  0
VERTEX
  8
0
 10
34.0262
 20
126.4936
  0
VERTEX
  8
0
 10
34.0494
 20
126.4838
  0
VERTEX
  8
0
 10
34.0708
 20
126.4744
  0
VERTEX
  8
0
 10
34.0908
 20
126.4654
  0
VERTEX
  8
0
 10
34.1094
 20
126.4567
  0
VERTEX
  8
0
 10
34.1268
 20
126.4482
  0
VERTEX
  8
0
 10
34.1434
 20
126.4401
  0
VERTEX
  8
0
 10
34.1592
 20
126.4322
  0
VERTEX
  8
0
 10
34.1745
 20
126.4245
  0
VERTEX
  8
0
 10
34.1894
 20
126.417
  0
VERTEX
  8
0
 10
34.2042
 20
126.4096
  0
VERTEX
  8
0
 10
34.2042
 20
126.4096
  0
VERTEX
  8
0
 10
34.2316
 20
126.3961
  0
VERTEX
  8
0
 10
34.2519
 20
126.3861
  0
VERTEX
  8
0
 10
34.2687
 20
126.3778
  0
VERTEX
  8
0
 10
34.2855
 20
126.3694
  0
VERTEX
  8
0
 10
34.3058
 20
126.359
  0
VERTEX
  8
0
 10
34.3331
 20
126.3449
  0
VERTEX
  8
0
 10
34.3331
 20
126.3449
  0
VERTEX
  8
0
 10
34.3791
 20
126.3209
  0
VERTEX
  8
0
 10
34.4461
 20
126.2857
  0
VERTEX
  8
0
 10
34.524
 20
126.2451
  0
VERTEX
  8
0
 10
34.6025
 20
126.2045
  0
VERTEX
  8
0
 10
34.6714
 20
126.1697
  0
VERTEX
  8
0
 10
34.7206
 20
126.1462
  0
VERTEX
  8
0
 10
34.7206
 20
126.1462
  0
VERTEX
  8
0
 10
34.7531
 20
126.1317
  0
VERTEX
  8
0
 10
34.7798
 20
126.1195
  0
VERTEX
  8
0
 10
34.8022
 20
126.1084
  0
VERTEX
  8
0
 10
34.8217
 20
126.0972
  0
VERTEX
  8
0
 10
34.8398
 20
126.0846
  0
VERTEX
  8
0
 10
34.8578
 20
126.0695
  0
VERTEX
  8
0
 10
34.8578
 20
126.0695
  0
VERTEX
  8
0
 10
34.8745
 20
126.0536
  0
VERTEX
  8
0
 10
34.8885
 20
126.0382
  0
VERTEX
  8
0
 10
34.9005
 20
126.0218
  0
VERTEX
  8
0
 10
34.9115
 20
126.0026
  0
VERTEX
  8
0
 10
34.9223
 20
125.979
  0
VERTEX
  8
0
 10
34.9341
 20
125.9492
  0
VERTEX
  8
0
 10
34.9341
 20
125.9492
  0
VERTEX
  8
0
 10
34.9428
 20
125.7169
  0
VERTEX
  8
0
 10
34.9456
 20
125.1872
  0
VERTEX
  8
0
 10
34.9443
 20
124.511
  0
VERTEX
  8
0
 10
34.9408
 20
123.8388
  0
VERTEX
  8
0
 10
34.9372
 20
123.3215
  0
VERTEX
  8
0
 10
34.9353
 20
123.1098
  0
VERTEX
  8
0
 10
34.9353
 20
123.1098
  0
VERTEX
  8
0
 10
34.9345
 20
123.0753
  0
VERTEX
  8
0
 10
34.9345
 20
123.0753
  0
VERTEX
  8
0
 10
34.9272
 20
123.0611
  0
VERTEX
  8
0
 10
34.9088
 20
123.0381
  0
VERTEX
  8
0
 10
34.8822
 20
123.0099
  0
VERTEX
  8
0
 10
34.8501
 20
122.9802
  0
VERTEX
  8
0
 10
34.8154
 20
122.9524
  0
VERTEX
  8
0
 10
34.7807
 20
122.9303
  0
VERTEX
  8
0
 10
34.7807
 20
122.9303
  0
VERTEX
  8
0
 10
34.7446
 20
122.9109
  0
VERTEX
  8
0
 10
34.7054
 20
122.8897
  0
VERTEX
  8
0
 10
34.6652
 20
122.8682
  0
VERTEX
  8
0
 10
34.6263
 20
122.8475
  0
VERTEX
  8
0
 10
34.591
 20
122.8292
  0
VERTEX
  8
0
 10
34.5616
 20
122.8145
  0
VERTEX
  8
0
 10
34.5616
 20
122.8145
  0
VERTEX
  8
0
 10
34.5296
 20
122.7993
  0
VERTEX
  8
0
 10
34.5063
 20
122.7884
  0
VERTEX
  8
0
 10
34.485
 20
122.7779
  0
VERTEX
  8
0
 10
34.459
 20
122.7641
  0
VERTEX
  8
0
 10
34.459
 20
122.7641
  0
VERTEX
  8
0
 10
34.4421
 20
122.7546
  0
VERTEX
  8
0
 10
34.4256
 20
122.7449
  0
VERTEX
  8
0
 10
34.4089
 20
122.7344
  0
VERTEX
  8
0
 10
34.3908
 20
122.7227
  0
VERTEX
  8
0
 10
34.3707
 20
122.7093
  0
VERTEX
  8
0
 10
34.3475
 20
122.6938
  0
VERTEX
  8
0
 10
34.3205
 20
122.6757
  0
VERTEX
  8
0
 10
34.3205
 20
122.6757
  0
VERTEX
  8
0
 10
34.3082
 20
122.6674
  0
VERTEX
  8
0
 10
34.2956
 20
122.6585
  0
VERTEX
  8
0
 10
34.2824
 20
122.6491
  0
VERTEX
  8
0
 10
34.2687
 20
122.6394
  0
VERTEX
  8
0
 10
34.2542
 20
122.6294
  0
VERTEX
  8
0
 10
34.2389
 20
122.6193
  0
VERTEX
  8
0
 10
34.2227
 20
122.6091
  0
VERTEX
  8
0
 10
34.2054
 20
122.5989
  0
VERTEX
  8
0
 10
34.1871
 20
122.5888
  0
VERTEX
  8
0
 10
34.1675
 20
122.5789
  0
VERTEX
  8
0
 10
34.1467
 20
122.5693
  0
VERTEX
  8
0
 10
34.1244
 20
122.5601
  0
VERTEX
  8
0
 10
34.1006
 20
122.5514
  0
VERTEX
  8
0
 10
34.0752
 20
122.5433
  0
VERTEX
  8
0
 10
34.0482
 20
122.5358
  0
VERTEX
  8
0
 10
34.0193
 20
122.5291
  0
VERTEX
  8
0
 10
33.9885
 20
122.5233
  0
VERTEX
  8
0
 10
33.9885
 20
122.5233
  0
VERTEX
  8
0
 10
33.9513
 20
122.5183
  0
VERTEX
  8
0
 10
33.9044
 20
122.5142
  0
VERTEX
  8
0
 10
33.8492
 20
122.5107
  0
VERTEX
  8
0
 10
33.7872
 20
122.5079
  0
VERTEX
  8
0
 10
33.7201
 20
122.5055
  0
VERTEX
  8
0
 10
33.6492
 20
122.5035
  0
VERTEX
  8
0
 10
33.5762
 20
122.5017
  0
VERTEX
  8
0
 10
33.5024
 20
122.5002
  0
VERTEX
  8
0
 10
33.4295
 20
122.4987
  0
VERTEX
  8
0
 10
33.3589
 20
122.4971
  0
VERTEX
  8
0
 10
33.2922
 20
122.4954
  0
VERTEX
  8
0
 10
33.2308
 20
122.4934
  0
VERTEX
  8
0
 10
33.1763
 20
122.4911
  0
VERTEX
  8
0
 10
33.1302
 20
122.4883
  0
VERTEX
  8
0
 10
33.094
 20
122.485
  0
VERTEX
  8
0
 10
33.0692
 20
122.4809
  0
VERTEX
  8
0
 10
33.0574
 20
122.4761
  0
VERTEX
  8
0
 10
33.0574
 20
122.4761
  0
VERTEX
  8
0
 10
33.0357
 20
122.4511
  0
VERTEX
  8
0
 10
33.0214
 20
122.4318
  0
VERTEX
  8
0
 10
33.0076
 20
122.412
  0
VERTEX
  8
0
 10
33.0076
 20
122.412
  0
VERTEX
  8
0
 10
33.0045
 20
121.6935
  0
VERTEX
  8
0
 10
33.0045
 20
121.6935
  0
VERTEX
  8
0
 10
33.0322
 20
121.6935
  0
VERTEX
  8
0
 10
33.0322
 20
121.6935
  0
VERTEX
  8
0
 10
33.0322
 20
121.6106
  0
VERTEX
  8
0
 10
33.0322
 20
121.6106
  0
VERTEX
  8
0
 10
33.0045
 20
121.6106
  0
VERTEX
  8
0
 10
33.0045
 20
121.6106
  0
VERTEX
  8
0
 10
33.0045
 20
121.1961
  0
VERTEX
  8
0
 10
33.0045
 20
121.1961
  0
VERTEX
  8
0
 10
33.0322
 20
121.1961
  0
VERTEX
  8
0
 10
33.0322
 20
121.1961
  0
VERTEX
  8
0
 10
33.0322
 20
121.1685
  0
VERTEX
  8
0
 10
33.0322
 20
121.1685
  0
VERTEX
  8
0
 10
33.0045
 20
121.1685
  0
VERTEX
  8
0
 10
33.0045
 20
121.1685
  0
VERTEX
  8
0
 10
33.0045
 20
121.058
  0
VERTEX
  8
0
 10
33.0045
 20
121.058
  0
VERTEX
  8
0
 10
33.0322
 20
121.058
  0
VERTEX
  8
0
 10
33.0322
 20
121.058
  0
VERTEX
  8
0
 10
33.0322
 20
121.0027
  0
VERTEX
  8
0
 10
33.0322
 20
121.0027
  0
VERTEX
  8
0
 10
33.0045
 20
121.0027
  0
VERTEX
  8
0
 10
33.0045
 20
121.0027
  0
VERTEX
  8
0
 10
33.0034
 20
117.5449
  0
VERTEX
  8
0
 10
33.0034
 20
117.5449
  0
VERTEX
  8
0
 10
33.2995
 20
117.4716
  0
VERTEX
  8
0
 10
33.9541
 20
117.3077
  0
VERTEX
  8
0
 10
34.6158
 20
117.1367
  0
VERTEX
  8
0
 10
34.9337
 20
117.0422
  0
VERTEX
  8
0
 10
34.9337
 20
117.0422
  0
VERTEX
  8
0
 10
34.9574
 20
117.0171
  0
VERTEX
  8
0
 10
34.9737
 20
116.9965
  0
VERTEX
  8
0
 10
34.9865
 20
116.9774
  0
VERTEX
  8
0
 10
35
 20
116.9569
  0
VERTEX
  8
0
 10
35
 20
116.9569
  0
VERTEX
  8
0
 10
34.9776
 20
116.5032
  0
VERTEX
  8
0
 10
34.94
 20
116.0719
  0
VERTEX
  8
0
 10
34.94
 20
116.0719
  0
VERTEX
  8
0
 10
23
 20
116.0582
  0
VERTEX
  8
0
 10
23
 20
116.0582
  0
VERTEX
  8
0
 10
23.0163
 20
116.9623
  0
VERTEX
  8
0
 10
23.0163
 20
116.9623
  0
VERTEX
  8
0
 10
25.0075
 20
117.5484
  0
VERTEX
  8
0
 10
25.0075
 20
117.5484
  0
VERTEX
  8
0
 10
25.0158
 20
118.2747
  0
VERTEX
  8
0
 10
25.0329
 20
119.8766
  0
VERTEX
  8
0
 10
25.0467
 20
121.4889
  0
VERTEX
  8
0
 10
25.0452
 20
122.2462
  0
VERTEX
  8
0
 10
25.0452
 20
122.2462
  0
VERTEX
  8
0
 10
25.0106
 20
122.3568
  0
VERTEX
  8
0
 10
25.0106
 20
122.3568
  0
VERTEX
  8
0
 10
25.01
 20
122.4289
  0
VERTEX
  8
0
 10
25.0179
 20
122.4734
  0
VERTEX
  8
0
 10
25.0179
 20
122.4734
  0
VERTEX
  8
0
 10
24.0789
 20
122.5227
  0
VERTEX
  8
0
 10
24.0789
 20
122.5227
  0
VERTEX
  8
0
 10
24.0379
 20
122.5315
  0
VERTEX
  8
0
 10
23.995
 20
122.5447
  0
VERTEX
  8
0
 10
23.995
 20
122.5447
  0
VERTEX
  8
0
 10
23.9733
 20
122.5539
  0
VERTEX
  8
0
 10
23.9521
 20
122.5647
  0
VERTEX
  8
0
 10
23.9278
 20
122.5788
  0
VERTEX
  8
0
 10
23.8967
 20
122.5978
  0
VERTEX
  8
0
 10
23.8967
 20
122.5978
  0
VERTEX
  8
0
 10
23.8831
 20
122.6059
  0
VERTEX
  8
0
 10
23.8631
 20
122.6174
  0
VERTEX
  8
0
 10
23.8377
 20
122.6317
  0
VERTEX
  8
0
 10
23.8076
 20
122.6486
  0
VERTEX
  8
0
 10
23.7737
 20
122.6675
  0
VERTEX
  8
0
 10
23.7369
 20
122.688
  0
VERTEX
  8
0
 10
23.6979
 20
122.7096
  0
VERTEX
  8
0
 10
23.6577
 20
122.7319
  0
VERTEX
  8
0
 10
23.6171
 20
122.7544
  0
VERTEX
  8
0
 10
23.5768
 20
122.7767
  0
VERTEX
  8
0
 10
23.5379
 20
122.7984
  0
VERTEX
  8
0
 10
23.501
 20
122.819
  0
VERTEX
  8
0
 10
23.4671
 20
122.8381
  0
VERTEX
  8
0
 10
23.4369
 20
122.8552
  0
VERTEX
  8
0
 10
23.4369
 20
122.8552
  0
VERTEX
  8
0
 10
23.4097
 20
122.8708
  0
VERTEX
  8
0
 10
23.3837
 20
122.8859
  0
VERTEX
  8
0
 10
23.3588
 20
122.9004
  0
VERTEX
  8
0
 10
23.3349
 20
122.9146
  0
VERTEX
  8
0
 10
23.3119
 20
122.9284
  0
VERTEX
  8
0
 10
23.2895
 20
122.9419
  0
VERTEX
  8
0
 10
23.2677
 20
122.9553
  0
VERTEX
  8
0
 10
23.2462
 20
122.9685
  0
VERTEX
  8
0
 10
23.2249
 20
122.9816
  0
VERTEX
  8
0
 10
23.2038
 20
122.9948
  0
VERTEX
  8
0
 10
23.1825
 20
123.0081
  0
VERTEX
  8
0
 10
23.1611
 20
123.0215
  0
VERTEX
  8
0
 10
23.1392
 20
123.0352
  0
VERTEX
  8
0
 10
23.1169
 20
123.0491
  0
VERTEX
  8
0
 10
23.1169
 20
123.0491
  0
VERTEX
  8
0
 10
23.0905
 20
123.073
  0
VERTEX
  8
0
 10
23.0732
 20
123.1021
  0
VERTEX
  8
0
 10
23.0632
 20
123.1323
  0
VERTEX
  8
0
 10
23.0585
 20
123.1591
  0
VERTEX
  8
0
 10
23.0571
 20
123.1784
  0
VERTEX
  8
0
 10
23.0571
 20
123.1858
  0
VERTEX
  8
0
 10
23.0571
 20
123.1858
  0
VERTEX
  8
0
 10
23.0544
 20
125.9498
  0
VERTEX
  8
0
 10
23.0544
 20
125.9498
  0
VERTEX
  8
0
 10
23.1299
 20
126.066
  0
VERTEX
  8
0
 10
23.1299
 20
126.066
  0
VERTEX
  8
0
 10
23.1781
 20
126.1016
  0
VERTEX
  8
0
 10
23.1781
 20
126.1016
  0
VERTEX
  8
0
 10
23.2172
 20
126.1236
  0
VERTEX
  8
0
 10
23.2172
 20
126.1236
  0
VERTEX
  8
0
 10
23.2271
 20
126.1284
  0
VERTEX
  8
0
 10
23.2413
 20
126.135
  0
VERTEX
  8
0
 10
23.2596
 20
126.1434
  0
VERTEX
  8
0
 10
23.2815
 20
126.1534
  0
VERTEX
  8
0
 10
23.3068
 20
126.1648
  0
VERTEX
  8
0
 10
23.335
 20
126.1776
  0
VERTEX
  8
0
 10
23.3659
 20
126.1917
  0
VERTEX
  8
0
 10
23.3989
 20
126.2068
  0
VERTEX
  8
0
 10
23.3989
 20
126.2068
  0
VERTEX
  8
0
 10
23.438
 20
126.2254
  0
VERTEX
  8
0
 10
23.4852
 20
126.2488
  0
VERTEX
  8
0
 10
23.5377
 20
126.2755
  0
VERTEX
  8
0
 10
23.5927
 20
126.3038
  0
VERTEX
  8
0
 10
23.6474
 20
126.3319
  0
VERTEX
  8
0
 10
23.699
 20
126.3584
  0
VERTEX
  8
0
 10
23.7448
 20
126.3814
  0
VERTEX
  8
0
 10
23.7818
 20
126.3995
  0
VERTEX
  8
0
 10
23.7818
 20
126.3995
  0
VERTEX
  8
0
 10
23.8111
 20
126.4132
  0
VERTEX
  8
0
 10
23.8362
 20
126.4247
  0
VERTEX
  8
0
 10
23.8581
 20
126.4345
  0
VERTEX
  8
0
 10
23.8777
 20
126.4431
  0
VERTEX
  8
0
 10
23.896
 20
126.451
  0
VERTEX
  8
0
 10
23.914
 20
126.4586
  0
VERTEX
  8
0
 10
23.9327
 20
126.4665
  0
VERTEX
  8
0
 10
23.9531
 20
126.4751
  0
VERTEX
  8
0
 10
23.9531
 20
126.4751
  0
VERTEX
  8
0
 10
24.0514
 20
126.4896
  0
VERTEX
  8
0
 10
24.236
 20
126.5029
  0
VERTEX
  8
0
 10
24.4447
 20
126.5138
  0
VERTEX
  8
0
 10
24.6155
 20
126.5212
  0
VERTEX
  8
0
 10
24.6863
 20
126.5239
  0
VERTEX
  8
0
 10
24.6863
 20
126.5239
  0
VERTEX
  8
0
 10
24.6859
 20
126.5019
  0
VERTEX
  8
0
 10
24.6859
 20
126.5019
  0
VERTEX
  8
0
 10
24.7135
 20
126.5019
  0
VERTEX
  8
0
 10
24.7135
 20
126.5019
  0
VERTEX
  8
0
 10
24.7135
 20
126.5295
  0
VERTEX
  8
0
 10
24.7135
 20
126.5295
  0
VERTEX
  8
0
 10
24.7309
 20
126.5323
  0
VERTEX
  8
0
 10
24.7711
 20
126.5197
  0
VERTEX
  8
0
 10
24.8161
 20
126.5019
  0
VERTEX
  8
0
 10
24.8161
 20
126.5019
  0
VERTEX
  8
0
 10
24.8684
 20
126.4949
  0
VERTEX
  8
0
 10
24.9285
 20
126.5056
  0
VERTEX
  8
0
 10
24.9756
 20
126.5303
  0
VERTEX
  8
0
 10
24.9756
 20
126.5303
  0
VERTEX
  8
0
 10
25.004
 20
126.5593
  0
VERTEX
  8
0
 10
25.0256
 20
126.5869
  0
VERTEX
  8
0
 10
25.0459
 20
126.6154
  0
VERTEX
  8
0
 10
25.0459
 20
126.6154
  0
VERTEX
  8
0
 10
25.0259
 20
127.0466
  0
VERTEX
  8
0
 10
24.9899
 20
127.4553
  0
VERTEX
  8
0
 10
24.9899
 20
127.4553
  0
VERTEX
  8
0
 10
24.8241
 20
127.4691
  0
VERTEX
  8
0
 10
24.8241
 20
127.4691
  0
VERTEX
  8
0
 10
24.8241
 20
127.4415
  0
VERTEX
  8
0
 10
24.8241
 20
127.4415
  0
VERTEX
  8
0
 10
24.7688
 20
127.4415
  0
VERTEX
  8
0
 10
24.7688
 20
127.4415
  0
VERTEX
  8
0
 10
24.7688
 20
127.4691
  0
VERTEX
  8
0
 10
24.7688
 20
127.4691
  0
VERTEX
  8
0
 10
24.5984
 20
127.4641
  0
VERTEX
  8
0
 10
24.2776
 20
127.4611
  0
VERTEX
  8
0
 10
24.0922
 20
127.4782
  0
VERTEX
  8
0
 10
24.0922
 20
127.4782
  0
VERTEX
  8
0
 10
24.0797
 20
127.4965
  0
VERTEX
  8
0
 10
24.0683
 20
127.5132
  0
VERTEX
  8
0
 10
24.0566
 20
127.5309
  0
VERTEX
  8
0
 10
24.0435
 20
127.5522
  0
VERTEX
  8
0
 10
24.0276
 20
127.5796
  0
VERTEX
  8
0
 10
24.0276
 20
127.5796
  0
VERTEX
  8
0
 10
24.0141
 20
127.6826
  0
VERTEX
  8
0
 10
24.0081
 20
127.884
  0
VERTEX
  8
0
 10
24.0087
 20
128.1168
  0
VERTEX
  8
0
 10
24.0149
 20
128.314
  0
VERTEX
  8
0
 10
24.0257
 20
128.4087
  0
VERTEX
  8
0
 10
24.0257
 20
128.4087
  0
VERTEX
  8
0
 10
24.0414
 20
128.435
  0
VERTEX
  8
0
 10
24.0542
 20
128.4524
  0
VERTEX
  8
0
 10
24.0762
 20
128.4735
  0
VERTEX
  8
0
 10
24.0762
 20
128.4735
  0
VERTEX
  8
0
 10
24.0884
 20
128.4806
  0
VERTEX
  8
0
 10
24.1077
 20
128.487
  0
VERTEX
  8
0
 10
24.133
 20
128.4925
  0
VERTEX
  8
0
 10
24.1634
 20
128.4971
  0
VERTEX
  8
0
 10
24.1977
 20
128.5008
  0
VERTEX
  8
0
 10
24.235
 20
128.5036
  0
VERTEX
  8
0
 10
24.2741
 20
128.5053
  0
VERTEX
  8
0
 10
24.3142
 20
128.5059
  0
VERTEX
  8
0
 10
24.3542
 20
128.5054
  0
VERTEX
  8
0
 10
24.3929
 20
128.5037
  0
VERTEX
  8
0
 10
24.4295
 20
128.5008
  0
VERTEX
  8
0
 10
24.4295
 20
128.5008
  0
VERTEX
  8
0
 10
24.4664
 20
128.4981
  0
VERTEX
  8
0
 10
24.5061
 20
128.4971
  0
VERTEX
  8
0
 10
24.5478
 20
128.4975
  0
VERTEX
  8
0
 10
24.5907
 20
128.4991
  0
VERTEX
  8
0
 10
24.6339
 20
128.5018
  0
VERTEX
  8
0
 10
24.6766
 20
128.5053
  0
VERTEX
  8
0
 10
24.7178
 20
128.5094
  0
VERTEX
  8
0
 10
24.7567
 20
128.514
  0
VERTEX
  8
0
 10
24.7925
 20
128.5188
  0
VERTEX
  8
0
 10
24.8243
 20
128.5236
  0
VERTEX
  8
0
 10
24.8512
 20
128.5282
  0
VERTEX
  8
0
 10
24.8512
 20
128.5282
  0
VERTEX
  8
0
 10
24.8809
 20
128.5333
  0
VERTEX
  8
0
 10
24.9048
 20
128.5368
  0
VERTEX
  8
0
 10
24.9245
 20
128.5398
  0
VERTEX
  8
0
 10
24.9418
 20
128.5433
  0
VERTEX
  8
0
 10
24.9587
 20
128.5481
  0
VERTEX
  8
0
 10
24.9768
 20
128.5553
  0
VERTEX
  8
0
 10
24.998
 20
128.5659
  0
VERTEX
  8
0
 10
25.024
 20
128.5808
  0
VERTEX
  8
0
 10
25.024
 20
128.5808
  0
VERTEX
  8
0
 10
25.0357
 20
128.5906
  0
VERTEX
  8
0
 10
25.0464
 20
128.6052
  0
VERTEX
  8
0
 10
25.0561
 20
128.6241
  0
VERTEX
  8
0
 10
25.0648
 20
128.647
  0
VERTEX
  8
0
 10
25.0724
 20
128.6734
  0
VERTEX
  8
0
 10
25.0791
 20
128.7029
  0
VERTEX
  8
0
 10
25.0848
 20
128.735
  0
VERTEX
  8
0
 10
25.0895
 20
128.7695
  0
VERTEX
  8
0
 10
25.0933
 20
128.8058
  0
VERTEX
  8
0
 10
25.096
 20
128.8436
  0
VERTEX
  8
0
 10
25.0978
 20
128.8825
  0
VERTEX
  8
0
 10
25.0986
 20
128.9219
  0
VERTEX
  8
0
 10
25.0985
 20
128.9616
  0
VERTEX
  8
0
 10
25.0975
 20
129.0011
  0
VERTEX
  8
0
 10
25.0954
 20
129.04
  0
VERTEX
  8
0
 10
25.0925
 20
129.0779
  0
VERTEX
  8
0
 10
25.0886
 20
129.1144
  0
VERTEX
  8
0
 10
25.0838
 20
129.1491
  0
VERTEX
  8
0
 10
25.0781
 20
129.1815
  0
VERTEX
  8
0
 10
25.0781
 20
129.1815
  0
VERTEX
  8
0
 10
25.0732
 20
129.2127
  0
VERTEX
  8
0
 10
25.0706
 20
129.2438
  0
VERTEX
  8
0
 10
25.0703
 20
129.2745
  0
VERTEX
  8
0
 10
25.0718
 20
129.3046
  0
VERTEX
  8
0
 10
25.0749
 20
129.334
  0
VERTEX
  8
0
 10
25.0794
 20
129.3624
  0
VERTEX
  8
0
 10
25.085
 20
129.3897
  0
VERTEX
  8
0
 10
25.0915
 20
129.4156
  0
VERTEX
  8
0
 10
25.0986
 20
129.44
  0
VERTEX
  8
0
 10
25.106
 20
129.4627
  0
VERTEX
  8
0
 10
25.1135
 20
129.4834
  0
VERTEX
  8
0
 10
25.1209
 20
129.5019
  0
VERTEX
  8
0
 10
25.1278
 20
129.5182
  0
VERTEX
  8
0
 10
25.134
 20
129.5319
  0
VERTEX
  8
0
 10
25.1393
 20
129.543
  0
VERTEX
  8
0
 10
25.1434
 20
129.5511
  0
VERTEX
  8
0
 10
25.1461
 20
129.5561
  0
VERTEX
  8
0
 10
25.147
 20
129.5578
  0
VERTEX
  8
0
 10
25.147
 20
129.5578
  0
VERTEX
  8
0
 10
25.1283
 20
129.5417
  0
VERTEX
  8
0
 10
25.1283
 20
129.5417
  0
VERTEX
  8
0
 10
25.1389
 20
129.5749
  0
VERTEX
  8
0
 10
25.1665
 20
129.6615
  0
VERTEX
  8
0
 10
25.2052
 20
129.7823
  0
VERTEX
  8
0
 10
25.2488
 20
129.9177
  0
VERTEX
  8
0
 10
25.2911
 20
130.0485
  0
VERTEX
  8
0
 10
25.3262
 20
130.1552
  0
VERTEX
  8
0
 10
25.3479
 20
130.2185
  0
VERTEX
  8
0
 10
25.3479
 20
130.2185
  0
VERTEX
  8
0
 10
25.3577
 20
130.2453
  0
VERTEX
  8
0
 10
25.3673
 20
130.2713
  0
VERTEX
  8
0
 10
25.3768
 20
130.2969
  0
VERTEX
  8
0
 10
25.3863
 20
130.3224
  0
VERTEX
  8
0
 10
25.3961
 20
130.3483
  0
VERTEX
  8
0
 10
25.4064
 20
130.375
  0
VERTEX
  8
0
 10
25.4173
 20
130.4027
  0
VERTEX
  8
0
 10
25.4291
 20
130.4319
  0
VERTEX
  8
0
 10
25.442
 20
130.463
  0
VERTEX
  8
0
 10
25.442
 20
130.463
  0
VERTEX
  8
0
 10
25.4563
 20
130.4965
  0
VERTEX
  8
0
 10
25.4721
 20
130.5323
  0
VERTEX
  8
0
 10
25.489
 20
130.5698
  0
VERTEX
  8
0
 10
25.5067
 20
130.6085
  0
VERTEX
  8
0
 10
25.5247
 20
130.6475
  0
VERTEX
  8
0
 10
25.5427
 20
130.6863
  0
VERTEX
  8
0
 10
25.5603
 20
130.7243
  0
VERTEX
  8
0
 10
25.5772
 20
130.7608
  0
VERTEX
  8
0
 10
25.5929
 20
130.7951
  0
VERTEX
  8
0
 10
25.5929
 20
130.7951
  0
VERTEX
  8
0
 10
25.6086
 20
130.8287
  0
VERTEX
  8
0
 10
25.6253
 20
130.863
  0
VERTEX
  8
0
 10
25.6425
 20
130.8969
  0
VERTEX
  8
0
 10
25.6598
 20
130.9298
  0
VERTEX
  8
0
 10
25.6767
 20
130.9607
  0
VERTEX
  8
0
 10
25.6928
 20
130.9889
  0
VERTEX
  8
0
 10
25.7076
 20
131.0135
  0
VERTEX
  8
0
 10
25.7207
 20
131.0337
  0
VERTEX
  8
0
 10
25.7316
 20
131.0486
  0
VERTEX
  8
0
 10
25.7316
 20
131.0486
  0
VERTEX
  8
0
 10
25.7537
 20
131.0749
  0
VERTEX
  8
0
 10
25.7696
 20
131.093
  0
VERTEX
  8
0
 10
25.7906
 20
131.1201
  0
VERTEX
  8
0
 10
25.7906
 20
131.1201
  0
VERTEX
  8
0
 10
25.81
 20
131.1522
  0
VERTEX
  8
0
 10
25.8342
 20
131.1981
  0
VERTEX
  8
0
 10
25.861
 20
131.25
  0
VERTEX
  8
0
 10
25.8882
 20
131.2996
  0
VERTEX
  8
0
 10
25.9137
 20
131.3391
  0
VERTEX
  8
0
 10
25.9137
 20
131.3391
  0
VERTEX
  8
0
 10
25.9352
 20
131.366
  0
VERTEX
  8
0
 10
25.9535
 20
131.386
  0
VERTEX
  8
0
 10
25.971
 20
131.4032
  0
VERTEX
  8
0
 10
25.9901
 20
131.4216
  0
VERTEX
  8
0
 10
26.013
 20
131.4455
  0
VERTEX
  8
0
 10
26.013
 20
131.4455
  0
VERTEX
  8
0
 10
26.0316
 20
131.4671
  0
VERTEX
  8
0
 10
26.0508
 20
131.4914
  0
VERTEX
  8
0
 10
26.0705
 20
131.5179
  0
VERTEX
  8
0
 10
26.0906
 20
131.5459
  0
VERTEX
  8
0
 10
26.1111
 20
131.5748
  0
VERTEX
  8
0
 10
26.1318
 20
131.604
  0
VERTEX
  8
0
 10
26.1528
 20
131.6329
  0
VERTEX
  8
0
 10
26.1528
 20
131.6329
  0
VERTEX
  8
0
 10
26.1747
 20
131.6617
  0
VERTEX
  8
0
 10
26.1983
 20
131.691
  0
VERTEX
  8
0
 10
26.223
 20
131.7203
  0
VERTEX
  8
0
 10
26.2484
 20
131.7493
  0
VERTEX
  8
0
 10
26.2742
 20
131.7777
  0
VERTEX
  8
0
 10
26.2998
 20
131.805
  0
VERTEX
  8
0
 10
26.3248
 20
131.8309
  0
VERTEX
  8
0
 10
26.3248
 20
131.8309
  0
VERTEX
  8
0
 10
26.3412
 20
131.8475
  0
VERTEX
  8
0
 10
26.3561
 20
131.8624
  0
VERTEX
  8
0
 10
26.3701
 20
131.8763
  0
VERTEX
  8
0
 10
26.3837
 20
131.8898
  0
VERTEX
  8
0
 10
26.3976
 20
131.9032
  0
VERTEX
  8
0
 10
26.4123
 20
131.9174
  0
VERTEX
  8
0
 10
26.4282
 20
131.9327
  0
VERTEX
  8
0
 10
26.4461
 20
131.9497
  0
VERTEX
  8
0
 10
26.4664
 20
131.969
  0
VERTEX
  8
0
 10
26.4897
 20
131.9912
  0
VERTEX
  8
0
 10
26.4897
 20
131.9912
  0
VERTEX
  8
0
 10
26.5185
 20
132.0183
  0
VERTEX
  8
0
 10
26.554
 20
132.051
  0
VERTEX
  8
0
 10
26.5945
 20
132.0878
  0
VERTEX
  8
0
 10
26.6385
 20
132.1272
  0
VERTEX
  8
0
 10
26.6844
 20
132.1676
  0
VERTEX
  8
0
 10
26.7306
 20
132.2075
  0
VERTEX
  8
0
 10
26.7755
 20
132.2455
  0
VERTEX
  8
0
 10
26.8175
 20
132.28
  0
VERTEX
  8
0
 10
26.8551
 20
132.3094
  0
VERTEX
  8
0
 10
26.8866
 20
132.3323
  0
VERTEX
  8
0
 10
26.8866
 20
132.3323
  0
VERTEX
  8
0
 10
26.9127
 20
132.3499
  0
VERTEX
  8
0
 10
26.9355
 20
132.365
  0
VERTEX
  8
0
 10
26.9556
 20
132.378
  0
VERTEX
  8
0
 10
26.9737
 20
132.3894
  0
VERTEX
  8
0
 10
26.9904
 20
132.3998
  0
VERTEX
  8
0
 10
27.0064
 20
132.4097
  0
VERTEX
  8
0
 10
27.0224
 20
132.4195
  0
VERTEX
  8
0
 10
27.039
 20
132.4299
  0
VERTEX
  8
0
 10
27.0569
 20
132.4414
  0
VERTEX
  8
0
 10
27.0766
 20
132.4544
  0
VERTEX
  8
0
 10
27.0766
 20
132.4544
  0
VERTEX
  8
0
 10
27.1074
 20
132.4753
  0
VERTEX
  8
0
 10
27.1395
 20
132.4978
  0
VERTEX
  8
0
 10
27.1725
 20
132.5213
  0
VERTEX
  8
0
 10
27.2059
 20
132.5452
  0
VERTEX
  8
0
 10
27.2394
 20
132.5688
  0
VERTEX
  8
0
 10
27.2725
 20
132.5916
  0
VERTEX
  8
0
 10
27.3047
 20
132.6129
  0
VERTEX
  8
0
 10
27.3047
 20
132.6129
  0
VERTEX
  8
0
 10
27.336
 20
132.6327
  0
VERTEX
  8
0
 10
27.3669
 20
132.6513
  0
VERTEX
  8
0
 10
27.3976
 20
132.6691
  0
VERTEX
  8
0
 10
27.4282
 20
132.6862
  0
VERTEX
  8
0
 10
27.4587
 20
132.7029
  0
VERTEX
  8
0
 10
27.4895
 20
132.7195
  0
VERTEX
  8
0
 10
27.5206
 20
132.7362
  0
VERTEX
  8
0
 10
27.5206
 20
132.7362
  0
VERTEX
  8
0
 10
27.569
 20
132.7626
  0
VERTEX
  8
0
 10
27.6434
 20
132.8039
  0
VERTEX
  8
0
 10
27.7316
 20
132.8531
  0
VERTEX
  8
0
 10
27.8215
 20
132.9033
  0
VERTEX
  8
0
 10
27.9007
 20
132.9477
  0
VERTEX
  8
0
 10
27.9572
 20
132.9794
  0
VERTEX
  8
0
 10
27.9788
 20
132.9915
  0
VERTEX
  8
0
 10
27.9788
 20
132.9915
  0
VERTEX
  8
0
 10
27.9794
 20
132.9671
  0
VERTEX
  8
0
 10
27.9794
 20
132.9671
  0
VERTEX
  8
0
 10
28.0067
 20
133.1203
  0
VERTEX
  8
0
 10
28.0705
 20
133.4569
  0
VERTEX
  8
0
 10
28.1441
 20
133.7923
  0
VERTEX
  8
0
 10
28.2006
 20
133.9418
  0
VERTEX
  8
0
 10
28.2006
 20
133.9418
  0
VERTEX
  8
0
 10
28.4715
 20
133.9376
  0
VERTEX
  8
0
 10
29.0169
 20
133.9345
  0
VERTEX
  8
0
 10
29.5524
 20
133.9327
  0
VERTEX
  8
0
 10
29.7941
 20
133.9321
  0
SEQEND
  0
TEXT
  8
0
 10
20.27
 20
108.5
 40
3
  1
D
  7
HIGHWAYC2K
  0
TEXT
  8
0
 10
22.55
 20
108.5
 40
3
  1
U
  7
HIGHWAYC2K
  0
TEXT
  8
0
 10
24.65
 20
108.5
 40
3
  1
V
  7
HIGHWAYC2K
  0
TEXT
  8
0
 10
26.69
 20
108.5
 40
3
  1
A
  7
HIGHWAYC2K
  0
TEXT
  8
0
 10
29.03
 20
108.5
 40
3
  1
L
  7
HIGHWAYC2K
  0
TEXT
  8
0
 10
30.56
 20
108.5
 40
3
  1
 
  7
HIGHWAYC2K
  0
TEXT
  8
0
 10
33.56
 20
108.5
 40
3
  1
S
  7
HIGHWAYC2K
  0
TEXT
  8
0
 10
35.51
 20
108.5
 40
3
  1
T
  7
HIGHWAYC2K
  0
TEXT
  8
0
 10
37.25
 20
108.5
 40
3
  1
.
  7
HIGHWAYC2K
  0
ENDSEC
  0
EOF