  0
SECTION
  2
HEADER
  9
$ACADVER
  1
AC1009
  0
ENDSEC
  0
SECTION
  2
TABLES
  0
TABLE
  2
STYLE
 70
   3
  0
STYLE
  2
STANDARD
 70
    64
 40
0.0
 41
1.0
 50
0.0
 71
     0
 42
1.0
  3
txt
  4

  0
STYLE
  2
HIGHWAYEMODPLUS
 70
    64
 40
0.0
 41
1.0
 50
0.0
 71
     0
 42
1.0
  3
Highway E Mod Plus
  4

  0
STYLE
  2
HIGHWAYSIGNCADPLUS
 70
    64
 40
0.0
 41
1.0
 50
0.0
 71
     0
 42
1.0
  3
Highway SignCAD Plus
  4

  0
ENDTAB
  0
ENDSEC
  0
SECTION
  2
ENTITIES
  0
ARC
  8
0
 10
29.8315
 20
42.25
 40
1.5
 50
0
 51
90
  0
LINE
  8
0
 10
29.8315
 20
43.75
 11
2.8315
 21
43.75
  0
ARC
  8
0
 10
2.8315
 20
42.25
 40
1.5
 50
90
 51
180
  0
LINE
  8
0
 10
1.3315
 20
42.25
 11
1.3315
 21
15.25
  0
ARC
  8
0
 10
2.8315
 20
15.25
 40
1.5
 50
180
 51
270
  0
LINE
  8
0
 10
2.8315
 20
13.75
 11
29.8315
 21
13.75
  0
ARC
  8
0
 10
29.8315
 20
15.25
 40
1.5
 50
270
 51
360
  0
LINE
  8
0
 10
31.3315
 20
15.25
 11
31.3315
 21
42.25
  0
ARC
  8
0
 10
29.8315
 20
42.25
 40
1.5
 50
0
 51
90
  0
ARC
  8
0
 10
29.8315
 20
42.25
 40
1
 50
0
 51
90
  0
ARC
  8
0
 10
2.8315
 20
42.25
 40
1.5
 50
90
 51
180
  0
ARC
  8
0
 10
2.8315
 20
42.25
 40
1
 50
90
 51
180
  0
ARC
  8
0
 10
2.8315
 20
15.25
 40
1.5
 50
180
 51
270
  0
ARC
  8
0
 10
2.8315
 20
15.25
 40
1
 50
180
 51
270
  0
ARC
  8
0
 10
29.8315
 20
15.25
 40
1.5
 50
270
 51
360
  0
ARC
  8
0
 10
29.8315
 20
15.25
 40
1
 50
270
 51
360
  0
POLYLINE
  8
0
 66
     1
 10
0
 20
0
  0
VERTEX
  8
0
 10
29.8315
 20
43.75
  0
VERTEX
  8
0
 10
2.8315
 20
43.75
  0
SEQEND
  0
POLYLINE
  8
0
 66
     1
 10
0
 20
0
  0
VERTEX
  8
0
 10
2.8315
 20
43.25
  0
VERTEX
  8
0
 10
29.8315
 20
43.25
  0
SEQEND
  0
POLYLINE
  8
0
 66
     1
 10
0
 20
0
  0
VERTEX
  8
0
 10
1.3315
 20
42.25
  0
VERTEX
  8
0
 10
1.3315
 20
15.25
  0
SEQEND
  0
POLYLINE
  8
0
 66
     1
 10
0
 20
0
  0
VERTEX
  8
0
 10
1.8315
 20
15.25
  0
VERTEX
  8
0
 10
1.8315
 20
42.25
  0
SEQEND
  0
POLYLINE
  8
0
 66
     1
 10
0
 20
0
  0
VERTEX
  8
0
 10
2.8315
 20
13.75
  0
VERTEX
  8
0
 10
29.8315
 20
13.75
  0
SEQEND
  0
POLYLINE
  8
0
 66
     1
 10
0
 20
0
  0
VERTEX
  8
0
 10
29.8315
 20
14.25
  0
VERTEX
  8
0
 10
2.8315
 20
14.25
  0
SEQEND
  0
POLYLINE
  8
0
 66
     1
 10
0
 20
0
  0
VERTEX
  8
0
 10
31.3315
 20
15.25
  0
VERTEX
  8
0
 10
31.3315
 20
42.25
  0
SEQEND
  0
POLYLINE
  8
0
 66
     1
 10
0
 20
0
  0
VERTEX
  8
0
 10
30.8315
 20
42.25
  0
VERTEX
  8
0
 10
30.8315
 20
15.25
  0
SEQEND
  0
TEXT
  8
0
 10
36.0815
 20
41.5746
 40
2
  1
3
 50
90
  7
HIGHWAYSIGNCADPLUS
 72
1
 11
36.0815
 21
42.25
  0
LINE
  8
0
 10
35.5815
 20
43.75
 11
32.5815
 21
43.75
  0
LINE
  8
0
 10
35.5815
 20
40.75
 11
32.5815
 21
40.75
  0
TEXT
  8
0
 10
36.0815
 20
27.2526
 40
2
  1
24
 50
90
  7
HIGHWAYSIGNCADPLUS
 72
1
 11
36.0815
 21
28.75
  0
LINE
  8
0
 10
35.0815
 20
30.7474
 11
35.0815
 21
40.75
  0
LINE
  8
0
 10
35.5287
 20
39.8556
 11
35.0815
 21
40.75
  0
LINE
  8
0
 10
34.6343
 20
39.8556
 11
35.0815
 21
40.75
  0
LINE
  8
0
 10
35.0815
 20
26.7526
 11
35.0815
 21
16.75
  0
LINE
  8
0
 10
34.6343
 20
17.6444
 11
35.0815
 21
16.75
  0
LINE
  8
0
 10
35.5287
 20
17.6444
 11
35.0815
 21
16.75
  0
LINE
  8
0
 10
35.5815
 20
16.75
 11
32.5815
 21
16.75
  0
TEXT
  8
0
 10
0
 20
6.5
 40
2
  1
2.72
  7
HIGHWAYSIGNCADPLUS
 72
1
 11
2.6911
 21
6.5
  0
LINE
  8
0
 10
4.0507
 20
9.5
 11
4.0507
 21
12.5
  0
LINE
  8
0
 10
1.3315
 20
9.5
 11
1.3315
 21
12.5
  0
TEXT
  8
0
 10
12.8132
 20
9
 40
2
  1
24.56
  7
HIGHWAYSIGNCADPLUS
 72
1
 11
16.3315
 21
9
  0
LINE
  8
0
 10
20.3498
 20
10
 11
28.6124
 21
10
  0
LINE
  8
0
 10
27.7179
 20
9.5528
 11
28.6124
 21
10
  0
LINE
  8
0
 10
27.7179
 20
10.4472
 11
28.6124
 21
10
  0
LINE
  8
0
 10
28.6124
 20
9.5
 11
28.6124
 21
12.5
  0
LINE
  8
0
 10
12.3132
 20
10
 11
4.0507
 21
10
  0
LINE
  8
0
 10
4.9451
 20
10.4472
 11
4.0507
 21
10
  0
LINE
  8
0
 10
4.9451
 20
9.5528
 11
4.0507
 21
10
  0
TEXT
  8
0
 10
27.2809
 20
6.5
 40
2
  1
2.72
  7
HIGHWAYSIGNCADPLUS
 72
1
 11
29.972
 21
6.5
  0
LINE
  8
0
 10
31.3315
 20
9.5
 11
31.3315
 21
12.5
  0
LINE
  8
0
 10
28.6124
 20
9.5
 11
28.6124
 21
12.5
  0
TEXT
  8
0
 10
36.0815
 20
14.5746
 40
2
  1
3
 50
90
  7
HIGHWAYSIGNCADPLUS
 72
1
 11
36.0815
 21
15.25
  0
LINE
  8
0
 10
35.5815
 20
16.75
 11
32.5815
 21
16.75
  0
LINE
  8
0
 10
35.5815
 20
13.75
 11
32.5815
 21
13.75
  0
TEXT
  8
0
 10
41.0815
 20
27.2736
 40
2
  1
30
 50
90
  7
HIGHWAYSIGNCADPLUS
 72
1
 11
41.0815
 21
28.75
  0
LINE
  8
0
 10
40.0815
 20
30.7264
 11
40.0815
 21
43.75
  0
LINE
  8
0
 10
40.5287
 20
42.8556
 11
40.0815
 21
43.75
  0
LINE
  8
0
 10
39.6343
 20
42.8556
 11
40.0815
 21
43.75
  0
LINE
  8
0
 10
40.5815
 20
43.75
 11
31.8315
 21
43.75
  0
LINE
  8
0
 10
40.0815
 20
26.7736
 11
40.0815
 21
13.75
  0
LINE
  8
0
 10
39.6343
 20
14.6444
 11
40.0815
 21
13.75
  0
LINE
  8
0
 10
40.5287
 20
14.6444
 11
40.0815
 21
13.75
  0
LINE
  8
0
 10
40.5815
 20
13.75
 11
31.8315
 21
13.75
  0
TEXT
  8
0
 10
14.8551
 20
4
 40
2
  1
30
  7
HIGHWAYSIGNCADPLUS
 72
1
 11
16.3315
 21
4
  0
LINE
  8
0
 10
18.308
 20
5
 11
31.3315
 21
5
  0
LINE
  8
0
 10
30.4371
 20
4.5528
 11
31.3315
 21
5
  0
LINE
  8
0
 10
30.4371
 20
5.4472
 11
31.3315
 21
5
  0
LINE
  8
0
 10
31.3315
 20
4.5
 11
31.3315
 21
13.25
  0
LINE
  8
0
 10
14.3551
 20
5
 11
1.3315
 21
5
  0
LINE
  8
0
 10
2.226
 20
5.4472
 11
1.3315
 21
5
  0
LINE
  8
0
 10
2.226
 20
4.5528
 11
1.3315
 21
5
  0
LINE
  8
0
 10
1.3315
 20
4.5
 11
1.3315
 21
13.25
  0
TEXT
  8
0
 10
1.3315
 20
1
 40
2
  1
1.50" Radius, 0.50" Border, White on Green; 
  7
HIGHWAYSIGNCADPLUS
 73
1
 11
1.3315
 21
-0
  0
POLYLINE
  8
0
 66
     1
 10
0
 20
0
  0
VERTEX
  8
0
 10
20.6975
 20
36.6266
  0
VERTEX
  8
0
 10
20.7741
 20
36.2564
  0
VERTEX
  8
0
 10
20.8507
 20
35.8862
  0
VERTEX
  8
0
 10
20.9145
 20
35.5287
  0
VERTEX
  8
0
 10
20.9656
 20
35.1585
  0
VERTEX
  8
0
 10
21.0039
 20
34.8011
  0
VERTEX
  8
0
 10
21.0294
 20
34.4436
  0
VERTEX
  8
0
 10
21.0294
 20
34.0734
  0
VERTEX
  8
0
 10
21.0166
 20
33.7032
  0
VERTEX
  8
0
 10
20.9656
 20
33.333
  0
VERTEX
  8
0
 10
20.9017
 20
32.9628
  0
VERTEX
  8
0
 10
21.4124
 20
33.4479
  0
VERTEX
  8
0
 10
21.923
 20
33.9074
  0
VERTEX
  8
0
 10
22.4592
 20
34.316
  0
VERTEX
  8
0
 10
22.9954
 20
34.6734
  0
VERTEX
  8
0
 10
23.5571
 20
34.9798
  0
VERTEX
  8
0
 10
24.1443
 20
35.2351
  0
VERTEX
  8
0
 10
24.7571
 20
35.4266
  0
VERTEX
  8
0
 10
25.3954
 20
35.5543
  0
VERTEX
  8
0
 10
26.0847
 20
35.5926
  0
VERTEX
  8
0
 10
26.8251
 20
35.567
  0
VERTEX
  8
0
 10
27.0932
 20
35.5032
  0
VERTEX
  8
0
 10
27.3485
 20
35.4011
  0
VERTEX
  8
0
 10
27.5783
 20
35.2606
  0
VERTEX
  8
0
 10
27.7826
 20
35.0819
  0
VERTEX
  8
0
 10
27.9613
 20
34.8777
  0
VERTEX
  8
0
 10
28.1273
 20
34.6606
  0
VERTEX
  8
0
 10
28.2677
 20
34.4309
  0
VERTEX
  8
0
 10
28.3826
 20
34.2011
  0
VERTEX
  8
0
 10
28.4847
 20
33.9585
  0
VERTEX
  8
0
 10
28.5613
 20
33.7287
  0
VERTEX
  8
0
 10
28.5868
 20
33.4479
  0
VERTEX
  8
0
 10
28.5996
 20
33.167
  0
VERTEX
  8
0
 10
28.6124
 20
32.8734
  0
VERTEX
  8
0
 10
28.5996
 20
32.5798
  0
VERTEX
  8
0
 10
28.5741
 20
32.2989
  0
VERTEX
  8
0
 10
28.5358
 20
32.0053
  0
VERTEX
  8
0
 10
28.4592
 20
31.7372
  0
VERTEX
  8
0
 10
28.3571
 20
31.4691
  0
VERTEX
  8
0
 10
28.2294
 20
31.2011
  0
VERTEX
  8
0
 10
28.0507
 20
30.9713
  0
VERTEX
  8
0
 10
28.1145
 20
30.5117
  0
VERTEX
  8
0
 10
28.1273
 20
30.0394
  0
VERTEX
  8
0
 10
28.089
 20
29.567
  0
VERTEX
  8
0
 10
28.0124
 20
29.0947
  0
VERTEX
  8
0
 10
27.8975
 20
28.6351
  0
VERTEX
  8
0
 10
27.7188
 20
28.2011
  0
VERTEX
  8
0
 10
27.5017
 20
27.7798
  0
VERTEX
  8
0
 10
27.2464
 20
27.3968
  0
VERTEX
  8
0
 10
26.9273
 20
27.0521
  0
VERTEX
  8
0
 10
26.5698
 20
26.7585
  0
VERTEX
  8
0
 10
26.4422
 20
26.7585
  0
VERTEX
  8
0
 10
26.7358
 20
27.0394
  0
VERTEX
  8
0
 10
26.9783
 20
27.3713
  0
VERTEX
  8
0
 10
27.1954
 20
27.716
  0
VERTEX
  8
0
 10
27.3741
 20
28.0989
  0
VERTEX
  8
0
 10
27.5017
 20
28.4819
  0
VERTEX
  8
0
 10
27.6039
 20
28.8904
  0
VERTEX
  8
0
 10
27.6549
 20
29.2989
  0
VERTEX
  8
0
 10
27.6677
 20
29.7074
  0
VERTEX
  8
0
 10
27.6422
 20
30.1032
  0
VERTEX
  8
0
 10
27.5911
 20
30.4989
  0
VERTEX
  8
0
 10
27.3741
 20
30.2819
  0
VERTEX
  8
0
 10
27.1571
 20
30.0904
  0
VERTEX
  8
0
 10
26.9273
 20
29.9117
  0
VERTEX
  8
0
 10
26.6975
 20
29.7457
  0
VERTEX
  8
0
 10
26.4422
 20
29.6053
  0
VERTEX
  8
0
 10
26.1868
 20
29.4904
  0
VERTEX
  8
0
 10
25.906
 20
29.4138
  0
VERTEX
  8
0
 10
25.6251
 20
29.3628
  0
VERTEX
  8
0
 10
25.3315
 20
29.35
  0
VERTEX
  8
0
 10
25.0379
 20
29.3883
  0
VERTEX
  8
0
 10
24.8209
 20
29.4394
  0
VERTEX
  8
0
 10
24.6039
 20
29.516
  0
VERTEX
  8
0
 10
24.4124
 20
29.6053
  0
VERTEX
  8
0
 10
24.2464
 20
29.7202
  0
VERTEX
  8
0
 10
24.0805
 20
29.8479
  0
VERTEX
  8
0
 10
23.94
 20
30.0011
  0
VERTEX
  8
0
 10
23.8124
 20
30.167
  0
VERTEX
  8
0
 10
23.6975
 20
30.3457
  0
VERTEX
  8
0
 10
23.6081
 20
30.5372
  0
VERTEX
  8
0
 10
23.5443
 20
30.7543
  0
VERTEX
  8
0
 10
23.5698
 20
30.9968
  0
VERTEX
  8
0
 10
23.6209
 20
31.2394
  0
VERTEX
  8
0
 10
23.6847
 20
31.4691
  0
VERTEX
  8
0
 10
23.7741
 20
31.6989
  0
VERTEX
  8
0
 10
23.8762
 20
31.916
  0
VERTEX
  8
0
 10
24.0039
 20
32.1202
  0
VERTEX
  8
0
 10
24.1571
 20
32.3117
  0
VERTEX
  8
0
 10
24.323
 20
32.4777
  0
VERTEX
  8
0
 10
24.5145
 20
32.6309
  0
VERTEX
  8
0
 10
24.7315
 20
32.7585
  0
VERTEX
  8
0
 10
24.9741
 20
32.7968
  0
VERTEX
  8
0
 10
25.2166
 20
32.8479
  0
VERTEX
  8
0
 10
25.4592
 20
32.8734
  0
VERTEX
  8
0
 10
25.7145
 20
32.8862
  0
VERTEX
  8
0
 10
25.9698
 20
32.8862
  0
VERTEX
  8
0
 10
26.2251
 20
32.8606
  0
VERTEX
  8
0
 10
26.4805
 20
32.8223
  0
VERTEX
  8
0
 10
26.723
 20
32.7457
  0
VERTEX
  8
0
 10
26.9528
 20
32.6309
  0
VERTEX
  8
0
 10
27.1571
 20
32.5032
  0
VERTEX
  8
0
 10
27.2209
 20
32.4138
  0
VERTEX
  8
0
 10
27.2847
 20
32.3372
  0
VERTEX
  8
0
 10
27.3613
 20
32.2606
  0
VERTEX
  8
0
 10
27.4379
 20
32.184
  0
VERTEX
  8
0
 10
27.5017
 20
32.0947
  0
VERTEX
  8
0
 10
27.5656
 20
32.0181
  0
VERTEX
  8
0
 10
27.6294
 20
31.9287
  0
VERTEX
  8
0
 10
27.6677
 20
31.8394
  0
VERTEX
  8
0
 10
27.706
 20
31.75
  0
VERTEX
  8
0
 10
27.7188
 20
31.6479
  0
VERTEX
  8
0
 10
27.8081
 20
31.6606
  0
VERTEX
  8
0
 10
27.8847
 20
31.6862
  0
VERTEX
  8
0
 10
27.9358
 20
31.7372
  0
VERTEX
  8
0
 10
27.9868
 20
31.8011
  0
VERTEX
  8
0
 10
28.0124
 20
31.8777
  0
VERTEX
  8
0
 10
28.0379
 20
31.967
  0
VERTEX
  8
0
 10
28.0634
 20
32.0564
  0
VERTEX
  8
0
 10
28.0762
 20
32.1585
  0
VERTEX
  8
0
 10
28.089
 20
32.2479
  0
VERTEX
  8
0
 10
28.1017
 20
32.3245
  0
VERTEX
  8
0
 10
28.1273
 20
32.516
  0
VERTEX
  8
0
 10
28.14
 20
32.7202
  0
VERTEX
  8
0
 10
28.14
 20
32.9117
  0
VERTEX
  8
0
 10
28.1273
 20
33.116
  0
VERTEX
  8
0
 10
28.1145
 20
33.3074
  0
VERTEX
  8
0
 10
28.0762
 20
33.4862
  0
VERTEX
  8
0
 10
28.0379
 20
33.6777
  0
VERTEX
  8
0
 10
27.9868
 20
33.8564
  0
VERTEX
  8
0
 10
27.923
 20
34.0351
  0
VERTEX
  8
0
 10
27.8464
 20
34.2011
  0
VERTEX
  8
0
 10
27.6422
 20
34.4436
  0
VERTEX
  8
0
 10
27.4124
 20
34.6606
  0
VERTEX
  8
0
 10
27.1826
 20
34.8266
  0
VERTEX
  8
0
 10
26.9273
 20
34.967
  0
VERTEX
  8
0
 10
26.6592
 20
35.0691
  0
VERTEX
  8
0
 10
26.3911
 20
35.1457
  0
VERTEX
  8
0
 10
26.0975
 20
35.184
  0
VERTEX
  8
0
 10
25.8039
 20
35.1968
  0
VERTEX
  8
0
 10
25.5102
 20
35.184
  0
VERTEX
  8
0
 10
25.2039
 20
35.133
  0
VERTEX
  8
0
 10
24.706
 20
34.9543
  0
VERTEX
  8
0
 10
24.2209
 20
34.75
  0
VERTEX
  8
0
 10
23.7741
 20
34.4947
  0
VERTEX
  8
0
 10
23.3273
 20
34.2266
  0
VERTEX
  8
0
 10
22.8932
 20
33.9202
  0
VERTEX
  8
0
 10
22.4847
 20
33.5883
  0
VERTEX
  8
0
 10
22.089
 20
33.2309
  0
VERTEX
  8
0
 10
21.706
 20
32.8479
  0
VERTEX
  8
0
 10
21.3485
 20
32.4521
  0
VERTEX
  8
0
 10
20.9911
 20
32.0309
  0
VERTEX
  8
0
 10
20.9273
 20
31.8521
  0
VERTEX
  8
0
 10
20.9017
 20
31.6734
  0
VERTEX
  8
0
 10
20.9017
 20
31.4947
  0
VERTEX
  8
0
 10
20.9273
 20
31.316
  0
VERTEX
  8
0
 10
20.9528
 20
31.15
  0
VERTEX
  8
0
 10
21.0039
 20
30.9713
  0
VERTEX
  8
0
 10
21.0422
 20
30.8053
  0
VERTEX
  8
0
 10
21.0932
 20
30.6394
  0
VERTEX
  8
0
 10
21.1315
 20
30.4862
  0
VERTEX
  8
0
 10
21.1571
 20
30.333
  0
VERTEX
  8
0
 10
21.0166
 20
30.333
  0
VERTEX
  8
0
 10
20.8762
 20
30.3457
  0
VERTEX
  8
0
 10
20.7358
 20
30.3713
  0
VERTEX
  8
0
 10
20.5826
 20
30.3968
  0
VERTEX
  8
0
 10
20.4294
 20
30.4223
  0
VERTEX
  8
0
 10
20.2762
 20
30.4479
  0
VERTEX
  8
0
 10
20.123
 20
30.4606
  0
VERTEX
  8
0
 10
19.9698
 20
30.4479
  0
VERTEX
  8
0
 10
19.8166
 20
30.4223
  0
VERTEX
  8
0
 10
19.6762
 20
30.3713
  0
VERTEX
  8
0
 10
19.6762
 20
30.5117
  0
VERTEX
  8
0
 10
19.6762
 20
30.6649
  0
VERTEX
  8
0
 10
19.6762
 20
30.8181
  0
VERTEX
  8
0
 10
19.6762
 20
30.9713
  0
VERTEX
  8
0
 10
19.6762
 20
31.1245
  0
VERTEX
  8
0
 10
19.6634
 20
31.2649
  0
VERTEX
  8
0
 10
19.6379
 20
31.4181
  0
VERTEX
  8
0
 10
19.6124
 20
31.5713
  0
VERTEX
  8
0
 10
19.5613
 20
31.7117
  0
VERTEX
  8
0
 10
19.4975
 20
31.8649
  0
VERTEX
  8
0
 10
19.7783
 20
32.0181
  0
VERTEX
  8
0
 10
20.0081
 20
32.2096
  0
VERTEX
  8
0
 10
20.1741
 20
32.4266
  0
VERTEX
  8
0
 10
20.3145
 20
32.6691
  0
VERTEX
  8
0
 10
20.4166
 20
32.9372
  0
VERTEX
  8
0
 10
20.4805
 20
33.2053
  0
VERTEX
  8
0
 10
20.5315
 20
33.4989
  0
VERTEX
  8
0
 10
20.5826
 20
33.7926
  0
VERTEX
  8
0
 10
20.6081
 20
34.0862
  0
VERTEX
  8
0
 10
20.6464
 20
34.367
  0
VERTEX
  8
0
 10
20.5826
 20
34.916
  0
VERTEX
  8
0
 10
20.4677
 20
35.4394
  0
VERTEX
  8
0
 10
20.3145
 20
35.9628
  0
VERTEX
  8
0
 10
20.0975
 20
36.4734
  0
VERTEX
  8
0
 10
19.8422
 20
36.9457
  0
VERTEX
  8
0
 10
19.5485
 20
37.4053
  0
VERTEX
  8
0
 10
19.2039
 20
37.8266
  0
VERTEX
  8
0
 10
18.8337
 20
38.2096
  0
VERTEX
  8
0
 10
18.4124
 20
38.5415
  0
VERTEX
  8
0
 10
17.9656
 20
38.8351
  0
VERTEX
  8
0
 10
17.723
 20
38.9883
  0
VERTEX
  8
0
 10
17.4677
 20
39.0904
  0
VERTEX
  8
0
 10
17.1868
 20
39.167
  0
VERTEX
  8
0
 10
16.906
 20
39.1926
  0
VERTEX
  8
0
 10
16.6124
 20
39.1926
  0
VERTEX
  8
0
 10
16.3315
 20
39.167
  0
VERTEX
  8
0
 10
16.0379
 20
39.116
  0
VERTEX
  8
0
 10
15.7571
 20
39.0394
  0
VERTEX
  8
0
 10
15.489
 20
38.95
  0
VERTEX
  8
0
 10
15.2464
 20
38.8351
  0
VERTEX
  8
0
 10
15.1315
 20
38.733
  0
VERTEX
  8
0
 10
15.0039
 20
38.6309
  0
VERTEX
  8
0
 10
14.889
 20
38.5287
  0
VERTEX
  8
0
 10
14.7741
 20
38.4266
  0
VERTEX
  8
0
 10
14.6592
 20
38.3245
  0
VERTEX
  8
0
 10
14.5571
 20
38.2096
  0
VERTEX
  8
0
 10
14.4677
 20
38.0947
  0
VERTEX
  8
0
 10
14.3783
 20
37.967
  0
VERTEX
  8
0
 10
14.3145
 20
37.8266
  0
VERTEX
  8
0
 10
14.2634
 20
37.6862
  0
VERTEX
  8
0
 10
14.2507
 20
37.4181
  0
VERTEX
  8
0
 10
14.2634
 20
37.1628
  0
VERTEX
  8
0
 10
14.3145
 20
36.9202
  0
VERTEX
  8
0
 10
14.4039
 20
36.6904
  0
VERTEX
  8
0
 10
14.5188
 20
36.4734
  0
VERTEX
  8
0
 10
14.6592
 20
36.2691
  0
VERTEX
  8
0
 10
14.8124
 20
36.0777
  0
VERTEX
  8
0
 10
14.9911
 20
35.8862
  0
VERTEX
  8
0
 10
15.1698
 20
35.7202
  0
VERTEX
  8
0
 10
15.3741
 20
35.567
  0
VERTEX
  8
0
 10
15.4124
 20
35.5415
  0
VERTEX
  8
0
 10
15.4762
 20
35.5287
  0
VERTEX
  8
0
 10
15.5273
 20
35.516
  0
VERTEX
  8
0
 10
15.6039
 20
35.516
  0
VERTEX
  8
0
 10
15.6677
 20
35.516
  0
VERTEX
  8
0
 10
15.7443
 20
35.516
  0
VERTEX
  8
0
 10
15.8209
 20
35.516
  0
VERTEX
  8
0
 10
15.8847
 20
35.516
  0
VERTEX
  8
0
 10
15.9485
 20
35.5032
  0
VERTEX
  8
0
 10
16.0124
 20
35.4777
  0
VERTEX
  8
0
 10
15.9358
 20
35.4266
  0
VERTEX
  8
0
 10
15.8464
 20
35.3883
  0
VERTEX
  8
0
 10
15.7571
 20
35.3628
  0
VERTEX
  8
0
 10
15.6549
 20
35.3372
  0
VERTEX
  8
0
 10
15.5528
 20
35.3117
  0
VERTEX
  8
0
 10
15.4507
 20
35.3117
  0
VERTEX
  8
0
 10
15.3485
 20
35.3117
  0
VERTEX
  8
0
 10
15.2337
 20
35.3117
  0
VERTEX
  8
0
 10
15.1315
 20
35.3245
  0
VERTEX
  8
0
 10
15.0294
 20
35.35
  0
VERTEX
  8
0
 10
14.7996
 20
35.4521
  0
VERTEX
  8
0
 10
14.5826
 20
35.5926
  0
VERTEX
  8
0
 10
14.3783
 20
35.7457
  0
VERTEX
  8
0
 10
14.1996
 20
35.9245
  0
VERTEX
  8
0
 10
14.0464
 20
36.116
  0
VERTEX
  8
0
 10
13.9188
 20
36.333
  0
VERTEX
  8
0
 10
13.8039
 20
36.55
  0
VERTEX
  8
0
 10
13.7273
 20
36.7926
  0
VERTEX
  8
0
 10
13.689
 20
37.0479
  0
VERTEX
  8
0
 10
13.6762
 20
37.3032
  0
VERTEX
  8
0
 10
13.6762
 20
37.4436
  0
VERTEX
  8
0
 10
13.6762
 20
37.5968
  0
VERTEX
  8
0
 10
13.7017
 20
37.7372
  0
VERTEX
  8
0
 10
13.74
 20
37.8904
  0
VERTEX
  8
0
 10
13.7783
 20
38.0436
  0
VERTEX
  8
0
 10
13.8422
 20
38.1968
  0
VERTEX
  8
0
 10
13.906
 20
38.35
  0
VERTEX
  8
0
 10
13.9826
 20
38.4904
  0
VERTEX
  8
0
 10
14.072
 20
38.6309
  0
VERTEX
  8
0
 10
14.1868
 20
38.7585
  0
VERTEX
  8
0
 10
14.3783
 20
38.9117
  0
VERTEX
  8
0
 10
14.5826
 20
39.0521
  0
VERTEX
  8
0
 10
14.7868
 20
39.1798
  0
VERTEX
  8
0
 10
15.0166
 20
39.2947
  0
VERTEX
  8
0
 10
15.2337
 20
39.3968
  0
VERTEX
  8
0
 10
15.4634
 20
39.4734
  0
VERTEX
  8
0
 10
15.6932
 20
39.5372
  0
VERTEX
  8
0
 10
15.9358
 20
39.5755
  0
VERTEX
  8
0
 10
16.1656
 20
39.6011
  0
VERTEX
  8
0
 10
16.3954
 20
39.6011
  0
VERTEX
  8
0
 10
16.4847
 20
39.6904
  0
VERTEX
  8
0
 10
15.9868
 20
39.9457
  0
VERTEX
  8
0
 10
15.4634
 20
40.0989
  0
VERTEX
  8
0
 10
14.9273
 20
40.1628
  0
VERTEX
  8
0
 10
14.3656
 20
40.15
  0
VERTEX
  8
0
 10
13.8166
 20
40.0479
  0
VERTEX
  8
0
 10
13.2805
 20
39.8819
  0
VERTEX
  8
0
 10
12.7571
 20
39.6521
  0
VERTEX
  8
0
 10
12.272
 20
39.3713
  0
VERTEX
  8
0
 10
11.8251
 20
39.0394
  0
VERTEX
  8
0
 10
11.4166
 20
38.6691
  0
VERTEX
  8
0
 10
11.123
 20
38.2479
  0
VERTEX
  8
0
 10
10.8677
 20
37.8138
  0
VERTEX
  8
0
 10
10.6379
 20
37.3543
  0
VERTEX
  8
0
 10
10.4209
 20
36.9074
  0
VERTEX
  8
0
 10
10.2166
 20
36.4479
  0
VERTEX
  8
0
 10
10.0124
 20
35.9883
  0
VERTEX
  8
0
 10
9.8081
 20
35.5287
  0
VERTEX
  8
0
 10
9.5783
 20
35.0819
  0
VERTEX
  8
0
 10
9.323
 20
34.6479
  0
VERTEX
  8
0
 10
9.0294
 20
34.2394
  0
VERTEX
  8
0
 10
8.9273
 20
34.1372
  0
VERTEX
  8
0
 10
8.8124
 20
34.0479
  0
VERTEX
  8
0
 10
8.6975
 20
33.9713
  0
VERTEX
  8
0
 10
8.5698
 20
33.9074
  0
VERTEX
  8
0
 10
8.4549
 20
33.8436
  0
VERTEX
  8
0
 10
8.3273
 20
33.7926
  0
VERTEX
  8
0
 10
8.1868
 20
33.767
  0
VERTEX
  8
0
 10
8.0464
 20
33.7415
  0
VERTEX
  8
0
 10
7.906
 20
33.7287
  0
VERTEX
  8
0
 10
7.7528
 20
33.7287
  0
VERTEX
  8
0
 10
7.5485
 20
33.767
  0
VERTEX
  8
0
 10
7.3443
 20
33.8181
  0
VERTEX
  8
0
 10
7.14
 20
33.8819
  0
VERTEX
  8
0
 10
6.9485
 20
33.9585
  0
VERTEX
  8
0
 10
6.7571
 20
34.0479
  0
VERTEX
  8
0
 10
6.5783
 20
34.1628
  0
VERTEX
  8
0
 10
6.4251
 20
34.2904
  0
VERTEX
  8
0
 10
6.2847
 20
34.4436
  0
VERTEX
  8
0
 10
6.1826
 20
34.6351
  0
VERTEX
  8
0
 10
6.0932
 20
34.8394
  0
VERTEX
  8
0
 10
6.0166
 20
35.0947
  0
VERTEX
  8
0
 10
5.9656
 20
35.3628
  0
VERTEX
  8
0
 10
5.9273
 20
35.6181
  0
VERTEX
  8
0
 10
5.9145
 20
35.8734
  0
VERTEX
  8
0
 10
5.9273
 20
36.116
  0
VERTEX
  8
0
 10
5.9656
 20
36.3713
  0
VERTEX
  8
0
 10
6.0294
 20
36.6138
  0
VERTEX
  8
0
 10
6.1188
 20
36.8436
  0
VERTEX
  8
0
 10
6.2464
 20
37.0734
  0
VERTEX
  8
0
 10
6.3996
 20
37.3032
  0
VERTEX
  8
0
 10
6.5273
 20
37.3032
  0
VERTEX
  8
0
 10
6.5145
 20
37.0989
  0
VERTEX
  8
0
 10
6.489
 20
36.8819
  0
VERTEX
  8
0
 10
6.4507
 20
36.6649
  0
VERTEX
  8
0
 10
6.4124
 20
36.4479
  0
VERTEX
  8
0
 10
6.3741
 20
36.2309
  0
VERTEX
  8
0
 10
6.3485
 20
36.0138
  0
VERTEX
  8
0
 10
6.3485
 20
35.8096
  0
VERTEX
  8
0
 10
6.3868
 20
35.5926
  0
VERTEX
  8
0
 10
6.4507
 20
35.3883
  0
VERTEX
  8
0
 10
6.5656
 20
35.184
  0
VERTEX
  8
0
 10
6.6166
 20
35.0947
  0
VERTEX
  8
0
 10
6.6677
 20
35.0181
  0
VERTEX
  8
0
 10
6.7315
 20
34.9287
  0
VERTEX
  8
0
 10
6.7954
 20
34.8394
  0
VERTEX
  8
0
 10
6.872
 20
34.75
  0
VERTEX
  8
0
 10
6.9358
 20
34.6734
  0
VERTEX
  8
0
 10
7.0251
 20
34.5968
  0
VERTEX
  8
0
 10
7.1017
 20
34.5202
  0
VERTEX
  8
0
 10
7.1911
 20
34.4564
  0
VERTEX
  8
0
 10
7.2932
 20
34.4181
  0
VERTEX
  8
0
 10
7.4847
 20
34.3926
  0
VERTEX
  8
0
 10
7.6634
 20
34.3926
  0
VERTEX
  8
0
 10
7.8549
 20
34.4053
  0
VERTEX
  8
0
 10
8.0209
 20
34.4309
  0
VERTEX
  8
0
 10
8.1868
 20
34.4819
  0
VERTEX
  8
0
 10
8.3528
 20
34.5457
  0
VERTEX
  8
0
 10
8.506
 20
34.6223
  0
VERTEX
  8
0
 10
8.6464
 20
34.7372
  0
VERTEX
  8
0
 10
8.7741
 20
34.8649
  0
VERTEX
  8
0
 10
8.9017
 20
35.0053
  0
VERTEX
  8
0
 10
9.0677
 20
35.2734
  0
VERTEX
  8
0
 10
9.2081
 20
35.5415
  0
VERTEX
  8
0
 10
9.3358
 20
35.8223
  0
VERTEX
  8
0
 10
9.4507
 20
36.116
  0
VERTEX
  8
0
 10
9.5528
 20
36.3968
  0
VERTEX
  8
0
 10
9.6549
 20
36.6904
  0
VERTEX
  8
0
 10
9.7571
 20
36.984
  0
VERTEX
  8
0
 10
9.8592
 20
37.2649
  0
VERTEX
  8
0
 10
9.9868
 20
37.5457
  0
VERTEX
  8
0
 10
10.14
 20
37.8138
  0
VERTEX
  8
0
 10
10.3315
 20
38.2223
  0
VERTEX
  8
0
 10
10.5741
 20
38.6309
  0
VERTEX
  8
0
 10
10.8549
 20
39.0266
  0
VERTEX
  8
0
 10
11.1741
 20
39.3968
  0
VERTEX
  8
0
 10
11.5315
 20
39.7287
  0
VERTEX
  8
0
 10
11.9145
 20
40.0351
  0
VERTEX
  8
0
 10
12.323
 20
40.3032
  0
VERTEX
  8
0
 10
12.7698
 20
40.5074
  0
VERTEX
  8
0
 10
13.2294
 20
40.6606
  0
VERTEX
  8
0
 10
13.7145
 20
40.75
  0
VERTEX
  8
0
 10
14.5826
 20
40.7245
  0
VERTEX
  8
0
 10
15.4379
 20
40.5968
  0
VERTEX
  8
0
 10
16.2549
 20
40.3798
  0
VERTEX
  8
0
 10
17.0464
 20
40.0734
  0
VERTEX
  8
0
 10
17.7996
 20
39.6777
  0
VERTEX
  8
0
 10
18.5017
 20
39.2053
  0
VERTEX
  8
0
 10
19.1528
 20
38.6564
  0
VERTEX
  8
0
 10
19.74
 20
38.0309
  0
VERTEX
  8
0
 10
20.2507
 20
37.3543
  0
VERTEX
  8
0
 10
20.6975
 20
36.6266
  0
SEQEND
  0
POLYLINE
  8
0
 66
     1
 10
0
 20
0
  0
VERTEX
  8
0
 10
12.9485
 20
34.367
  0
VERTEX
  8
0
 10
12.8464
 20
34.316
  0
VERTEX
  8
0
 10
12.7571
 20
34.2521
  0
VERTEX
  8
0
 10
12.6677
 20
34.1755
  0
VERTEX
  8
0
 10
12.6039
 20
34.0989
  0
VERTEX
  8
0
 10
12.5273
 20
34.0096
  0
VERTEX
  8
0
 10
12.4762
 20
33.9202
  0
VERTEX
  8
0
 10
12.4251
 20
33.8181
  0
VERTEX
  8
0
 10
12.3741
 20
33.716
  0
VERTEX
  8
0
 10
12.3358
 20
33.6138
  0
VERTEX
  8
0
 10
12.3102
 20
33.5245
  0
VERTEX
  8
0
 10
12.272
 20
33.333
  0
VERTEX
  8
0
 10
12.2592
 20
33.1415
  0
VERTEX
  8
0
 10
12.2592
 20
32.95
  0
VERTEX
  8
0
 10
12.2847
 20
32.7713
  0
VERTEX
  8
0
 10
12.323
 20
32.6053
  0
VERTEX
  8
0
 10
12.3868
 20
32.4266
  0
VERTEX
  8
0
 10
12.4634
 20
32.2734
  0
VERTEX
  8
0
 10
12.5783
 20
32.1202
  0
VERTEX
  8
0
 10
12.706
 20
31.9798
  0
VERTEX
  8
0
 10
12.8592
 20
31.8649
  0
VERTEX
  8
0
 10
12.9102
 20
31.8649
  0
VERTEX
  8
0
 10
12.7826
 20
31.6479
  0
VERTEX
  8
0
 10
12.6166
 20
31.4947
  0
VERTEX
  8
0
 10
12.4379
 20
31.3798
  0
VERTEX
  8
0
 10
12.2337
 20
31.3032
  0
VERTEX
  8
0
 10
12.0166
 20
31.2521
  0
VERTEX
  8
0
 10
11.7868
 20
31.2266
  0
VERTEX
  8
0
 10
11.5571
 20
31.2266
  0
VERTEX
  8
0
 10
11.3145
 20
31.2266
  0
VERTEX
  8
0
 10
11.0847
 20
31.2394
  0
VERTEX
  8
0
 10
10.8677
 20
31.2649
  0
VERTEX
  8
0
 10
10.7273
 20
31.3032
  0
VERTEX
  8
0
 10
10.5996
 20
31.367
  0
VERTEX
  8
0
 10
10.4847
 20
31.4436
  0
VERTEX
  8
0
 10
10.3698
 20
31.533
  0
VERTEX
  8
0
 10
10.2677
 20
31.6351
  0
VERTEX
  8
0
 10
10.1656
 20
31.7372
  0
VERTEX
  8
0
 10
10.0634
 20
31.8521
  0
VERTEX
  8
0
 10
9.9741
 20
31.967
  0
VERTEX
  8
0
 10
9.8847
 20
32.0819
  0
VERTEX
  8
0
 10
9.7954
 20
32.1968
  0
VERTEX
  8
0
 10
9.7315
 20
32.3883
  0
VERTEX
  8
0
 10
9.6932
 20
32.5798
  0
VERTEX
  8
0
 10
9.6677
 20
32.7713
  0
VERTEX
  8
0
 10
9.6677
 20
32.9755
  0
VERTEX
  8
0
 10
9.6805
 20
33.1798
  0
VERTEX
  8
0
 10
9.7188
 20
33.3713
  0
VERTEX
  8
0
 10
9.7698
 20
33.5628
  0
VERTEX
  8
0
 10
9.8464
 20
33.7415
  0
VERTEX
  8
0
 10
9.9358
 20
33.9202
  0
VERTEX
  8
0
 10
10.0507
 20
34.0734
  0
VERTEX
  8
0
 10
10.2677
 20
34.2649
  0
VERTEX
  8
0
 10
10.5102
 20
34.4309
  0
VERTEX
  8
0
 10
10.7656
 20
34.5713
  0
VERTEX
  8
0
 10
11.0337
 20
34.6862
  0
VERTEX
  8
0
 10
11.3017
 20
34.7755
  0
VERTEX
  8
0
 10
11.5826
 20
34.8266
  0
VERTEX
  8
0
 10
11.8762
 20
34.8394
  0
VERTEX
  8
0
 10
12.1571
 20
34.8266
  0
VERTEX
  8
0
 10
12.4251
 20
34.7628
  0
VERTEX
  8
0
 10
12.6932
 20
34.6734
  0
VERTEX
  8
0
 10
12.7188
 20
34.6351
  0
VERTEX
  8
0
 10
12.7571
 20
34.6223
  0
VERTEX
  8
0
 10
12.7954
 20
34.5968
  0
VERTEX
  8
0
 10
12.8337
 20
34.5713
  0
VERTEX
  8
0
 10
12.872
 20
34.5585
  0
VERTEX
  8
0
 10
12.9102
 20
34.533
  0
VERTEX
  8
0
 10
12.9358
 20
34.5074
  0
VERTEX
  8
0
 10
12.9485
 20
34.4691
  0
VERTEX
  8
0
 10
12.9613
 20
34.4181
  0
VERTEX
  8
0
 10
12.9485
 20
34.367
  0
SEQEND
  0
POLYLINE
  8
0
 66
     1
 10
0
 20
0
  0
VERTEX
  8
0
 10
15.8847
 20
33.9457
  0
VERTEX
  8
0
 10
15.9102
 20
33.7032
  0
VERTEX
  8
0
 10
15.9485
 20
33.4606
  0
VERTEX
  8
0
 10
15.9613
 20
33.2309
  0
VERTEX
  8
0
 10
15.9741
 20
32.9883
  0
VERTEX
  8
0
 10
15.9613
 20
32.7585
  0
VERTEX
  8
0
 10
15.923
 20
32.5287
  0
VERTEX
  8
0
 10
15.8592
 20
32.3117
  0
VERTEX
  8
0
 10
15.7571
 20
32.1074
  0
VERTEX
  8
0
 10
15.6294
 20
31.916
  0
VERTEX
  8
0
 10
15.4634
 20
31.7372
  0
VERTEX
  8
0
 10
15.2975
 20
31.6223
  0
VERTEX
  8
0
 10
15.1443
 20
31.5457
  0
VERTEX
  8
0
 10
14.9656
 20
31.4947
  0
VERTEX
  8
0
 10
14.7996
 20
31.4691
  0
VERTEX
  8
0
 10
14.6209
 20
31.4691
  0
VERTEX
  8
0
 10
14.4422
 20
31.4947
  0
VERTEX
  8
0
 10
14.2634
 20
31.5202
  0
VERTEX
  8
0
 10
14.072
 20
31.5457
  0
VERTEX
  8
0
 10
13.8932
 20
31.584
  0
VERTEX
  8
0
 10
13.7145
 20
31.6096
  0
VERTEX
  8
0
 10
13.523
 20
31.7117
  0
VERTEX
  8
0
 10
13.3698
 20
31.8521
  0
VERTEX
  8
0
 10
13.2422
 20
32.0053
  0
VERTEX
  8
0
 10
13.1528
 20
32.1713
  0
VERTEX
  8
0
 10
13.089
 20
32.3628
  0
VERTEX
  8
0
 10
13.0507
 20
32.567
  0
VERTEX
  8
0
 10
13.0251
 20
32.7713
  0
VERTEX
  8
0
 10
13.0124
 20
32.9755
  0
VERTEX
  8
0
 10
12.9996
 20
33.1798
  0
VERTEX
  8
0
 10
12.9868
 20
33.3968
  0
VERTEX
  8
0
 10
12.9996
 20
33.5372
  0
VERTEX
  8
0
 10
13.0379
 20
33.6777
  0
VERTEX
  8
0
 10
13.089
 20
33.7926
  0
VERTEX
  8
0
 10
13.1656
 20
33.9074
  0
VERTEX
  8
0
 10
13.2549
 20
33.9968
  0
VERTEX
  8
0
 10
13.3443
 20
34.0989
  0
VERTEX
  8
0
 10
13.4464
 20
34.1755
  0
VERTEX
  8
0
 10
13.5485
 20
34.2649
  0
VERTEX
  8
0
 10
13.6507
 20
34.3543
  0
VERTEX
  8
0
 10
13.7528
 20
34.4564
  0
VERTEX
  8
0
 10
13.9571
 20
34.5074
  0
VERTEX
  8
0
 10
14.1868
 20
34.5457
  0
VERTEX
  8
0
 10
14.4422
 20
34.5713
  0
VERTEX
  8
0
 10
14.6847
 20
34.584
  0
VERTEX
  8
0
 10
14.94
 20
34.584
  0
VERTEX
  8
0
 10
15.1826
 20
34.5457
  0
VERTEX
  8
0
 10
15.3996
 20
34.4564
  0
VERTEX
  8
0
 10
15.6039
 20
34.3415
  0
VERTEX
  8
0
 10
15.7698
 20
34.1755
  0
VERTEX
  8
0
 10
15.8847
 20
33.9457
  0
SEQEND
  0
POLYLINE
  8
0
 66
     1
 10
0
 20
0
  0
VERTEX
  8
0
 10
18.6932
 20
32.4138
  0
VERTEX
  8
0
 10
18.8464
 20
32.2351
  0
VERTEX
  8
0
 10
18.9485
 20
32.0309
  0
VERTEX
  8
0
 10
19.0124
 20
31.8266
  0
VERTEX
  8
0
 10
19.0507
 20
31.6096
  0
VERTEX
  8
0
 10
19.0507
 20
31.3798
  0
VERTEX
  8
0
 10
19.0124
 20
31.15
  0
VERTEX
  8
0
 10
18.9741
 20
30.9202
  0
VERTEX
  8
0
 10
18.9102
 20
30.7032
  0
VERTEX
  8
0
 10
18.8464
 20
30.4862
  0
VERTEX
  8
0
 10
18.7826
 20
30.2819
  0
VERTEX
  8
0
 10
18.6805
 20
30.1926
  0
VERTEX
  8
0
 10
18.5783
 20
30.1032
  0
VERTEX
  8
0
 10
18.4762
 20
30.0138
  0
VERTEX
  8
0
 10
18.3741
 20
29.9372
  0
VERTEX
  8
0
 10
18.272
 20
29.8734
  0
VERTEX
  8
0
 10
18.1571
 20
29.8223
  0
VERTEX
  8
0
 10
18.0422
 20
29.7713
  0
VERTEX
  8
0
 10
17.9273
 20
29.7457
  0
VERTEX
  8
0
 10
17.7996
 20
29.733
  0
VERTEX
  8
0
 10
17.672
 20
29.733
  0
VERTEX
  8
0
 10
17.4805
 20
29.7457
  0
VERTEX
  8
0
 10
17.3017
 20
29.784
  0
VERTEX
  8
0
 10
17.123
 20
29.8479
  0
VERTEX
  8
0
 10
16.9443
 20
29.9245
  0
VERTEX
  8
0
 10
16.7911
 20
30.0266
  0
VERTEX
  8
0
 10
16.6379
 20
30.1415
  0
VERTEX
  8
0
 10
16.4975
 20
30.2691
  0
VERTEX
  8
0
 10
16.3698
 20
30.3968
  0
VERTEX
  8
0
 10
16.2677
 20
30.55
  0
VERTEX
  8
0
 10
16.1783
 20
30.716
  0
VERTEX
  8
0
 10
16.1017
 20
30.8691
  0
VERTEX
  8
0
 10
16.0634
 20
31.0351
  0
VERTEX
  8
0
 10
16.0507
 20
31.1883
  0
VERTEX
  8
0
 10
16.0634
 20
31.3543
  0
VERTEX
  8
0
 10
16.1017
 20
31.5202
  0
VERTEX
  8
0
 10
16.14
 20
31.6734
  0
VERTEX
  8
0
 10
16.2039
 20
31.8394
  0
VERTEX
  8
0
 10
16.2677
 20
31.9926
  0
VERTEX
  8
0
 10
16.3315
 20
32.133
  0
VERTEX
  8
0
 10
16.3954
 20
32.2862
  0
VERTEX
  8
0
 10
16.472
 20
32.4011
  0
VERTEX
  8
0
 10
16.5613
 20
32.5032
  0
VERTEX
  8
0
 10
16.6507
 20
32.5798
  0
VERTEX
  8
0
 10
16.74
 20
32.6564
  0
VERTEX
  8
0
 10
16.8422
 20
32.7202
  0
VERTEX
  8
0
 10
16.9443
 20
32.7713
  0
VERTEX
  8
0
 10
17.0592
 20
32.8096
  0
VERTEX
  8
0
 10
17.1741
 20
32.8479
  0
VERTEX
  8
0
 10
17.289
 20
32.8862
  0
VERTEX
  8
0
 10
17.4166
 20
32.9245
  0
VERTEX
  8
0
 10
17.5571
 20
32.9117
  0
VERTEX
  8
0
 10
17.7102
 20
32.8989
  0
VERTEX
  8
0
 10
17.8634
 20
32.8862
  0
VERTEX
  8
0
 10
18.0039
 20
32.8606
  0
VERTEX
  8
0
 10
18.1443
 20
32.8223
  0
VERTEX
  8
0
 10
18.2847
 20
32.784
  0
VERTEX
  8
0
 10
18.3996
 20
32.7202
  0
VERTEX
  8
0
 10
18.5145
 20
32.6309
  0
VERTEX
  8
0
 10
18.6166
 20
32.5287
  0
VERTEX
  8
0
 10
18.6932
 20
32.4138
  0
SEQEND
  0
POLYLINE
  8
0
 66
     1
 10
0
 20
0
  0
VERTEX
  8
0
 10
26.7741
 20
31.9926
  0
VERTEX
  8
0
 10
26.8634
 20
31.9032
  0
VERTEX
  8
0
 10
26.94
 20
31.8266
  0
VERTEX
  8
0
 10
27.0039
 20
31.7372
  0
VERTEX
  8
0
 10
27.0805
 20
31.6479
  0
VERTEX
  8
0
 10
27.1315
 20
31.5457
  0
VERTEX
  8
0
 10
27.1826
 20
31.4564
  0
VERTEX
  8
0
 10
27.2209
 20
31.3543
  0
VERTEX
  8
0
 10
27.2464
 20
31.2521
  0
VERTEX
  8
0
 10
27.2464
 20
31.15
  0
VERTEX
  8
0
 10
27.2464
 20
31.0479
  0
VERTEX
  8
0
 10
27.1698
 20
30.8819
  0
VERTEX
  8
0
 10
27.0677
 20
30.7287
  0
VERTEX
  8
0
 10
26.94
 20
30.5883
  0
VERTEX
  8
0
 10
26.7996
 20
30.4606
  0
VERTEX
  8
0
 10
26.6337
 20
30.3457
  0
VERTEX
  8
0
 10
26.4549
 20
30.2436
  0
VERTEX
  8
0
 10
26.2762
 20
30.1543
  0
VERTEX
  8
0
 10
26.0847
 20
30.0904
  0
VERTEX
  8
0
 10
25.8932
 20
30.0266
  0
VERTEX
  8
0
 10
25.7145
 20
29.9883
  0
VERTEX
  8
0
 10
25.5996
 20
29.9755
  0
VERTEX
  8
0
 10
25.4847
 20
29.9755
  0
VERTEX
  8
0
 10
25.3571
 20
29.9755
  0
VERTEX
  8
0
 10
25.2294
 20
30.0011
  0
VERTEX
  8
0
 10
25.1017
 20
30.0266
  0
VERTEX
  8
0
 10
24.9741
 20
30.0649
  0
VERTEX
  8
0
 10
24.8464
 20
30.1032
  0
VERTEX
  8
0
 10
24.7315
 20
30.1543
  0
VERTEX
  8
0
 10
24.6166
 20
30.2181
  0
VERTEX
  8
0
 10
24.5273
 20
30.2819
  0
VERTEX
  8
0
 10
24.4379
 20
30.3968
  0
VERTEX
  8
0
 10
24.3613
 20
30.5245
  0
VERTEX
  8
0
 10
24.2975
 20
30.6521
  0
VERTEX
  8
0
 10
24.2464
 20
30.7798
  0
VERTEX
  8
0
 10
24.2081
 20
30.9202
  0
VERTEX
  8
0
 10
24.1954
 20
31.0606
  0
VERTEX
  8
0
 10
24.1826
 20
31.2011
  0
VERTEX
  8
0
 10
24.1826
 20
31.3543
  0
VERTEX
  8
0
 10
24.1954
 20
31.4947
  0
VERTEX
  8
0
 10
24.2209
 20
31.6479
  0
VERTEX
  8
0
 10
24.272
 20
31.7755
  0
VERTEX
  8
0
 10
24.3485
 20
31.8904
  0
VERTEX
  8
0
 10
24.4251
 20
31.9798
  0
VERTEX
  8
0
 10
24.5273
 20
32.0691
  0
VERTEX
  8
0
 10
24.6422
 20
32.133
  0
VERTEX
  8
0
 10
24.7571
 20
32.184
  0
VERTEX
  8
0
 10
24.8847
 20
32.2351
  0
VERTEX
  8
0
 10
24.9996
 20
32.2862
  0
VERTEX
  8
0
 10
25.1273
 20
32.3245
  0
VERTEX
  8
0
 10
25.2422
 20
32.3755
  0
VERTEX
  8
0
 10
25.4081
 20
32.3883
  0
VERTEX
  8
0
 10
25.5741
 20
32.3883
  0
VERTEX
  8
0
 10
25.7273
 20
32.3755
  0
VERTEX
  8
0
 10
25.8932
 20
32.35
  0
VERTEX
  8
0
 10
26.0464
 20
32.3245
  0
VERTEX
  8
0
 10
26.1996
 20
32.2734
  0
VERTEX
  8
0
 10
26.3528
 20
32.2223
  0
VERTEX
  8
0
 10
26.506
 20
32.1585
  0
VERTEX
  8
0
 10
26.6464
 20
32.0819
  0
VERTEX
  8
0
 10
26.7741
 20
31.9926
  0
SEQEND
  0
POLYLINE
  8
0
 66
     1
 10
0
 20
0
  0
VERTEX
  8
0
 10
15.2464
 20
30.4606
  0
VERTEX
  8
0
 10
15.3102
 20
30.2181
  0
VERTEX
  8
0
 10
15.3485
 20
29.9883
  0
VERTEX
  8
0
 10
15.3358
 20
29.7585
  0
VERTEX
  8
0
 10
15.2975
 20
29.516
  0
VERTEX
  8
0
 10
15.2337
 20
29.2989
  0
VERTEX
  8
0
 10
15.1443
 20
29.0691
  0
VERTEX
  8
0
 10
15.0422
 20
28.8649
  0
VERTEX
  8
0
 10
14.9145
 20
28.6606
  0
VERTEX
  8
0
 10
14.7868
 20
28.4691
  0
VERTEX
  8
0
 10
14.6464
 20
28.2904
  0
VERTEX
  8
0
 10
14.4677
 20
28.2011
  0
VERTEX
  8
0
 10
14.289
 20
28.15
  0
VERTEX
  8
0
 10
14.1102
 20
28.1117
  0
VERTEX
  8
0
 10
13.9315
 20
28.1117
  0
VERTEX
  8
0
 10
13.74
 20
28.1372
  0
VERTEX
  8
0
 10
13.5613
 20
28.1628
  0
VERTEX
  8
0
 10
13.3826
 20
28.2138
  0
VERTEX
  8
0
 10
13.2039
 20
28.2777
  0
VERTEX
  8
0
 10
13.0379
 20
28.3415
  0
VERTEX
  8
0
 10
12.8592
 20
28.4181
  0
VERTEX
  8
0
 10
12.7315
 20
28.584
  0
VERTEX
  8
0
 10
12.6039
 20
28.7628
  0
VERTEX
  8
0
 10
12.5017
 20
28.9415
  0
VERTEX
  8
0
 10
12.4251
 20
29.133
  0
VERTEX
  8
0
 10
12.3613
 20
29.3245
  0
VERTEX
  8
0
 10
12.323
 20
29.516
  0
VERTEX
  8
0
 10
12.3102
 20
29.7202
  0
VERTEX
  8
0
 10
12.3102
 20
29.9245
  0
VERTEX
  8
0
 10
12.3358
 20
30.1415
  0
VERTEX
  8
0
 10
12.3996
 20
30.3713
  0
VERTEX
  8
0
 10
12.4634
 20
30.5245
  0
VERTEX
  8
0
 10
12.54
 20
30.6649
  0
VERTEX
  8
0
 10
12.6549
 20
30.7798
  0
VERTEX
  8
0
 10
12.7698
 20
30.8819
  0
VERTEX
  8
0
 10
12.9102
 20
30.9713
  0
VERTEX
  8
0
 10
13.0507
 20
31.0351
  0
VERTEX
  8
0
 10
13.2039
 20
31.1117
  0
VERTEX
  8
0
 10
13.3571
 20
31.1628
  0
VERTEX
  8
0
 10
13.5102
 20
31.2138
  0
VERTEX
  8
0
 10
13.6762
 20
31.2649
  0
VERTEX
  8
0
 10
13.8677
 20
31.2521
  0
VERTEX
  8
0
 10
14.0592
 20
31.2394
  0
VERTEX
  8
0
 10
14.2507
 20
31.2011
  0
VERTEX
  8
0
 10
14.4294
 20
31.1372
  0
VERTEX
  8
0
 10
14.5954
 20
31.0734
  0
VERTEX
  8
0
 10
14.7613
 20
30.984
  0
VERTEX
  8
0
 10
14.9145
 20
30.8819
  0
VERTEX
  8
0
 10
15.0422
 20
30.7543
  0
VERTEX
  8
0
 10
15.1571
 20
30.6138
  0
VERTEX
  8
0
 10
15.2464
 20
30.4606
  0
SEQEND
  0
POLYLINE
  8
0
 66
     1
 10
0
 20
0
  0
VERTEX
  8
0
 10
12.1443
 20
30.6266
  0
VERTEX
  8
0
 10
12.1188
 20
30.5117
  0
VERTEX
  8
0
 10
12.0932
 20
30.384
  0
VERTEX
  8
0
 10
12.0422
 20
30.2564
  0
VERTEX
  8
0
 10
12.0039
 20
30.1287
  0
VERTEX
  8
0
 10
11.9528
 20
30.0011
  0
VERTEX
  8
0
 10
11.9017
 20
29.8606
  0
VERTEX
  8
0
 10
11.8762
 20
29.7202
  0
VERTEX
  8
0
 10
11.8507
 20
29.5798
  0
VERTEX
  8
0
 10
11.8507
 20
29.4266
  0
VERTEX
  8
0
 10
11.889
 20
29.2606
  0
VERTEX
  8
0
 10
11.889
 20
29.1202
  0
VERTEX
  8
0
 10
11.94
 20
28.9926
  0
VERTEX
  8
0
 10
11.9911
 20
28.8649
  0
VERTEX
  8
0
 10
12.0805
 20
28.75
  0
VERTEX
  8
0
 10
12.1571
 20
28.6351
  0
VERTEX
  8
0
 10
12.2464
 20
28.5202
  0
VERTEX
  8
0
 10
12.3358
 20
28.4181
  0
VERTEX
  8
0
 10
12.4124
 20
28.3032
  0
VERTEX
  8
0
 10
12.4762
 20
28.1883
  0
VERTEX
  8
0
 10
12.5273
 20
28.0734
  0
VERTEX
  8
0
 10
12.272
 20
27.8819
  0
VERTEX
  8
0
 10
12.0039
 20
27.7798
  0
VERTEX
  8
0
 10
11.7485
 20
27.767
  0
VERTEX
  8
0
 10
11.4932
 20
27.8053
  0
VERTEX
  8
0
 10
11.2379
 20
27.8819
  0
VERTEX
  8
0
 10
10.9698
 20
27.9713
  0
VERTEX
  8
0
 10
10.7017
 20
28.0479
  0
VERTEX
  8
0
 10
10.4337
 20
28.0989
  0
VERTEX
  8
0
 10
10.1656
 20
28.0989
  0
VERTEX
  8
0
 10
9.8847
 20
28.0351
  0
VERTEX
  8
0
 10
9.8081
 20
28.1883
  0
VERTEX
  8
0
 10
9.7571
 20
28.3543
  0
VERTEX
  8
0
 10
9.7188
 20
28.533
  0
VERTEX
  8
0
 10
9.706
 20
28.7117
  0
VERTEX
  8
0
 10
9.6932
 20
28.8904
  0
VERTEX
  8
0
 10
9.706
 20
29.0691
  0
VERTEX
  8
0
 10
9.7188
 20
29.2479
  0
VERTEX
  8
0
 10
9.7571
 20
29.4266
  0
VERTEX
  8
0
 10
9.7954
 20
29.6053
  0
VERTEX
  8
0
 10
9.8464
 20
29.7713
  0
VERTEX
  8
0
 10
9.9868
 20
29.9883
  0
VERTEX
  8
0
 10
10.1656
 20
30.1798
  0
VERTEX
  8
0
 10
10.3698
 20
30.3585
  0
VERTEX
  8
0
 10
10.5868
 20
30.5117
  0
VERTEX
  8
0
 10
10.8294
 20
30.6266
  0
VERTEX
  8
0
 10
11.0847
 20
30.716
  0
VERTEX
  8
0
 10
11.3528
 20
30.767
  0
VERTEX
  8
0
 10
11.6209
 20
30.767
  0
VERTEX
  8
0
 10
11.8762
 20
30.716
  0
VERTEX
  8
0
 10
12.1443
 20
30.6266
  0
SEQEND
  0
POLYLINE
  8
0
 66
     1
 10
0
 20
0
  0
VERTEX
  8
0
 10
21.2847
 20
29.3883
  0
VERTEX
  8
0
 10
21.3613
 20
29.2096
  0
VERTEX
  8
0
 10
21.4124
 20
29.0309
  0
VERTEX
  8
0
 10
21.4379
 20
28.8394
  0
VERTEX
  8
0
 10
21.4379
 20
28.6479
  0
VERTEX
  8
0
 10
21.4124
 20
28.4564
  0
VERTEX
  8
0
 10
21.3741
 20
28.2777
  0
VERTEX
  8
0
 10
21.3102
 20
28.0989
  0
VERTEX
  8
0
 10
21.2337
 20
27.9202
  0
VERTEX
  8
0
 10
21.1443
 20
27.7543
  0
VERTEX
  8
0
 10
21.0294
 20
27.6011
  0
VERTEX
  8
0
 10
20.8762
 20
27.4351
  0
VERTEX
  8
0
 10
20.6975
 20
27.3074
  0
VERTEX
  8
0
 10
20.506
 20
27.2053
  0
VERTEX
  8
0
 10
20.289
 20
27.1287
  0
VERTEX
  8
0
 10
20.0847
 20
27.0777
  0
VERTEX
  8
0
 10
19.8549
 20
27.0521
  0
VERTEX
  8
0
 10
19.6379
 20
27.0521
  0
VERTEX
  8
0
 10
19.4209
 20
27.0777
  0
VERTEX
  8
0
 10
19.2039
 20
27.116
  0
VERTEX
  8
0
 10
18.9868
 20
27.1798
  0
VERTEX
  8
0
 10
18.8209
 20
27.2436
  0
VERTEX
  8
0
 10
18.6805
 20
27.333
  0
VERTEX
  8
0
 10
18.5783
 20
27.4479
  0
VERTEX
  8
0
 10
18.489
 20
27.5883
  0
VERTEX
  8
0
 10
18.4251
 20
27.7287
  0
VERTEX
  8
0
 10
18.3741
 20
27.8819
  0
VERTEX
  8
0
 10
18.3358
 20
28.0479
  0
VERTEX
  8
0
 10
18.3102
 20
28.2011
  0
VERTEX
  8
0
 10
18.2847
 20
28.3543
  0
VERTEX
  8
0
 10
18.272
 20
28.4947
  0
VERTEX
  8
0
 10
18.2975
 20
28.6734
  0
VERTEX
  8
0
 10
18.3613
 20
28.8521
  0
VERTEX
  8
0
 10
18.4507
 20
29.0309
  0
VERTEX
  8
0
 10
18.5528
 20
29.1968
  0
VERTEX
  8
0
 10
18.6677
 20
29.3628
  0
VERTEX
  8
0
 10
18.7954
 20
29.516
  0
VERTEX
  8
0
 10
18.9485
 20
29.6436
  0
VERTEX
  8
0
 10
19.1145
 20
29.7457
  0
VERTEX
  8
0
 10
19.2805
 20
29.8351
  0
VERTEX
  8
0
 10
19.4592
 20
29.8989
  0
VERTEX
  8
0
 10
19.6507
 20
29.9245
  0
VERTEX
  8
0
 10
19.8422
 20
29.95
  0
VERTEX
  8
0
 10
20.0464
 20
29.9628
  0
VERTEX
  8
0
 10
20.2507
 20
29.9628
  0
VERTEX
  8
0
 10
20.4549
 20
29.95
  0
VERTEX
  8
0
 10
20.6464
 20
29.8989
  0
VERTEX
  8
0
 10
20.8379
 20
29.8351
  0
VERTEX
  8
0
 10
21.0039
 20
29.7202
  0
VERTEX
  8
0
 10
21.1571
 20
29.5798
  0
VERTEX
  8
0
 10
21.2847
 20
29.3883
  0
SEQEND
  0
POLYLINE
  8
0
 66
     1
 10
0
 20
0
  0
VERTEX
  8
0
 10
17.9656
 20
28.5457
  0
VERTEX
  8
0
 10
18.0294
 20
28.4181
  0
VERTEX
  8
0
 10
18.0805
 20
28.2904
  0
VERTEX
  8
0
 10
18.1315
 20
28.15
  0
VERTEX
  8
0
 10
18.1571
 20
28.0096
  0
VERTEX
  8
0
 10
18.1698
 20
27.8564
  0
VERTEX
  8
0
 10
18.1826
 20
27.7032
  0
VERTEX
  8
0
 10
18.1826
 20
27.5628
  0
VERTEX
  8
0
 10
18.1571
 20
27.4096
  0
VERTEX
  8
0
 10
18.1315
 20
27.2691
  0
VERTEX
  8
0
 10
18.0932
 20
27.1415
  0
VERTEX
  8
0
 10
18.0039
 20
27.0011
  0
VERTEX
  8
0
 10
17.889
 20
26.8606
  0
VERTEX
  8
0
 10
17.7741
 20
26.733
  0
VERTEX
  8
0
 10
17.6464
 20
26.6053
  0
VERTEX
  8
0
 10
17.5188
 20
26.5032
  0
VERTEX
  8
0
 10
17.3656
 20
26.4011
  0
VERTEX
  8
0
 10
17.2124
 20
26.3245
  0
VERTEX
  8
0
 10
17.0464
 20
26.2606
  0
VERTEX
  8
0
 10
16.8677
 20
26.2351
  0
VERTEX
  8
0
 10
16.689
 20
26.2479
  0
VERTEX
  8
0
 10
16.5358
 20
26.2479
  0
VERTEX
  8
0
 10
16.3826
 20
26.2606
  0
VERTEX
  8
0
 10
16.2294
 20
26.2734
  0
VERTEX
  8
0
 10
16.089
 20
26.3117
  0
VERTEX
  8
0
 10
15.9485
 20
26.35
  0
VERTEX
  8
0
 10
15.8209
 20
26.4138
  0
VERTEX
  8
0
 10
15.6932
 20
26.4777
  0
VERTEX
  8
0
 10
15.5783
 20
26.567
  0
VERTEX
  8
0
 10
15.4634
 20
26.6691
  0
VERTEX
  8
0
 10
15.3741
 20
26.7968
  0
VERTEX
  8
0
 10
15.272
 20
26.8989
  0
VERTEX
  8
0
 10
15.1826
 20
27.0138
  0
VERTEX
  8
0
 10
15.106
 20
27.1287
  0
VERTEX
  8
0
 10
15.0294
 20
27.2564
  0
VERTEX
  8
0
 10
14.9783
 20
27.3713
  0
VERTEX
  8
0
 10
14.9273
 20
27.5117
  0
VERTEX
  8
0
 10
14.9017
 20
27.6394
  0
VERTEX
  8
0
 10
14.9017
 20
27.7798
  0
VERTEX
  8
0
 10
14.9145
 20
27.9202
  0
VERTEX
  8
0
 10
14.9528
 20
28.0734
  0
VERTEX
  8
0
 10
15.0039
 20
28.2649
  0
VERTEX
  8
0
 10
15.0932
 20
28.4564
  0
VERTEX
  8
0
 10
15.1954
 20
28.6351
  0
VERTEX
  8
0
 10
15.3102
 20
28.8011
  0
VERTEX
  8
0
 10
15.4507
 20
28.967
  0
VERTEX
  8
0
 10
15.6039
 20
29.0947
  0
VERTEX
  8
0
 10
15.7698
 20
29.2223
  0
VERTEX
  8
0
 10
15.9613
 20
29.3117
  0
VERTEX
  8
0
 10
16.1528
 20
29.3883
  0
VERTEX
  8
0
 10
16.3571
 20
29.4394
  0
VERTEX
  8
0
 10
16.5358
 20
29.4266
  0
VERTEX
  8
0
 10
16.7273
 20
29.4138
  0
VERTEX
  8
0
 10
16.9188
 20
29.3755
  0
VERTEX
  8
0
 10
17.1102
 20
29.3117
  0
VERTEX
  8
0
 10
17.289
 20
29.2479
  0
VERTEX
  8
0
 10
17.4549
 20
29.1457
  0
VERTEX
  8
0
 10
17.6081
 20
29.0309
  0
VERTEX
  8
0
 10
17.7485
 20
28.8904
  0
VERTEX
  8
0
 10
17.8762
 20
28.7245
  0
VERTEX
  8
0
 10
17.9656
 20
28.5457
  0
SEQEND
  0
POLYLINE
  8
0
 66
     1
 10
0
 20
0
  0
VERTEX
  8
0
 10
23.4932
 20
27.4734
  0
VERTEX
  8
0
 10
23.3145
 20
27.5628
  0
VERTEX
  8
0
 10
23.1102
 20
27.6266
  0
VERTEX
  8
0
 10
22.906
 20
27.6649
  0
VERTEX
  8
0
 10
22.7017
 20
27.7032
  0
VERTEX
  8
0
 10
22.4847
 20
27.716
  0
VERTEX
  8
0
 10
22.2677
 20
27.716
  0
VERTEX
  8
0
 10
22.0507
 20
27.6904
  0
VERTEX
  8
0
 10
21.8337
 20
27.6649
  0
VERTEX
  8
0
 10
21.6294
 20
27.6138
  0
VERTEX
  8
0
 10
21.4124
 20
27.5628
  0
VERTEX
  8
0
 10
21.5145
 20
27.716
  0
VERTEX
  8
0
 10
21.6039
 20
27.8819
  0
VERTEX
  8
0
 10
21.6677
 20
28.0734
  0
VERTEX
  8
0
 10
21.7188
 20
28.2649
  0
VERTEX
  8
0
 10
21.7571
 20
28.4691
  0
VERTEX
  8
0
 10
21.7826
 20
28.6734
  0
VERTEX
  8
0
 10
21.8081
 20
28.8777
  0
VERTEX
  8
0
 10
21.8209
 20
29.0819
  0
VERTEX
  8
0
 10
21.8337
 20
29.2862
  0
VERTEX
  8
0
 10
21.8464
 20
29.4777
  0
VERTEX
  8
0
 10
22.1145
 20
29.4138
  0
VERTEX
  8
0
 10
22.3826
 20
29.3117
  0
VERTEX
  8
0
 10
22.6251
 20
29.1585
  0
VERTEX
  8
0
 10
22.8549
 20
28.9798
  0
VERTEX
  8
0
 10
23.0592
 20
28.7755
  0
VERTEX
  8
0
 10
23.2251
 20
28.5457
  0
VERTEX
  8
0
 10
23.3656
 20
28.2904
  0
VERTEX
  8
0
 10
23.4549
 20
28.0351
  0
VERTEX
  8
0
 10
23.506
 20
27.7543
  0
VERTEX
  8
0
 10
23.4932
 20
27.4734
  0
SEQEND
  0
POLYLINE
  8
0
 66
     1
 10
0
 20
0
  0
VERTEX
  8
0
 10
15.1188
 20
26.7585
  0
VERTEX
  8
0
 10
15.1188
 20
26.6309
  0
VERTEX
  8
0
 10
15.1188
 20
26.516
  0
VERTEX
  8
0
 10
15.1188
 20
26.3883
  0
VERTEX
  8
0
 10
15.106
 20
26.2606
  0
VERTEX
  8
0
 10
15.0932
 20
26.133
  0
VERTEX
  8
0
 10
15.0549
 20
26.0181
  0
VERTEX
  8
0
 10
15.0166
 20
25.9032
  0
VERTEX
  8
0
 10
14.9528
 20
25.7883
  0
VERTEX
  8
0
 10
14.8762
 20
25.6989
  0
VERTEX
  8
0
 10
14.7741
 20
25.6096
  0
VERTEX
  8
0
 10
14.5698
 20
25.4564
  0
VERTEX
  8
0
 10
14.34
 20
25.3287
  0
VERTEX
  8
0
 10
14.0975
 20
25.2394
  0
VERTEX
  8
0
 10
13.8422
 20
25.1883
  0
VERTEX
  8
0
 10
13.5741
 20
25.15
  0
VERTEX
  8
0
 10
13.306
 20
25.15
  0
VERTEX
  8
0
 10
13.0507
 20
25.1755
  0
VERTEX
  8
0
 10
12.7954
 20
25.2138
  0
VERTEX
  8
0
 10
12.54
 20
25.2904
  0
VERTEX
  8
0
 10
12.3102
 20
25.3926
  0
VERTEX
  8
0
 10
12.2209
 20
25.4819
  0
VERTEX
  8
0
 10
12.1443
 20
25.5713
  0
VERTEX
  8
0
 10
12.0805
 20
25.6734
  0
VERTEX
  8
0
 10
12.0166
 20
25.7755
  0
VERTEX
  8
0
 10
11.9528
 20
25.8904
  0
VERTEX
  8
0
 10
11.9145
 20
26.0053
  0
VERTEX
  8
0
 10
11.8762
 20
26.1202
  0
VERTEX
  8
0
 10
11.8379
 20
26.2479
  0
VERTEX
  8
0
 10
11.8124
 20
26.3755
  0
VERTEX
  8
0
 10
11.7996
 20
26.5032
  0
VERTEX
  8
0
 10
11.7996
 20
26.6947
  0
VERTEX
  8
0
 10
11.8507
 20
26.8606
  0
VERTEX
  8
0
 10
11.94
 20
27.0011
  0
VERTEX
  8
0
 10
12.0422
 20
27.1415
  0
VERTEX
  8
0
 10
12.1698
 20
27.2436
  0
VERTEX
  8
0
 10
12.323
 20
27.3457
  0
VERTEX
  8
0
 10
12.4634
 20
27.4479
  0
VERTEX
  8
0
 10
12.6166
 20
27.5245
  0
VERTEX
  8
0
 10
12.7698
 20
27.6138
  0
VERTEX
  8
0
 10
12.9102
 20
27.6904
  0
VERTEX
  8
0
 10
13.0251
 20
27.7287
  0
VERTEX
  8
0
 10
13.1528
 20
27.7543
  0
VERTEX
  8
0
 10
13.2932
 20
27.767
  0
VERTEX
  8
0
 10
13.4209
 20
27.7798
  0
VERTEX
  8
0
 10
13.5613
 20
27.7798
  0
VERTEX
  8
0
 10
13.7017
 20
27.7798
  0
VERTEX
  8
0
 10
13.8422
 20
27.767
  0
VERTEX
  8
0
 10
13.9698
 20
27.7543
  0
VERTEX
  8
0
 10
14.0975
 20
27.7287
  0
VERTEX
  8
0
 10
14.2251
 20
27.6904
  0
VERTEX
  8
0
 10
14.3145
 20
27.6011
  0
VERTEX
  8
0
 10
14.4166
 20
27.5117
  0
VERTEX
  8
0
 10
14.5188
 20
27.4351
  0
VERTEX
  8
0
 10
14.6209
 20
27.3457
  0
VERTEX
  8
0
 10
14.723
 20
27.2691
  0
VERTEX
  8
0
 10
14.8124
 20
27.1798
  0
VERTEX
  8
0
 10
14.9017
 20
27.0904
  0
VERTEX
  8
0
 10
14.9911
 20
26.9883
  0
VERTEX
  8
0
 10
15.0549
 20
26.8734
  0
VERTEX
  8
0
 10
15.1188
 20
26.7585
  0
SEQEND
  0
POLYLINE
  8
0
 66
     1
 10
0
 20
0
  0
VERTEX
  8
0
 10
11.7996
 20
27.1415
  0
VERTEX
  8
0
 10
11.7102
 20
27.0266
  0
VERTEX
  8
0
 10
11.6464
 20
26.9117
  0
VERTEX
  8
0
 10
11.5954
 20
26.784
  0
VERTEX
  8
0
 10
11.5698
 20
26.6564
  0
VERTEX
  8
0
 10
11.5571
 20
26.5287
  0
VERTEX
  8
0
 10
11.5571
 20
26.3883
  0
VERTEX
  8
0
 10
11.5698
 20
26.2606
  0
VERTEX
  8
0
 10
11.6081
 20
26.1202
  0
VERTEX
  8
0
 10
11.6464
 20
25.9926
  0
VERTEX
  8
0
 10
11.7102
 20
25.8649
  0
VERTEX
  8
0
 10
11.8251
 20
25.7755
  0
VERTEX
  8
0
 10
11.8762
 20
25.6862
  0
VERTEX
  8
0
 10
11.889
 20
25.6096
  0
VERTEX
  8
0
 10
11.8634
 20
25.5457
  0
VERTEX
  8
0
 10
11.7996
 20
25.4691
  0
VERTEX
  8
0
 10
11.7358
 20
25.3926
  0
VERTEX
  8
0
 10
11.6592
 20
25.3287
  0
VERTEX
  8
0
 10
11.5826
 20
25.2521
  0
VERTEX
  8
0
 10
11.5315
 20
25.1755
  0
VERTEX
  8
0
 10
11.506
 20
25.0989
  0
VERTEX
  8
0
 10
11.3528
 20
24.984
  0
VERTEX
  8
0
 10
11.1996
 20
24.8947
  0
VERTEX
  8
0
 10
11.0337
 20
24.8181
  0
VERTEX
  8
0
 10
10.8549
 20
24.7543
  0
VERTEX
  8
0
 10
10.6634
 20
24.7032
  0
VERTEX
  8
0
 10
10.4847
 20
24.6777
  0
VERTEX
  8
0
 10
10.2932
 20
24.6649
  0
VERTEX
  8
0
 10
10.089
 20
24.6777
  0
VERTEX
  8
0
 10
9.8975
 20
24.7032
  0
VERTEX
  8
0
 10
9.7188
 20
24.7543
  0
VERTEX
  8
0
 10
9.5783
 20
24.8181
  0
VERTEX
  8
0
 10
9.4634
 20
24.8947
  0
VERTEX
  8
0
 10
9.3485
 20
24.984
  0
VERTEX
  8
0
 10
9.2464
 20
25.0989
  0
VERTEX
  8
0
 10
9.1571
 20
25.2011
  0
VERTEX
  8
0
 10
9.0677
 20
25.3287
  0
VERTEX
  8
0
 10
8.9911
 20
25.4436
  0
VERTEX
  8
0
 10
8.9145
 20
25.5713
  0
VERTEX
  8
0
 10
8.8379
 20
25.6989
  0
VERTEX
  8
0
 10
8.7741
 20
25.8138
  0
VERTEX
  8
0
 10
8.7358
 20
25.9543
  0
VERTEX
  8
0
 10
8.723
 20
26.0819
  0
VERTEX
  8
0
 10
8.723
 20
26.2096
  0
VERTEX
  8
0
 10
8.7613
 20
26.3245
  0
VERTEX
  8
0
 10
8.7996
 20
26.4394
  0
VERTEX
  8
0
 10
8.8634
 20
26.5543
  0
VERTEX
  8
0
 10
8.9273
 20
26.6564
  0
VERTEX
  8
0
 10
9.0039
 20
26.7585
  0
VERTEX
  8
0
 10
9.0805
 20
26.8606
  0
VERTEX
  8
0
 10
9.1571
 20
26.9628
  0
VERTEX
  8
0
 10
9.3868
 20
27.1287
  0
VERTEX
  8
0
 10
9.6422
 20
27.2564
  0
VERTEX
  8
0
 10
9.8975
 20
27.3585
  0
VERTEX
  8
0
 10
10.1783
 20
27.4351
  0
VERTEX
  8
0
 10
10.4592
 20
27.4862
  0
VERTEX
  8
0
 10
10.74
 20
27.4862
  0
VERTEX
  8
0
 10
11.0209
 20
27.4606
  0
VERTEX
  8
0
 10
11.289
 20
27.3968
  0
VERTEX
  8
0
 10
11.5571
 20
27.2819
  0
VERTEX
  8
0
 10
11.7996
 20
27.1415
  0
SEQEND
  0
POLYLINE
  8
0
 66
     1
 10
0
 20
0
  0
VERTEX
  8
0
 10
23.123
 20
26.7585
  0
VERTEX
  8
0
 10
23.2507
 20
26.6309
  0
VERTEX
  8
0
 10
23.3528
 20
26.4904
  0
VERTEX
  8
0
 10
23.4422
 20
26.3372
  0
VERTEX
  8
0
 10
23.4932
 20
26.1713
  0
VERTEX
  8
0
 10
23.5315
 20
26.0053
  0
VERTEX
  8
0
 10
23.5443
 20
25.8266
  0
VERTEX
  8
0
 10
23.5443
 20
25.6479
  0
VERTEX
  8
0
 10
23.5188
 20
25.4691
  0
VERTEX
  8
0
 10
23.4932
 20
25.3032
  0
VERTEX
  8
0
 10
23.4549
 20
25.1372
  0
VERTEX
  8
0
 10
23.4166
 20
25.0351
  0
VERTEX
  8
0
 10
23.3656
 20
24.9457
  0
VERTEX
  8
0
 10
23.3017
 20
24.8564
  0
VERTEX
  8
0
 10
23.2507
 20
24.7798
  0
VERTEX
  8
0
 10
23.1868
 20
24.6904
  0
VERTEX
  8
0
 10
23.1102
 20
24.6266
  0
VERTEX
  8
0
 10
23.0464
 20
24.55
  0
VERTEX
  8
0
 10
22.9571
 20
24.4862
  0
VERTEX
  8
0
 10
22.8677
 20
24.4223
  0
VERTEX
  8
0
 10
22.7783
 20
24.3713
  0
VERTEX
  8
0
 10
22.6124
 20
24.3074
  0
VERTEX
  8
0
 10
22.4464
 20
24.2819
  0
VERTEX
  8
0
 10
22.2805
 20
24.2819
  0
VERTEX
  8
0
 10
22.1145
 20
24.2947
  0
VERTEX
  8
0
 10
21.9485
 20
24.333
  0
VERTEX
  8
0
 10
21.7826
 20
24.3713
  0
VERTEX
  8
0
 10
21.6294
 20
24.4223
  0
VERTEX
  8
0
 10
21.4634
 20
24.4734
  0
VERTEX
  8
0
 10
21.3102
 20
24.5372
  0
VERTEX
  8
0
 10
21.1571
 20
24.5883
  0
VERTEX
  8
0
 10
21.0549
 20
24.7415
  0
VERTEX
  8
0
 10
20.9656
 20
24.9074
  0
VERTEX
  8
0
 10
20.8762
 20
25.0734
  0
VERTEX
  8
0
 10
20.8251
 20
25.2649
  0
VERTEX
  8
0
 10
20.7741
 20
25.4436
  0
VERTEX
  8
0
 10
20.7485
 20
25.6351
  0
VERTEX
  8
0
 10
20.7358
 20
25.8266
  0
VERTEX
  8
0
 10
20.7358
 20
26.0309
  0
VERTEX
  8
0
 10
20.7741
 20
26.2223
  0
VERTEX
  8
0
 10
20.8251
 20
26.4138
  0
VERTEX
  8
0
 10
20.889
 20
26.5032
  0
VERTEX
  8
0
 10
20.9656
 20
26.6053
  0
VERTEX
  8
0
 10
21.0294
 20
26.6947
  0
VERTEX
  8
0
 10
21.0932
 20
26.7968
  0
VERTEX
  8
0
 10
21.1698
 20
26.8862
  0
VERTEX
  8
0
 10
21.2464
 20
26.9628
  0
VERTEX
  8
0
 10
21.3358
 20
27.0266
  0
VERTEX
  8
0
 10
21.4379
 20
27.0777
  0
VERTEX
  8
0
 10
21.54
 20
27.116
  0
VERTEX
  8
0
 10
21.6677
 20
27.1415
  0
VERTEX
  8
0
 10
21.8081
 20
27.1287
  0
VERTEX
  8
0
 10
21.9613
 20
27.116
  0
VERTEX
  8
0
 10
22.1273
 20
27.1032
  0
VERTEX
  8
0
 10
22.2805
 20
27.0904
  0
VERTEX
  8
0
 10
22.4337
 20
27.0649
  0
VERTEX
  8
0
 10
22.5868
 20
27.0394
  0
VERTEX
  8
0
 10
22.74
 20
26.9883
  0
VERTEX
  8
0
 10
22.8805
 20
26.9245
  0
VERTEX
  8
0
 10
23.0081
 20
26.8479
  0
VERTEX
  8
0
 10
23.123
 20
26.7585
  0
SEQEND
  0
POLYLINE
  8
0
 66
     1
 10
0
 20
0
  0
VERTEX
  8
0
 10
20.4805
 20
26.4138
  0
VERTEX
  8
0
 10
20.4039
 20
26.2096
  0
VERTEX
  8
0
 10
20.3783
 20
26.0181
  0
VERTEX
  8
0
 10
20.3911
 20
25.8394
  0
VERTEX
  8
0
 10
20.4166
 20
25.6479
  0
VERTEX
  8
0
 10
20.4549
 20
25.4819
  0
VERTEX
  8
0
 10
20.4932
 20
25.3032
  0
VERTEX
  8
0
 10
20.5315
 20
25.1245
  0
VERTEX
  8
0
 10
20.5315
 20
24.9457
  0
VERTEX
  8
0
 10
20.506
 20
24.767
  0
VERTEX
  8
0
 10
20.4422
 20
24.5883
  0
VERTEX
  8
0
 10
20.2251
 20
24.4734
  0
VERTEX
  8
0
 10
20.0081
 20
24.3713
  0
VERTEX
  8
0
 10
19.7783
 20
24.2947
  0
VERTEX
  8
0
 10
19.5358
 20
24.2309
  0
VERTEX
  8
0
 10
19.2932
 20
24.1926
  0
VERTEX
  8
0
 10
19.0507
 20
24.1926
  0
VERTEX
  8
0
 10
18.8081
 20
24.2053
  0
VERTEX
  8
0
 10
18.5783
 20
24.2691
  0
VERTEX
  8
0
 10
18.3485
 20
24.3585
  0
VERTEX
  8
0
 10
18.1443
 20
24.4989
  0
VERTEX
  8
0
 10
18.0677
 20
24.6011
  0
VERTEX
  8
0
 10
18.0039
 20
24.7032
  0
VERTEX
  8
0
 10
17.94
 20
24.8181
  0
VERTEX
  8
0
 10
17.889
 20
24.9202
  0
VERTEX
  8
0
 10
17.8379
 20
25.0351
  0
VERTEX
  8
0
 10
17.7868
 20
25.1372
  0
VERTEX
  8
0
 10
17.7358
 20
25.2521
  0
VERTEX
  8
0
 10
17.6975
 20
25.367
  0
VERTEX
  8
0
 10
17.6592
 20
25.4819
  0
VERTEX
  8
0
 10
17.6337
 20
25.6096
  0
VERTEX
  8
0
 10
17.672
 20
25.7372
  0
VERTEX
  8
0
 10
17.7102
 20
25.8521
  0
VERTEX
  8
0
 10
17.7613
 20
25.9798
  0
VERTEX
  8
0
 10
17.8251
 20
26.0947
  0
VERTEX
  8
0
 10
17.889
 20
26.2096
  0
VERTEX
  8
0
 10
17.9656
 20
26.3117
  0
VERTEX
  8
0
 10
18.0422
 20
26.4138
  0
VERTEX
  8
0
 10
18.1315
 20
26.5032
  0
VERTEX
  8
0
 10
18.2337
 20
26.5926
  0
VERTEX
  8
0
 10
18.3485
 20
26.6691
  0
VERTEX
  8
0
 10
18.5528
 20
26.7457
  0
VERTEX
  8
0
 10
18.7698
 20
26.8096
  0
VERTEX
  8
0
 10
18.9996
 20
26.8351
  0
VERTEX
  8
0
 10
19.2294
 20
26.8351
  0
VERTEX
  8
0
 10
19.4464
 20
26.8096
  0
VERTEX
  8
0
 10
19.6762
 20
26.7713
  0
VERTEX
  8
0
 10
19.8932
 20
26.7074
  0
VERTEX
  8
0
 10
20.0975
 20
26.6309
  0
VERTEX
  8
0
 10
20.3017
 20
26.5287
  0
VERTEX
  8
0
 10
20.4805
 20
26.4138
  0
SEQEND
  0
POLYLINE
  8
0
 66
     1
 10
0
 20
0
  0
VERTEX
  8
0
 10
9.2081
 20
24.4989
  0
VERTEX
  8
0
 10
9.0805
 20
24.384
  0
VERTEX
  8
0
 10
8.9656
 20
24.2691
  0
VERTEX
  8
0
 10
8.8507
 20
24.1543
  0
VERTEX
  8
0
 10
8.7485
 20
24.0266
  0
VERTEX
  8
0
 10
8.6337
 20
23.8989
  0
VERTEX
  8
0
 10
8.5443
 20
23.7713
  0
VERTEX
  8
0
 10
8.4422
 20
23.6436
  0
VERTEX
  8
0
 10
8.3656
 20
23.5032
  0
VERTEX
  8
0
 10
8.289
 20
23.3628
  0
VERTEX
  8
0
 10
8.2251
 20
23.2223
  0
VERTEX
  8
0
 10
8.072
 20
23.2606
  0
VERTEX
  8
0
 10
7.9443
 20
23.2989
  0
VERTEX
  8
0
 10
7.8294
 20
23.3628
  0
VERTEX
  8
0
 10
7.7145
 20
23.4394
  0
VERTEX
  8
0
 10
7.6124
 20
23.5287
  0
VERTEX
  8
0
 10
7.523
 20
23.6181
  0
VERTEX
  8
0
 10
7.4209
 20
23.7202
  0
VERTEX
  8
0
 10
7.3315
 20
23.8351
  0
VERTEX
  8
0
 10
7.2422
 20
23.95
  0
VERTEX
  8
0
 10
7.1656
 20
24.0777
  0
VERTEX
  8
0
 10
7.1528
 20
24.2309
  0
VERTEX
  8
0
 10
7.1528
 20
24.3968
  0
VERTEX
  8
0
 10
7.1528
 20
24.55
  0
VERTEX
  8
0
 10
7.1783
 20
24.716
  0
VERTEX
  8
0
 10
7.2039
 20
24.8819
  0
VERTEX
  8
0
 10
7.2422
 20
25.0351
  0
VERTEX
  8
0
 10
7.306
 20
25.1883
  0
VERTEX
  8
0
 10
7.3954
 20
25.3287
  0
VERTEX
  8
0
 10
7.4975
 20
25.4691
  0
VERTEX
  8
0
 10
7.6251
 20
25.6096
  0
VERTEX
  8
0
 10
7.689
 20
25.6606
  0
VERTEX
  8
0
 10
7.7528
 20
25.7245
  0
VERTEX
  8
0
 10
7.8166
 20
25.7883
  0
VERTEX
  8
0
 10
7.8805
 20
25.8521
  0
VERTEX
  8
0
 10
7.9571
 20
25.9032
  0
VERTEX
  8
0
 10
8.0337
 20
25.9543
  0
VERTEX
  8
0
 10
8.123
 20
25.9926
  0
VERTEX
  8
0
 10
8.1996
 20
26.0181
  0
VERTEX
  8
0
 10
8.3017
 20
26.0309
  0
VERTEX
  8
0
 10
8.3911
 20
26.0309
  0
VERTEX
  8
0
 10
8.4039
 20
25.8777
  0
VERTEX
  8
0
 10
8.4422
 20
25.7117
  0
VERTEX
  8
0
 10
8.506
 20
25.5457
  0
VERTEX
  8
0
 10
8.5698
 20
25.367
  0
VERTEX
  8
0
 10
8.6592
 20
25.1883
  0
VERTEX
  8
0
 10
8.7613
 20
25.0223
  0
VERTEX
  8
0
 10
8.8634
 20
24.8691
  0
VERTEX
  8
0
 10
8.9656
 20
24.716
  0
VERTEX
  8
0
 10
9.0805
 20
24.6011
  0
VERTEX
  8
0
 10
9.2081
 20
24.4989
  0
SEQEND
  0
POLYLINE
  8
0
 66
     1
 10
0
 20
0
  0
VERTEX
  8
0
 10
25.6251
 20
24.7926
  0
VERTEX
  8
0
 10
25.6507
 20
24.6649
  0
VERTEX
  8
0
 10
25.6507
 20
24.5372
  0
VERTEX
  8
0
 10
25.6379
 20
24.4223
  0
VERTEX
  8
0
 10
25.5996
 20
24.3074
  0
VERTEX
  8
0
 10
25.5613
 20
24.1926
  0
VERTEX
  8
0
 10
25.4975
 20
24.0904
  0
VERTEX
  8
0
 10
25.4337
 20
24.0011
  0
VERTEX
  8
0
 10
25.3698
 20
23.9117
  0
VERTEX
  8
0
 10
25.306
 20
23.8223
  0
VERTEX
  8
0
 10
25.2422
 20
23.733
  0
VERTEX
  8
0
 10
25.1273
 20
23.6436
  0
VERTEX
  8
0
 10
25.0124
 20
23.5543
  0
VERTEX
  8
0
 10
24.8975
 20
23.4904
  0
VERTEX
  8
0
 10
24.7698
 20
23.4266
  0
VERTEX
  8
0
 10
24.6294
 20
23.3755
  0
VERTEX
  8
0
 10
24.5017
 20
23.3372
  0
VERTEX
  8
0
 10
24.3613
 20
23.3117
  0
VERTEX
  8
0
 10
24.2209
 20
23.3117
  0
VERTEX
  8
0
 10
24.0677
 20
23.3117
  0
VERTEX
  8
0
 10
23.9273
 20
23.35
  0
VERTEX
  8
0
 10
23.8634
 20
23.4394
  0
VERTEX
  8
0
 10
23.8124
 20
23.5415
  0
VERTEX
  8
0
 10
23.7741
 20
23.6436
  0
VERTEX
  8
0
 10
23.723
 20
23.733
  0
VERTEX
  8
0
 10
23.672
 20
23.8351
  0
VERTEX
  8
0
 10
23.6209
 20
23.9372
  0
VERTEX
  8
0
 10
23.5571
 20
24.0266
  0
VERTEX
  8
0
 10
23.4805
 20
24.1032
  0
VERTEX
  8
0
 10
23.3911
 20
24.1798
  0
VERTEX
  8
0
 10
23.289
 20
24.2436
  0
VERTEX
  8
0
 10
23.4039
 20
24.3968
  0
VERTEX
  8
0
 10
23.5188
 20
24.55
  0
VERTEX
  8
0
 10
23.6337
 20
24.7032
  0
VERTEX
  8
0
 10
23.7485
 20
24.8564
  0
VERTEX
  8
0
 10
23.8379
 20
25.0223
  0
VERTEX
  8
0
 10
23.9273
 20
25.1883
  0
VERTEX
  8
0
 10
23.9911
 20
25.367
  0
VERTEX
  8
0
 10
24.0294
 20
25.5457
  0
VERTEX
  8
0
 10
24.0549
 20
25.7372
  0
VERTEX
  8
0
 10
24.0549
 20
25.9415
  0
VERTEX
  8
0
 10
24.1698
 20
25.9926
  0
VERTEX
  8
0
 10
24.2975
 20
25.9926
  0
VERTEX
  8
0
 10
24.4124
 20
25.9798
  0
VERTEX
  8
0
 10
24.5273
 20
25.9415
  0
VERTEX
  8
0
 10
24.6422
 20
25.8904
  0
VERTEX
  8
0
 10
24.7571
 20
25.8266
  0
VERTEX
  8
0
 10
24.872
 20
25.75
  0
VERTEX
  8
0
 10
24.9741
 20
25.6734
  0
VERTEX
  8
0
 10
25.089
 20
25.6096
  0
VERTEX
  8
0
 10
25.2039
 20
25.5585
  0
VERTEX
  8
0
 10
25.2677
 20
25.4947
  0
VERTEX
  8
0
 10
25.3188
 20
25.4181
  0
VERTEX
  8
0
 10
25.3698
 20
25.3543
  0
VERTEX
  8
0
 10
25.4337
 20
25.2777
  0
VERTEX
  8
0
 10
25.472
 20
25.2011
  0
VERTEX
  8
0
 10
25.523
 20
25.1245
  0
VERTEX
  8
0
 10
25.5485
 20
25.0479
  0
VERTEX
  8
0
 10
25.5868
 20
24.9713
  0
VERTEX
  8
0
 10
25.6124
 20
24.8819
  0
VERTEX
  8
0
 10
25.6251
 20
24.7926
  0
SEQEND
  0
POLYLINE
  8
0
 66
     1
 10
0
 20
0
  0
VERTEX
  8
0
 10
17.4549
 20
25.3032
  0
VERTEX
  8
0
 10
17.5315
 20
25.1628
  0
VERTEX
  8
0
 10
17.6081
 20
25.0096
  0
VERTEX
  8
0
 10
17.6592
 20
24.8564
  0
VERTEX
  8
0
 10
17.6975
 20
24.6904
  0
VERTEX
  8
0
 10
17.7102
 20
24.5245
  0
VERTEX
  8
0
 10
17.723
 20
24.3713
  0
VERTEX
  8
0
 10
17.7102
 20
24.2053
  0
VERTEX
  8
0
 10
17.672
 20
24.0394
  0
VERTEX
  8
0
 10
17.6209
 20
23.8862
  0
VERTEX
  8
0
 10
17.5443
 20
23.733
  0
VERTEX
  8
0
 10
17.4422
 20
23.567
  0
VERTEX
  8
0
 10
17.3273
 20
23.4138
  0
VERTEX
  8
0
 10
17.2124
 20
23.2734
  0
VERTEX
  8
0
 10
17.0847
 20
23.1585
  0
VERTEX
  8
0
 10
16.9443
 20
23.0564
  0
VERTEX
  8
0
 10
16.8039
 20
22.967
  0
VERTEX
  8
0
 10
16.6507
 20
22.9032
  0
VERTEX
  8
0
 10
16.4847
 20
22.8521
  0
VERTEX
  8
0
 10
16.3188
 20
22.8138
  0
VERTEX
  8
0
 10
16.14
 20
22.8011
  0
VERTEX
  8
0
 10
15.9741
 20
22.8011
  0
VERTEX
  8
0
 10
15.8209
 20
22.8138
  0
VERTEX
  8
0
 10
15.6549
 20
22.8266
  0
VERTEX
  8
0
 10
15.5017
 20
22.8521
  0
VERTEX
  8
0
 10
15.3485
 20
22.8904
  0
VERTEX
  8
0
 10
15.2081
 20
22.9287
  0
VERTEX
  8
0
 10
15.0677
 20
22.9926
  0
VERTEX
  8
0
 10
14.94
 20
23.0564
  0
VERTEX
  8
0
 10
14.8124
 20
23.1457
  0
VERTEX
  8
0
 10
14.6975
 20
23.2606
  0
VERTEX
  8
0
 10
14.6464
 20
23.4266
  0
VERTEX
  8
0
 10
14.5954
 20
23.5926
  0
VERTEX
  8
0
 10
14.5698
 20
23.7585
  0
VERTEX
  8
0
 10
14.5443
 20
23.9372
  0
VERTEX
  8
0
 10
14.5443
 20
24.116
  0
VERTEX
  8
0
 10
14.5443
 20
24.2819
  0
VERTEX
  8
0
 10
14.5698
 20
24.4606
  0
VERTEX
  8
0
 10
14.6209
 20
24.6138
  0
VERTEX
  8
0
 10
14.6847
 20
24.7798
  0
VERTEX
  8
0
 10
14.7741
 20
24.9202
  0
VERTEX
  8
0
 10
14.8762
 20
25.0606
  0
VERTEX
  8
0
 10
14.9911
 20
25.2138
  0
VERTEX
  8
0
 10
15.1188
 20
25.3415
  0
VERTEX
  8
0
 10
15.2464
 20
25.4691
  0
VERTEX
  8
0
 10
15.3868
 20
25.584
  0
VERTEX
  8
0
 10
15.5273
 20
25.6734
  0
VERTEX
  8
0
 10
15.6932
 20
25.75
  0
VERTEX
  8
0
 10
15.8592
 20
25.8011
  0
VERTEX
  8
0
 10
16.0379
 20
25.8266
  0
VERTEX
  8
0
 10
16.2294
 20
25.8138
  0
VERTEX
  8
0
 10
16.3571
 20
25.8138
  0
VERTEX
  8
0
 10
16.4847
 20
25.8011
  0
VERTEX
  8
0
 10
16.6251
 20
25.7883
  0
VERTEX
  8
0
 10
16.7528
 20
25.75
  0
VERTEX
  8
0
 10
16.8805
 20
25.6989
  0
VERTEX
  8
0
 10
17.0081
 20
25.6479
  0
VERTEX
  8
0
 10
17.123
 20
25.584
  0
VERTEX
  8
0
 10
17.2379
 20
25.4947
  0
VERTEX
  8
0
 10
17.3528
 20
25.4053
  0
VERTEX
  8
0
 10
17.4549
 20
25.3032
  0
SEQEND
  0
POLYLINE
  8
0
 66
     1
 10
0
 20
0
  0
VERTEX
  8
0
 10
14.1868
 20
24.6649
  0
VERTEX
  8
0
 10
14.2251
 20
24.5245
  0
VERTEX
  8
0
 10
14.2507
 20
24.3713
  0
VERTEX
  8
0
 10
14.2634
 20
24.2053
  0
VERTEX
  8
0
 10
14.2634
 20
24.0394
  0
VERTEX
  8
0
 10
14.2634
 20
23.8862
  0
VERTEX
  8
0
 10
14.2634
 20
23.7202
  0
VERTEX
  8
0
 10
14.2762
 20
23.5543
  0
VERTEX
  8
0
 10
14.3017
 20
23.3883
  0
VERTEX
  8
0
 10
14.3528
 20
23.2351
  0
VERTEX
  8
0
 10
14.4422
 20
23.0947
  0
VERTEX
  8
0
 10
14.3656
 20
22.9415
  0
VERTEX
  8
0
 10
14.2762
 20
22.8011
  0
VERTEX
  8
0
 10
14.1741
 20
22.6606
  0
VERTEX
  8
0
 10
14.0464
 20
22.533
  0
VERTEX
  8
0
 10
13.906
 20
22.4181
  0
VERTEX
  8
0
 10
13.7528
 20
22.316
  0
VERTEX
  8
0
 10
13.5868
 20
22.2394
  0
VERTEX
  8
0
 10
13.4209
 20
22.1755
  0
VERTEX
  8
0
 10
13.2549
 20
22.1245
  0
VERTEX
  8
0
 10
13.0762
 20
22.1117
  0
VERTEX
  8
0
 10
12.9358
 20
22.1117
  0
VERTEX
  8
0
 10
12.7954
 20
22.1245
  0
VERTEX
  8
0
 10
12.6549
 20
22.15
  0
VERTEX
  8
0
 10
12.5145
 20
22.1755
  0
VERTEX
  8
0
 10
12.3741
 20
22.2138
  0
VERTEX
  8
0
 10
12.2337
 20
22.2777
  0
VERTEX
  8
0
 10
12.106
 20
22.3415
  0
VERTEX
  8
0
 10
11.9783
 20
22.4181
  0
VERTEX
  8
0
 10
11.8634
 20
22.5202
  0
VERTEX
  8
0
 10
11.7613
 20
22.6223
  0
VERTEX
  8
0
 10
11.723
 20
22.6734
  0
VERTEX
  8
0
 10
11.6975
 20
22.7245
  0
VERTEX
  8
0
 10
11.672
 20
22.7883
  0
VERTEX
  8
0
 10
11.6592
 20
22.8521
  0
VERTEX
  8
0
 10
11.6464
 20
22.916
  0
VERTEX
  8
0
 10
11.6337
 20
22.967
  0
VERTEX
  8
0
 10
11.6209
 20
23.0309
  0
VERTEX
  8
0
 10
11.5954
 20
23.0819
  0
VERTEX
  8
0
 10
11.5571
 20
23.133
  0
VERTEX
  8
0
 10
11.506
 20
23.184
  0
VERTEX
  8
0
 10
11.506
 20
23.0436
  0
VERTEX
  8
0
 10
11.506
 20
22.916
  0
VERTEX
  8
0
 10
11.4805
 20
22.7755
  0
VERTEX
  8
0
 10
11.4549
 20
22.6479
  0
VERTEX
  8
0
 10
11.4294
 20
22.5074
  0
VERTEX
  8
0
 10
11.3783
 20
22.3798
  0
VERTEX
  8
0
 10
11.3273
 20
22.2521
  0
VERTEX
  8
0
 10
11.2507
 20
22.1372
  0
VERTEX
  8
0
 10
11.1741
 20
22.0351
  0
VERTEX
  8
0
 10
11.072
 20
21.9457
  0
VERTEX
  8
0
 10
10.906
 20
21.8053
  0
VERTEX
  8
0
 10
10.7273
 20
21.6649
  0
VERTEX
  8
0
 10
10.5485
 20
21.55
  0
VERTEX
  8
0
 10
10.3443
 20
21.4606
  0
VERTEX
  8
0
 10
10.14
 20
21.3713
  0
VERTEX
  8
0
 10
9.9358
 20
21.3202
  0
VERTEX
  8
0
 10
9.7188
 20
21.2947
  0
VERTEX
  8
0
 10
9.5017
 20
21.3074
  0
VERTEX
  8
0
 10
9.2847
 20
21.3457
  0
VERTEX
  8
0
 10
9.0805
 20
21.4351
  0
VERTEX
  8
0
 10
8.9911
 20
21.4606
  0
VERTEX
  8
0
 10
8.9145
 20
21.4989
  0
VERTEX
  8
0
 10
8.8507
 20
21.55
  0
VERTEX
  8
0
 10
8.7741
 20
21.6011
  0
VERTEX
  8
0
 10
8.7102
 20
21.6521
  0
VERTEX
  8
0
 10
8.6592
 20
21.716
  0
VERTEX
  8
0
 10
8.6081
 20
21.7798
  0
VERTEX
  8
0
 10
8.5698
 20
21.8436
  0
VERTEX
  8
0
 10
8.5443
 20
21.9202
  0
VERTEX
  8
0
 10
8.5188
 20
21.984
  0
VERTEX
  8
0
 10
8.4805
 20
22.2394
  0
VERTEX
  8
0
 10
8.4805
 20
22.4819
  0
VERTEX
  8
0
 10
8.506
 20
22.7245
  0
VERTEX
  8
0
 10
8.5698
 20
22.9543
  0
VERTEX
  8
0
 10
8.6592
 20
23.1713
  0
VERTEX
  8
0
 10
8.7741
 20
23.3883
  0
VERTEX
  8
0
 10
8.9017
 20
23.5798
  0
VERTEX
  8
0
 10
9.0677
 20
23.7585
  0
VERTEX
  8
0
 10
9.2592
 20
23.9245
  0
VERTEX
  8
0
 10
9.4634
 20
24.0777
  0
VERTEX
  8
0
 10
9.6805
 20
24.1287
  0
VERTEX
  8
0
 10
9.8975
 20
24.1543
  0
VERTEX
  8
0
 10
10.1145
 20
24.167
  0
VERTEX
  8
0
 10
10.3315
 20
24.1543
  0
VERTEX
  8
0
 10
10.5358
 20
24.116
  0
VERTEX
  8
0
 10
10.7273
 20
24.0521
  0
VERTEX
  8
0
 10
10.9188
 20
23.9628
  0
VERTEX
  8
0
 10
11.0975
 20
23.8479
  0
VERTEX
  8
0
 10
11.2634
 20
23.7202
  0
VERTEX
  8
0
 10
11.4166
 20
23.567
  0
VERTEX
  8
0
 10
11.4677
 20
23.7202
  0
VERTEX
  8
0
 10
11.5443
 20
23.8989
  0
VERTEX
  8
0
 10
11.6464
 20
24.0649
  0
VERTEX
  8
0
 10
11.7485
 20
24.2309
  0
VERTEX
  8
0
 10
11.8762
 20
24.384
  0
VERTEX
  8
0
 10
12.0166
 20
24.5245
  0
VERTEX
  8
0
 10
12.1698
 20
24.6394
  0
VERTEX
  8
0
 10
12.3358
 20
24.7415
  0
VERTEX
  8
0
 10
12.5145
 20
24.8053
  0
VERTEX
  8
0
 10
12.6932
 20
24.8436
  0
VERTEX
  8
0
 10
12.8464
 20
24.8436
  0
VERTEX
  8
0
 10
12.9996
 20
24.8436
  0
VERTEX
  8
0
 10
13.1656
 20
24.8436
  0
VERTEX
  8
0
 10
13.3188
 20
24.8309
  0
VERTEX
  8
0
 10
13.4592
 20
24.8181
  0
VERTEX
  8
0
 10
13.6124
 20
24.8053
  0
VERTEX
  8
0
 10
13.7656
 20
24.7926
  0
VERTEX
  8
0
 10
13.906
 20
24.7543
  0
VERTEX
  8
0
 10
14.0464
 20
24.716
  0
VERTEX
  8
0
 10
14.1868
 20
24.6649
  0
SEQEND
  0
POLYLINE
  8
0
 66
     1
 10
0
 20
0
  0
VERTEX
  8
0
 10
22.9954
 20
23.8606
  0
VERTEX
  8
0
 10
23.1485
 20
23.7457
  0
VERTEX
  8
0
 10
23.2634
 20
23.6181
  0
VERTEX
  8
0
 10
23.3656
 20
23.4649
  0
VERTEX
  8
0
 10
23.4294
 20
23.3117
  0
VERTEX
  8
0
 10
23.4805
 20
23.133
  0
VERTEX
  8
0
 10
23.5188
 20
22.967
  0
VERTEX
  8
0
 10
23.5571
 20
22.7883
  0
VERTEX
  8
0
 10
23.5698
 20
22.6096
  0
VERTEX
  8
0
 10
23.5954
 20
22.4436
  0
VERTEX
  8
0
 10
23.6337
 20
22.2904
  0
VERTEX
  8
0
 10
23.5315
 20
22.1883
  0
VERTEX
  8
0
 10
23.4422
 20
22.0862
  0
VERTEX
  8
0
 10
23.3528
 20
21.9713
  0
VERTEX
  8
0
 10
23.2634
 20
21.8564
  0
VERTEX
  8
0
 10
23.1613
 20
21.7415
  0
VERTEX
  8
0
 10
23.072
 20
21.6394
  0
VERTEX
  8
0
 10
22.9571
 20
21.5372
  0
VERTEX
  8
0
 10
22.8422
 20
21.4606
  0
VERTEX
  8
0
 10
22.7145
 20
21.384
  0
VERTEX
  8
0
 10
22.5613
 20
21.3457
  0
VERTEX
  8
0
 10
22.3826
 20
21.2947
  0
VERTEX
  8
0
 10
22.2166
 20
21.2691
  0
VERTEX
  8
0
 10
22.0379
 20
21.2564
  0
VERTEX
  8
0
 10
21.8592
 20
21.2691
  0
VERTEX
  8
0
 10
21.6805
 20
21.3074
  0
VERTEX
  8
0
 10
21.5145
 20
21.3457
  0
VERTEX
  8
0
 10
21.3485
 20
21.4096
  0
VERTEX
  8
0
 10
21.1954
 20
21.4862
  0
VERTEX
  8
0
 10
21.0422
 20
21.5883
  0
VERTEX
  8
0
 10
20.9017
 20
21.6904
  0
VERTEX
  8
0
 10
20.8634
 20
21.8691
  0
VERTEX
  8
0
 10
20.8379
 20
22.0479
  0
VERTEX
  8
0
 10
20.8251
 20
22.2394
  0
VERTEX
  8
0
 10
20.8124
 20
22.4181
  0
VERTEX
  8
0
 10
20.7868
 20
22.6096
  0
VERTEX
  8
0
 10
20.7613
 20
22.7883
  0
VERTEX
  8
0
 10
20.7102
 20
22.967
  0
VERTEX
  8
0
 10
20.6464
 20
23.133
  0
VERTEX
  8
0
 10
20.5571
 20
23.2862
  0
VERTEX
  8
0
 10
20.4422
 20
23.4394
  0
VERTEX
  8
0
 10
20.4549
 20
23.567
  0
VERTEX
  8
0
 10
20.506
 20
23.6691
  0
VERTEX
  8
0
 10
20.5826
 20
23.7457
  0
VERTEX
  8
0
 10
20.672
 20
23.8223
  0
VERTEX
  8
0
 10
20.7741
 20
23.8734
  0
VERTEX
  8
0
 10
20.8762
 20
23.9245
  0
VERTEX
  8
0
 10
20.9911
 20
23.9628
  0
VERTEX
  8
0
 10
21.0932
 20
24.0138
  0
VERTEX
  8
0
 10
21.1954
 20
24.0777
  0
VERTEX
  8
0
 10
21.2847
 20
24.1543
  0
VERTEX
  8
0
 10
21.4507
 20
24.0777
  0
VERTEX
  8
0
 10
21.6166
 20
24.0138
  0
VERTEX
  8
0
 10
21.7826
 20
23.9628
  0
VERTEX
  8
0
 10
21.9613
 20
23.9117
  0
VERTEX
  8
0
 10
22.1273
 20
23.8862
  0
VERTEX
  8
0
 10
22.306
 20
23.8606
  0
VERTEX
  8
0
 10
22.4847
 20
23.8351
  0
VERTEX
  8
0
 10
22.6507
 20
23.8351
  0
VERTEX
  8
0
 10
22.8166
 20
23.8479
  0
VERTEX
  8
0
 10
22.9954
 20
23.8606
  0
SEQEND
  0
POLYLINE
  8
0
 66
     1
 10
0
 20
0
  0
VERTEX
  8
0
 10
19.6251
 20
23.8223
  0
VERTEX
  8
0
 10
19.8166
 20
23.7713
  0
VERTEX
  8
0
 10
19.9698
 20
23.6819
  0
VERTEX
  8
0
 10
20.0975
 20
23.567
  0
VERTEX
  8
0
 10
20.1868
 20
23.4394
  0
VERTEX
  8
0
 10
20.2634
 20
23.2862
  0
VERTEX
  8
0
 10
20.3273
 20
23.1202
  0
VERTEX
  8
0
 10
20.3656
 20
22.9415
  0
VERTEX
  8
0
 10
20.4039
 20
22.7628
  0
VERTEX
  8
0
 10
20.4422
 20
22.584
  0
VERTEX
  8
0
 10
20.4805
 20
22.4181
  0
VERTEX
  8
0
 10
20.4677
 20
22.316
  0
VERTEX
  8
0
 10
20.4549
 20
22.2266
  0
VERTEX
  8
0
 10
20.4422
 20
22.15
  0
VERTEX
  8
0
 10
20.4294
 20
22.0606
  0
VERTEX
  8
0
 10
20.4039
 20
21.9713
  0
VERTEX
  8
0
 10
20.3783
 20
21.8819
  0
VERTEX
  8
0
 10
20.3528
 20
21.8053
  0
VERTEX
  8
0
 10
20.3273
 20
21.716
  0
VERTEX
  8
0
 10
20.3017
 20
21.6394
  0
VERTEX
  8
0
 10
20.2634
 20
21.5628
  0
VERTEX
  8
0
 10
20.2251
 20
21.6011
  0
VERTEX
  8
0
 10
20.123
 20
21.4351
  0
VERTEX
  8
0
 10
19.9826
 20
21.3074
  0
VERTEX
  8
0
 10
19.8422
 20
21.1926
  0
VERTEX
  8
0
 10
19.6762
 20
21.116
  0
VERTEX
  8
0
 10
19.4975
 20
21.0521
  0
VERTEX
  8
0
 10
19.3188
 20
21.0138
  0
VERTEX
  8
0
 10
19.14
 20
21.0011
  0
VERTEX
  8
0
 10
18.9485
 20
20.9883
  0
VERTEX
  8
0
 10
18.7698
 20
20.9883
  0
VERTEX
  8
0
 10
18.6039
 20
21.0138
  0
VERTEX
  8
0
 10
18.489
 20
21.0394
  0
VERTEX
  8
0
 10
18.3741
 20
21.0777
  0
VERTEX
  8
0
 10
18.2592
 20
21.116
  0
VERTEX
  8
0
 10
18.1315
 20
21.167
  0
VERTEX
  8
0
 10
18.0166
 20
21.2181
  0
VERTEX
  8
0
 10
17.9145
 20
21.2819
  0
VERTEX
  8
0
 10
17.8251
 20
21.3585
  0
VERTEX
  8
0
 10
17.7358
 20
21.4606
  0
VERTEX
  8
0
 10
17.672
 20
21.5628
  0
VERTEX
  8
0
 10
17.6337
 20
21.6904
  0
VERTEX
  8
0
 10
17.5698
 20
21.9074
  0
VERTEX
  8
0
 10
17.5443
 20
22.1245
  0
VERTEX
  8
0
 10
17.5443
 20
22.3415
  0
VERTEX
  8
0
 10
17.5571
 20
22.5457
  0
VERTEX
  8
0
 10
17.5954
 20
22.7372
  0
VERTEX
  8
0
 10
17.6592
 20
22.9287
  0
VERTEX
  8
0
 10
17.7485
 20
23.1074
  0
VERTEX
  8
0
 10
17.8379
 20
23.2989
  0
VERTEX
  8
0
 10
17.9656
 20
23.4777
  0
VERTEX
  8
0
 10
18.0932
 20
23.6436
  0
VERTEX
  8
0
 10
18.2337
 20
23.7713
  0
VERTEX
  8
0
 10
18.3741
 20
23.8351
  0
VERTEX
  8
0
 10
18.5273
 20
23.8606
  0
VERTEX
  8
0
 10
18.6805
 20
23.8479
  0
VERTEX
  8
0
 10
18.8464
 20
23.8223
  0
VERTEX
  8
0
 10
18.9996
 20
23.7968
  0
VERTEX
  8
0
 10
19.1656
 20
23.7713
  0
VERTEX
  8
0
 10
19.3188
 20
23.7457
  0
VERTEX
  8
0
 10
19.4847
 20
23.7585
  0
VERTEX
  8
0
 10
19.6251
 20
23.8223
  0
SEQEND
  0
POLYLINE
  8
0
 66
     1
 10
0
 20
0
  0
VERTEX
  8
0
 10
8.5188
 20
21.2181
  0
VERTEX
  8
0
 10
8.4294
 20
21.1287
  0
VERTEX
  8
0
 10
8.3273
 20
21.0266
  0
VERTEX
  8
0
 10
8.2124
 20
20.9117
  0
VERTEX
  8
0
 10
8.1102
 20
20.7968
  0
VERTEX
  8
0
 10
7.9954
 20
20.6819
  0
VERTEX
  8
0
 10
7.8805
 20
20.5543
  0
VERTEX
  8
0
 10
7.7783
 20
20.4266
  0
VERTEX
  8
0
 10
7.689
 20
20.2989
  0
VERTEX
  8
0
 10
7.6124
 20
20.1585
  0
VERTEX
  8
0
 10
7.5485
 20
20.0309
  0
VERTEX
  8
0
 10
7.472
 20
19.9798
  0
VERTEX
  8
0
 10
7.3954
 20
19.9543
  0
VERTEX
  8
0
 10
7.306
 20
19.9798
  0
VERTEX
  8
0
 10
7.2294
 20
20.0181
  0
VERTEX
  8
0
 10
7.14
 20
20.0819
  0
VERTEX
  8
0
 10
7.0507
 20
20.1457
  0
VERTEX
  8
0
 10
6.9613
 20
20.2223
  0
VERTEX
  8
0
 10
6.872
 20
20.2862
  0
VERTEX
  8
0
 10
6.7826
 20
20.3372
  0
VERTEX
  8
0
 10
6.6932
 20
20.3755
  0
VERTEX
  8
0
 10
6.5783
 20
20.4138
  0
VERTEX
  8
0
 10
6.4507
 20
20.4266
  0
VERTEX
  8
0
 10
6.3102
 20
20.4138
  0
VERTEX
  8
0
 10
6.1826
 20
20.4011
  0
VERTEX
  8
0
 10
6.0422
 20
20.3755
  0
VERTEX
  8
0
 10
5.9145
 20
20.3755
  0
VERTEX
  8
0
 10
5.8124
 20
20.3755
  0
VERTEX
  8
0
 10
5.7102
 20
20.4138
  0
VERTEX
  8
0
 10
5.6337
 20
20.5032
  0
VERTEX
  8
0
 10
5.5826
 20
20.6309
  0
VERTEX
  8
0
 10
5.5954
 20
20.8862
  0
VERTEX
  8
0
 10
5.6464
 20
21.1415
  0
VERTEX
  8
0
 10
5.723
 20
21.384
  0
VERTEX
  8
0
 10
5.8379
 20
21.6011
  0
VERTEX
  8
0
 10
5.9656
 20
21.8053
  0
VERTEX
  8
0
 10
6.1315
 20
21.9968
  0
VERTEX
  8
0
 10
6.2975
 20
22.1755
  0
VERTEX
  8
0
 10
6.489
 20
22.3415
  0
VERTEX
  8
0
 10
6.6932
 20
22.4819
  0
VERTEX
  8
0
 10
6.9102
 20
22.6223
  0
VERTEX
  8
0
 10
6.9996
 20
22.6734
  0
VERTEX
  8
0
 10
7.1017
 20
22.7117
  0
VERTEX
  8
0
 10
7.2166
 20
22.7372
  0
VERTEX
  8
0
 10
7.3188
 20
22.7628
  0
VERTEX
  8
0
 10
7.4337
 20
22.7883
  0
VERTEX
  8
0
 10
7.5485
 20
22.7883
  0
VERTEX
  8
0
 10
7.6634
 20
22.8011
  0
VERTEX
  8
0
 10
7.7783
 20
22.7883
  0
VERTEX
  8
0
 10
7.8932
 20
22.7755
  0
VERTEX
  8
0
 10
8.0081
 20
22.75
  0
VERTEX
  8
0
 10
8.072
 20
22.5968
  0
VERTEX
  8
0
 10
8.1102
 20
22.4436
  0
VERTEX
  8
0
 10
8.1358
 20
22.2777
  0
VERTEX
  8
0
 10
8.1485
 20
22.1117
  0
VERTEX
  8
0
 10
8.1741
 20
21.9457
  0
VERTEX
  8
0
 10
8.1996
 20
21.7798
  0
VERTEX
  8
0
 10
8.2507
 20
21.6266
  0
VERTEX
  8
0
 10
8.3145
 20
21.4862
  0
VERTEX
  8
0
 10
8.4039
 20
21.3457
  0
VERTEX
  8
0
 10
8.5188
 20
21.2181
  0
SEQEND
  0
POLYLINE
  8
0
 66
     1
 10
0
 20
0
  0
VERTEX
  8
0
 10
16.9443
 20
21.9457
  0
VERTEX
  8
0
 10
17.0209
 20
21.8181
  0
VERTEX
  8
0
 10
17.0847
 20
21.6904
  0
VERTEX
  8
0
 10
17.1358
 20
21.5628
  0
VERTEX
  8
0
 10
17.1868
 20
21.4351
  0
VERTEX
  8
0
 10
17.2251
 20
21.2947
  0
VERTEX
  8
0
 10
17.2507
 20
21.167
  0
VERTEX
  8
0
 10
17.2634
 20
21.0266
  0
VERTEX
  8
0
 10
17.2634
 20
20.8862
  0
VERTEX
  8
0
 10
17.2379
 20
20.733
  0
VERTEX
  8
0
 10
17.1996
 20
20.5798
  0
VERTEX
  8
0
 10
17.1358
 20
20.3755
  0
VERTEX
  8
0
 10
17.0337
 20
20.184
  0
VERTEX
  8
0
 10
16.906
 20
20.0309
  0
VERTEX
  8
0
 10
16.7528
 20
19.8904
  0
VERTEX
  8
0
 10
16.5741
 20
19.7883
  0
VERTEX
  8
0
 10
16.3954
 20
19.6862
  0
VERTEX
  8
0
 10
16.1911
 20
19.6223
  0
VERTEX
  8
0
 10
15.9868
 20
19.5585
  0
VERTEX
  8
0
 10
15.7826
 20
19.5074
  0
VERTEX
  8
0
 10
15.5911
 20
19.4819
  0
VERTEX
  8
0
 10
15.4251
 20
19.4691
  0
VERTEX
  8
0
 10
15.272
 20
19.4819
  0
VERTEX
  8
0
 10
15.1188
 20
19.5074
  0
VERTEX
  8
0
 10
14.9783
 20
19.5457
  0
VERTEX
  8
0
 10
14.8379
 20
19.6096
  0
VERTEX
  8
0
 10
14.7102
 20
19.6862
  0
VERTEX
  8
0
 10
14.5954
 20
19.7755
  0
VERTEX
  8
0
 10
14.4932
 20
19.8777
  0
VERTEX
  8
0
 10
14.3911
 20
19.9926
  0
VERTEX
  8
0
 10
14.3145
 20
20.1202
  0
VERTEX
  8
0
 10
14.2379
 20
20.2734
  0
VERTEX
  8
0
 10
14.1868
 20
20.4266
  0
VERTEX
  8
0
 10
14.1485
 20
20.5798
  0
VERTEX
  8
0
 10
14.123
 20
20.7457
  0
VERTEX
  8
0
 10
14.123
 20
20.8989
  0
VERTEX
  8
0
 10
14.123
 20
21.0521
  0
VERTEX
  8
0
 10
14.1485
 20
21.2181
  0
VERTEX
  8
0
 10
14.1868
 20
21.3713
  0
VERTEX
  8
0
 10
14.2379
 20
21.5372
  0
VERTEX
  8
0
 10
14.3145
 20
21.6904
  0
VERTEX
  8
0
 10
14.4166
 20
21.8309
  0
VERTEX
  8
0
 10
14.5315
 20
21.9457
  0
VERTEX
  8
0
 10
14.6592
 20
22.0479
  0
VERTEX
  8
0
 10
14.7996
 20
22.1245
  0
VERTEX
  8
0
 10
14.94
 20
22.1883
  0
VERTEX
  8
0
 10
15.0932
 20
22.2394
  0
VERTEX
  8
0
 10
15.2464
 20
22.2904
  0
VERTEX
  8
0
 10
15.3996
 20
22.3287
  0
VERTEX
  8
0
 10
15.5528
 20
22.367
  0
VERTEX
  8
0
 10
15.7188
 20
22.4181
  0
VERTEX
  8
0
 10
15.8464
 20
22.3926
  0
VERTEX
  8
0
 10
15.9741
 20
22.367
  0
VERTEX
  8
0
 10
16.1145
 20
22.3415
  0
VERTEX
  8
0
 10
16.2422
 20
22.3032
  0
VERTEX
  8
0
 10
16.3698
 20
22.2649
  0
VERTEX
  8
0
 10
16.4975
 20
22.2266
  0
VERTEX
  8
0
 10
16.6124
 20
22.1755
  0
VERTEX
  8
0
 10
16.7273
 20
22.1117
  0
VERTEX
  8
0
 10
16.8422
 20
22.0351
  0
VERTEX
  8
0
 10
16.9443
 20
21.9457
  0
SEQEND
  0
POLYLINE
  8
0
 66
     1
 10
0
 20
0
  0
VERTEX
  8
0
 10
13.8422
 20
21.2181
  0
VERTEX
  8
0
 10
13.8166
 20
21.0777
  0
VERTEX
  8
0
 10
13.8166
 20
20.95
  0
VERTEX
  8
0
 10
13.8294
 20
20.8096
  0
VERTEX
  8
0
 10
13.8549
 20
20.6691
  0
VERTEX
  8
0
 10
13.8677
 20
20.5287
  0
VERTEX
  8
0
 10
13.8805
 20
20.4011
  0
VERTEX
  8
0
 10
13.8677
 20
20.2734
  0
VERTEX
  8
0
 10
13.8422
 20
20.1585
  0
VERTEX
  8
0
 10
13.7783
 20
20.0436
  0
VERTEX
  8
0
 10
13.6762
 20
19.9415
  0
VERTEX
  8
0
 10
13.5613
 20
19.8138
  0
VERTEX
  8
0
 10
13.4464
 20
19.6989
  0
VERTEX
  8
0
 10
13.3188
 20
19.6223
  0
VERTEX
  8
0
 10
13.1783
 20
19.5713
  0
VERTEX
  8
0
 10
13.0379
 20
19.5202
  0
VERTEX
  8
0
 10
12.8847
 20
19.4947
  0
VERTEX
  8
0
 10
12.7315
 20
19.4819
  0
VERTEX
  8
0
 10
12.5783
 20
19.4564
  0
VERTEX
  8
0
 10
12.4251
 20
19.4436
  0
VERTEX
  8
0
 10
12.272
 20
19.4309
  0
VERTEX
  8
0
 10
12.1571
 20
19.4181
  0
VERTEX
  8
0
 10
12.0549
 20
19.4053
  0
VERTEX
  8
0
 10
11.94
 20
19.4053
  0
VERTEX
  8
0
 10
11.8251
 20
19.4181
  0
VERTEX
  8
0
 10
11.723
 20
19.4436
  0
VERTEX
  8
0
 10
11.6209
 20
19.4819
  0
VERTEX
  8
0
 10
11.5188
 20
19.5202
  0
VERTEX
  8
0
 10
11.4422
 20
19.5713
  0
VERTEX
  8
0
 10
11.3783
 20
19.6223
  0
VERTEX
  8
0
 10
11.3273
 20
19.6862
  0
VERTEX
  8
0
 10
11.2634
 20
19.8011
  0
VERTEX
  8
0
 10
11.1741
 20
19.916
  0
VERTEX
  8
0
 10
11.0975
 20
20.0309
  0
VERTEX
  8
0
 10
11.0209
 20
20.1585
  0
VERTEX
  8
0
 10
10.9443
 20
20.2734
  0
VERTEX
  8
0
 10
10.8932
 20
20.4011
  0
VERTEX
  8
0
 10
10.8549
 20
20.5287
  0
VERTEX
  8
0
 10
10.8422
 20
20.6691
  0
VERTEX
  8
0
 10
10.8549
 20
20.8096
  0
VERTEX
  8
0
 10
10.906
 20
20.9628
  0
VERTEX
  8
0
 10
10.9571
 20
21.1032
  0
VERTEX
  8
0
 10
11.0209
 20
21.2181
  0
VERTEX
  8
0
 10
11.0975
 20
21.333
  0
VERTEX
  8
0
 10
11.1996
 20
21.4223
  0
VERTEX
  8
0
 10
11.3017
 20
21.5117
  0
VERTEX
  8
0
 10
11.4039
 20
21.5883
  0
VERTEX
  8
0
 10
11.5188
 20
21.6521
  0
VERTEX
  8
0
 10
11.6464
 20
21.7287
  0
VERTEX
  8
0
 10
11.7613
 20
21.7926
  0
VERTEX
  8
0
 10
11.889
 20
21.8564
  0
VERTEX
  8
0
 10
12.0932
 20
21.8691
  0
VERTEX
  8
0
 10
12.3102
 20
21.8691
  0
VERTEX
  8
0
 10
12.54
 20
21.8564
  0
VERTEX
  8
0
 10
12.7571
 20
21.8309
  0
VERTEX
  8
0
 10
12.9741
 20
21.7926
  0
VERTEX
  8
0
 10
13.1783
 20
21.7415
  0
VERTEX
  8
0
 10
13.3826
 20
21.6521
  0
VERTEX
  8
0
 10
13.5485
 20
21.55
  0
VERTEX
  8
0
 10
13.7145
 20
21.3968
  0
VERTEX
  8
0
 10
13.8422
 20
21.2181
  0
SEQEND
  0
POLYLINE
  8
0
 66
     1
 10
0
 20
0
  0
VERTEX
  8
0
 10
19.4209
 20
20.6309
  0
VERTEX
  8
0
 10
19.4337
 20
20.6564
  0
VERTEX
  8
0
 10
19.4592
 20
20.6819
  0
VERTEX
  8
0
 10
19.4847
 20
20.7074
  0
VERTEX
  8
0
 10
19.523
 20
20.7202
  0
VERTEX
  8
0
 10
19.5485
 20
20.7202
  0
VERTEX
  8
0
 10
19.5868
 20
20.733
  0
VERTEX
  8
0
 10
19.6124
 20
20.733
  0
VERTEX
  8
0
 10
19.6507
 20
20.733
  0
VERTEX
  8
0
 10
19.6762
 20
20.7457
  0
VERTEX
  8
0
 10
19.7145
 20
20.7585
  0
VERTEX
  8
0
 10
19.7911
 20
20.6819
  0
VERTEX
  8
0
 10
19.8422
 20
20.6181
  0
VERTEX
  8
0
 10
19.8422
 20
20.5543
  0
VERTEX
  8
0
 10
19.8294
 20
20.4904
  0
VERTEX
  8
0
 10
19.7911
 20
20.4266
  0
VERTEX
  8
0
 10
19.74
 20
20.35
  0
VERTEX
  8
0
 10
19.7017
 20
20.2862
  0
VERTEX
  8
0
 10
19.6507
 20
20.2223
  0
VERTEX
  8
0
 10
19.6251
 20
20.1457
  0
VERTEX
  8
0
 10
19.6251
 20
20.0691
  0
VERTEX
  8
0
 10
19.523
 20
19.967
  0
VERTEX
  8
0
 10
19.4209
 20
19.8521
  0
VERTEX
  8
0
 10
19.306
 20
19.7245
  0
VERTEX
  8
0
 10
19.1783
 20
19.6096
  0
VERTEX
  8
0
 10
19.0507
 20
19.5074
  0
VERTEX
  8
0
 10
18.923
 20
19.4053
  0
VERTEX
  8
0
 10
18.7826
 20
19.3287
  0
VERTEX
  8
0
 10
18.6294
 20
19.2649
  0
VERTEX
  8
0
 10
18.4762
 20
19.2266
  0
VERTEX
  8
0
 10
18.3102
 20
19.2266
  0
VERTEX
  8
0
 10
18.1698
 20
19.2138
  0
VERTEX
  8
0
 10
18.0294
 20
19.2138
  0
VERTEX
  8
0
 10
17.889
 20
19.2138
  0
VERTEX
  8
0
 10
17.7485
 20
19.2266
  0
VERTEX
  8
0
 10
17.6209
 20
19.2521
  0
VERTEX
  8
0
 10
17.4932
 20
19.2777
  0
VERTEX
  8
0
 10
17.3656
 20
19.316
  0
VERTEX
  8
0
 10
17.2507
 20
19.367
  0
VERTEX
  8
0
 10
17.1358
 20
19.4436
  0
VERTEX
  8
0
 10
17.0337
 20
19.5202
  0
VERTEX
  8
0
 10
17.072
 20
19.6606
  0
VERTEX
  8
0
 10
17.1358
 20
19.8011
  0
VERTEX
  8
0
 10
17.2124
 20
19.9287
  0
VERTEX
  8
0
 10
17.3017
 20
20.0564
  0
VERTEX
  8
0
 10
17.4039
 20
20.184
  0
VERTEX
  8
0
 10
17.4932
 20
20.2989
  0
VERTEX
  8
0
 10
17.5698
 20
20.4394
  0
VERTEX
  8
0
 10
17.6337
 20
20.567
  0
VERTEX
  8
0
 10
17.6592
 20
20.7202
  0
VERTEX
  8
0
 10
17.672
 20
20.8862
  0
VERTEX
  8
0
 10
17.8251
 20
20.7968
  0
VERTEX
  8
0
 10
17.9911
 20
20.733
  0
VERTEX
  8
0
 10
18.1571
 20
20.6819
  0
VERTEX
  8
0
 10
18.3358
 20
20.6436
  0
VERTEX
  8
0
 10
18.5273
 20
20.6053
  0
VERTEX
  8
0
 10
18.706
 20
20.5926
  0
VERTEX
  8
0
 10
18.8847
 20
20.5798
  0
VERTEX
  8
0
 10
19.0634
 20
20.5798
  0
VERTEX
  8
0
 10
19.2422
 20
20.5926
  0
VERTEX
  8
0
 10
19.4209
 20
20.6309
  0
SEQEND
  0
POLYLINE
  8
0
 66
     1
 10
0
 20
0
  0
VERTEX
  8
0
 10
10.8166
 20
19.8649
  0
VERTEX
  8
0
 10
10.8932
 20
19.75
  0
VERTEX
  8
0
 10
10.9315
 20
19.6351
  0
VERTEX
  8
0
 10
10.9443
 20
19.5202
  0
VERTEX
  8
0
 10
10.9443
 20
19.4053
  0
VERTEX
  8
0
 10
10.9188
 20
19.2904
  0
VERTEX
  8
0
 10
10.8805
 20
19.1628
  0
VERTEX
  8
0
 10
10.8422
 20
19.0479
  0
VERTEX
  8
0
 10
10.8039
 20
18.933
  0
VERTEX
  8
0
 10
10.7656
 20
18.8181
  0
VERTEX
  8
0
 10
10.74
 20
18.716
  0
VERTEX
  8
0
 10
10.5868
 20
18.4862
  0
VERTEX
  8
0
 10
10.4081
 20
18.3074
  0
VERTEX
  8
0
 10
10.2039
 20
18.1798
  0
VERTEX
  8
0
 10
9.9741
 20
18.0904
  0
VERTEX
  8
0
 10
9.7443
 20
18.0266
  0
VERTEX
  8
0
 10
9.5017
 20
18.0011
  0
VERTEX
  8
0
 10
9.2464
 20
17.9883
  0
VERTEX
  8
0
 10
9.0166
 20
17.9883
  0
VERTEX
  8
0
 10
8.7741
 20
18.0138
  0
VERTEX
  8
0
 10
8.5698
 20
18.0266
  0
VERTEX
  8
0
 10
8.4549
 20
18.0649
  0
VERTEX
  8
0
 10
8.3528
 20
18.116
  0
VERTEX
  8
0
 10
8.2507
 20
18.1798
  0
VERTEX
  8
0
 10
8.1613
 20
18.2436
  0
VERTEX
  8
0
 10
8.0847
 20
18.3202
  0
VERTEX
  8
0
 10
8.0081
 20
18.4096
  0
VERTEX
  8
0
 10
7.9315
 20
18.4989
  0
VERTEX
  8
0
 10
7.8677
 20
18.6011
  0
VERTEX
  8
0
 10
7.8039
 20
18.6904
  0
VERTEX
  8
0
 10
7.7528
 20
18.7926
  0
VERTEX
  8
0
 10
7.74
 20
18.9968
  0
VERTEX
  8
0
 10
7.7528
 20
19.2011
  0
VERTEX
  8
0
 10
7.7783
 20
19.4053
  0
VERTEX
  8
0
 10
7.8294
 20
19.6096
  0
VERTEX
  8
0
 10
7.906
 20
19.8011
  0
VERTEX
  8
0
 10
7.9954
 20
19.9798
  0
VERTEX
  8
0
 10
8.1102
 20
20.1457
  0
VERTEX
  8
0
 10
8.2379
 20
20.2989
  0
VERTEX
  8
0
 10
8.3911
 20
20.4266
  0
VERTEX
  8
0
 10
8.5698
 20
20.5415
  0
VERTEX
  8
0
 10
8.8124
 20
20.6436
  0
VERTEX
  8
0
 10
9.0677
 20
20.7202
  0
VERTEX
  8
0
 10
9.3358
 20
20.7457
  0
VERTEX
  8
0
 10
9.5911
 20
20.7457
  0
VERTEX
  8
0
 10
9.8464
 20
20.6947
  0
VERTEX
  8
0
 10
10.0762
 20
20.6053
  0
VERTEX
  8
0
 10
10.306
 20
20.4904
  0
VERTEX
  8
0
 10
10.4975
 20
20.3117
  0
VERTEX
  8
0
 10
10.6762
 20
20.1074
  0
VERTEX
  8
0
 10
10.8166
 20
19.8649
  0
SEQEND
  0
POLYLINE
  8
0
 66
     1
 10
0
 20
0
  0
VERTEX
  8
0
 10
7.3698
 20
19.4309
  0
VERTEX
  8
0
 10
7.4464
 20
19.2904
  0
VERTEX
  8
0
 10
7.4975
 20
19.1372
  0
VERTEX
  8
0
 10
7.5358
 20
18.984
  0
VERTEX
  8
0
 10
7.5613
 20
18.8309
  0
VERTEX
  8
0
 10
7.5741
 20
18.6649
  0
VERTEX
  8
0
 10
7.5613
 20
18.4989
  0
VERTEX
  8
0
 10
7.5613
 20
18.333
  0
VERTEX
  8
0
 10
7.5358
 20
18.167
  0
VERTEX
  8
0
 10
7.4975
 20
18.0138
  0
VERTEX
  8
0
 10
7.4592
 20
17.8606
  0
VERTEX
  8
0
 10
7.3443
 20
17.6947
  0
VERTEX
  8
0
 10
7.2294
 20
17.5543
  0
VERTEX
  8
0
 10
7.1017
 20
17.4138
  0
VERTEX
  8
0
 10
6.9613
 20
17.2862
  0
VERTEX
  8
0
 10
6.8081
 20
17.1713
  0
VERTEX
  8
0
 10
6.6549
 20
17.0691
  0
VERTEX
  8
0
 10
6.489
 20
16.9798
  0
VERTEX
  8
0
 10
6.3102
 20
16.9032
  0
VERTEX
  8
0
 10
6.1443
 20
16.8394
  0
VERTEX
  8
0
 10
5.9656
 20
16.8011
  0
VERTEX
  8
0
 10
5.8124
 20
16.7755
  0
VERTEX
  8
0
 10
5.6464
 20
16.75
  0
VERTEX
  8
0
 10
5.4932
 20
16.75
  0
VERTEX
  8
0
 10
5.3273
 20
16.7628
  0
VERTEX
  8
0
 10
5.1741
 20
16.7755
  0
VERTEX
  8
0
 10
5.0209
 20
16.8138
  0
VERTEX
  8
0
 10
4.8677
 20
16.8521
  0
VERTEX
  8
0
 10
4.74
 20
16.916
  0
VERTEX
  8
0
 10
4.5996
 20
16.9926
  0
VERTEX
  8
0
 10
4.4847
 20
17.0947
  0
VERTEX
  8
0
 10
4.4081
 20
17.184
  0
VERTEX
  8
0
 10
4.3443
 20
17.2734
  0
VERTEX
  8
0
 10
4.2805
 20
17.3628
  0
VERTEX
  8
0
 10
4.2294
 20
17.4521
  0
VERTEX
  8
0
 10
4.1783
 20
17.5415
  0
VERTEX
  8
0
 10
4.14
 20
17.6436
  0
VERTEX
  8
0
 10
4.1017
 20
17.7457
  0
VERTEX
  8
0
 10
4.0762
 20
17.8479
  0
VERTEX
  8
0
 10
4.0634
 20
17.9628
  0
VERTEX
  8
0
 10
4.0507
 20
18.0777
  0
VERTEX
  8
0
 10
4.0634
 20
18.2309
  0
VERTEX
  8
0
 10
4.089
 20
18.384
  0
VERTEX
  8
0
 10
4.1273
 20
18.5245
  0
VERTEX
  8
0
 10
4.1783
 20
18.6649
  0
VERTEX
  8
0
 10
4.2422
 20
18.8053
  0
VERTEX
  8
0
 10
4.306
 20
18.9457
  0
VERTEX
  8
0
 10
4.3954
 20
19.0734
  0
VERTEX
  8
0
 10
4.4847
 20
19.1883
  0
VERTEX
  8
0
 10
4.5868
 20
19.316
  0
VERTEX
  8
0
 10
4.689
 20
19.4309
  0
VERTEX
  8
0
 10
4.9188
 20
19.5968
  0
VERTEX
  8
0
 10
5.1741
 20
19.7372
  0
VERTEX
  8
0
 10
5.4549
 20
19.8394
  0
VERTEX
  8
0
 10
5.7485
 20
19.9032
  0
VERTEX
  8
0
 10
6.0422
 20
19.9415
  0
VERTEX
  8
0
 10
6.3358
 20
19.9287
  0
VERTEX
  8
0
 10
6.6294
 20
19.8777
  0
VERTEX
  8
0
 10
6.8975
 20
19.7755
  0
VERTEX
  8
0
 10
7.1528
 20
19.6351
  0
VERTEX
  8
0
 10
7.3698
 20
19.4309
  0
SEQEND
  0
POLYLINE
  8
0
 66
     1
 10
0
 20
0
  0
VERTEX
  8
0
 10
13.3315
 20
18.6649
  0
VERTEX
  8
0
 10
13.2422
 20
18.5117
  0
VERTEX
  8
0
 10
13.1528
 20
18.3585
  0
VERTEX
  8
0
 10
13.0379
 20
18.2181
  0
VERTEX
  8
0
 10
12.923
 20
18.0777
  0
VERTEX
  8
0
 10
12.7954
 20
17.9628
  0
VERTEX
  8
0
 10
12.6422
 20
17.8606
  0
VERTEX
  8
0
 10
12.489
 20
17.7713
  0
VERTEX
  8
0
 10
12.3358
 20
17.6947
  0
VERTEX
  8
0
 10
12.1571
 20
17.6436
  0
VERTEX
  8
0
 10
11.9656
 20
17.6053
  0
VERTEX
  8
0
 10
11.7996
 20
17.6053
  0
VERTEX
  8
0
 10
11.6464
 20
17.6181
  0
VERTEX
  8
0
 10
11.4932
 20
17.6309
  0
VERTEX
  8
0
 10
11.34
 20
17.6691
  0
VERTEX
  8
0
 10
11.1996
 20
17.7074
  0
VERTEX
  8
0
 10
11.0592
 20
17.7585
  0
VERTEX
  8
0
 10
10.9188
 20
17.8223
  0
VERTEX
  8
0
 10
10.7783
 20
17.8862
  0
VERTEX
  8
0
 10
10.6507
 20
17.95
  0
VERTEX
  8
0
 10
10.523
 20
18.0266
  0
VERTEX
  8
0
 10
10.6251
 20
18.1415
  0
VERTEX
  8
0
 10
10.7273
 20
18.2564
  0
VERTEX
  8
0
 10
10.8294
 20
18.3713
  0
VERTEX
  8
0
 10
10.9188
 20
18.4862
  0
VERTEX
  8
0
 10
11.0209
 20
18.5883
  0
VERTEX
  8
0
 10
11.1102
 20
18.7032
  0
VERTEX
  8
0
 10
11.2124
 20
18.8053
  0
VERTEX
  8
0
 10
11.3145
 20
18.9074
  0
VERTEX
  8
0
 10
11.4294
 20
18.9968
  0
VERTEX
  8
0
 10
11.5443
 20
19.0989
  0
VERTEX
  8
0
 10
11.6847
 20
19.0223
  0
VERTEX
  8
0
 10
11.8379
 20
18.9713
  0
VERTEX
  8
0
 10
12.0039
 20
18.933
  0
VERTEX
  8
0
 10
12.1698
 20
18.9074
  0
VERTEX
  8
0
 10
12.3358
 20
18.8947
  0
VERTEX
  8
0
 10
12.5017
 20
18.9074
  0
VERTEX
  8
0
 10
12.6677
 20
18.933
  0
VERTEX
  8
0
 10
12.8209
 20
18.984
  0
VERTEX
  8
0
 10
12.9741
 20
19.0479
  0
VERTEX
  8
0
 10
13.1145
 20
19.1372
  0
VERTEX
  8
0
 10
13.1783
 20
19.1117
  0
VERTEX
  8
0
 10
13.2294
 20
19.0734
  0
VERTEX
  8
0
 10
13.2677
 20
19.0351
  0
VERTEX
  8
0
 10
13.2932
 20
18.984
  0
VERTEX
  8
0
 10
13.306
 20
18.933
  0
VERTEX
  8
0
 10
13.3188
 20
18.8819
  0
VERTEX
  8
0
 10
13.3315
 20
18.8181
  0
VERTEX
  8
0
 10
13.3315
 20
18.767
  0
VERTEX
  8
0
 10
13.3315
 20
18.716
  0
VERTEX
  8
0
 10
13.3315
 20
18.6649
  0
SEQEND
  0
ENDSEC
  0
EOF