  0
SECTION
  2
HEADER
  9
$ACADVER
  1
AC1009
  0
ENDSEC
  0
SECTION
  2
TABLES
  0
TABLE
  2
STYLE
 70
   3
  0
STYLE
  2
STANDARD
 70
    64
 40
0.0
 41
1.0
 50
0.0
 71
     0
 42
1.0
  3
txt
  4

  0
STYLE
  2
HIGHWAYEMODPLUS
 70
    64
 40
0.0
 41
1.0
 50
0.0
 71
     0
 42
1.0
  3
Highway E Mod Plus
  4

  0
STYLE
  2
HIGHWAYSIGNCADPLUS
 70
    64
 40
0.0
 41
1.0
 50
0.0
 71
     0
 42
1.0
  3
Highway SignCAD Plus
  4

  0
ENDTAB
  0
ENDSEC
  0
SECTION
  2
ENTITIES
  0
ARC
  8
0
 10
23.8121
 20
36.25
 40
1.5
 50
0
 51
90
  0
LINE
  8
0
 10
23.8121
 20
37.75
 11
2.8121
 21
37.75
  0
ARC
  8
0
 10
2.8121
 20
36.25
 40
1.5
 50
90
 51
180
  0
LINE
  8
0
 10
1.3121
 20
36.25
 11
1.3121
 21
15.25
  0
ARC
  8
0
 10
2.8121
 20
15.25
 40
1.5
 50
180
 51
270
  0
LINE
  8
0
 10
2.8121
 20
13.75
 11
23.8121
 21
13.75
  0
ARC
  8
0
 10
23.8121
 20
15.25
 40
1.5
 50
270
 51
360
  0
LINE
  8
0
 10
25.3121
 20
15.25
 11
25.3121
 21
36.25
  0
ARC
  8
0
 10
23.8121
 20
36.25
 40
1.5
 50
0
 51
90
  0
ARC
  8
0
 10
23.8121
 20
36.25
 40
1
 50
0
 51
90
  0
ARC
  8
0
 10
2.8121
 20
36.25
 40
1.5
 50
90
 51
180
  0
ARC
  8
0
 10
2.8121
 20
36.25
 40
1
 50
90
 51
180
  0
ARC
  8
0
 10
2.8121
 20
15.25
 40
1.5
 50
180
 51
270
  0
ARC
  8
0
 10
2.8121
 20
15.25
 40
1
 50
180
 51
270
  0
ARC
  8
0
 10
23.8121
 20
15.25
 40
1.5
 50
270
 51
360
  0
ARC
  8
0
 10
23.8121
 20
15.25
 40
1
 50
270
 51
360
  0
POLYLINE
  8
0
 66
     1
 10
0
 20
0
  0
VERTEX
  8
0
 10
23.8121
 20
37.75
  0
VERTEX
  8
0
 10
2.8121
 20
37.75
  0
SEQEND
  0
POLYLINE
  8
0
 66
     1
 10
0
 20
0
  0
VERTEX
  8
0
 10
2.8121
 20
37.25
  0
VERTEX
  8
0
 10
23.8121
 20
37.25
  0
SEQEND
  0
POLYLINE
  8
0
 66
     1
 10
0
 20
0
  0
VERTEX
  8
0
 10
1.3121
 20
36.25
  0
VERTEX
  8
0
 10
1.3121
 20
15.25
  0
SEQEND
  0
POLYLINE
  8
0
 66
     1
 10
0
 20
0
  0
VERTEX
  8
0
 10
1.8121
 20
15.25
  0
VERTEX
  8
0
 10
1.8121
 20
36.25
  0
SEQEND
  0
POLYLINE
  8
0
 66
     1
 10
0
 20
0
  0
VERTEX
  8
0
 10
2.8121
 20
13.75
  0
VERTEX
  8
0
 10
23.8121
 20
13.75
  0
SEQEND
  0
POLYLINE
  8
0
 66
     1
 10
0
 20
0
  0
VERTEX
  8
0
 10
23.8121
 20
14.25
  0
VERTEX
  8
0
 10
2.8121
 20
14.25
  0
SEQEND
  0
POLYLINE
  8
0
 66
     1
 10
0
 20
0
  0
VERTEX
  8
0
 10
25.3121
 20
15.25
  0
VERTEX
  8
0
 10
25.3121
 20
36.25
  0
SEQEND
  0
POLYLINE
  8
0
 66
     1
 10
0
 20
0
  0
VERTEX
  8
0
 10
24.8121
 20
36.25
  0
VERTEX
  8
0
 10
24.8121
 20
15.25
  0
SEQEND
  0
TEXT
  8
0
 10
30.0621
 20
35.5746
 40
2
  1
3
 50
90
  7
HIGHWAYSIGNCADPLUS
 72
1
 11
30.0621
 21
36.25
  0
LINE
  8
0
 10
29.5621
 20
37.75
 11
26.5621
 21
37.75
  0
LINE
  8
0
 10
29.5621
 20
34.75
 11
26.5621
 21
34.75
  0
TEXT
  8
0
 10
30.0621
 20
24.3626
 40
2
  1
18
 50
90
  7
HIGHWAYSIGNCADPLUS
 72
1
 11
30.0621
 21
25.75
  0
LINE
  8
0
 10
29.0621
 20
27.6374
 11
29.0621
 21
34.75
  0
LINE
  8
0
 10
29.5093
 20
33.8556
 11
29.0621
 21
34.75
  0
LINE
  8
0
 10
28.6149
 20
33.8556
 11
29.0621
 21
34.75
  0
LINE
  8
0
 10
29.0621
 20
23.8626
 11
29.0621
 21
16.75
  0
LINE
  8
0
 10
28.6149
 20
17.6444
 11
29.0621
 21
16.75
  0
LINE
  8
0
 10
29.5093
 20
17.6444
 11
29.0621
 21
16.75
  0
LINE
  8
0
 10
29.5621
 20
16.75
 11
26.5621
 21
16.75
  0
TEXT
  8
0
 10
0
 20
6.5
 40
2
  1
2.79
  7
HIGHWAYSIGNCADPLUS
 72
1
 11
2.7068
 21
6.5
  0
LINE
  8
0
 10
4.1015
 20
9.5
 11
4.1015
 21
12.5
  0
LINE
  8
0
 10
1.3121
 20
9.5
 11
1.3121
 21
12.5
  0
TEXT
  8
0
 10
9.9352
 20
9
 40
2
  1
18.42
  7
HIGHWAYSIGNCADPLUS
 72
1
 11
13.3121
 21
9
  0
LINE
  8
0
 10
17.1891
 20
10
 11
22.5228
 21
10
  0
LINE
  8
0
 10
21.6284
 20
9.5528
 11
22.5228
 21
10
  0
LINE
  8
0
 10
21.6284
 20
10.4472
 11
22.5228
 21
10
  0
LINE
  8
0
 10
22.5228
 20
9.5
 11
22.5228
 21
12.5
  0
LINE
  8
0
 10
9.4352
 20
10
 11
4.1015
 21
10
  0
LINE
  8
0
 10
4.9959
 20
10.4472
 11
4.1015
 21
10
  0
LINE
  8
0
 10
4.9959
 20
9.5528
 11
4.1015
 21
10
  0
TEXT
  8
0
 10
21.2107
 20
6.5
 40
2
  1
2.79
  7
HIGHWAYSIGNCADPLUS
 72
1
 11
23.9175
 21
6.5
  0
LINE
  8
0
 10
25.3121
 20
9.5
 11
25.3121
 21
12.5
  0
LINE
  8
0
 10
22.5228
 20
9.5
 11
22.5228
 21
12.5
  0
TEXT
  8
0
 10
30.0621
 20
14.5746
 40
2
  1
3
 50
90
  7
HIGHWAYSIGNCADPLUS
 72
1
 11
30.0621
 21
15.25
  0
LINE
  8
0
 10
29.5621
 20
16.75
 11
26.5621
 21
16.75
  0
LINE
  8
0
 10
29.5621
 20
13.75
 11
26.5621
 21
13.75
  0
TEXT
  8
0
 10
35.0621
 20
24.2526
 40
2
  1
24
 50
90
  7
HIGHWAYSIGNCADPLUS
 72
1
 11
35.0621
 21
25.75
  0
LINE
  8
0
 10
34.0621
 20
27.7474
 11
34.0621
 21
37.75
  0
LINE
  8
0
 10
34.5093
 20
36.8556
 11
34.0621
 21
37.75
  0
LINE
  8
0
 10
33.6149
 20
36.8556
 11
34.0621
 21
37.75
  0
LINE
  8
0
 10
34.5621
 20
37.75
 11
25.8121
 21
37.75
  0
LINE
  8
0
 10
34.0621
 20
23.7526
 11
34.0621
 21
13.75
  0
LINE
  8
0
 10
33.6149
 20
14.6444
 11
34.0621
 21
13.75
  0
LINE
  8
0
 10
34.5093
 20
14.6444
 11
34.0621
 21
13.75
  0
LINE
  8
0
 10
34.5621
 20
13.75
 11
25.8121
 21
13.75
  0
TEXT
  8
0
 10
11.8147
 20
4
 40
2
  1
24
  7
HIGHWAYSIGNCADPLUS
 72
1
 11
13.3121
 21
4
  0
LINE
  8
0
 10
15.3095
 20
5
 11
25.3121
 21
5
  0
LINE
  8
0
 10
24.4177
 20
4.5528
 11
25.3121
 21
5
  0
LINE
  8
0
 10
24.4177
 20
5.4472
 11
25.3121
 21
5
  0
LINE
  8
0
 10
25.3121
 20
4.5
 11
25.3121
 21
13.25
  0
LINE
  8
0
 10
11.3147
 20
5
 11
1.3121
 21
5
  0
LINE
  8
0
 10
2.2066
 20
5.4472
 11
1.3121
 21
5
  0
LINE
  8
0
 10
2.2066
 20
4.5528
 11
1.3121
 21
5
  0
LINE
  8
0
 10
1.3121
 20
4.5
 11
1.3121
 21
13.25
  0
TEXT
  8
0
 10
1.3121
 20
1
 40
2
  1
1.50" Radius, 0.50" Border, White on Green; 
  7
HIGHWAYSIGNCADPLUS
 73
1
 11
1.3121
 21
-0
  0
POLYLINE
  8
0
 66
     1
 10
0
 20
0
  0
VERTEX
  8
0
 10
16.5866
 20
31.6574
  0
VERTEX
  8
0
 10
16.6441
 20
31.3798
  0
VERTEX
  8
0
 10
16.7015
 20
31.1021
  0
VERTEX
  8
0
 10
16.7494
 20
30.834
  0
VERTEX
  8
0
 10
16.7877
 20
30.5564
  0
VERTEX
  8
0
 10
16.8164
 20
30.2883
  0
VERTEX
  8
0
 10
16.8355
 20
30.0202
  0
VERTEX
  8
0
 10
16.8355
 20
29.7426
  0
VERTEX
  8
0
 10
16.826
 20
29.4649
  0
VERTEX
  8
0
 10
16.7877
 20
29.1872
  0
VERTEX
  8
0
 10
16.7398
 20
28.9096
  0
VERTEX
  8
0
 10
17.1228
 20
29.2734
  0
VERTEX
  8
0
 10
17.5058
 20
29.6181
  0
VERTEX
  8
0
 10
17.9079
 20
29.9245
  0
VERTEX
  8
0
 10
18.31
 20
30.1926
  0
VERTEX
  8
0
 10
18.7313
 20
30.4223
  0
VERTEX
  8
0
 10
19.1717
 20
30.6138
  0
VERTEX
  8
0
 10
19.6313
 20
30.7574
  0
VERTEX
  8
0
 10
20.11
 20
30.8532
  0
VERTEX
  8
0
 10
20.627
 20
30.8819
  0
VERTEX
  8
0
 10
21.1824
 20
30.8628
  0
VERTEX
  8
0
 10
21.3834
 20
30.8149
  0
VERTEX
  8
0
 10
21.5749
 20
30.7383
  0
VERTEX
  8
0
 10
21.7472
 20
30.633
  0
VERTEX
  8
0
 10
21.9004
 20
30.4989
  0
VERTEX
  8
0
 10
22.0345
 20
30.3457
  0
VERTEX
  8
0
 10
22.159
 20
30.183
  0
VERTEX
  8
0
 10
22.2643
 20
30.0106
  0
VERTEX
  8
0
 10
22.3504
 20
29.8383
  0
VERTEX
  8
0
 10
22.427
 20
29.6564
  0
VERTEX
  8
0
 10
22.4845
 20
29.484
  0
VERTEX
  8
0
 10
22.5036
 20
29.2734
  0
VERTEX
  8
0
 10
22.5132
 20
29.0628
  0
VERTEX
  8
0
 10
22.5228
 20
28.8426
  0
VERTEX
  8
0
 10
22.5132
 20
28.6223
  0
VERTEX
  8
0
 10
22.4941
 20
28.4117
  0
VERTEX
  8
0
 10
22.4653
 20
28.1915
  0
VERTEX
  8
0
 10
22.4079
 20
27.9904
  0
VERTEX
  8
0
 10
22.3313
 20
27.7894
  0
VERTEX
  8
0
 10
22.2355
 20
27.5883
  0
VERTEX
  8
0
 10
22.1015
 20
27.416
  0
VERTEX
  8
0
 10
22.1494
 20
27.0713
  0
VERTEX
  8
0
 10
22.159
 20
26.717
  0
VERTEX
  8
0
 10
22.1302
 20
26.3628
  0
VERTEX
  8
0
 10
22.0728
 20
26.0085
  0
VERTEX
  8
0
 10
21.9866
 20
25.6638
  0
VERTEX
  8
0
 10
21.8526
 20
25.3383
  0
VERTEX
  8
0
 10
21.6898
 20
25.0223
  0
VERTEX
  8
0
 10
21.4983
 20
24.7351
  0
VERTEX
  8
0
 10
21.259
 20
24.4766
  0
VERTEX
  8
0
 10
20.9909
 20
24.2564
  0
VERTEX
  8
0
 10
20.8951
 20
24.2564
  0
VERTEX
  8
0
 10
21.1153
 20
24.467
  0
VERTEX
  8
0
 10
21.2972
 20
24.716
  0
VERTEX
  8
0
 10
21.46
 20
24.9745
  0
VERTEX
  8
0
 10
21.5941
 20
25.2617
  0
VERTEX
  8
0
 10
21.6898
 20
25.5489
  0
VERTEX
  8
0
 10
21.7664
 20
25.8553
  0
VERTEX
  8
0
 10
21.8047
 20
26.1617
  0
VERTEX
  8
0
 10
21.8143
 20
26.4681
  0
VERTEX
  8
0
 10
21.7951
 20
26.7649
  0
VERTEX
  8
0
 10
21.7568
 20
27.0617
  0
VERTEX
  8
0
 10
21.5941
 20
26.8989
  0
VERTEX
  8
0
 10
21.4313
 20
26.7553
  0
VERTEX
  8
0
 10
21.259
 20
26.6213
  0
VERTEX
  8
0
 10
21.0866
 20
26.4968
  0
VERTEX
  8
0
 10
20.8951
 20
26.3915
  0
VERTEX
  8
0
 10
20.7036
 20
26.3053
  0
VERTEX
  8
0
 10
20.493
 20
26.2479
  0
VERTEX
  8
0
 10
20.2824
 20
26.2096
  0
VERTEX
  8
0
 10
20.0621
 20
26.2
  0
VERTEX
  8
0
 10
19.8419
 20
26.2287
  0
VERTEX
  8
0
 10
19.6792
 20
26.267
  0
VERTEX
  8
0
 10
19.5164
 20
26.3245
  0
VERTEX
  8
0
 10
19.3728
 20
26.3915
  0
VERTEX
  8
0
 10
19.2483
 20
26.4777
  0
VERTEX
  8
0
 10
19.1238
 20
26.5734
  0
VERTEX
  8
0
 10
19.0185
 20
26.6883
  0
VERTEX
  8
0
 10
18.9228
 20
26.8128
  0
VERTEX
  8
0
 10
18.8366
 20
26.9468
  0
VERTEX
  8
0
 10
18.7696
 20
27.0904
  0
VERTEX
  8
0
 10
18.7217
 20
27.2532
  0
VERTEX
  8
0
 10
18.7409
 20
27.4351
  0
VERTEX
  8
0
 10
18.7792
 20
27.617
  0
VERTEX
  8
0
 10
18.827
 20
27.7894
  0
VERTEX
  8
0
 10
18.8941
 20
27.9617
  0
VERTEX
  8
0
 10
18.9706
 20
28.1245
  0
VERTEX
  8
0
 10
19.0664
 20
28.2777
  0
VERTEX
  8
0
 10
19.1813
 20
28.4213
  0
VERTEX
  8
0
 10
19.3058
 20
28.5457
  0
VERTEX
  8
0
 10
19.4494
 20
28.6606
  0
VERTEX
  8
0
 10
19.6121
 20
28.7564
  0
VERTEX
  8
0
 10
19.7941
 20
28.7851
  0
VERTEX
  8
0
 10
19.976
 20
28.8234
  0
VERTEX
  8
0
 10
20.1579
 20
28.8426
  0
VERTEX
  8
0
 10
20.3494
 20
28.8521
  0
VERTEX
  8
0
 10
20.5409
 20
28.8521
  0
VERTEX
  8
0
 10
20.7324
 20
28.833
  0
VERTEX
  8
0
 10
20.9238
 20
28.8043
  0
VERTEX
  8
0
 10
21.1058
 20
28.7468
  0
VERTEX
  8
0
 10
21.2781
 20
28.6606
  0
VERTEX
  8
0
 10
21.4313
 20
28.5649
  0
VERTEX
  8
0
 10
21.4792
 20
28.4979
  0
VERTEX
  8
0
 10
21.527
 20
28.4404
  0
VERTEX
  8
0
 10
21.5845
 20
28.383
  0
VERTEX
  8
0
 10
21.6419
 20
28.3255
  0
VERTEX
  8
0
 10
21.6898
 20
28.2585
  0
VERTEX
  8
0
 10
21.7377
 20
28.2011
  0
VERTEX
  8
0
 10
21.7855
 20
28.134
  0
VERTEX
  8
0
 10
21.8143
 20
28.067
  0
VERTEX
  8
0
 10
21.843
 20
28
  0
VERTEX
  8
0
 10
21.8526
 20
27.9234
  0
VERTEX
  8
0
 10
21.9196
 20
27.933
  0
VERTEX
  8
0
 10
21.977
 20
27.9521
  0
VERTEX
  8
0
 10
22.0153
 20
27.9904
  0
VERTEX
  8
0
 10
22.0536
 20
28.0383
  0
VERTEX
  8
0
 10
22.0728
 20
28.0957
  0
VERTEX
  8
0
 10
22.0919
 20
28.1628
  0
VERTEX
  8
0
 10
22.1111
 20
28.2298
  0
VERTEX
  8
0
 10
22.1207
 20
28.3064
  0
VERTEX
  8
0
 10
22.1302
 20
28.3734
  0
VERTEX
  8
0
 10
22.1398
 20
28.4309
  0
VERTEX
  8
0
 10
22.159
 20
28.5745
  0
VERTEX
  8
0
 10
22.1685
 20
28.7277
  0
VERTEX
  8
0
 10
22.1685
 20
28.8713
  0
VERTEX
  8
0
 10
22.159
 20
29.0245
  0
VERTEX
  8
0
 10
22.1494
 20
29.1681
  0
VERTEX
  8
0
 10
22.1207
 20
29.3021
  0
VERTEX
  8
0
 10
22.0919
 20
29.4457
  0
VERTEX
  8
0
 10
22.0536
 20
29.5798
  0
VERTEX
  8
0
 10
22.0058
 20
29.7138
  0
VERTEX
  8
0
 10
21.9483
 20
29.8383
  0
VERTEX
  8
0
 10
21.7951
 20
30.0202
  0
VERTEX
  8
0
 10
21.6228
 20
30.183
  0
VERTEX
  8
0
 10
21.4504
 20
30.3074
  0
VERTEX
  8
0
 10
21.259
 20
30.4128
  0
VERTEX
  8
0
 10
21.0579
 20
30.4894
  0
VERTEX
  8
0
 10
20.8568
 20
30.5468
  0
VERTEX
  8
0
 10
20.6366
 20
30.5755
  0
VERTEX
  8
0
 10
20.4164
 20
30.5851
  0
VERTEX
  8
0
 10
20.1962
 20
30.5755
  0
VERTEX
  8
0
 10
19.9664
 20
30.5372
  0
VERTEX
  8
0
 10
19.593
 20
30.4032
  0
VERTEX
  8
0
 10
19.2292
 20
30.25
  0
VERTEX
  8
0
 10
18.8941
 20
30.0585
  0
VERTEX
  8
0
 10
18.5589
 20
29.8574
  0
VERTEX
  8
0
 10
18.2334
 20
29.6277
  0
VERTEX
  8
0
 10
17.927
 20
29.3787
  0
VERTEX
  8
0
 10
17.6302
 20
29.1106
  0
VERTEX
  8
0
 10
17.343
 20
28.8234
  0
VERTEX
  8
0
 10
17.0749
 20
28.5266
  0
VERTEX
  8
0
 10
16.8068
 20
28.2106
  0
VERTEX
  8
0
 10
16.7589
 20
28.0766
  0
VERTEX
  8
0
 10
16.7398
 20
27.9426
  0
VERTEX
  8
0
 10
16.7398
 20
27.8085
  0
VERTEX
  8
0
 10
16.7589
 20
27.6745
  0
VERTEX
  8
0
 10
16.7781
 20
27.55
  0
VERTEX
  8
0
 10
16.8164
 20
27.416
  0
VERTEX
  8
0
 10
16.8451
 20
27.2915
  0
VERTEX
  8
0
 10
16.8834
 20
27.167
  0
VERTEX
  8
0
 10
16.9121
 20
27.0521
  0
VERTEX
  8
0
 10
16.9313
 20
26.9372
  0
VERTEX
  8
0
 10
16.826
 20
26.9372
  0
VERTEX
  8
0
 10
16.7206
 20
26.9468
  0
VERTEX
  8
0
 10
16.6153
 20
26.966
  0
VERTEX
  8
0
 10
16.5004
 20
26.9851
  0
VERTEX
  8
0
 10
16.3855
 20
27.0043
  0
VERTEX
  8
0
 10
16.2706
 20
27.0234
  0
VERTEX
  8
0
 10
16.1558
 20
27.033
  0
VERTEX
  8
0
 10
16.0409
 20
27.0234
  0
VERTEX
  8
0
 10
15.926
 20
27.0043
  0
VERTEX
  8
0
 10
15.8206
 20
26.966
  0
VERTEX
  8
0
 10
15.8206
 20
27.0713
  0
VERTEX
  8
0
 10
15.8206
 20
27.1862
  0
VERTEX
  8
0
 10
15.8206
 20
27.3011
  0
VERTEX
  8
0
 10
15.8206
 20
27.416
  0
VERTEX
  8
0
 10
15.8206
 20
27.5309
  0
VERTEX
  8
0
 10
15.8111
 20
27.6362
  0
VERTEX
  8
0
 10
15.7919
 20
27.7511
  0
VERTEX
  8
0
 10
15.7728
 20
27.866
  0
VERTEX
  8
0
 10
15.7345
 20
27.9713
  0
VERTEX
  8
0
 10
15.6866
 20
28.0862
  0
VERTEX
  8
0
 10
15.8972
 20
28.2011
  0
VERTEX
  8
0
 10
16.0696
 20
28.3447
  0
VERTEX
  8
0
 10
16.1941
 20
28.5074
  0
VERTEX
  8
0
 10
16.2994
 20
28.6894
  0
VERTEX
  8
0
 10
16.376
 20
28.8904
  0
VERTEX
  8
0
 10
16.4238
 20
29.0915
  0
VERTEX
  8
0
 10
16.4621
 20
29.3117
  0
VERTEX
  8
0
 10
16.5004
 20
29.5319
  0
VERTEX
  8
0
 10
16.5196
 20
29.7521
  0
VERTEX
  8
0
 10
16.5483
 20
29.9628
  0
VERTEX
  8
0
 10
16.5004
 20
30.3745
  0
VERTEX
  8
0
 10
16.4143
 20
30.767
  0
VERTEX
  8
0
 10
16.2994
 20
31.1596
  0
VERTEX
  8
0
 10
16.1366
 20
31.5426
  0
VERTEX
  8
0
 10
15.9451
 20
31.8968
  0
VERTEX
  8
0
 10
15.7249
 20
32.2415
  0
VERTEX
  8
0
 10
15.4664
 20
32.5574
  0
VERTEX
  8
0
 10
15.1887
 20
32.8447
  0
VERTEX
  8
0
 10
14.8728
 20
33.0936
  0
VERTEX
  8
0
 10
14.5377
 20
33.3138
  0
VERTEX
  8
0
 10
14.3557
 20
33.4287
  0
VERTEX
  8
0
 10
14.1643
 20
33.5053
  0
VERTEX
  8
0
 10
13.9536
 20
33.5628
  0
VERTEX
  8
0
 10
13.743
 20
33.5819
  0
VERTEX
  8
0
 10
13.5228
 20
33.5819
  0
VERTEX
  8
0
 10
13.3121
 20
33.5628
  0
VERTEX
  8
0
 10
13.0919
 20
33.5245
  0
VERTEX
  8
0
 10
12.8813
 20
33.467
  0
VERTEX
  8
0
 10
12.6802
 20
33.4
  0
VERTEX
  8
0
 10
12.4983
 20
33.3138
  0
VERTEX
  8
0
 10
12.4121
 20
33.2372
  0
VERTEX
  8
0
 10
12.3164
 20
33.1606
  0
VERTEX
  8
0
 10
12.2302
 20
33.084
  0
VERTEX
  8
0
 10
12.144
 20
33.0074
  0
VERTEX
  8
0
 10
12.0579
 20
32.9309
  0
VERTEX
  8
0
 10
11.9813
 20
32.8447
  0
VERTEX
  8
0
 10
11.9143
 20
32.7585
  0
VERTEX
  8
0
 10
11.8472
 20
32.6628
  0
VERTEX
  8
0
 10
11.7994
 20
32.5574
  0
VERTEX
  8
0
 10
11.7611
 20
32.4521
  0
VERTEX
  8
0
 10
11.7515
 20
32.2511
  0
VERTEX
  8
0
 10
11.7611
 20
32.0596
  0
VERTEX
  8
0
 10
11.7994
 20
31.8777
  0
VERTEX
  8
0
 10
11.8664
 20
31.7053
  0
VERTEX
  8
0
 10
11.9526
 20
31.5426
  0
VERTEX
  8
0
 10
12.0579
 20
31.3894
  0
VERTEX
  8
0
 10
12.1728
 20
31.2457
  0
VERTEX
  8
0
 10
12.3068
 20
31.1021
  0
VERTEX
  8
0
 10
12.4409
 20
30.9777
  0
VERTEX
  8
0
 10
12.594
 20
30.8628
  0
VERTEX
  8
0
 10
12.6228
 20
30.8436
  0
VERTEX
  8
0
 10
12.6706
 20
30.834
  0
VERTEX
  8
0
 10
12.7089
 20
30.8245
  0
VERTEX
  8
0
 10
12.7664
 20
30.8245
  0
VERTEX
  8
0
 10
12.8143
 20
30.8245
  0
VERTEX
  8
0
 10
12.8717
 20
30.8245
  0
VERTEX
  8
0
 10
12.9292
 20
30.8245
  0
VERTEX
  8
0
 10
12.977
 20
30.8245
  0
VERTEX
  8
0
 10
13.0249
 20
30.8149
  0
VERTEX
  8
0
 10
13.0728
 20
30.7957
  0
VERTEX
  8
0
 10
13.0153
 20
30.7574
  0
VERTEX
  8
0
 10
12.9483
 20
30.7287
  0
VERTEX
  8
0
 10
12.8813
 20
30.7096
  0
VERTEX
  8
0
 10
12.8047
 20
30.6904
  0
VERTEX
  8
0
 10
12.7281
 20
30.6713
  0
VERTEX
  8
0
 10
12.6515
 20
30.6713
  0
VERTEX
  8
0
 10
12.5749
 20
30.6713
  0
VERTEX
  8
0
 10
12.4887
 20
30.6713
  0
VERTEX
  8
0
 10
12.4121
 20
30.6809
  0
VERTEX
  8
0
 10
12.3355
 20
30.7
  0
VERTEX
  8
0
 10
12.1632
 20
30.7766
  0
VERTEX
  8
0
 10
12.0004
 20
30.8819
  0
VERTEX
  8
0
 10
11.8472
 20
30.9968
  0
VERTEX
  8
0
 10
11.7132
 20
31.1309
  0
VERTEX
  8
0
 10
11.5983
 20
31.2745
  0
VERTEX
  8
0
 10
11.5026
 20
31.4372
  0
VERTEX
  8
0
 10
11.4164
 20
31.6
  0
VERTEX
  8
0
 10
11.3589
 20
31.7819
  0
VERTEX
  8
0
 10
11.3302
 20
31.9734
  0
VERTEX
  8
0
 10
11.3206
 20
32.1649
  0
VERTEX
  8
0
 10
11.3206
 20
32.2702
  0
VERTEX
  8
0
 10
11.3206
 20
32.3851
  0
VERTEX
  8
0
 10
11.3398
 20
32.4904
  0
VERTEX
  8
0
 10
11.3685
 20
32.6053
  0
VERTEX
  8
0
 10
11.3972
 20
32.7202
  0
VERTEX
  8
0
 10
11.4451
 20
32.8351
  0
VERTEX
  8
0
 10
11.493
 20
32.95
  0
VERTEX
  8
0
 10
11.5504
 20
33.0553
  0
VERTEX
  8
0
 10
11.6174
 20
33.1606
  0
VERTEX
  8
0
 10
11.7036
 20
33.2564
  0
VERTEX
  8
0
 10
11.8472
 20
33.3713
  0
VERTEX
  8
0
 10
12.0004
 20
33.4766
  0
VERTEX
  8
0
 10
12.1536
 20
33.5723
  0
VERTEX
  8
0
 10
12.326
 20
33.6585
  0
VERTEX
  8
0
 10
12.4887
 20
33.7351
  0
VERTEX
  8
0
 10
12.6611
 20
33.7926
  0
VERTEX
  8
0
 10
12.8334
 20
33.8404
  0
VERTEX
  8
0
 10
13.0153
 20
33.8691
  0
VERTEX
  8
0
 10
13.1877
 20
33.8883
  0
VERTEX
  8
0
 10
13.36
 20
33.8883
  0
VERTEX
  8
0
 10
13.427
 20
33.9553
  0
VERTEX
  8
0
 10
13.0536
 20
34.1468
  0
VERTEX
  8
0
 10
12.6611
 20
34.2617
  0
VERTEX
  8
0
 10
12.2589
 20
34.3096
  0
VERTEX
  8
0
 10
11.8377
 20
34.3
  0
VERTEX
  8
0
 10
11.426
 20
34.2234
  0
VERTEX
  8
0
 10
11.0238
 20
34.0989
  0
VERTEX
  8
0
 10
10.6313
 20
33.9266
  0
VERTEX
  8
0
 10
10.2674
 20
33.716
  0
VERTEX
  8
0
 10
9.9323
 20
33.467
  0
VERTEX
  8
0
 10
9.626
 20
33.1894
  0
VERTEX
  8
0
 10
9.4057
 20
32.8734
  0
VERTEX
  8
0
 10
9.2143
 20
32.5479
  0
VERTEX
  8
0
 10
9.0419
 20
32.2032
  0
VERTEX
  8
0
 10
8.8791
 20
31.8681
  0
VERTEX
  8
0
 10
8.726
 20
31.5234
  0
VERTEX
  8
0
 10
8.5728
 20
31.1787
  0
VERTEX
  8
0
 10
8.4196
 20
30.834
  0
VERTEX
  8
0
 10
8.2472
 20
30.4989
  0
VERTEX
  8
0
 10
8.0557
 20
30.1734
  0
VERTEX
  8
0
 10
7.8355
 20
29.867
  0
VERTEX
  8
0
 10
7.7589
 20
29.7904
  0
VERTEX
  8
0
 10
7.6728
 20
29.7234
  0
VERTEX
  8
0
 10
7.5866
 20
29.666
  0
VERTEX
  8
0
 10
7.4908
 20
29.6181
  0
VERTEX
  8
0
 10
7.4047
 20
29.5702
  0
VERTEX
  8
0
 10
7.3089
 20
29.5319
  0
VERTEX
  8
0
 10
7.2036
 20
29.5128
  0
VERTEX
  8
0
 10
7.0983
 20
29.4936
  0
VERTEX
  8
0
 10
6.993
 20
29.484
  0
VERTEX
  8
0
 10
6.8781
 20
29.484
  0
VERTEX
  8
0
 10
6.7249
 20
29.5128
  0
VERTEX
  8
0
 10
6.5717
 20
29.5511
  0
VERTEX
  8
0
 10
6.4185
 20
29.5989
  0
VERTEX
  8
0
 10
6.2749
 20
29.6564
  0
VERTEX
  8
0
 10
6.1313
 20
29.7234
  0
VERTEX
  8
0
 10
5.9972
 20
29.8096
  0
VERTEX
  8
0
 10
5.8823
 20
29.9053
  0
VERTEX
  8
0
 10
5.777
 20
30.0202
  0
VERTEX
  8
0
 10
5.7004
 20
30.1638
  0
VERTEX
  8
0
 10
5.6334
 20
30.317
  0
VERTEX
  8
0
 10
5.576
 20
30.5085
  0
VERTEX
  8
0
 10
5.5377
 20
30.7096
  0
VERTEX
  8
0
 10
5.5089
 20
30.9011
  0
VERTEX
  8
0
 10
5.4994
 20
31.0926
  0
VERTEX
  8
0
 10
5.5089
 20
31.2745
  0
VERTEX
  8
0
 10
5.5377
 20
31.466
  0
VERTEX
  8
0
 10
5.5855
 20
31.6479
  0
VERTEX
  8
0
 10
5.6525
 20
31.8202
  0
VERTEX
  8
0
 10
5.7483
 20
31.9926
  0
VERTEX
  8
0
 10
5.8632
 20
32.1649
  0
VERTEX
  8
0
 10
5.9589
 20
32.1649
  0
VERTEX
  8
0
 10
5.9494
 20
32.0117
  0
VERTEX
  8
0
 10
5.9302
 20
31.8489
  0
VERTEX
  8
0
 10
5.9015
 20
31.6862
  0
VERTEX
  8
0
 10
5.8728
 20
31.5234
  0
VERTEX
  8
0
 10
5.844
 20
31.3606
  0
VERTEX
  8
0
 10
5.8249
 20
31.1979
  0
VERTEX
  8
0
 10
5.8249
 20
31.0447
  0
VERTEX
  8
0
 10
5.8536
 20
30.8819
  0
VERTEX
  8
0
 10
5.9015
 20
30.7287
  0
VERTEX
  8
0
 10
5.9877
 20
30.5755
  0
VERTEX
  8
0
 10
6.026
 20
30.5085
  0
VERTEX
  8
0
 10
6.0642
 20
30.4511
  0
VERTEX
  8
0
 10
6.1121
 20
30.384
  0
VERTEX
  8
0
 10
6.16
 20
30.317
  0
VERTEX
  8
0
 10
6.2174
 20
30.25
  0
VERTEX
  8
0
 10
6.2653
 20
30.1926
  0
VERTEX
  8
0
 10
6.3323
 20
30.1351
  0
VERTEX
  8
0
 10
6.3898
 20
30.0777
  0
VERTEX
  8
0
 10
6.4568
 20
30.0298
  0
VERTEX
  8
0
 10
6.5334
 20
30.0011
  0
VERTEX
  8
0
 10
6.677
 20
29.9819
  0
VERTEX
  8
0
 10
6.8111
 20
29.9819
  0
VERTEX
  8
0
 10
6.9547
 20
29.9915
  0
VERTEX
  8
0
 10
7.0791
 20
30.0106
  0
VERTEX
  8
0
 10
7.2036
 20
30.0489
  0
VERTEX
  8
0
 10
7.3281
 20
30.0968
  0
VERTEX
  8
0
 10
7.443
 20
30.1543
  0
VERTEX
  8
0
 10
7.5483
 20
30.2404
  0
VERTEX
  8
0
 10
7.644
 20
30.3362
  0
VERTEX
  8
0
 10
7.7398
 20
30.4415
  0
VERTEX
  8
0
 10
7.8643
 20
30.6426
  0
VERTEX
  8
0
 10
7.9696
 20
30.8436
  0
VERTEX
  8
0
 10
8.0653
 20
31.0543
  0
VERTEX
  8
0
 10
8.1515
 20
31.2745
  0
VERTEX
  8
0
 10
8.2281
 20
31.4851
  0
VERTEX
  8
0
 10
8.3047
 20
31.7053
  0
VERTEX
  8
0
 10
8.3813
 20
31.9255
  0
VERTEX
  8
0
 10
8.4579
 20
32.1362
  0
VERTEX
  8
0
 10
8.5536
 20
32.3468
  0
VERTEX
  8
0
 10
8.6685
 20
32.5479
  0
VERTEX
  8
0
 10
8.8121
 20
32.8543
  0
VERTEX
  8
0
 10
8.994
 20
33.1606
  0
VERTEX
  8
0
 10
9.2047
 20
33.4574
  0
VERTEX
  8
0
 10
9.444
 20
33.7351
  0
VERTEX
  8
0
 10
9.7121
 20
33.984
  0
VERTEX
  8
0
 10
9.9994
 20
34.2138
  0
VERTEX
  8
0
 10
10.3057
 20
34.4149
  0
VERTEX
  8
0
 10
10.6409
 20
34.5681
  0
VERTEX
  8
0
 10
10.9855
 20
34.683
  0
VERTEX
  8
0
 10
11.3494
 20
34.75
  0
VERTEX
  8
0
 10
12.0004
 20
34.7309
  0
VERTEX
  8
0
 10
12.6419
 20
34.6351
  0
VERTEX
  8
0
 10
13.2547
 20
34.4723
  0
VERTEX
  8
0
 10
13.8483
 20
34.2426
  0
VERTEX
  8
0
 10
14.4132
 20
33.9457
  0
VERTEX
  8
0
 10
14.9398
 20
33.5915
  0
VERTEX
  8
0
 10
15.4281
 20
33.1798
  0
VERTEX
  8
0
 10
15.8685
 20
32.7106
  0
VERTEX
  8
0
 10
16.2515
 20
32.2032
  0
VERTEX
  8
0
 10
16.5866
 20
31.6574
  0
SEQEND
  0
POLYLINE
  8
0
 66
     1
 10
0
 20
0
  0
VERTEX
  8
0
 10
10.7749
 20
29.9628
  0
VERTEX
  8
0
 10
10.6983
 20
29.9245
  0
VERTEX
  8
0
 10
10.6313
 20
29.8766
  0
VERTEX
  8
0
 10
10.5643
 20
29.8191
  0
VERTEX
  8
0
 10
10.5164
 20
29.7617
  0
VERTEX
  8
0
 10
10.4589
 20
29.6947
  0
VERTEX
  8
0
 10
10.4206
 20
29.6277
  0
VERTEX
  8
0
 10
10.3823
 20
29.5511
  0
VERTEX
  8
0
 10
10.344
 20
29.4745
  0
VERTEX
  8
0
 10
10.3153
 20
29.3979
  0
VERTEX
  8
0
 10
10.2962
 20
29.3309
  0
VERTEX
  8
0
 10
10.2674
 20
29.1872
  0
VERTEX
  8
0
 10
10.2579
 20
29.0436
  0
VERTEX
  8
0
 10
10.2579
 20
28.9
  0
VERTEX
  8
0
 10
10.277
 20
28.766
  0
VERTEX
  8
0
 10
10.3057
 20
28.6415
  0
VERTEX
  8
0
 10
10.3536
 20
28.5074
  0
VERTEX
  8
0
 10
10.4111
 20
28.3926
  0
VERTEX
  8
0
 10
10.4972
 20
28.2777
  0
VERTEX
  8
0
 10
10.593
 20
28.1723
  0
VERTEX
  8
0
 10
10.7079
 20
28.0862
  0
VERTEX
  8
0
 10
10.7462
 20
28.0862
  0
VERTEX
  8
0
 10
10.6504
 20
27.9234
  0
VERTEX
  8
0
 10
10.526
 20
27.8085
  0
VERTEX
  8
0
 10
10.3919
 20
27.7223
  0
VERTEX
  8
0
 10
10.2387
 20
27.6649
  0
VERTEX
  8
0
 10
10.076
 20
27.6266
  0
VERTEX
  8
0
 10
9.9036
 20
27.6074
  0
VERTEX
  8
0
 10
9.7313
 20
27.6074
  0
VERTEX
  8
0
 10
9.5494
 20
27.6074
  0
VERTEX
  8
0
 10
9.377
 20
27.617
  0
VERTEX
  8
0
 10
9.2143
 20
27.6362
  0
VERTEX
  8
0
 10
9.1089
 20
27.6649
  0
VERTEX
  8
0
 10
9.0132
 20
27.7128
  0
VERTEX
  8
0
 10
8.927
 20
27.7702
  0
VERTEX
  8
0
 10
8.8408
 20
27.8372
  0
VERTEX
  8
0
 10
8.7643
 20
27.9138
  0
VERTEX
  8
0
 10
8.6877
 20
27.9904
  0
VERTEX
  8
0
 10
8.6111
 20
28.0766
  0
VERTEX
  8
0
 10
8.544
 20
28.1628
  0
VERTEX
  8
0
 10
8.477
 20
28.2489
  0
VERTEX
  8
0
 10
8.41
 20
28.3351
  0
VERTEX
  8
0
 10
8.3621
 20
28.4787
  0
VERTEX
  8
0
 10
8.3334
 20
28.6223
  0
VERTEX
  8
0
 10
8.3143
 20
28.766
  0
VERTEX
  8
0
 10
8.3143
 20
28.9191
  0
VERTEX
  8
0
 10
8.3238
 20
29.0723
  0
VERTEX
  8
0
 10
8.3526
 20
29.216
  0
VERTEX
  8
0
 10
8.3908
 20
29.3596
  0
VERTEX
  8
0
 10
8.4483
 20
29.4936
  0
VERTEX
  8
0
 10
8.5153
 20
29.6277
  0
VERTEX
  8
0
 10
8.6015
 20
29.7426
  0
VERTEX
  8
0
 10
8.7643
 20
29.8862
  0
VERTEX
  8
0
 10
8.9462
 20
30.0106
  0
VERTEX
  8
0
 10
9.1377
 20
30.116
  0
VERTEX
  8
0
 10
9.3387
 20
30.2021
  0
VERTEX
  8
0
 10
9.5398
 20
30.2691
  0
VERTEX
  8
0
 10
9.7504
 20
30.3074
  0
VERTEX
  8
0
 10
9.9706
 20
30.317
  0
VERTEX
  8
0
 10
10.1813
 20
30.3074
  0
VERTEX
  8
0
 10
10.3823
 20
30.2596
  0
VERTEX
  8
0
 10
10.5834
 20
30.1926
  0
VERTEX
  8
0
 10
10.6026
 20
30.1638
  0
VERTEX
  8
0
 10
10.6313
 20
30.1543
  0
VERTEX
  8
0
 10
10.66
 20
30.1351
  0
VERTEX
  8
0
 10
10.6887
 20
30.116
  0
VERTEX
  8
0
 10
10.7174
 20
30.1064
  0
VERTEX
  8
0
 10
10.7462
 20
30.0872
  0
VERTEX
  8
0
 10
10.7653
 20
30.0681
  0
VERTEX
  8
0
 10
10.7749
 20
30.0394
  0
VERTEX
  8
0
 10
10.7845
 20
30.0011
  0
VERTEX
  8
0
 10
10.7749
 20
29.9628
  0
SEQEND
  0
POLYLINE
  8
0
 66
     1
 10
0
 20
0
  0
VERTEX
  8
0
 10
12.977
 20
29.6468
  0
VERTEX
  8
0
 10
12.9962
 20
29.4649
  0
VERTEX
  8
0
 10
13.0249
 20
29.283
  0
VERTEX
  8
0
 10
13.0345
 20
29.1106
  0
VERTEX
  8
0
 10
13.044
 20
28.9287
  0
VERTEX
  8
0
 10
13.0345
 20
28.7564
  0
VERTEX
  8
0
 10
13.0057
 20
28.584
  0
VERTEX
  8
0
 10
12.9579
 20
28.4213
  0
VERTEX
  8
0
 10
12.8813
 20
28.2681
  0
VERTEX
  8
0
 10
12.7855
 20
28.1245
  0
VERTEX
  8
0
 10
12.6611
 20
27.9904
  0
VERTEX
  8
0
 10
12.5366
 20
27.9043
  0
VERTEX
  8
0
 10
12.4217
 20
27.8468
  0
VERTEX
  8
0
 10
12.2877
 20
27.8085
  0
VERTEX
  8
0
 10
12.1632
 20
27.7894
  0
VERTEX
  8
0
 10
12.0292
 20
27.7894
  0
VERTEX
  8
0
 10
11.8951
 20
27.8085
  0
VERTEX
  8
0
 10
11.7611
 20
27.8277
  0
VERTEX
  8
0
 10
11.6174
 20
27.8468
  0
VERTEX
  8
0
 10
11.4834
 20
27.8755
  0
VERTEX
  8
0
 10
11.3494
 20
27.8947
  0
VERTEX
  8
0
 10
11.2057
 20
27.9713
  0
VERTEX
  8
0
 10
11.0909
 20
28.0766
  0
VERTEX
  8
0
 10
10.9951
 20
28.1915
  0
VERTEX
  8
0
 10
10.9281
 20
28.316
  0
VERTEX
  8
0
 10
10.8802
 20
28.4596
  0
VERTEX
  8
0
 10
10.8515
 20
28.6128
  0
VERTEX
  8
0
 10
10.8323
 20
28.766
  0
VERTEX
  8
0
 10
10.8228
 20
28.9191
  0
VERTEX
  8
0
 10
10.8132
 20
29.0723
  0
VERTEX
  8
0
 10
10.8036
 20
29.2351
  0
VERTEX
  8
0
 10
10.8132
 20
29.3404
  0
VERTEX
  8
0
 10
10.8419
 20
29.4457
  0
VERTEX
  8
0
 10
10.8802
 20
29.5319
  0
VERTEX
  8
0
 10
10.9377
 20
29.6181
  0
VERTEX
  8
0
 10
11.0047
 20
29.6851
  0
VERTEX
  8
0
 10
11.0717
 20
29.7617
  0
VERTEX
  8
0
 10
11.1483
 20
29.8191
  0
VERTEX
  8
0
 10
11.2249
 20
29.8862
  0
VERTEX
  8
0
 10
11.3015
 20
29.9532
  0
VERTEX
  8
0
 10
11.3781
 20
30.0298
  0
VERTEX
  8
0
 10
11.5313
 20
30.0681
  0
VERTEX
  8
0
 10
11.7036
 20
30.0968
  0
VERTEX
  8
0
 10
11.8951
 20
30.116
  0
VERTEX
  8
0
 10
12.077
 20
30.1255
  0
VERTEX
  8
0
 10
12.2685
 20
30.1255
  0
VERTEX
  8
0
 10
12.4504
 20
30.0968
  0
VERTEX
  8
0
 10
12.6132
 20
30.0298
  0
VERTEX
  8
0
 10
12.7664
 20
29.9436
  0
VERTEX
  8
0
 10
12.8909
 20
29.8191
  0
VERTEX
  8
0
 10
12.977
 20
29.6468
  0
SEQEND
  0
POLYLINE
  8
0
 66
     1
 10
0
 20
0
  0
VERTEX
  8
0
 10
15.0834
 20
28.4979
  0
VERTEX
  8
0
 10
15.1983
 20
28.3638
  0
VERTEX
  8
0
 10
15.2749
 20
28.2106
  0
VERTEX
  8
0
 10
15.3228
 20
28.0574
  0
VERTEX
  8
0
 10
15.3515
 20
27.8947
  0
VERTEX
  8
0
 10
15.3515
 20
27.7223
  0
VERTEX
  8
0
 10
15.3228
 20
27.55
  0
VERTEX
  8
0
 10
15.294
 20
27.3777
  0
VERTEX
  8
0
 10
15.2462
 20
27.2149
  0
VERTEX
  8
0
 10
15.1983
 20
27.0521
  0
VERTEX
  8
0
 10
15.1504
 20
26.8989
  0
VERTEX
  8
0
 10
15.0738
 20
26.8319
  0
VERTEX
  8
0
 10
14.9972
 20
26.7649
  0
VERTEX
  8
0
 10
14.9206
 20
26.6979
  0
VERTEX
  8
0
 10
14.844
 20
26.6404
  0
VERTEX
  8
0
 10
14.7675
 20
26.5926
  0
VERTEX
  8
0
 10
14.6813
 20
26.5543
  0
VERTEX
  8
0
 10
14.5951
 20
26.516
  0
VERTEX
  8
0
 10
14.5089
 20
26.4968
  0
VERTEX
  8
0
 10
14.4132
 20
26.4872
  0
VERTEX
  8
0
 10
14.3175
 20
26.4872
  0
VERTEX
  8
0
 10
14.1738
 20
26.4968
  0
VERTEX
  8
0
 10
14.0398
 20
26.5255
  0
VERTEX
  8
0
 10
13.9057
 20
26.5734
  0
VERTEX
  8
0
 10
13.7717
 20
26.6309
  0
VERTEX
  8
0
 10
13.6568
 20
26.7074
  0
VERTEX
  8
0
 10
13.5419
 20
26.7936
  0
VERTEX
  8
0
 10
13.4366
 20
26.8894
  0
VERTEX
  8
0
 10
13.3409
 20
26.9851
  0
VERTEX
  8
0
 10
13.2643
 20
27.1
  0
VERTEX
  8
0
 10
13.1972
 20
27.2245
  0
VERTEX
  8
0
 10
13.1398
 20
27.3394
  0
VERTEX
  8
0
 10
13.1111
 20
27.4638
  0
VERTEX
  8
0
 10
13.1015
 20
27.5787
  0
VERTEX
  8
0
 10
13.1111
 20
27.7032
  0
VERTEX
  8
0
 10
13.1398
 20
27.8277
  0
VERTEX
  8
0
 10
13.1685
 20
27.9426
  0
VERTEX
  8
0
 10
13.2164
 20
28.067
  0
VERTEX
  8
0
 10
13.2643
 20
28.1819
  0
VERTEX
  8
0
 10
13.3121
 20
28.2872
  0
VERTEX
  8
0
 10
13.36
 20
28.4021
  0
VERTEX
  8
0
 10
13.4175
 20
28.4883
  0
VERTEX
  8
0
 10
13.4845
 20
28.5649
  0
VERTEX
  8
0
 10
13.5515
 20
28.6223
  0
VERTEX
  8
0
 10
13.6185
 20
28.6798
  0
VERTEX
  8
0
 10
13.6951
 20
28.7277
  0
VERTEX
  8
0
 10
13.7717
 20
28.766
  0
VERTEX
  8
0
 10
13.8579
 20
28.7947
  0
VERTEX
  8
0
 10
13.944
 20
28.8234
  0
VERTEX
  8
0
 10
14.0302
 20
28.8521
  0
VERTEX
  8
0
 10
14.126
 20
28.8809
  0
VERTEX
  8
0
 10
14.2313
 20
28.8713
  0
VERTEX
  8
0
 10
14.3462
 20
28.8617
  0
VERTEX
  8
0
 10
14.4611
 20
28.8521
  0
VERTEX
  8
0
 10
14.5664
 20
28.833
  0
VERTEX
  8
0
 10
14.6717
 20
28.8043
  0
VERTEX
  8
0
 10
14.777
 20
28.7755
  0
VERTEX
  8
0
 10
14.8632
 20
28.7277
  0
VERTEX
  8
0
 10
14.9494
 20
28.6606
  0
VERTEX
  8
0
 10
15.026
 20
28.584
  0
VERTEX
  8
0
 10
15.0834
 20
28.4979
  0
SEQEND
  0
POLYLINE
  8
0
 66
     1
 10
0
 20
0
  0
VERTEX
  8
0
 10
21.1441
 20
28.1819
  0
VERTEX
  8
0
 10
21.2111
 20
28.1149
  0
VERTEX
  8
0
 10
21.2685
 20
28.0574
  0
VERTEX
  8
0
 10
21.3164
 20
27.9904
  0
VERTEX
  8
0
 10
21.3738
 20
27.9234
  0
VERTEX
  8
0
 10
21.4121
 20
27.8468
  0
VERTEX
  8
0
 10
21.4504
 20
27.7798
  0
VERTEX
  8
0
 10
21.4792
 20
27.7032
  0
VERTEX
  8
0
 10
21.4983
 20
27.6266
  0
VERTEX
  8
0
 10
21.4983
 20
27.55
  0
VERTEX
  8
0
 10
21.4983
 20
27.4734
  0
VERTEX
  8
0
 10
21.4409
 20
27.3489
  0
VERTEX
  8
0
 10
21.3643
 20
27.234
  0
VERTEX
  8
0
 10
21.2685
 20
27.1287
  0
VERTEX
  8
0
 10
21.1632
 20
27.033
  0
VERTEX
  8
0
 10
21.0387
 20
26.9468
  0
VERTEX
  8
0
 10
20.9047
 20
26.8702
  0
VERTEX
  8
0
 10
20.7707
 20
26.8032
  0
VERTEX
  8
0
 10
20.627
 20
26.7553
  0
VERTEX
  8
0
 10
20.4834
 20
26.7074
  0
VERTEX
  8
0
 10
20.3494
 20
26.6787
  0
VERTEX
  8
0
 10
20.2632
 20
26.6691
  0
VERTEX
  8
0
 10
20.177
 20
26.6691
  0
VERTEX
  8
0
 10
20.0813
 20
26.6691
  0
VERTEX
  8
0
 10
19.9855
 20
26.6883
  0
VERTEX
  8
0
 10
19.8898
 20
26.7074
  0
VERTEX
  8
0
 10
19.7941
 20
26.7362
  0
VERTEX
  8
0
 10
19.6983
 20
26.7649
  0
VERTEX
  8
0
 10
19.6121
 20
26.8032
  0
VERTEX
  8
0
 10
19.526
 20
26.8511
  0
VERTEX
  8
0
 10
19.4589
 20
26.8989
  0
VERTEX
  8
0
 10
19.3919
 20
26.9851
  0
VERTEX
  8
0
 10
19.3345
 20
27.0809
  0
VERTEX
  8
0
 10
19.2866
 20
27.1766
  0
VERTEX
  8
0
 10
19.2483
 20
27.2723
  0
VERTEX
  8
0
 10
19.2196
 20
27.3777
  0
VERTEX
  8
0
 10
19.21
 20
27.483
  0
VERTEX
  8
0
 10
19.2004
 20
27.5883
  0
VERTEX
  8
0
 10
19.2004
 20
27.7032
  0
VERTEX
  8
0
 10
19.21
 20
27.8085
  0
VERTEX
  8
0
 10
19.2292
 20
27.9234
  0
VERTEX
  8
0
 10
19.2675
 20
28.0191
  0
VERTEX
  8
0
 10
19.3249
 20
28.1053
  0
VERTEX
  8
0
 10
19.3824
 20
28.1723
  0
VERTEX
  8
0
 10
19.4589
 20
28.2394
  0
VERTEX
  8
0
 10
19.5451
 20
28.2872
  0
VERTEX
  8
0
 10
19.6313
 20
28.3255
  0
VERTEX
  8
0
 10
19.727
 20
28.3638
  0
VERTEX
  8
0
 10
19.8132
 20
28.4021
  0
VERTEX
  8
0
 10
19.9089
 20
28.4309
  0
VERTEX
  8
0
 10
19.9951
 20
28.4691
  0
VERTEX
  8
0
 10
20.1196
 20
28.4787
  0
VERTEX
  8
0
 10
20.2441
 20
28.4787
  0
VERTEX
  8
0
 10
20.3589
 20
28.4691
  0
VERTEX
  8
0
 10
20.4834
 20
28.45
  0
VERTEX
  8
0
 10
20.5983
 20
28.4309
  0
VERTEX
  8
0
 10
20.7132
 20
28.3926
  0
VERTEX
  8
0
 10
20.8281
 20
28.3543
  0
VERTEX
  8
0
 10
20.943
 20
28.3064
  0
VERTEX
  8
0
 10
21.0483
 20
28.2489
  0
VERTEX
  8
0
 10
21.1441
 20
28.1819
  0
SEQEND
  0
POLYLINE
  8
0
 66
     1
 10
0
 20
0
  0
VERTEX
  8
0
 10
12.4983
 20
27.033
  0
VERTEX
  8
0
 10
12.5462
 20
26.8511
  0
VERTEX
  8
0
 10
12.5749
 20
26.6787
  0
VERTEX
  8
0
 10
12.5653
 20
26.5064
  0
VERTEX
  8
0
 10
12.5366
 20
26.3245
  0
VERTEX
  8
0
 10
12.4887
 20
26.1617
  0
VERTEX
  8
0
 10
12.4217
 20
25.9894
  0
VERTEX
  8
0
 10
12.3451
 20
25.8362
  0
VERTEX
  8
0
 10
12.2494
 20
25.683
  0
VERTEX
  8
0
 10
12.1536
 20
25.5394
  0
VERTEX
  8
0
 10
12.0483
 20
25.4053
  0
VERTEX
  8
0
 10
11.9143
 20
25.3383
  0
VERTEX
  8
0
 10
11.7802
 20
25.3
  0
VERTEX
  8
0
 10
11.6462
 20
25.2713
  0
VERTEX
  8
0
 10
11.5121
 20
25.2713
  0
VERTEX
  8
0
 10
11.3685
 20
25.2904
  0
VERTEX
  8
0
 10
11.2345
 20
25.3096
  0
VERTEX
  8
0
 10
11.1004
 20
25.3479
  0
VERTEX
  8
0
 10
10.9664
 20
25.3957
  0
VERTEX
  8
0
 10
10.8419
 20
25.4436
  0
VERTEX
  8
0
 10
10.7079
 20
25.5011
  0
VERTEX
  8
0
 10
10.6121
 20
25.6255
  0
VERTEX
  8
0
 10
10.5164
 20
25.7596
  0
VERTEX
  8
0
 10
10.4398
 20
25.8936
  0
VERTEX
  8
0
 10
10.3823
 20
26.0372
  0
VERTEX
  8
0
 10
10.3345
 20
26.1809
  0
VERTEX
  8
0
 10
10.3057
 20
26.3245
  0
VERTEX
  8
0
 10
10.2962
 20
26.4777
  0
VERTEX
  8
0
 10
10.2962
 20
26.6309
  0
VERTEX
  8
0
 10
10.3153
 20
26.7936
  0
VERTEX
  8
0
 10
10.3632
 20
26.966
  0
VERTEX
  8
0
 10
10.4111
 20
27.0809
  0
VERTEX
  8
0
 10
10.4685
 20
27.1862
  0
VERTEX
  8
0
 10
10.5547
 20
27.2723
  0
VERTEX
  8
0
 10
10.6409
 20
27.3489
  0
VERTEX
  8
0
 10
10.7462
 20
27.416
  0
VERTEX
  8
0
 10
10.8515
 20
27.4638
  0
VERTEX
  8
0
 10
10.9664
 20
27.5213
  0
VERTEX
  8
0
 10
11.0813
 20
27.5596
  0
VERTEX
  8
0
 10
11.1962
 20
27.5979
  0
VERTEX
  8
0
 10
11.3206
 20
27.6362
  0
VERTEX
  8
0
 10
11.4643
 20
27.6266
  0
VERTEX
  8
0
 10
11.6079
 20
27.617
  0
VERTEX
  8
0
 10
11.7515
 20
27.5883
  0
VERTEX
  8
0
 10
11.8855
 20
27.5404
  0
VERTEX
  8
0
 10
12.01
 20
27.4926
  0
VERTEX
  8
0
 10
12.1345
 20
27.4255
  0
VERTEX
  8
0
 10
12.2494
 20
27.3489
  0
VERTEX
  8
0
 10
12.3451
 20
27.2532
  0
VERTEX
  8
0
 10
12.4313
 20
27.1479
  0
VERTEX
  8
0
 10
12.4983
 20
27.033
  0
SEQEND
  0
POLYLINE
  8
0
 66
     1
 10
0
 20
0
  0
VERTEX
  8
0
 10
10.1717
 20
27.1574
  0
VERTEX
  8
0
 10
10.1526
 20
27.0713
  0
VERTEX
  8
0
 10
10.1334
 20
26.9755
  0
VERTEX
  8
0
 10
10.0951
 20
26.8798
  0
VERTEX
  8
0
 10
10.0664
 20
26.784
  0
VERTEX
  8
0
 10
10.0281
 20
26.6883
  0
VERTEX
  8
0
 10
9.9898
 20
26.583
  0
VERTEX
  8
0
 10
9.9706
 20
26.4777
  0
VERTEX
  8
0
 10
9.9515
 20
26.3723
  0
VERTEX
  8
0
 10
9.9515
 20
26.2574
  0
VERTEX
  8
0
 10
9.9802
 20
26.133
  0
VERTEX
  8
0
 10
9.9802
 20
26.0277
  0
VERTEX
  8
0
 10
10.0185
 20
25.9319
  0
VERTEX
  8
0
 10
10.0568
 20
25.8362
  0
VERTEX
  8
0
 10
10.1238
 20
25.75
  0
VERTEX
  8
0
 10
10.1813
 20
25.6638
  0
VERTEX
  8
0
 10
10.2483
 20
25.5777
  0
VERTEX
  8
0
 10
10.3153
 20
25.5011
  0
VERTEX
  8
0
 10
10.3728
 20
25.4149
  0
VERTEX
  8
0
 10
10.4206
 20
25.3287
  0
VERTEX
  8
0
 10
10.4589
 20
25.2426
  0
VERTEX
  8
0
 10
10.2674
 20
25.0989
  0
VERTEX
  8
0
 10
10.0664
 20
25.0223
  0
VERTEX
  8
0
 10
9.8749
 20
25.0128
  0
VERTEX
  8
0
 10
9.6834
 20
25.0415
  0
VERTEX
  8
0
 10
9.4919
 20
25.0989
  0
VERTEX
  8
0
 10
9.2908
 20
25.166
  0
VERTEX
  8
0
 10
9.0898
 20
25.2234
  0
VERTEX
  8
0
 10
8.8887
 20
25.2617
  0
VERTEX
  8
0
 10
8.6877
 20
25.2617
  0
VERTEX
  8
0
 10
8.477
 20
25.2138
  0
VERTEX
  8
0
 10
8.4196
 20
25.3287
  0
VERTEX
  8
0
 10
8.3813
 20
25.4532
  0
VERTEX
  8
0
 10
8.3526
 20
25.5872
  0
VERTEX
  8
0
 10
8.343
 20
25.7213
  0
VERTEX
  8
0
 10
8.3334
 20
25.8553
  0
VERTEX
  8
0
 10
8.343
 20
25.9894
  0
VERTEX
  8
0
 10
8.3526
 20
26.1234
  0
VERTEX
  8
0
 10
8.3813
 20
26.2574
  0
VERTEX
  8
0
 10
8.41
 20
26.3915
  0
VERTEX
  8
0
 10
8.4483
 20
26.516
  0
VERTEX
  8
0
 10
8.5536
 20
26.6787
  0
VERTEX
  8
0
 10
8.6877
 20
26.8223
  0
VERTEX
  8
0
 10
8.8408
 20
26.9564
  0
VERTEX
  8
0
 10
9.0036
 20
27.0713
  0
VERTEX
  8
0
 10
9.1855
 20
27.1574
  0
VERTEX
  8
0
 10
9.377
 20
27.2245
  0
VERTEX
  8
0
 10
9.5781
 20
27.2628
  0
VERTEX
  8
0
 10
9.7791
 20
27.2628
  0
VERTEX
  8
0
 10
9.9706
 20
27.2245
  0
VERTEX
  8
0
 10
10.1717
 20
27.1574
  0
SEQEND
  0
POLYLINE
  8
0
 66
     1
 10
0
 20
0
  0
VERTEX
  8
0
 10
17.027
 20
26.2287
  0
VERTEX
  8
0
 10
17.0845
 20
26.0947
  0
VERTEX
  8
0
 10
17.1228
 20
25.9606
  0
VERTEX
  8
0
 10
17.1419
 20
25.817
  0
VERTEX
  8
0
 10
17.1419
 20
25.6734
  0
VERTEX
  8
0
 10
17.1228
 20
25.5298
  0
VERTEX
  8
0
 10
17.0941
 20
25.3957
  0
VERTEX
  8
0
 10
17.0462
 20
25.2617
  0
VERTEX
  8
0
 10
16.9887
 20
25.1277
  0
VERTEX
  8
0
 10
16.9217
 20
25.0032
  0
VERTEX
  8
0
 10
16.8355
 20
24.8883
  0
VERTEX
  8
0
 10
16.7206
 20
24.7638
  0
VERTEX
  8
0
 10
16.5866
 20
24.6681
  0
VERTEX
  8
0
 10
16.443
 20
24.5915
  0
VERTEX
  8
0
 10
16.2802
 20
24.534
  0
VERTEX
  8
0
 10
16.127
 20
24.4957
  0
VERTEX
  8
0
 10
15.9547
 20
24.4766
  0
VERTEX
  8
0
 10
15.7919
 20
24.4766
  0
VERTEX
  8
0
 10
15.6292
 20
24.4957
  0
VERTEX
  8
0
 10
15.4664
 20
24.5245
  0
VERTEX
  8
0
 10
15.3036
 20
24.5723
  0
VERTEX
  8
0
 10
15.1792
 20
24.6202
  0
VERTEX
  8
0
 10
15.0738
 20
24.6872
  0
VERTEX
  8
0
 10
14.9972
 20
24.7734
  0
VERTEX
  8
0
 10
14.9302
 20
24.8787
  0
VERTEX
  8
0
 10
14.8823
 20
24.984
  0
VERTEX
  8
0
 10
14.844
 20
25.0989
  0
VERTEX
  8
0
 10
14.8153
 20
25.2234
  0
VERTEX
  8
0
 10
14.7962
 20
25.3383
  0
VERTEX
  8
0
 10
14.777
 20
25.4532
  0
VERTEX
  8
0
 10
14.7675
 20
25.5585
  0
VERTEX
  8
0
 10
14.7866
 20
25.6926
  0
VERTEX
  8
0
 10
14.8345
 20
25.8266
  0
VERTEX
  8
0
 10
14.9015
 20
25.9606
  0
VERTEX
  8
0
 10
14.9781
 20
26.0851
  0
VERTEX
  8
0
 10
15.0643
 20
26.2096
  0
VERTEX
  8
0
 10
15.16
 20
26.3245
  0
VERTEX
  8
0
 10
15.2749
 20
26.4202
  0
VERTEX
  8
0
 10
15.3994
 20
26.4968
  0
VERTEX
  8
0
 10
15.5238
 20
26.5638
  0
VERTEX
  8
0
 10
15.6579
 20
26.6117
  0
VERTEX
  8
0
 10
15.8015
 20
26.6309
  0
VERTEX
  8
0
 10
15.9451
 20
26.65
  0
VERTEX
  8
0
 10
16.0983
 20
26.6596
  0
VERTEX
  8
0
 10
16.2515
 20
26.6596
  0
VERTEX
  8
0
 10
16.4047
 20
26.65
  0
VERTEX
  8
0
 10
16.5483
 20
26.6117
  0
VERTEX
  8
0
 10
16.6919
 20
26.5638
  0
VERTEX
  8
0
 10
16.8164
 20
26.4777
  0
VERTEX
  8
0
 10
16.9313
 20
26.3723
  0
VERTEX
  8
0
 10
17.027
 20
26.2287
  0
SEQEND
  0
POLYLINE
  8
0
 66
     1
 10
0
 20
0
  0
VERTEX
  8
0
 10
14.5377
 20
25.5968
  0
VERTEX
  8
0
 10
14.5855
 20
25.5011
  0
VERTEX
  8
0
 10
14.6238
 20
25.4053
  0
VERTEX
  8
0
 10
14.6621
 20
25.3
  0
VERTEX
  8
0
 10
14.6813
 20
25.1947
  0
VERTEX
  8
0
 10
14.6909
 20
25.0798
  0
VERTEX
  8
0
 10
14.7004
 20
24.9649
  0
VERTEX
  8
0
 10
14.7004
 20
24.8596
  0
VERTEX
  8
0
 10
14.6813
 20
24.7447
  0
VERTEX
  8
0
 10
14.6621
 20
24.6394
  0
VERTEX
  8
0
 10
14.6334
 20
24.5436
  0
VERTEX
  8
0
 10
14.5664
 20
24.4383
  0
VERTEX
  8
0
 10
14.4802
 20
24.333
  0
VERTEX
  8
0
 10
14.394
 20
24.2372
  0
VERTEX
  8
0
 10
14.2983
 20
24.1415
  0
VERTEX
  8
0
 10
14.2026
 20
24.0649
  0
VERTEX
  8
0
 10
14.0877
 20
23.9883
  0
VERTEX
  8
0
 10
13.9728
 20
23.9309
  0
VERTEX
  8
0
 10
13.8483
 20
23.883
  0
VERTEX
  8
0
 10
13.7143
 20
23.8638
  0
VERTEX
  8
0
 10
13.5802
 20
23.8734
  0
VERTEX
  8
0
 10
13.4653
 20
23.8734
  0
VERTEX
  8
0
 10
13.3504
 20
23.883
  0
VERTEX
  8
0
 10
13.2355
 20
23.8926
  0
VERTEX
  8
0
 10
13.1302
 20
23.9213
  0
VERTEX
  8
0
 10
13.0249
 20
23.95
  0
VERTEX
  8
0
 10
12.9292
 20
23.9979
  0
VERTEX
  8
0
 10
12.8334
 20
24.0457
  0
VERTEX
  8
0
 10
12.7472
 20
24.1128
  0
VERTEX
  8
0
 10
12.6611
 20
24.1894
  0
VERTEX
  8
0
 10
12.594
 20
24.2851
  0
VERTEX
  8
0
 10
12.5174
 20
24.3617
  0
VERTEX
  8
0
 10
12.4504
 20
24.4479
  0
VERTEX
  8
0
 10
12.393
 20
24.534
  0
VERTEX
  8
0
 10
12.3355
 20
24.6298
  0
VERTEX
  8
0
 10
12.2972
 20
24.716
  0
VERTEX
  8
0
 10
12.2589
 20
24.8213
  0
VERTEX
  8
0
 10
12.2398
 20
24.917
  0
VERTEX
  8
0
 10
12.2398
 20
25.0223
  0
VERTEX
  8
0
 10
12.2494
 20
25.1277
  0
VERTEX
  8
0
 10
12.2781
 20
25.2426
  0
VERTEX
  8
0
 10
12.3164
 20
25.3862
  0
VERTEX
  8
0
 10
12.3834
 20
25.5298
  0
VERTEX
  8
0
 10
12.46
 20
25.6638
  0
VERTEX
  8
0
 10
12.5462
 20
25.7883
  0
VERTEX
  8
0
 10
12.6515
 20
25.9128
  0
VERTEX
  8
0
 10
12.7664
 20
26.0085
  0
VERTEX
  8
0
 10
12.8909
 20
26.1043
  0
VERTEX
  8
0
 10
13.0345
 20
26.1713
  0
VERTEX
  8
0
 10
13.1781
 20
26.2287
  0
VERTEX
  8
0
 10
13.3313
 20
26.267
  0
VERTEX
  8
0
 10
13.4653
 20
26.2574
  0
VERTEX
  8
0
 10
13.6089
 20
26.2479
  0
VERTEX
  8
0
 10
13.7526
 20
26.2191
  0
VERTEX
  8
0
 10
13.8962
 20
26.1713
  0
VERTEX
  8
0
 10
14.0302
 20
26.1234
  0
VERTEX
  8
0
 10
14.1547
 20
26.0468
  0
VERTEX
  8
0
 10
14.2696
 20
25.9606
  0
VERTEX
  8
0
 10
14.3749
 20
25.8553
  0
VERTEX
  8
0
 10
14.4706
 20
25.7309
  0
VERTEX
  8
0
 10
14.5377
 20
25.5968
  0
SEQEND
  0
POLYLINE
  8
0
 66
     1
 10
0
 20
0
  0
VERTEX
  8
0
 10
18.6834
 20
24.7926
  0
VERTEX
  8
0
 10
18.5494
 20
24.8596
  0
VERTEX
  8
0
 10
18.3962
 20
24.9074
  0
VERTEX
  8
0
 10
18.243
 20
24.9362
  0
VERTEX
  8
0
 10
18.0898
 20
24.9649
  0
VERTEX
  8
0
 10
17.927
 20
24.9745
  0
VERTEX
  8
0
 10
17.7643
 20
24.9745
  0
VERTEX
  8
0
 10
17.6015
 20
24.9553
  0
VERTEX
  8
0
 10
17.4387
 20
24.9362
  0
VERTEX
  8
0
 10
17.2855
 20
24.8979
  0
VERTEX
  8
0
 10
17.1228
 20
24.8596
  0
VERTEX
  8
0
 10
17.1994
 20
24.9745
  0
VERTEX
  8
0
 10
17.2664
 20
25.0989
  0
VERTEX
  8
0
 10
17.3143
 20
25.2426
  0
VERTEX
  8
0
 10
17.3526
 20
25.3862
  0
VERTEX
  8
0
 10
17.3813
 20
25.5394
  0
VERTEX
  8
0
 10
17.4004
 20
25.6926
  0
VERTEX
  8
0
 10
17.4196
 20
25.8457
  0
VERTEX
  8
0
 10
17.4292
 20
25.9989
  0
VERTEX
  8
0
 10
17.4387
 20
26.1521
  0
VERTEX
  8
0
 10
17.4483
 20
26.2957
  0
VERTEX
  8
0
 10
17.6494
 20
26.2479
  0
VERTEX
  8
0
 10
17.8504
 20
26.1713
  0
VERTEX
  8
0
 10
18.0324
 20
26.0564
  0
VERTEX
  8
0
 10
18.2047
 20
25.9223
  0
VERTEX
  8
0
 10
18.3579
 20
25.7691
  0
VERTEX
  8
0
 10
18.4824
 20
25.5968
  0
VERTEX
  8
0
 10
18.5877
 20
25.4053
  0
VERTEX
  8
0
 10
18.6547
 20
25.2138
  0
VERTEX
  8
0
 10
18.693
 20
25.0032
  0
VERTEX
  8
0
 10
18.6834
 20
24.7926
  0
SEQEND
  0
POLYLINE
  8
0
 66
     1
 10
0
 20
0
  0
VERTEX
  8
0
 10
12.4026
 20
24.2564
  0
VERTEX
  8
0
 10
12.4026
 20
24.1606
  0
VERTEX
  8
0
 10
12.4026
 20
24.0745
  0
VERTEX
  8
0
 10
12.4026
 20
23.9787
  0
VERTEX
  8
0
 10
12.393
 20
23.883
  0
VERTEX
  8
0
 10
12.3834
 20
23.7872
  0
VERTEX
  8
0
 10
12.3547
 20
23.7011
  0
VERTEX
  8
0
 10
12.326
 20
23.6149
  0
VERTEX
  8
0
 10
12.2781
 20
23.5287
  0
VERTEX
  8
0
 10
12.2206
 20
23.4617
  0
VERTEX
  8
0
 10
12.144
 20
23.3947
  0
VERTEX
  8
0
 10
11.9909
 20
23.2798
  0
VERTEX
  8
0
 10
11.8185
 20
23.184
  0
VERTEX
  8
0
 10
11.6366
 20
23.117
  0
VERTEX
  8
0
 10
11.4451
 20
23.0787
  0
VERTEX
  8
0
 10
11.244
 20
23.05
  0
VERTEX
  8
0
 10
11.043
 20
23.05
  0
VERTEX
  8
0
 10
10.8515
 20
23.0691
  0
VERTEX
  8
0
 10
10.66
 20
23.0979
  0
VERTEX
  8
0
 10
10.4685
 20
23.1553
  0
VERTEX
  8
0
 10
10.2962
 20
23.2319
  0
VERTEX
  8
0
 10
10.2291
 20
23.2989
  0
VERTEX
  8
0
 10
10.1717
 20
23.366
  0
VERTEX
  8
0
 10
10.1238
 20
23.4426
  0
VERTEX
  8
0
 10
10.076
 20
23.5191
  0
VERTEX
  8
0
 10
10.0281
 20
23.6053
  0
VERTEX
  8
0
 10
9.9994
 20
23.6915
  0
VERTEX
  8
0
 10
9.9706
 20
23.7777
  0
VERTEX
  8
0
 10
9.9419
 20
23.8734
  0
VERTEX
  8
0
 10
9.9228
 20
23.9691
  0
VERTEX
  8
0
 10
9.9132
 20
24.0649
  0
VERTEX
  8
0
 10
9.9132
 20
24.2085
  0
VERTEX
  8
0
 10
9.9515
 20
24.333
  0
VERTEX
  8
0
 10
10.0185
 20
24.4383
  0
VERTEX
  8
0
 10
10.0951
 20
24.5436
  0
VERTEX
  8
0
 10
10.1909
 20
24.6202
  0
VERTEX
  8
0
 10
10.3057
 20
24.6968
  0
VERTEX
  8
0
 10
10.4111
 20
24.7734
  0
VERTEX
  8
0
 10
10.526
 20
24.8309
  0
VERTEX
  8
0
 10
10.6409
 20
24.8979
  0
VERTEX
  8
0
 10
10.7462
 20
24.9553
  0
VERTEX
  8
0
 10
10.8323
 20
24.984
  0
VERTEX
  8
0
 10
10.9281
 20
25.0032
  0
VERTEX
  8
0
 10
11.0334
 20
25.0128
  0
VERTEX
  8
0
 10
11.1291
 20
25.0223
  0
VERTEX
  8
0
 10
11.2345
 20
25.0223
  0
VERTEX
  8
0
 10
11.3398
 20
25.0223
  0
VERTEX
  8
0
 10
11.4451
 20
25.0128
  0
VERTEX
  8
0
 10
11.5409
 20
25.0032
  0
VERTEX
  8
0
 10
11.6366
 20
24.984
  0
VERTEX
  8
0
 10
11.7323
 20
24.9553
  0
VERTEX
  8
0
 10
11.7994
 20
24.8883
  0
VERTEX
  8
0
 10
11.876
 20
24.8213
  0
VERTEX
  8
0
 10
11.9526
 20
24.7638
  0
VERTEX
  8
0
 10
12.0292
 20
24.6968
  0
VERTEX
  8
0
 10
12.1057
 20
24.6394
  0
VERTEX
  8
0
 10
12.1728
 20
24.5723
  0
VERTEX
  8
0
 10
12.2398
 20
24.5053
  0
VERTEX
  8
0
 10
12.3068
 20
24.4287
  0
VERTEX
  8
0
 10
12.3547
 20
24.3426
  0
VERTEX
  8
0
 10
12.4026
 20
24.2564
  0
SEQEND
  0
POLYLINE
  8
0
 66
     1
 10
0
 20
0
  0
VERTEX
  8
0
 10
9.9132
 20
24.5436
  0
VERTEX
  8
0
 10
9.8462
 20
24.4574
  0
VERTEX
  8
0
 10
9.7983
 20
24.3713
  0
VERTEX
  8
0
 10
9.76
 20
24.2755
  0
VERTEX
  8
0
 10
9.7409
 20
24.1798
  0
VERTEX
  8
0
 10
9.7313
 20
24.084
  0
VERTEX
  8
0
 10
9.7313
 20
23.9787
  0
VERTEX
  8
0
 10
9.7409
 20
23.883
  0
VERTEX
  8
0
 10
9.7696
 20
23.7777
  0
VERTEX
  8
0
 10
9.7983
 20
23.6819
  0
VERTEX
  8
0
 10
9.8462
 20
23.5862
  0
VERTEX
  8
0
 10
9.9323
 20
23.5191
  0
VERTEX
  8
0
 10
9.9706
 20
23.4521
  0
VERTEX
  8
0
 10
9.9802
 20
23.3947
  0
VERTEX
  8
0
 10
9.9611
 20
23.3468
  0
VERTEX
  8
0
 10
9.9132
 20
23.2894
  0
VERTEX
  8
0
 10
9.8653
 20
23.2319
  0
VERTEX
  8
0
 10
9.8079
 20
23.184
  0
VERTEX
  8
0
 10
9.7504
 20
23.1266
  0
VERTEX
  8
0
 10
9.7121
 20
23.0691
  0
VERTEX
  8
0
 10
9.693
 20
23.0117
  0
VERTEX
  8
0
 10
9.5781
 20
22.9255
  0
VERTEX
  8
0
 10
9.4632
 20
22.8585
  0
VERTEX
  8
0
 10
9.3387
 20
22.8011
  0
VERTEX
  8
0
 10
9.2047
 20
22.7532
  0
VERTEX
  8
0
 10
9.0611
 20
22.7149
  0
VERTEX
  8
0
 10
8.927
 20
22.6957
  0
VERTEX
  8
0
 10
8.7834
 20
22.6862
  0
VERTEX
  8
0
 10
8.6302
 20
22.6957
  0
VERTEX
  8
0
 10
8.4866
 20
22.7149
  0
VERTEX
  8
0
 10
8.3526
 20
22.7532
  0
VERTEX
  8
0
 10
8.2472
 20
22.8011
  0
VERTEX
  8
0
 10
8.1611
 20
22.8585
  0
VERTEX
  8
0
 10
8.0749
 20
22.9255
  0
VERTEX
  8
0
 10
7.9983
 20
23.0117
  0
VERTEX
  8
0
 10
7.9313
 20
23.0883
  0
VERTEX
  8
0
 10
7.8643
 20
23.184
  0
VERTEX
  8
0
 10
7.8068
 20
23.2702
  0
VERTEX
  8
0
 10
7.7494
 20
23.366
  0
VERTEX
  8
0
 10
7.6919
 20
23.4617
  0
VERTEX
  8
0
 10
7.644
 20
23.5479
  0
VERTEX
  8
0
 10
7.6153
 20
23.6532
  0
VERTEX
  8
0
 10
7.6057
 20
23.7489
  0
VERTEX
  8
0
 10
7.6057
 20
23.8447
  0
VERTEX
  8
0
 10
7.6345
 20
23.9309
  0
VERTEX
  8
0
 10
7.6632
 20
24.017
  0
VERTEX
  8
0
 10
7.7111
 20
24.1032
  0
VERTEX
  8
0
 10
7.7589
 20
24.1798
  0
VERTEX
  8
0
 10
7.8164
 20
24.2564
  0
VERTEX
  8
0
 10
7.8738
 20
24.333
  0
VERTEX
  8
0
 10
7.9313
 20
24.4096
  0
VERTEX
  8
0
 10
8.1036
 20
24.534
  0
VERTEX
  8
0
 10
8.2951
 20
24.6298
  0
VERTEX
  8
0
 10
8.4866
 20
24.7064
  0
VERTEX
  8
0
 10
8.6972
 20
24.7638
  0
VERTEX
  8
0
 10
8.9079
 20
24.8021
  0
VERTEX
  8
0
 10
9.1185
 20
24.8021
  0
VERTEX
  8
0
 10
9.3291
 20
24.783
  0
VERTEX
  8
0
 10
9.5302
 20
24.7351
  0
VERTEX
  8
0
 10
9.7313
 20
24.6489
  0
VERTEX
  8
0
 10
9.9132
 20
24.5436
  0
SEQEND
  0
POLYLINE
  8
0
 66
     1
 10
0
 20
0
  0
VERTEX
  8
0
 10
18.4058
 20
24.2564
  0
VERTEX
  8
0
 10
18.5015
 20
24.1606
  0
VERTEX
  8
0
 10
18.5781
 20
24.0553
  0
VERTEX
  8
0
 10
18.6451
 20
23.9404
  0
VERTEX
  8
0
 10
18.6834
 20
23.816
  0
VERTEX
  8
0
 10
18.7121
 20
23.6915
  0
VERTEX
  8
0
 10
18.7217
 20
23.5574
  0
VERTEX
  8
0
 10
18.7217
 20
23.4234
  0
VERTEX
  8
0
 10
18.7026
 20
23.2894
  0
VERTEX
  8
0
 10
18.6834
 20
23.1649
  0
VERTEX
  8
0
 10
18.6547
 20
23.0404
  0
VERTEX
  8
0
 10
18.626
 20
22.9638
  0
VERTEX
  8
0
 10
18.5877
 20
22.8968
  0
VERTEX
  8
0
 10
18.5398
 20
22.8298
  0
VERTEX
  8
0
 10
18.5015
 20
22.7723
  0
VERTEX
  8
0
 10
18.4536
 20
22.7053
  0
VERTEX
  8
0
 10
18.3962
 20
22.6574
  0
VERTEX
  8
0
 10
18.3483
 20
22.6
  0
VERTEX
  8
0
 10
18.2813
 20
22.5521
  0
VERTEX
  8
0
 10
18.2143
 20
22.5043
  0
VERTEX
  8
0
 10
18.1472
 20
22.466
  0
VERTEX
  8
0
 10
18.0228
 20
22.4181
  0
VERTEX
  8
0
 10
17.8983
 20
22.3989
  0
VERTEX
  8
0
 10
17.7738
 20
22.3989
  0
VERTEX
  8
0
 10
17.6494
 20
22.4085
  0
VERTEX
  8
0
 10
17.5249
 20
22.4372
  0
VERTEX
  8
0
 10
17.4004
 20
22.466
  0
VERTEX
  8
0
 10
17.2855
 20
22.5043
  0
VERTEX
  8
0
 10
17.1611
 20
22.5426
  0
VERTEX
  8
0
 10
17.0462
 20
22.5904
  0
VERTEX
  8
0
 10
16.9313
 20
22.6287
  0
VERTEX
  8
0
 10
16.8547
 20
22.7436
  0
VERTEX
  8
0
 10
16.7877
 20
22.8681
  0
VERTEX
  8
0
 10
16.7206
 20
22.9926
  0
VERTEX
  8
0
 10
16.6823
 20
23.1362
  0
VERTEX
  8
0
 10
16.6441
 20
23.2702
  0
VERTEX
  8
0
 10
16.6249
 20
23.4138
  0
VERTEX
  8
0
 10
16.6153
 20
23.5574
  0
VERTEX
  8
0
 10
16.6153
 20
23.7106
  0
VERTEX
  8
0
 10
16.6441
 20
23.8543
  0
VERTEX
  8
0
 10
16.6823
 20
23.9979
  0
VERTEX
  8
0
 10
16.7302
 20
24.0649
  0
VERTEX
  8
0
 10
16.7877
 20
24.1415
  0
VERTEX
  8
0
 10
16.8355
 20
24.2085
  0
VERTEX
  8
0
 10
16.8834
 20
24.2851
  0
VERTEX
  8
0
 10
16.9409
 20
24.3521
  0
VERTEX
  8
0
 10
16.9983
 20
24.4096
  0
VERTEX
  8
0
 10
17.0653
 20
24.4574
  0
VERTEX
  8
0
 10
17.1419
 20
24.4957
  0
VERTEX
  8
0
 10
17.2185
 20
24.5245
  0
VERTEX
  8
0
 10
17.3143
 20
24.5436
  0
VERTEX
  8
0
 10
17.4196
 20
24.534
  0
VERTEX
  8
0
 10
17.5345
 20
24.5245
  0
VERTEX
  8
0
 10
17.6589
 20
24.5149
  0
VERTEX
  8
0
 10
17.7738
 20
24.5053
  0
VERTEX
  8
0
 10
17.8887
 20
24.4862
  0
VERTEX
  8
0
 10
18.0036
 20
24.467
  0
VERTEX
  8
0
 10
18.1185
 20
24.4287
  0
VERTEX
  8
0
 10
18.2238
 20
24.3809
  0
VERTEX
  8
0
 10
18.3196
 20
24.3234
  0
VERTEX
  8
0
 10
18.4058
 20
24.2564
  0
SEQEND
  0
POLYLINE
  8
0
 66
     1
 10
0
 20
0
  0
VERTEX
  8
0
 10
16.4238
 20
23.9979
  0
VERTEX
  8
0
 10
16.3664
 20
23.8447
  0
VERTEX
  8
0
 10
16.3472
 20
23.7011
  0
VERTEX
  8
0
 10
16.3568
 20
23.567
  0
VERTEX
  8
0
 10
16.376
 20
23.4234
  0
VERTEX
  8
0
 10
16.4047
 20
23.2989
  0
VERTEX
  8
0
 10
16.4334
 20
23.1649
  0
VERTEX
  8
0
 10
16.4621
 20
23.0309
  0
VERTEX
  8
0
 10
16.4621
 20
22.8968
  0
VERTEX
  8
0
 10
16.443
 20
22.7628
  0
VERTEX
  8
0
 10
16.3951
 20
22.6287
  0
VERTEX
  8
0
 10
16.2323
 20
22.5426
  0
VERTEX
  8
0
 10
16.0696
 20
22.466
  0
VERTEX
  8
0
 10
15.8972
 20
22.4085
  0
VERTEX
  8
0
 10
15.7153
 20
22.3606
  0
VERTEX
  8
0
 10
15.5334
 20
22.3319
  0
VERTEX
  8
0
 10
15.3515
 20
22.3319
  0
VERTEX
  8
0
 10
15.1696
 20
22.3415
  0
VERTEX
  8
0
 10
14.9972
 20
22.3894
  0
VERTEX
  8
0
 10
14.8249
 20
22.4564
  0
VERTEX
  8
0
 10
14.6717
 20
22.5617
  0
VERTEX
  8
0
 10
14.6143
 20
22.6383
  0
VERTEX
  8
0
 10
14.5664
 20
22.7149
  0
VERTEX
  8
0
 10
14.5185
 20
22.8011
  0
VERTEX
  8
0
 10
14.4802
 20
22.8777
  0
VERTEX
  8
0
 10
14.4419
 20
22.9638
  0
VERTEX
  8
0
 10
14.4036
 20
23.0404
  0
VERTEX
  8
0
 10
14.3653
 20
23.1266
  0
VERTEX
  8
0
 10
14.3366
 20
23.2128
  0
VERTEX
  8
0
 10
14.3079
 20
23.2989
  0
VERTEX
  8
0
 10
14.2887
 20
23.3947
  0
VERTEX
  8
0
 10
14.3175
 20
23.4904
  0
VERTEX
  8
0
 10
14.3462
 20
23.5766
  0
VERTEX
  8
0
 10
14.3845
 20
23.6723
  0
VERTEX
  8
0
 10
14.4323
 20
23.7585
  0
VERTEX
  8
0
 10
14.4802
 20
23.8447
  0
VERTEX
  8
0
 10
14.5377
 20
23.9213
  0
VERTEX
  8
0
 10
14.5951
 20
23.9979
  0
VERTEX
  8
0
 10
14.6621
 20
24.0649
  0
VERTEX
  8
0
 10
14.7387
 20
24.1319
  0
VERTEX
  8
0
 10
14.8249
 20
24.1894
  0
VERTEX
  8
0
 10
14.9781
 20
24.2468
  0
VERTEX
  8
0
 10
15.1409
 20
24.2947
  0
VERTEX
  8
0
 10
15.3132
 20
24.3138
  0
VERTEX
  8
0
 10
15.4855
 20
24.3138
  0
VERTEX
  8
0
 10
15.6483
 20
24.2947
  0
VERTEX
  8
0
 10
15.8206
 20
24.266
  0
VERTEX
  8
0
 10
15.9834
 20
24.2181
  0
VERTEX
  8
0
 10
16.1366
 20
24.1606
  0
VERTEX
  8
0
 10
16.2898
 20
24.084
  0
VERTEX
  8
0
 10
16.4238
 20
23.9979
  0
SEQEND
  0
POLYLINE
  8
0
 66
     1
 10
0
 20
0
  0
VERTEX
  8
0
 10
7.9696
 20
22.5617
  0
VERTEX
  8
0
 10
7.8738
 20
22.4755
  0
VERTEX
  8
0
 10
7.7877
 20
22.3894
  0
VERTEX
  8
0
 10
7.7015
 20
22.3032
  0
VERTEX
  8
0
 10
7.6249
 20
22.2074
  0
VERTEX
  8
0
 10
7.5387
 20
22.1117
  0
VERTEX
  8
0
 10
7.4717
 20
22.016
  0
VERTEX
  8
0
 10
7.3951
 20
21.9202
  0
VERTEX
  8
0
 10
7.3377
 20
21.8149
  0
VERTEX
  8
0
 10
7.2802
 20
21.7096
  0
VERTEX
  8
0
 10
7.2323
 20
21.6043
  0
VERTEX
  8
0
 10
7.1174
 20
21.633
  0
VERTEX
  8
0
 10
7.0217
 20
21.6617
  0
VERTEX
  8
0
 10
6.9355
 20
21.7096
  0
VERTEX
  8
0
 10
6.8494
 20
21.767
  0
VERTEX
  8
0
 10
6.7728
 20
21.834
  0
VERTEX
  8
0
 10
6.7057
 20
21.9011
  0
VERTEX
  8
0
 10
6.6291
 20
21.9777
  0
VERTEX
  8
0
 10
6.5621
 20
22.0638
  0
VERTEX
  8
0
 10
6.4951
 20
22.15
  0
VERTEX
  8
0
 10
6.4377
 20
22.2457
  0
VERTEX
  8
0
 10
6.4281
 20
22.3606
  0
VERTEX
  8
0
 10
6.4281
 20
22.4851
  0
VERTEX
  8
0
 10
6.4281
 20
22.6
  0
VERTEX
  8
0
 10
6.4472
 20
22.7245
  0
VERTEX
  8
0
 10
6.4664
 20
22.8489
  0
VERTEX
  8
0
 10
6.4951
 20
22.9638
  0
VERTEX
  8
0
 10
6.543
 20
23.0787
  0
VERTEX
  8
0
 10
6.61
 20
23.184
  0
VERTEX
  8
0
 10
6.6866
 20
23.2894
  0
VERTEX
  8
0
 10
6.7823
 20
23.3947
  0
VERTEX
  8
0
 10
6.8302
 20
23.433
  0
VERTEX
  8
0
 10
6.8781
 20
23.4809
  0
VERTEX
  8
0
 10
6.926
 20
23.5287
  0
VERTEX
  8
0
 10
6.9738
 20
23.5766
  0
VERTEX
  8
0
 10
7.0313
 20
23.6149
  0
VERTEX
  8
0
 10
7.0887
 20
23.6532
  0
VERTEX
  8
0
 10
7.1557
 20
23.6819
  0
VERTEX
  8
0
 10
7.2132
 20
23.7011
  0
VERTEX
  8
0
 10
7.2898
 20
23.7106
  0
VERTEX
  8
0
 10
7.3568
 20
23.7106
  0
VERTEX
  8
0
 10
7.3664
 20
23.5957
  0
VERTEX
  8
0
 10
7.3951
 20
23.4713
  0
VERTEX
  8
0
 10
7.443
 20
23.3468
  0
VERTEX
  8
0
 10
7.4908
 20
23.2128
  0
VERTEX
  8
0
 10
7.5579
 20
23.0787
  0
VERTEX
  8
0
 10
7.6345
 20
22.9543
  0
VERTEX
  8
0
 10
7.7111
 20
22.8394
  0
VERTEX
  8
0
 10
7.7877
 20
22.7245
  0
VERTEX
  8
0
 10
7.8738
 20
22.6383
  0
VERTEX
  8
0
 10
7.9696
 20
22.5617
  0
SEQEND
  0
POLYLINE
  8
0
 66
     1
 10
0
 20
0
  0
VERTEX
  8
0
 10
20.2824
 20
22.7819
  0
VERTEX
  8
0
 10
20.3015
 20
22.6862
  0
VERTEX
  8
0
 10
20.3015
 20
22.5904
  0
VERTEX
  8
0
 10
20.2919
 20
22.5043
  0
VERTEX
  8
0
 10
20.2632
 20
22.4181
  0
VERTEX
  8
0
 10
20.2345
 20
22.3319
  0
VERTEX
  8
0
 10
20.1866
 20
22.2553
  0
VERTEX
  8
0
 10
20.1387
 20
22.1883
  0
VERTEX
  8
0
 10
20.0909
 20
22.1213
  0
VERTEX
  8
0
 10
20.043
 20
22.0543
  0
VERTEX
  8
0
 10
19.9951
 20
21.9872
  0
VERTEX
  8
0
 10
19.9089
 20
21.9202
  0
VERTEX
  8
0
 10
19.8228
 20
21.8532
  0
VERTEX
  8
0
 10
19.7366
 20
21.8053
  0
VERTEX
  8
0
 10
19.6409
 20
21.7574
  0
VERTEX
  8
0
 10
19.5355
 20
21.7191
  0
VERTEX
  8
0
 10
19.4398
 20
21.6904
  0
VERTEX
  8
0
 10
19.3345
 20
21.6713
  0
VERTEX
  8
0
 10
19.2292
 20
21.6713
  0
VERTEX
  8
0
 10
19.1143
 20
21.6713
  0
VERTEX
  8
0
 10
19.0089
 20
21.7
  0
VERTEX
  8
0
 10
18.9611
 20
21.767
  0
VERTEX
  8
0
 10
18.9228
 20
21.8436
  0
VERTEX
  8
0
 10
18.8941
 20
21.9202
  0
VERTEX
  8
0
 10
18.8558
 20
21.9872
  0
VERTEX
  8
0
 10
18.8175
 20
22.0638
  0
VERTEX
  8
0
 10
18.7792
 20
22.1404
  0
VERTEX
  8
0
 10
18.7313
 20
22.2074
  0
VERTEX
  8
0
 10
18.6738
 20
22.2649
  0
VERTEX
  8
0
 10
18.6068
 20
22.3223
  0
VERTEX
  8
0
 10
18.5302
 20
22.3702
  0
VERTEX
  8
0
 10
18.6164
 20
22.4851
  0
VERTEX
  8
0
 10
18.7026
 20
22.6
  0
VERTEX
  8
0
 10
18.7887
 20
22.7149
  0
VERTEX
  8
0
 10
18.8749
 20
22.8298
  0
VERTEX
  8
0
 10
18.9419
 20
22.9543
  0
VERTEX
  8
0
 10
19.0089
 20
23.0787
  0
VERTEX
  8
0
 10
19.0568
 20
23.2128
  0
VERTEX
  8
0
 10
19.0855
 20
23.3468
  0
VERTEX
  8
0
 10
19.1047
 20
23.4904
  0
VERTEX
  8
0
 10
19.1047
 20
23.6436
  0
VERTEX
  8
0
 10
19.1909
 20
23.6819
  0
VERTEX
  8
0
 10
19.2866
 20
23.6819
  0
VERTEX
  8
0
 10
19.3728
 20
23.6723
  0
VERTEX
  8
0
 10
19.4589
 20
23.6436
  0
VERTEX
  8
0
 10
19.5451
 20
23.6053
  0
VERTEX
  8
0
 10
19.6313
 20
23.5574
  0
VERTEX
  8
0
 10
19.7175
 20
23.5
  0
VERTEX
  8
0
 10
19.7941
 20
23.4426
  0
VERTEX
  8
0
 10
19.8802
 20
23.3947
  0
VERTEX
  8
0
 10
19.9664
 20
23.3564
  0
VERTEX
  8
0
 10
20.0143
 20
23.3085
  0
VERTEX
  8
0
 10
20.0526
 20
23.2511
  0
VERTEX
  8
0
 10
20.0909
 20
23.2032
  0
VERTEX
  8
0
 10
20.1387
 20
23.1457
  0
VERTEX
  8
0
 10
20.1675
 20
23.0883
  0
VERTEX
  8
0
 10
20.2058
 20
23.0309
  0
VERTEX
  8
0
 10
20.2249
 20
22.9734
  0
VERTEX
  8
0
 10
20.2536
 20
22.916
  0
VERTEX
  8
0
 10
20.2728
 20
22.8489
  0
VERTEX
  8
0
 10
20.2824
 20
22.7819
  0
SEQEND
  0
POLYLINE
  8
0
 66
     1
 10
0
 20
0
  0
VERTEX
  8
0
 10
14.1547
 20
23.1649
  0
VERTEX
  8
0
 10
14.2121
 20
23.0596
  0
VERTEX
  8
0
 10
14.2696
 20
22.9447
  0
VERTEX
  8
0
 10
14.3079
 20
22.8298
  0
VERTEX
  8
0
 10
14.3366
 20
22.7053
  0
VERTEX
  8
0
 10
14.3462
 20
22.5809
  0
VERTEX
  8
0
 10
14.3557
 20
22.466
  0
VERTEX
  8
0
 10
14.3462
 20
22.3415
  0
VERTEX
  8
0
 10
14.3175
 20
22.217
  0
VERTEX
  8
0
 10
14.2792
 20
22.1021
  0
VERTEX
  8
0
 10
14.2217
 20
21.9872
  0
VERTEX
  8
0
 10
14.1451
 20
21.8628
  0
VERTEX
  8
0
 10
14.0589
 20
21.7479
  0
VERTEX
  8
0
 10
13.9728
 20
21.6426
  0
VERTEX
  8
0
 10
13.877
 20
21.5564
  0
VERTEX
  8
0
 10
13.7717
 20
21.4798
  0
VERTEX
  8
0
 10
13.6664
 20
21.4128
  0
VERTEX
  8
0
 10
13.5515
 20
21.3649
  0
VERTEX
  8
0
 10
13.427
 20
21.3266
  0
VERTEX
  8
0
 10
13.3026
 20
21.2979
  0
VERTEX
  8
0
 10
13.1685
 20
21.2883
  0
VERTEX
  8
0
 10
13.044
 20
21.2883
  0
VERTEX
  8
0
 10
12.9292
 20
21.2979
  0
VERTEX
  8
0
 10
12.8047
 20
21.3074
  0
VERTEX
  8
0
 10
12.6898
 20
21.3266
  0
VERTEX
  8
0
 10
12.5749
 20
21.3553
  0
VERTEX
  8
0
 10
12.4696
 20
21.384
  0
VERTEX
  8
0
 10
12.3643
 20
21.4319
  0
VERTEX
  8
0
 10
12.2685
 20
21.4798
  0
VERTEX
  8
0
 10
12.1728
 20
21.5468
  0
VERTEX
  8
0
 10
12.0866
 20
21.633
  0
VERTEX
  8
0
 10
12.0483
 20
21.7574
  0
VERTEX
  8
0
 10
12.01
 20
21.8819
  0
VERTEX
  8
0
 10
11.9909
 20
22.0064
  0
VERTEX
  8
0
 10
11.9717
 20
22.1404
  0
VERTEX
  8
0
 10
11.9717
 20
22.2745
  0
VERTEX
  8
0
 10
11.9717
 20
22.3989
  0
VERTEX
  8
0
 10
11.9909
 20
22.533
  0
VERTEX
  8
0
 10
12.0292
 20
22.6479
  0
VERTEX
  8
0
 10
12.077
 20
22.7723
  0
VERTEX
  8
0
 10
12.144
 20
22.8777
  0
VERTEX
  8
0
 10
12.2206
 20
22.983
  0
VERTEX
  8
0
 10
12.3068
 20
23.0979
  0
VERTEX
  8
0
 10
12.4026
 20
23.1936
  0
VERTEX
  8
0
 10
12.4983
 20
23.2894
  0
VERTEX
  8
0
 10
12.6036
 20
23.3755
  0
VERTEX
  8
0
 10
12.7089
 20
23.4426
  0
VERTEX
  8
0
 10
12.8334
 20
23.5
  0
VERTEX
  8
0
 10
12.9579
 20
23.5383
  0
VERTEX
  8
0
 10
13.0919
 20
23.5574
  0
VERTEX
  8
0
 10
13.2355
 20
23.5479
  0
VERTEX
  8
0
 10
13.3313
 20
23.5479
  0
VERTEX
  8
0
 10
13.427
 20
23.5383
  0
VERTEX
  8
0
 10
13.5323
 20
23.5287
  0
VERTEX
  8
0
 10
13.6281
 20
23.5
  0
VERTEX
  8
0
 10
13.7238
 20
23.4617
  0
VERTEX
  8
0
 10
13.8196
 20
23.4234
  0
VERTEX
  8
0
 10
13.9057
 20
23.3755
  0
VERTEX
  8
0
 10
13.9919
 20
23.3085
  0
VERTEX
  8
0
 10
14.0781
 20
23.2415
  0
VERTEX
  8
0
 10
14.1547
 20
23.1649
  0
SEQEND
  0
POLYLINE
  8
0
 66
     1
 10
0
 20
0
  0
VERTEX
  8
0
 10
11.7036
 20
22.6862
  0
VERTEX
  8
0
 10
11.7323
 20
22.5809
  0
VERTEX
  8
0
 10
11.7515
 20
22.466
  0
VERTEX
  8
0
 10
11.7611
 20
22.3415
  0
VERTEX
  8
0
 10
11.7611
 20
22.217
  0
VERTEX
  8
0
 10
11.7611
 20
22.1021
  0
VERTEX
  8
0
 10
11.7611
 20
21.9777
  0
VERTEX
  8
0
 10
11.7706
 20
21.8532
  0
VERTEX
  8
0
 10
11.7898
 20
21.7287
  0
VERTEX
  8
0
 10
11.8281
 20
21.6138
  0
VERTEX
  8
0
 10
11.8951
 20
21.5085
  0
VERTEX
  8
0
 10
11.8377
 20
21.3936
  0
VERTEX
  8
0
 10
11.7706
 20
21.2883
  0
VERTEX
  8
0
 10
11.694
 20
21.183
  0
VERTEX
  8
0
 10
11.5983
 20
21.0872
  0
VERTEX
  8
0
 10
11.493
 20
21.0011
  0
VERTEX
  8
0
 10
11.3781
 20
20.9245
  0
VERTEX
  8
0
 10
11.2536
 20
20.867
  0
VERTEX
  8
0
 10
11.1291
 20
20.8191
  0
VERTEX
  8
0
 10
11.0047
 20
20.7809
  0
VERTEX
  8
0
 10
10.8706
 20
20.7713
  0
VERTEX
  8
0
 10
10.7653
 20
20.7713
  0
VERTEX
  8
0
 10
10.66
 20
20.7809
  0
VERTEX
  8
0
 10
10.5547
 20
20.8
  0
VERTEX
  8
0
 10
10.4494
 20
20.8191
  0
VERTEX
  8
0
 10
10.344
 20
20.8479
  0
VERTEX
  8
0
 10
10.2387
 20
20.8957
  0
VERTEX
  8
0
 10
10.143
 20
20.9436
  0
VERTEX
  8
0
 10
10.0472
 20
21.0011
  0
VERTEX
  8
0
 10
9.9611
 20
21.0777
  0
VERTEX
  8
0
 10
9.8845
 20
21.1543
  0
VERTEX
  8
0
 10
9.8557
 20
21.1926
  0
VERTEX
  8
0
 10
9.8366
 20
21.2309
  0
VERTEX
  8
0
 10
9.8174
 20
21.2787
  0
VERTEX
  8
0
 10
9.8079
 20
21.3266
  0
VERTEX
  8
0
 10
9.7983
 20
21.3745
  0
VERTEX
  8
0
 10
9.7887
 20
21.4128
  0
VERTEX
  8
0
 10
9.7791
 20
21.4606
  0
VERTEX
  8
0
 10
9.76
 20
21.4989
  0
VERTEX
  8
0
 10
9.7313
 20
21.5372
  0
VERTEX
  8
0
 10
9.693
 20
21.5755
  0
VERTEX
  8
0
 10
9.693
 20
21.4702
  0
VERTEX
  8
0
 10
9.693
 20
21.3745
  0
VERTEX
  8
0
 10
9.6738
 20
21.2691
  0
VERTEX
  8
0
 10
9.6547
 20
21.1734
  0
VERTEX
  8
0
 10
9.6355
 20
21.0681
  0
VERTEX
  8
0
 10
9.5972
 20
20.9723
  0
VERTEX
  8
0
 10
9.5589
 20
20.8766
  0
VERTEX
  8
0
 10
9.5015
 20
20.7904
  0
VERTEX
  8
0
 10
9.444
 20
20.7138
  0
VERTEX
  8
0
 10
9.3674
 20
20.6468
  0
VERTEX
  8
0
 10
9.243
 20
20.5415
  0
VERTEX
  8
0
 10
9.1089
 20
20.4362
  0
VERTEX
  8
0
 10
8.9749
 20
20.35
  0
VERTEX
  8
0
 10
8.8217
 20
20.283
  0
VERTEX
  8
0
 10
8.6685
 20
20.216
  0
VERTEX
  8
0
 10
8.5153
 20
20.1777
  0
VERTEX
  8
0
 10
8.3526
 20
20.1585
  0
VERTEX
  8
0
 10
8.1898
 20
20.1681
  0
VERTEX
  8
0
 10
8.027
 20
20.1968
  0
VERTEX
  8
0
 10
7.8738
 20
20.2638
  0
VERTEX
  8
0
 10
7.8068
 20
20.283
  0
VERTEX
  8
0
 10
7.7494
 20
20.3117
  0
VERTEX
  8
0
 10
7.7015
 20
20.35
  0
VERTEX
  8
0
 10
7.644
 20
20.3883
  0
VERTEX
  8
0
 10
7.5962
 20
20.4266
  0
VERTEX
  8
0
 10
7.5579
 20
20.4745
  0
VERTEX
  8
0
 10
7.5196
 20
20.5223
  0
VERTEX
  8
0
 10
7.4908
 20
20.5702
  0
VERTEX
  8
0
 10
7.4717
 20
20.6277
  0
VERTEX
  8
0
 10
7.4525
 20
20.6755
  0
VERTEX
  8
0
 10
7.4238
 20
20.867
  0
VERTEX
  8
0
 10
7.4238
 20
21.0489
  0
VERTEX
  8
0
 10
7.443
 20
21.2309
  0
VERTEX
  8
0
 10
7.4908
 20
21.4032
  0
VERTEX
  8
0
 10
7.5579
 20
21.566
  0
VERTEX
  8
0
 10
7.644
 20
21.7287
  0
VERTEX
  8
0
 10
7.7398
 20
21.8723
  0
VERTEX
  8
0
 10
7.8643
 20
22.0064
  0
VERTEX
  8
0
 10
8.0079
 20
22.1309
  0
VERTEX
  8
0
 10
8.1611
 20
22.2457
  0
VERTEX
  8
0
 10
8.3238
 20
22.284
  0
VERTEX
  8
0
 10
8.4866
 20
22.3032
  0
VERTEX
  8
0
 10
8.6494
 20
22.3128
  0
VERTEX
  8
0
 10
8.8121
 20
22.3032
  0
VERTEX
  8
0
 10
8.9653
 20
22.2745
  0
VERTEX
  8
0
 10
9.1089
 20
22.2266
  0
VERTEX
  8
0
 10
9.2526
 20
22.1596
  0
VERTEX
  8
0
 10
9.3866
 20
22.0734
  0
VERTEX
  8
0
 10
9.5111
 20
21.9777
  0
VERTEX
  8
0
 10
9.626
 20
21.8628
  0
VERTEX
  8
0
 10
9.6643
 20
21.9777
  0
VERTEX
  8
0
 10
9.7217
 20
22.1117
  0
VERTEX
  8
0
 10
9.7983
 20
22.2362
  0
VERTEX
  8
0
 10
9.8749
 20
22.3606
  0
VERTEX
  8
0
 10
9.9706
 20
22.4755
  0
VERTEX
  8
0
 10
10.076
 20
22.5809
  0
VERTEX
  8
0
 10
10.1909
 20
22.667
  0
VERTEX
  8
0
 10
10.3153
 20
22.7436
  0
VERTEX
  8
0
 10
10.4494
 20
22.7915
  0
VERTEX
  8
0
 10
10.5834
 20
22.8202
  0
VERTEX
  8
0
 10
10.6983
 20
22.8202
  0
VERTEX
  8
0
 10
10.8132
 20
22.8202
  0
VERTEX
  8
0
 10
10.9377
 20
22.8202
  0
VERTEX
  8
0
 10
11.0526
 20
22.8106
  0
VERTEX
  8
0
 10
11.1579
 20
22.8011
  0
VERTEX
  8
0
 10
11.2728
 20
22.7915
  0
VERTEX
  8
0
 10
11.3877
 20
22.7819
  0
VERTEX
  8
0
 10
11.493
 20
22.7532
  0
VERTEX
  8
0
 10
11.5983
 20
22.7245
  0
VERTEX
  8
0
 10
11.7036
 20
22.6862
  0
SEQEND
  0
POLYLINE
  8
0
 66
     1
 10
0
 20
0
  0
VERTEX
  8
0
 10
18.31
 20
22.083
  0
VERTEX
  8
0
 10
18.4249
 20
21.9968
  0
VERTEX
  8
0
 10
18.5111
 20
21.9011
  0
VERTEX
  8
0
 10
18.5877
 20
21.7862
  0
VERTEX
  8
0
 10
18.6355
 20
21.6713
  0
VERTEX
  8
0
 10
18.6738
 20
21.5372
  0
VERTEX
  8
0
 10
18.7026
 20
21.4128
  0
VERTEX
  8
0
 10
18.7313
 20
21.2787
  0
VERTEX
  8
0
 10
18.7409
 20
21.1447
  0
VERTEX
  8
0
 10
18.76
 20
21.0202
  0
VERTEX
  8
0
 10
18.7887
 20
20.9053
  0
VERTEX
  8
0
 10
18.7121
 20
20.8287
  0
VERTEX
  8
0
 10
18.6451
 20
20.7521
  0
VERTEX
  8
0
 10
18.5781
 20
20.666
  0
VERTEX
  8
0
 10
18.5111
 20
20.5798
  0
VERTEX
  8
0
 10
18.4345
 20
20.4936
  0
VERTEX
  8
0
 10
18.3675
 20
20.417
  0
VERTEX
  8
0
 10
18.2813
 20
20.3404
  0
VERTEX
  8
0
 10
18.1951
 20
20.283
  0
VERTEX
  8
0
 10
18.0994
 20
20.2255
  0
VERTEX
  8
0
 10
17.9845
 20
20.1968
  0
VERTEX
  8
0
 10
17.8504
 20
20.1585
  0
VERTEX
  8
0
 10
17.726
 20
20.1394
  0
VERTEX
  8
0
 10
17.5919
 20
20.1298
  0
VERTEX
  8
0
 10
17.4579
 20
20.1394
  0
VERTEX
  8
0
 10
17.3238
 20
20.1681
  0
VERTEX
  8
0
 10
17.1994
 20
20.1968
  0
VERTEX
  8
0
 10
17.0749
 20
20.2447
  0
VERTEX
  8
0
 10
16.96
 20
20.3021
  0
VERTEX
  8
0
 10
16.8451
 20
20.3787
  0
VERTEX
  8
0
 10
16.7398
 20
20.4553
  0
VERTEX
  8
0
 10
16.7111
 20
20.5894
  0
VERTEX
  8
0
 10
16.6919
 20
20.7234
  0
VERTEX
  8
0
 10
16.6823
 20
20.867
  0
VERTEX
  8
0
 10
16.6728
 20
21.0011
  0
VERTEX
  8
0
 10
16.6536
 20
21.1447
  0
VERTEX
  8
0
 10
16.6345
 20
21.2787
  0
VERTEX
  8
0
 10
16.5962
 20
21.4128
  0
VERTEX
  8
0
 10
16.5483
 20
21.5372
  0
VERTEX
  8
0
 10
16.4813
 20
21.6521
  0
VERTEX
  8
0
 10
16.3951
 20
21.767
  0
VERTEX
  8
0
 10
16.4047
 20
21.8628
  0
VERTEX
  8
0
 10
16.443
 20
21.9394
  0
VERTEX
  8
0
 10
16.5004
 20
21.9968
  0
VERTEX
  8
0
 10
16.5675
 20
22.0543
  0
VERTEX
  8
0
 10
16.6441
 20
22.0926
  0
VERTEX
  8
0
 10
16.7206
 20
22.1309
  0
VERTEX
  8
0
 10
16.8068
 20
22.1596
  0
VERTEX
  8
0
 10
16.8834
 20
22.1979
  0
VERTEX
  8
0
 10
16.96
 20
22.2457
  0
VERTEX
  8
0
 10
17.027
 20
22.3032
  0
VERTEX
  8
0
 10
17.1515
 20
22.2457
  0
VERTEX
  8
0
 10
17.276
 20
22.1979
  0
VERTEX
  8
0
 10
17.4004
 20
22.1596
  0
VERTEX
  8
0
 10
17.5345
 20
22.1213
  0
VERTEX
  8
0
 10
17.6589
 20
22.1021
  0
VERTEX
  8
0
 10
17.793
 20
22.083
  0
VERTEX
  8
0
 10
17.927
 20
22.0638
  0
VERTEX
  8
0
 10
18.0515
 20
22.0638
  0
VERTEX
  8
0
 10
18.176
 20
22.0734
  0
VERTEX
  8
0
 10
18.31
 20
22.083
  0
SEQEND
  0
POLYLINE
  8
0
 66
     1
 10
0
 20
0
  0
VERTEX
  8
0
 10
15.7823
 20
22.0543
  0
VERTEX
  8
0
 10
15.926
 20
22.016
  0
VERTEX
  8
0
 10
16.0409
 20
21.9489
  0
VERTEX
  8
0
 10
16.1366
 20
21.8628
  0
VERTEX
  8
0
 10
16.2036
 20
21.767
  0
VERTEX
  8
0
 10
16.2611
 20
21.6521
  0
VERTEX
  8
0
 10
16.3089
 20
21.5277
  0
VERTEX
  8
0
 10
16.3377
 20
21.3936
  0
VERTEX
  8
0
 10
16.3664
 20
21.2596
  0
VERTEX
  8
0
 10
16.3951
 20
21.1255
  0
VERTEX
  8
0
 10
16.4238
 20
21.0011
  0
VERTEX
  8
0
 10
16.4143
 20
20.9245
  0
VERTEX
  8
0
 10
16.4047
 20
20.8574
  0
VERTEX
  8
0
 10
16.3951
 20
20.8
  0
VERTEX
  8
0
 10
16.3855
 20
20.733
  0
VERTEX
  8
0
 10
16.3664
 20
20.666
  0
VERTEX
  8
0
 10
16.3472
 20
20.5989
  0
VERTEX
  8
0
 10
16.3281
 20
20.5415
  0
VERTEX
  8
0
 10
16.3089
 20
20.4745
  0
VERTEX
  8
0
 10
16.2898
 20
20.417
  0
VERTEX
  8
0
 10
16.2611
 20
20.3596
  0
VERTEX
  8
0
 10
16.2323
 20
20.3883
  0
VERTEX
  8
0
 10
16.1558
 20
20.2638
  0
VERTEX
  8
0
 10
16.0504
 20
20.1681
  0
VERTEX
  8
0
 10
15.9451
 20
20.0819
  0
VERTEX
  8
0
 10
15.8206
 20
20.0245
  0
VERTEX
  8
0
 10
15.6866
 20
19.9766
  0
VERTEX
  8
0
 10
15.5526
 20
19.9479
  0
VERTEX
  8
0
 10
15.4185
 20
19.9383
  0
VERTEX
  8
0
 10
15.2749
 20
19.9287
  0
VERTEX
  8
0
 10
15.1409
 20
19.9287
  0
VERTEX
  8
0
 10
15.0164
 20
19.9479
  0
VERTEX
  8
0
 10
14.9302
 20
19.967
  0
VERTEX
  8
0
 10
14.844
 20
19.9957
  0
VERTEX
  8
0
 10
14.7579
 20
20.0245
  0
VERTEX
  8
0
 10
14.6621
 20
20.0628
  0
VERTEX
  8
0
 10
14.576
 20
20.1011
  0
VERTEX
  8
0
 10
14.4994
 20
20.1489
  0
VERTEX
  8
0
 10
14.4323
 20
20.2064
  0
VERTEX
  8
0
 10
14.3653
 20
20.283
  0
VERTEX
  8
0
 10
14.3175
 20
20.3596
  0
VERTEX
  8
0
 10
14.2887
 20
20.4553
  0
VERTEX
  8
0
 10
14.2409
 20
20.6181
  0
VERTEX
  8
0
 10
14.2217
 20
20.7809
  0
VERTEX
  8
0
 10
14.2217
 20
20.9436
  0
VERTEX
  8
0
 10
14.2313
 20
21.0968
  0
VERTEX
  8
0
 10
14.26
 20
21.2404
  0
VERTEX
  8
0
 10
14.3079
 20
21.384
  0
VERTEX
  8
0
 10
14.3749
 20
21.5181
  0
VERTEX
  8
0
 10
14.4419
 20
21.6617
  0
VERTEX
  8
0
 10
14.5377
 20
21.7957
  0
VERTEX
  8
0
 10
14.6334
 20
21.9202
  0
VERTEX
  8
0
 10
14.7387
 20
22.016
  0
VERTEX
  8
0
 10
14.844
 20
22.0638
  0
VERTEX
  8
0
 10
14.9589
 20
22.083
  0
VERTEX
  8
0
 10
15.0738
 20
22.0734
  0
VERTEX
  8
0
 10
15.1983
 20
22.0543
  0
VERTEX
  8
0
 10
15.3132
 20
22.0351
  0
VERTEX
  8
0
 10
15.4377
 20
22.016
  0
VERTEX
  8
0
 10
15.5526
 20
21.9968
  0
VERTEX
  8
0
 10
15.677
 20
22.0064
  0
VERTEX
  8
0
 10
15.7823
 20
22.0543
  0
SEQEND
  0
POLYLINE
  8
0
 66
     1
 10
0
 20
0
  0
VERTEX
  8
0
 10
7.4525
 20
20.1011
  0
VERTEX
  8
0
 10
7.3855
 20
20.034
  0
VERTEX
  8
0
 10
7.3089
 20
19.9574
  0
VERTEX
  8
0
 10
7.2228
 20
19.8713
  0
VERTEX
  8
0
 10
7.1462
 20
19.7851
  0
VERTEX
  8
0
 10
7.06
 20
19.6989
  0
VERTEX
  8
0
 10
6.9738
 20
19.6032
  0
VERTEX
  8
0
 10
6.8972
 20
19.5074
  0
VERTEX
  8
0
 10
6.8302
 20
19.4117
  0
VERTEX
  8
0
 10
6.7728
 20
19.3064
  0
VERTEX
  8
0
 10
6.7249
 20
19.2106
  0
VERTEX
  8
0
 10
6.6674
 20
19.1723
  0
VERTEX
  8
0
 10
6.61
 20
19.1532
  0
VERTEX
  8
0
 10
6.543
 20
19.1723
  0
VERTEX
  8
0
 10
6.4855
 20
19.2011
  0
VERTEX
  8
0
 10
6.4185
 20
19.2489
  0
VERTEX
  8
0
 10
6.3515
 20
19.2968
  0
VERTEX
  8
0
 10
6.2845
 20
19.3543
  0
VERTEX
  8
0
 10
6.2174
 20
19.4021
  0
VERTEX
  8
0
 10
6.1504
 20
19.4404
  0
VERTEX
  8
0
 10
6.0834
 20
19.4691
  0
VERTEX
  8
0
 10
5.9972
 20
19.4979
  0
VERTEX
  8
0
 10
5.9015
 20
19.5074
  0
VERTEX
  8
0
 10
5.7962
 20
19.4979
  0
VERTEX
  8
0
 10
5.7004
 20
19.4883
  0
VERTEX
  8
0
 10
5.5951
 20
19.4691
  0
VERTEX
  8
0
 10
5.4994
 20
19.4691
  0
VERTEX
  8
0
 10
5.4228
 20
19.4691
  0
VERTEX
  8
0
 10
5.3462
 20
19.4979
  0
VERTEX
  8
0
 10
5.2887
 20
19.5649
  0
VERTEX
  8
0
 10
5.2504
 20
19.6606
  0
VERTEX
  8
0
 10
5.26
 20
19.8521
  0
VERTEX
  8
0
 10
5.2983
 20
20.0436
  0
VERTEX
  8
0
 10
5.3557
 20
20.2255
  0
VERTEX
  8
0
 10
5.4419
 20
20.3883
  0
VERTEX
  8
0
 10
5.5377
 20
20.5415
  0
VERTEX
  8
0
 10
5.6621
 20
20.6851
  0
VERTEX
  8
0
 10
5.7866
 20
20.8191
  0
VERTEX
  8
0
 10
5.9302
 20
20.9436
  0
VERTEX
  8
0
 10
6.0834
 20
21.0489
  0
VERTEX
  8
0
 10
6.2462
 20
21.1543
  0
VERTEX
  8
0
 10
6.3132
 20
21.1926
  0
VERTEX
  8
0
 10
6.3898
 20
21.2213
  0
VERTEX
  8
0
 10
6.476
 20
21.2404
  0
VERTEX
  8
0
 10
6.5525
 20
21.2596
  0
VERTEX
  8
0
 10
6.6387
 20
21.2787
  0
VERTEX
  8
0
 10
6.7249
 20
21.2787
  0
VERTEX
  8
0
 10
6.8111
 20
21.2883
  0
VERTEX
  8
0
 10
6.8972
 20
21.2787
  0
VERTEX
  8
0
 10
6.9834
 20
21.2691
  0
VERTEX
  8
0
 10
7.0696
 20
21.25
  0
VERTEX
  8
0
 10
7.1174
 20
21.1351
  0
VERTEX
  8
0
 10
7.1462
 20
21.0202
  0
VERTEX
  8
0
 10
7.1653
 20
20.8957
  0
VERTEX
  8
0
 10
7.1749
 20
20.7713
  0
VERTEX
  8
0
 10
7.194
 20
20.6468
  0
VERTEX
  8
0
 10
7.2132
 20
20.5223
  0
VERTEX
  8
0
 10
7.2515
 20
20.4074
  0
VERTEX
  8
0
 10
7.2994
 20
20.3021
  0
VERTEX
  8
0
 10
7.3664
 20
20.1968
  0
VERTEX
  8
0
 10
7.4525
 20
20.1011
  0
SEQEND
  0
POLYLINE
  8
0
 66
     1
 10
0
 20
0
  0
VERTEX
  8
0
 10
13.7717
 20
20.6468
  0
VERTEX
  8
0
 10
13.8292
 20
20.5511
  0
VERTEX
  8
0
 10
13.877
 20
20.4553
  0
VERTEX
  8
0
 10
13.9153
 20
20.3596
  0
VERTEX
  8
0
 10
13.9536
 20
20.2638
  0
VERTEX
  8
0
 10
13.9823
 20
20.1585
  0
VERTEX
  8
0
 10
14.0015
 20
20.0628
  0
VERTEX
  8
0
 10
14.0111
 20
19.9574
  0
VERTEX
  8
0
 10
14.0111
 20
19.8521
  0
VERTEX
  8
0
 10
13.9919
 20
19.7372
  0
VERTEX
  8
0
 10
13.9632
 20
19.6223
  0
VERTEX
  8
0
 10
13.9153
 20
19.4691
  0
VERTEX
  8
0
 10
13.8387
 20
19.3255
  0
VERTEX
  8
0
 10
13.743
 20
19.2106
  0
VERTEX
  8
0
 10
13.6281
 20
19.1053
  0
VERTEX
  8
0
 10
13.494
 20
19.0287
  0
VERTEX
  8
0
 10
13.36
 20
18.9521
  0
VERTEX
  8
0
 10
13.2068
 20
18.9043
  0
VERTEX
  8
0
 10
13.0536
 20
18.8564
  0
VERTEX
  8
0
 10
12.9004
 20
18.8181
  0
VERTEX
  8
0
 10
12.7568
 20
18.7989
  0
VERTEX
  8
0
 10
12.6323
 20
18.7894
  0
VERTEX
  8
0
 10
12.5174
 20
18.7989
  0
VERTEX
  8
0
 10
12.4026
 20
18.8181
  0
VERTEX
  8
0
 10
12.2972
 20
18.8468
  0
VERTEX
  8
0
 10
12.1919
 20
18.8947
  0
VERTEX
  8
0
 10
12.0962
 20
18.9521
  0
VERTEX
  8
0
 10
12.01
 20
19.0191
  0
VERTEX
  8
0
 10
11.9334
 20
19.0957
  0
VERTEX
  8
0
 10
11.8568
 20
19.1819
  0
VERTEX
  8
0
 10
11.7994
 20
19.2777
  0
VERTEX
  8
0
 10
11.7419
 20
19.3926
  0
VERTEX
  8
0
 10
11.7036
 20
19.5074
  0
VERTEX
  8
0
 10
11.6749
 20
19.6223
  0
VERTEX
  8
0
 10
11.6557
 20
19.7468
  0
VERTEX
  8
0
 10
11.6557
 20
19.8617
  0
VERTEX
  8
0
 10
11.6557
 20
19.9766
  0
VERTEX
  8
0
 10
11.6749
 20
20.1011
  0
VERTEX
  8
0
 10
11.7036
 20
20.216
  0
VERTEX
  8
0
 10
11.7419
 20
20.3404
  0
VERTEX
  8
0
 10
11.7994
 20
20.4553
  0
VERTEX
  8
0
 10
11.876
 20
20.5606
  0
VERTEX
  8
0
 10
11.9621
 20
20.6468
  0
VERTEX
  8
0
 10
12.0579
 20
20.7234
  0
VERTEX
  8
0
 10
12.1632
 20
20.7809
  0
VERTEX
  8
0
 10
12.2685
 20
20.8287
  0
VERTEX
  8
0
 10
12.3834
 20
20.867
  0
VERTEX
  8
0
 10
12.4983
 20
20.9053
  0
VERTEX
  8
0
 10
12.6132
 20
20.934
  0
VERTEX
  8
0
 10
12.7281
 20
20.9628
  0
VERTEX
  8
0
 10
12.8526
 20
21.0011
  0
VERTEX
  8
0
 10
12.9483
 20
20.9819
  0
VERTEX
  8
0
 10
13.044
 20
20.9628
  0
VERTEX
  8
0
 10
13.1494
 20
20.9436
  0
VERTEX
  8
0
 10
13.2451
 20
20.9149
  0
VERTEX
  8
0
 10
13.3409
 20
20.8862
  0
VERTEX
  8
0
 10
13.4366
 20
20.8574
  0
VERTEX
  8
0
 10
13.5228
 20
20.8191
  0
VERTEX
  8
0
 10
13.6089
 20
20.7713
  0
VERTEX
  8
0
 10
13.6951
 20
20.7138
  0
VERTEX
  8
0
 10
13.7717
 20
20.6468
  0
SEQEND
  0
POLYLINE
  8
0
 66
     1
 10
0
 20
0
  0
VERTEX
  8
0
 10
11.4451
 20
20.1011
  0
VERTEX
  8
0
 10
11.426
 20
19.9957
  0
VERTEX
  8
0
 10
11.426
 20
19.9
  0
VERTEX
  8
0
 10
11.4355
 20
19.7947
  0
VERTEX
  8
0
 10
11.4547
 20
19.6894
  0
VERTEX
  8
0
 10
11.4643
 20
19.584
  0
VERTEX
  8
0
 10
11.4738
 20
19.4883
  0
VERTEX
  8
0
 10
11.4643
 20
19.3926
  0
VERTEX
  8
0
 10
11.4451
 20
19.3064
  0
VERTEX
  8
0
 10
11.3972
 20
19.2202
  0
VERTEX
  8
0
 10
11.3206
 20
19.1436
  0
VERTEX
  8
0
 10
11.2345
 20
19.0479
  0
VERTEX
  8
0
 10
11.1483
 20
18.9617
  0
VERTEX
  8
0
 10
11.0526
 20
18.9043
  0
VERTEX
  8
0
 10
10.9472
 20
18.866
  0
VERTEX
  8
0
 10
10.8419
 20
18.8277
  0
VERTEX
  8
0
 10
10.727
 20
18.8085
  0
VERTEX
  8
0
 10
10.6121
 20
18.7989
  0
VERTEX
  8
0
 10
10.4972
 20
18.7798
  0
VERTEX
  8
0
 10
10.3823
 20
18.7702
  0
VERTEX
  8
0
 10
10.2674
 20
18.7606
  0
VERTEX
  8
0
 10
10.1813
 20
18.7511
  0
VERTEX
  8
0
 10
10.1047
 20
18.7415
  0
VERTEX
  8
0
 10
10.0185
 20
18.7415
  0
VERTEX
  8
0
 10
9.9323
 20
18.7511
  0
VERTEX
  8
0
 10
9.8557
 20
18.7702
  0
VERTEX
  8
0
 10
9.7791
 20
18.7989
  0
VERTEX
  8
0
 10
9.7026
 20
18.8277
  0
VERTEX
  8
0
 10
9.6451
 20
18.866
  0
VERTEX
  8
0
 10
9.5972
 20
18.9043
  0
VERTEX
  8
0
 10
9.5589
 20
18.9521
  0
VERTEX
  8
0
 10
9.5111
 20
19.0383
  0
VERTEX
  8
0
 10
9.444
 20
19.1245
  0
VERTEX
  8
0
 10
9.3866
 20
19.2106
  0
VERTEX
  8
0
 10
9.3291
 20
19.3064
  0
VERTEX
  8
0
 10
9.2717
 20
19.3926
  0
VERTEX
  8
0
 10
9.2334
 20
19.4883
  0
VERTEX
  8
0
 10
9.2047
 20
19.584
  0
VERTEX
  8
0
 10
9.1951
 20
19.6894
  0
VERTEX
  8
0
 10
9.2047
 20
19.7947
  0
VERTEX
  8
0
 10
9.243
 20
19.9096
  0
VERTEX
  8
0
 10
9.2813
 20
20.0149
  0
VERTEX
  8
0
 10
9.3291
 20
20.1011
  0
VERTEX
  8
0
 10
9.3866
 20
20.1872
  0
VERTEX
  8
0
 10
9.4632
 20
20.2543
  0
VERTEX
  8
0
 10
9.5398
 20
20.3213
  0
VERTEX
  8
0
 10
9.6164
 20
20.3787
  0
VERTEX
  8
0
 10
9.7026
 20
20.4266
  0
VERTEX
  8
0
 10
9.7983
 20
20.484
  0
VERTEX
  8
0
 10
9.8845
 20
20.5319
  0
VERTEX
  8
0
 10
9.9802
 20
20.5798
  0
VERTEX
  8
0
 10
10.1334
 20
20.5894
  0
VERTEX
  8
0
 10
10.2962
 20
20.5894
  0
VERTEX
  8
0
 10
10.4685
 20
20.5798
  0
VERTEX
  8
0
 10
10.6313
 20
20.5606
  0
VERTEX
  8
0
 10
10.794
 20
20.5319
  0
VERTEX
  8
0
 10
10.9472
 20
20.4936
  0
VERTEX
  8
0
 10
11.1004
 20
20.4266
  0
VERTEX
  8
0
 10
11.2249
 20
20.35
  0
VERTEX
  8
0
 10
11.3494
 20
20.2351
  0
VERTEX
  8
0
 10
11.4451
 20
20.1011
  0
SEQEND
  0
POLYLINE
  8
0
 66
     1
 10
0
 20
0
  0
VERTEX
  8
0
 10
15.6292
 20
19.6606
  0
VERTEX
  8
0
 10
15.6387
 20
19.6798
  0
VERTEX
  8
0
 10
15.6579
 20
19.6989
  0
VERTEX
  8
0
 10
15.677
 20
19.7181
  0
VERTEX
  8
0
 10
15.7058
 20
19.7277
  0
VERTEX
  8
0
 10
15.7249
 20
19.7277
  0
VERTEX
  8
0
 10
15.7536
 20
19.7372
  0
VERTEX
  8
0
 10
15.7728
 20
19.7372
  0
VERTEX
  8
0
 10
15.8015
 20
19.7372
  0
VERTEX
  8
0
 10
15.8206
 20
19.7468
  0
VERTEX
  8
0
 10
15.8494
 20
19.7564
  0
VERTEX
  8
0
 10
15.9068
 20
19.6989
  0
VERTEX
  8
0
 10
15.9451
 20
19.6511
  0
VERTEX
  8
0
 10
15.9451
 20
19.6032
  0
VERTEX
  8
0
 10
15.9355
 20
19.5553
  0
VERTEX
  8
0
 10
15.9068
 20
19.5074
  0
VERTEX
  8
0
 10
15.8685
 20
19.45
  0
VERTEX
  8
0
 10
15.8398
 20
19.4021
  0
VERTEX
  8
0
 10
15.8015
 20
19.3543
  0
VERTEX
  8
0
 10
15.7823
 20
19.2968
  0
VERTEX
  8
0
 10
15.7823
 20
19.2394
  0
VERTEX
  8
0
 10
15.7058
 20
19.1628
  0
VERTEX
  8
0
 10
15.6292
 20
19.0766
  0
VERTEX
  8
0
 10
15.543
 20
18.9809
  0
VERTEX
  8
0
 10
15.4472
 20
18.8947
  0
VERTEX
  8
0
 10
15.3515
 20
18.8181
  0
VERTEX
  8
0
 10
15.2558
 20
18.7415
  0
VERTEX
  8
0
 10
15.1504
 20
18.684
  0
VERTEX
  8
0
 10
15.0355
 20
18.6362
  0
VERTEX
  8
0
 10
14.9206
 20
18.6074
  0
VERTEX
  8
0
 10
14.7962
 20
18.6074
  0
VERTEX
  8
0
 10
14.6909
 20
18.5979
  0
VERTEX
  8
0
 10
14.5855
 20
18.5979
  0
VERTEX
  8
0
 10
14.4802
 20
18.5979
  0
VERTEX
  8
0
 10
14.3749
 20
18.6074
  0
VERTEX
  8
0
 10
14.2792
 20
18.6266
  0
VERTEX
  8
0
 10
14.1834
 20
18.6457
  0
VERTEX
  8
0
 10
14.0877
 20
18.6745
  0
VERTEX
  8
0
 10
14.0015
 20
18.7128
  0
VERTEX
  8
0
 10
13.9153
 20
18.7702
  0
VERTEX
  8
0
 10
13.8387
 20
18.8277
  0
VERTEX
  8
0
 10
13.8675
 20
18.933
  0
VERTEX
  8
0
 10
13.9153
 20
19.0383
  0
VERTEX
  8
0
 10
13.9728
 20
19.134
  0
VERTEX
  8
0
 10
14.0398
 20
19.2298
  0
VERTEX
  8
0
 10
14.1164
 20
19.3255
  0
VERTEX
  8
0
 10
14.1834
 20
19.4117
  0
VERTEX
  8
0
 10
14.2409
 20
19.517
  0
VERTEX
  8
0
 10
14.2887
 20
19.6128
  0
VERTEX
  8
0
 10
14.3079
 20
19.7277
  0
VERTEX
  8
0
 10
14.3175
 20
19.8521
  0
VERTEX
  8
0
 10
14.4323
 20
19.7851
  0
VERTEX
  8
0
 10
14.5568
 20
19.7372
  0
VERTEX
  8
0
 10
14.6813
 20
19.6989
  0
VERTEX
  8
0
 10
14.8153
 20
19.6702
  0
VERTEX
  8
0
 10
14.9589
 20
19.6415
  0
VERTEX
  8
0
 10
15.093
 20
19.6319
  0
VERTEX
  8
0
 10
15.227
 20
19.6223
  0
VERTEX
  8
0
 10
15.3611
 20
19.6223
  0
VERTEX
  8
0
 10
15.4951
 20
19.6319
  0
VERTEX
  8
0
 10
15.6292
 20
19.6606
  0
SEQEND
  0
POLYLINE
  8
0
 66
     1
 10
0
 20
0
  0
VERTEX
  8
0
 10
9.176
 20
19.0862
  0
VERTEX
  8
0
 10
9.2334
 20
19
  0
VERTEX
  8
0
 10
9.2621
 20
18.9138
  0
VERTEX
  8
0
 10
9.2717
 20
18.8277
  0
VERTEX
  8
0
 10
9.2717
 20
18.7415
  0
VERTEX
  8
0
 10
9.2526
 20
18.6553
  0
VERTEX
  8
0
 10
9.2238
 20
18.5596
  0
VERTEX
  8
0
 10
9.1951
 20
18.4734
  0
VERTEX
  8
0
 10
9.1664
 20
18.3872
  0
VERTEX
  8
0
 10
9.1377
 20
18.3011
  0
VERTEX
  8
0
 10
9.1185
 20
18.2245
  0
VERTEX
  8
0
 10
9.0036
 20
18.0521
  0
VERTEX
  8
0
 10
8.8696
 20
17.9181
  0
VERTEX
  8
0
 10
8.7164
 20
17.8223
  0
VERTEX
  8
0
 10
8.544
 20
17.7553
  0
VERTEX
  8
0
 10
8.3717
 20
17.7074
  0
VERTEX
  8
0
 10
8.1898
 20
17.6883
  0
VERTEX
  8
0
 10
7.9983
 20
17.6787
  0
VERTEX
  8
0
 10
7.826
 20
17.6787
  0
VERTEX
  8
0
 10
7.644
 20
17.6979
  0
VERTEX
  8
0
 10
7.4908
 20
17.7074
  0
VERTEX
  8
0
 10
7.4047
 20
17.7362
  0
VERTEX
  8
0
 10
7.3281
 20
17.7745
  0
VERTEX
  8
0
 10
7.2515
 20
17.8223
  0
VERTEX
  8
0
 10
7.1845
 20
17.8702
  0
VERTEX
  8
0
 10
7.127
 20
17.9277
  0
VERTEX
  8
0
 10
7.0696
 20
17.9947
  0
VERTEX
  8
0
 10
7.0121
 20
18.0617
  0
VERTEX
  8
0
 10
6.9643
 20
18.1383
  0
VERTEX
  8
0
 10
6.9164
 20
18.2053
  0
VERTEX
  8
0
 10
6.8781
 20
18.2819
  0
VERTEX
  8
0
 10
6.8685
 20
18.4351
  0
VERTEX
  8
0
 10
6.8781
 20
18.5883
  0
VERTEX
  8
0
 10
6.8972
 20
18.7415
  0
VERTEX
  8
0
 10
6.9355
 20
18.8947
  0
VERTEX
  8
0
 10
6.993
 20
19.0383
  0
VERTEX
  8
0
 10
7.06
 20
19.1723
  0
VERTEX
  8
0
 10
7.1462
 20
19.2968
  0
VERTEX
  8
0
 10
7.2419
 20
19.4117
  0
VERTEX
  8
0
 10
7.3568
 20
19.5074
  0
VERTEX
  8
0
 10
7.4908
 20
19.5936
  0
VERTEX
  8
0
 10
7.6728
 20
19.6702
  0
VERTEX
  8
0
 10
7.8643
 20
19.7277
  0
VERTEX
  8
0
 10
8.0653
 20
19.7468
  0
VERTEX
  8
0
 10
8.2568
 20
19.7468
  0
VERTEX
  8
0
 10
8.4483
 20
19.7085
  0
VERTEX
  8
0
 10
8.6206
 20
19.6415
  0
VERTEX
  8
0
 10
8.793
 20
19.5553
  0
VERTEX
  8
0
 10
8.9366
 20
19.4213
  0
VERTEX
  8
0
 10
9.0706
 20
19.2681
  0
VERTEX
  8
0
 10
9.176
 20
19.0862
  0
SEQEND
  0
POLYLINE
  8
0
 66
     1
 10
0
 20
0
  0
VERTEX
  8
0
 10
6.5908
 20
18.7606
  0
VERTEX
  8
0
 10
6.6483
 20
18.6553
  0
VERTEX
  8
0
 10
6.6866
 20
18.5404
  0
VERTEX
  8
0
 10
6.7153
 20
18.4255
  0
VERTEX
  8
0
 10
6.7345
 20
18.3106
  0
VERTEX
  8
0
 10
6.744
 20
18.1862
  0
VERTEX
  8
0
 10
6.7345
 20
18.0617
  0
VERTEX
  8
0
 10
6.7345
 20
17.9372
  0
VERTEX
  8
0
 10
6.7153
 20
17.8128
  0
VERTEX
  8
0
 10
6.6866
 20
17.6979
  0
VERTEX
  8
0
 10
6.6579
 20
17.583
  0
VERTEX
  8
0
 10
6.5717
 20
17.4585
  0
VERTEX
  8
0
 10
6.4855
 20
17.3532
  0
VERTEX
  8
0
 10
6.3898
 20
17.2479
  0
VERTEX
  8
0
 10
6.2845
 20
17.1521
  0
VERTEX
  8
0
 10
6.1696
 20
17.066
  0
VERTEX
  8
0
 10
6.0547
 20
16.9894
  0
VERTEX
  8
0
 10
5.9302
 20
16.9223
  0
VERTEX
  8
0
 10
5.7962
 20
16.8649
  0
VERTEX
  8
0
 10
5.6717
 20
16.817
  0
VERTEX
  8
0
 10
5.5377
 20
16.7883
  0
VERTEX
  8
0
 10
5.4228
 20
16.7691
  0
VERTEX
  8
0
 10
5.2983
 20
16.75
  0
VERTEX
  8
0
 10
5.1834
 20
16.75
  0
VERTEX
  8
0
 10
5.0589
 20
16.7596
  0
VERTEX
  8
0
 10
4.944
 20
16.7691
  0
VERTEX
  8
0
 10
4.8291
 20
16.7979
  0
VERTEX
  8
0
 10
4.7142
 20
16.8266
  0
VERTEX
  8
0
 10
4.6185
 20
16.8745
  0
VERTEX
  8
0
 10
4.5132
 20
16.9319
  0
VERTEX
  8
0
 10
4.427
 20
17.0085
  0
VERTEX
  8
0
 10
4.3696
 20
17.0755
  0
VERTEX
  8
0
 10
4.3217
 20
17.1426
  0
VERTEX
  8
0
 10
4.2738
 20
17.2096
  0
VERTEX
  8
0
 10
4.2355
 20
17.2766
  0
VERTEX
  8
0
 10
4.1972
 20
17.3436
  0
VERTEX
  8
0
 10
4.1685
 20
17.4202
  0
VERTEX
  8
0
 10
4.1398
 20
17.4968
  0
VERTEX
  8
0
 10
4.1206
 20
17.5734
  0
VERTEX
  8
0
 10
4.1111
 20
17.6596
  0
VERTEX
  8
0
 10
4.1015
 20
17.7457
  0
VERTEX
  8
0
 10
4.1111
 20
17.8606
  0
VERTEX
  8
0
 10
4.1302
 20
17.9755
  0
VERTEX
  8
0
 10
4.1589
 20
18.0809
  0
VERTEX
  8
0
 10
4.1972
 20
18.1862
  0
VERTEX
  8
0
 10
4.2451
 20
18.2915
  0
VERTEX
  8
0
 10
4.293
 20
18.3968
  0
VERTEX
  8
0
 10
4.36
 20
18.4926
  0
VERTEX
  8
0
 10
4.427
 20
18.5787
  0
VERTEX
  8
0
 10
4.5036
 20
18.6745
  0
VERTEX
  8
0
 10
4.5802
 20
18.7606
  0
VERTEX
  8
0
 10
4.7525
 20
18.8851
  0
VERTEX
  8
0
 10
4.944
 20
18.9904
  0
VERTEX
  8
0
 10
5.1547
 20
19.067
  0
VERTEX
  8
0
 10
5.3749
 20
19.1149
  0
VERTEX
  8
0
 10
5.5951
 20
19.1436
  0
VERTEX
  8
0
 10
5.8153
 20
19.134
  0
VERTEX
  8
0
 10
6.0355
 20
19.0957
  0
VERTEX
  8
0
 10
6.2366
 20
19.0191
  0
VERTEX
  8
0
 10
6.4281
 20
18.9138
  0
VERTEX
  8
0
 10
6.5908
 20
18.7606
  0
SEQEND
  0
POLYLINE
  8
0
 66
     1
 10
0
 20
0
  0
VERTEX
  8
0
 10
11.0621
 20
18.1862
  0
VERTEX
  8
0
 10
10.9951
 20
18.0713
  0
VERTEX
  8
0
 10
10.9281
 20
17.9564
  0
VERTEX
  8
0
 10
10.8419
 20
17.8511
  0
VERTEX
  8
0
 10
10.7557
 20
17.7457
  0
VERTEX
  8
0
 10
10.66
 20
17.6596
  0
VERTEX
  8
0
 10
10.5451
 20
17.583
  0
VERTEX
  8
0
 10
10.4302
 20
17.516
  0
VERTEX
  8
0
 10
10.3153
 20
17.4585
  0
VERTEX
  8
0
 10
10.1813
 20
17.4202
  0
VERTEX
  8
0
 10
10.0377
 20
17.3915
  0
VERTEX
  8
0
 10
9.9132
 20
17.3915
  0
VERTEX
  8
0
 10
9.7983
 20
17.4011
  0
VERTEX
  8
0
 10
9.6834
 20
17.4106
  0
VERTEX
  8
0
 10
9.5685
 20
17.4394
  0
VERTEX
  8
0
 10
9.4632
 20
17.4681
  0
VERTEX
  8
0
 10
9.3579
 20
17.5064
  0
VERTEX
  8
0
 10
9.2526
 20
17.5543
  0
VERTEX
  8
0
 10
9.1472
 20
17.6021
  0
VERTEX
  8
0
 10
9.0515
 20
17.65
  0
VERTEX
  8
0
 10
8.9557
 20
17.7074
  0
VERTEX
  8
0
 10
9.0323
 20
17.7936
  0
VERTEX
  8
0
 10
9.1089
 20
17.8798
  0
VERTEX
  8
0
 10
9.1855
 20
17.966
  0
VERTEX
  8
0
 10
9.2526
 20
18.0521
  0
VERTEX
  8
0
 10
9.3291
 20
18.1287
  0
VERTEX
  8
0
 10
9.3962
 20
18.2149
  0
VERTEX
  8
0
 10
9.4728
 20
18.2915
  0
VERTEX
  8
0
 10
9.5494
 20
18.3681
  0
VERTEX
  8
0
 10
9.6355
 20
18.4351
  0
VERTEX
  8
0
 10
9.7217
 20
18.5117
  0
VERTEX
  8
0
 10
9.827
 20
18.4543
  0
VERTEX
  8
0
 10
9.9419
 20
18.416
  0
VERTEX
  8
0
 10
10.0664
 20
18.3872
  0
VERTEX
  8
0
 10
10.1909
 20
18.3681
  0
VERTEX
  8
0
 10
10.3153
 20
18.3585
  0
VERTEX
  8
0
 10
10.4398
 20
18.3681
  0
VERTEX
  8
0
 10
10.5643
 20
18.3872
  0
VERTEX
  8
0
 10
10.6791
 20
18.4255
  0
VERTEX
  8
0
 10
10.794
 20
18.4734
  0
VERTEX
  8
0
 10
10.8994
 20
18.5404
  0
VERTEX
  8
0
 10
10.9472
 20
18.5213
  0
VERTEX
  8
0
 10
10.9855
 20
18.4926
  0
VERTEX
  8
0
 10
11.0143
 20
18.4638
  0
VERTEX
  8
0
 10
11.0334
 20
18.4255
  0
VERTEX
  8
0
 10
11.043
 20
18.3872
  0
VERTEX
  8
0
 10
11.0526
 20
18.3489
  0
VERTEX
  8
0
 10
11.0621
 20
18.3011
  0
VERTEX
  8
0
 10
11.0621
 20
18.2628
  0
VERTEX
  8
0
 10
11.0621
 20
18.2245
  0
VERTEX
  8
0
 10
11.0621
 20
18.1862
  0
SEQEND
  0
ENDSEC
  0
EOF