  0
SECTION
  2
HEADER
  9
$ACADVER
  1
AC1009
  0
ENDSEC
  0
SECTION
  2
TABLES
  0
TABLE
  2
STYLE
 70
   1
  0
STYLE
  2
STANDARD
 70
    64
 40
0.0
 41
1.0
 50
0.0
 71
     0
 42
1.0
  3
txt
  4

  0
ENDTAB
  0
ENDSEC
  0
SECTION
  2
ENTITIES
  0
ARC
  8
0
 10
2.9
 20
9.75
 40
1.5
 50
180
 51
270
  0
ARC
  8
0
 10
23.9
 20
9.75
 40
1.5
 50
270
 51
360
  0
ARC
  8
0
 10
23.9
 20
30.75
 40
1.5
 50
0
 51
90
  0
ARC
  8
0
 10
2.9
 20
30.75
 40
1.5
 50
90
 51
180
  0
POLYLINE
  8
0
 66
     1
 10
0
 20
0
  0
VERTEX
  8
0
 10
2.9
 20
8.25
  0
VERTEX
  8
0
 10
23.9
 20
8.25
  0
SEQEND
  0
POLYLINE
  8
0
 66
     1
 10
0
 20
0
  0
VERTEX
  8
0
 10
25.4
 20
9.75
  0
VERTEX
  8
0
 10
25.4
 20
30.75
  0
SEQEND
  0
POLYLINE
  8
0
 66
     1
 10
0
 20
0
  0
VERTEX
  8
0
 10
23.9
 20
32.25
  0
VERTEX
  8
0
 10
2.9
 20
32.25
  0
SEQEND
  0
POLYLINE
  8
0
 66
     1
 10
0
 20
0
  0
VERTEX
  8
0
 10
1.4
 20
30.75
  0
VERTEX
  8
0
 10
1.4
 20
9.75
  0
SEQEND
  0
ARC
  8
0
 10
2.9
 20
9.75
 40
1.5
 50
180
 51
270
  0
ARC
  8
0
 10
2.9
 20
9.75
 40
0.75
 50
180
 51
270
  0
ARC
  8
0
 10
23.9
 20
9.75
 40
1.5
 50
270
 51
360
  0
ARC
  8
0
 10
23.9
 20
9.75
 40
0.75
 50
270
 51
360
  0
ARC
  8
0
 10
23.9
 20
30.75
 40
1.5
 50
0
 51
90
  0
ARC
  8
0
 10
23.9
 20
30.75
 40
0.75
 50
0
 51
90
  0
ARC
  8
0
 10
2.9
 20
30.75
 40
1.5
 50
90
 51
180
  0
ARC
  8
0
 10
2.9
 20
30.75
 40
0.75
 50
90
 51
180
  0
POLYLINE
  8
0
 66
     1
 10
0
 20
0
  0
VERTEX
  8
0
 10
2.9
 20
9
  0
VERTEX
  8
0
 10
23.9
 20
9
  0
SEQEND
  0
POLYLINE
  8
0
 66
     1
 10
0
 20
0
  0
VERTEX
  8
0
 10
23.9
 20
8.25
  0
VERTEX
  8
0
 10
2.9
 20
8.25
  0
SEQEND
  0
POLYLINE
  8
0
 66
     1
 10
0
 20
0
  0
VERTEX
  8
0
 10
24.65
 20
9.75
  0
VERTEX
  8
0
 10
24.65
 20
30.75
  0
SEQEND
  0
POLYLINE
  8
0
 66
     1
 10
0
 20
0
  0
VERTEX
  8
0
 10
25.4
 20
30.75
  0
VERTEX
  8
0
 10
25.4
 20
9.75
  0
SEQEND
  0
POLYLINE
  8
0
 66
     1
 10
0
 20
0
  0
VERTEX
  8
0
 10
23.9
 20
31.5
  0
VERTEX
  8
0
 10
2.9
 20
31.5
  0
SEQEND
  0
POLYLINE
  8
0
 66
     1
 10
0
 20
0
  0
VERTEX
  8
0
 10
2.9
 20
32.25
  0
VERTEX
  8
0
 10
23.9
 20
32.25
  0
SEQEND
  0
POLYLINE
  8
0
 66
     1
 10
0
 20
0
  0
VERTEX
  8
0
 10
2.15
 20
30.75
  0
VERTEX
  8
0
 10
2.15
 20
9.75
  0
SEQEND
  0
POLYLINE
  8
0
 66
     1
 10
0
 20
0
  0
VERTEX
  8
0
 10
1.4
 20
9.75
  0
VERTEX
  8
0
 10
1.4
 20
30.75
  0
SEQEND
  0
POLYLINE
  8
0
 66
     1
 10
0
 20
0
  0
VERTEX
  8
0
 10
29.6052
 20
30.412
  0
VERTEX
  8
0
 10
29.7532
 20
30.412
  0
VERTEX
  8
0
 10
29.7532
 20
29.596
  0
VERTEX
  8
0
 10
29.7095
 20
29.5983
  0
VERTEX
  8
0
 10
29.6652
 20
29.6075
  0
VERTEX
  8
0
 10
29.6202
 20
29.6236
  0
VERTEX
  8
0
 10
29.5746
 20
29.6466
  0
VERTEX
  8
0
 10
29.5283
 20
29.6765
  0
VERTEX
  8
0
 10
29.4813
 20
29.7133
  0
VERTEX
  8
0
 10
29.4234
 20
29.7666
  0
VERTEX
  8
0
 10
29.3605
 20
29.833
  0
VERTEX
  8
0
 10
29.2927
 20
29.9125
  0
VERTEX
  8
0
 10
29.2452
 20
29.9695
  0
VERTEX
  8
0
 10
29.2019
 20
30.0196
  0
VERTEX
  8
0
 10
29.1628
 20
30.0628
  0
VERTEX
  8
0
 10
29.128
 20
30.0991
  0
VERTEX
  8
0
 10
29.0973
 20
30.1286
  0
VERTEX
  8
0
 10
29.0516
 20
30.1675
  0
VERTEX
  8
0
 10
29.0074
 20
30.1994
  0
VERTEX
  8
0
 10
28.9646
 20
30.2241
  0
VERTEX
  8
0
 10
28.9233
 20
30.2418
  0
VERTEX
  8
0
 10
28.8834
 20
30.2525
  0
VERTEX
  8
0
 10
28.845
 20
30.256
  0
VERTEX
  8
0
 10
28.7845
 20
30.2483
  0
VERTEX
  8
0
 10
28.7321
 20
30.2252
  0
VERTEX
  8
0
 10
28.6878
 20
30.1868
  0
VERTEX
  8
0
 10
28.6556
 20
30.1394
  0
VERTEX
  8
0
 10
28.6361
 20
30.0848
  0
VERTEX
  8
0
 10
28.6292
 20
30.0231
  0
VERTEX
  8
0
 10
28.6331
 20
29.9696
  0
VERTEX
  8
0
 10
28.6457
 20
29.9222
  0
VERTEX
  8
0
 10
28.6669
 20
29.881
  0
VERTEX
  8
0
 10
28.6967
 20
29.8458
  0
VERTEX
  8
0
 10
28.7475
 20
29.8101
  0
VERTEX
  8
0
 10
28.8088
 20
29.7885
  0
VERTEX
  8
0
 10
28.8804
 20
29.7809
  0
VERTEX
  8
0
 10
28.8643
 20
29.6247
  0
VERTEX
  8
0
 10
28.8085
 20
29.6323
  0
VERTEX
  8
0
 10
28.7572
 20
29.6449
  0
VERTEX
  8
0
 10
28.7104
 20
29.6625
  0
VERTEX
  8
0
 10
28.6682
 20
29.6851
  0
VERTEX
  8
0
 10
28.6306
 20
29.7128
  0
VERTEX
  8
0
 10
28.5975
 20
29.7454
  0
VERTEX
  8
0
 10
28.5643
 20
29.7904
  0
VERTEX
  8
0
 10
28.5384
 20
29.841
  0
VERTEX
  8
0
 10
28.52
 20
29.8972
  0
VERTEX
  8
0
 10
28.5089
 20
29.959
  0
VERTEX
  8
0
 10
28.5052
 20
30.0264
  0
VERTEX
  8
0
 10
28.5088
 20
30.0896
  0
VERTEX
  8
0
 10
28.5194
 20
30.1483
  0
VERTEX
  8
0
 10
28.5372
 20
30.2025
  0
VERTEX
  8
0
 10
28.5621
 20
30.2521
  0
VERTEX
  8
0
 10
28.5941
 20
30.2972
  0
VERTEX
  8
0
 10
28.6276
 20
30.3323
  0
VERTEX
  8
0
 10
28.6647
 20
30.361
  0
VERTEX
  8
0
 10
28.7055
 20
30.3833
  0
VERTEX
  8
0
 10
28.7499
 20
30.3992
  0
VERTEX
  8
0
 10
28.798
 20
30.4088
  0
VERTEX
  8
0
 10
28.8498
 20
30.412
  0
VERTEX
  8
0
 10
28.8993
 20
30.4083
  0
VERTEX
  8
0
 10
28.9488
 20
30.3974
  0
VERTEX
  8
0
 10
28.9984
 20
30.3791
  0
VERTEX
  8
0
 10
29.0482
 20
30.3535
  0
VERTEX
  8
0
 10
29.098
 20
30.3206
  0
VERTEX
  8
0
 10
29.1479
 20
30.2804
  0
VERTEX
  8
0
 10
29.183
 20
30.2478
  0
VERTEX
  8
0
 10
29.2223
 20
30.2082
  0
VERTEX
  8
0
 10
29.266
 20
30.1614
  0
VERTEX
  8
0
 10
29.314
 20
30.1076
  0
VERTEX
  8
0
 10
29.3664
 20
30.0467
  0
VERTEX
  8
0
 10
29.4004
 20
30.0064
  0
VERTEX
  8
0
 10
29.4284
 20
29.9734
  0
VERTEX
  8
0
 10
29.4506
 20
29.9475
  0
VERTEX
  8
0
 10
29.4669
 20
29.9289
  0
VERTEX
  8
0
 10
29.4773
 20
29.9176
  0
VERTEX
  8
0
 10
29.5423
 20
29.8545
  0
VERTEX
  8
0
 10
29.6052
 20
29.8071
  0
VERTEX
  8
0
 10
29.6052
 20
30.412
  0
SEQEND
  0
POLYLINE
  8
0
 66
     1
 10
0
 20
0
  0
VERTEX
  8
0
 10
29.7532
 20
30.66
  0
VERTEX
  8
0
 10
29.5772
 20
30.66
  0
VERTEX
  8
0
 10
29.5772
 20
30.832
  0
VERTEX
  8
0
 10
29.7532
 20
30.832
  0
VERTEX
  8
0
 10
29.7532
 20
30.66
  0
SEQEND
  0
POLYLINE
  8
0
 66
     1
 10
0
 20
0
  0
VERTEX
  8
0
 10
29.4223
 20
31.064
  0
VERTEX
  8
0
 10
29.4022
 20
31.2166
  0
VERTEX
  8
0
 10
29.4356
 20
31.2242
  0
VERTEX
  8
0
 10
29.4665
 20
31.2332
  0
VERTEX
  8
0
 10
29.4949
 20
31.2438
  0
VERTEX
  8
0
 10
29.5209
 20
31.2558
  0
VERTEX
  8
0
 10
29.5444
 20
31.2694
  0
VERTEX
  8
0
 10
29.5654
 20
31.2845
  0
VERTEX
  8
0
 10
29.584
 20
31.3012
  0
VERTEX
  8
0
 10
29.6001
 20
31.3193
  0
VERTEX
  8
0
 10
29.6138
 20
31.339
  0
VERTEX
  8
0
 10
29.625
 20
31.3601
  0
VERTEX
  8
0
 10
29.6337
 20
31.3828
  0
VERTEX
  8
0
 10
29.64
 20
31.407
  0
VERTEX
  8
0
 10
29.6438
 20
31.4327
  0
VERTEX
  8
0
 10
29.6452
 20
31.4599
  0
VERTEX
  8
0
 10
29.6409
 20
31.5123
  0
VERTEX
  8
0
 10
29.6271
 20
31.5602
  0
VERTEX
  8
0
 10
29.6039
 20
31.6035
  0
VERTEX
  8
0
 10
29.5713
 20
31.6422
  0
VERTEX
  8
0
 10
29.5178
 20
31.6828
  0
VERTEX
  8
0
 10
29.4568
 20
31.7074
  0
VERTEX
  8
0
 10
29.3884
 20
31.716
  0
VERTEX
  8
0
 10
29.3231
 20
31.7087
  0
VERTEX
  8
0
 10
29.2659
 20
31.6858
  0
VERTEX
  8
0
 10
29.2168
 20
31.6471
  0
VERTEX
  8
0
 10
29.1792
 20
31.5966
  0
VERTEX
  8
0
 10
29.1567
 20
31.5381
  0
VERTEX
  8
0
 10
29.1492
 20
31.4717
  0
VERTEX
  8
0
 10
29.1527
 20
31.4218
  0
VERTEX
  8
0
 10
29.1633
 20
31.3637
  0
VERTEX
  8
0
 10
29.0332
 20
31.3805
  0
VERTEX
  8
0
 10
29.0332
 20
31.3908
  0
VERTEX
  8
0
 10
29.0332
 20
31.4049
  0
VERTEX
  8
0
 10
29.0276
 20
31.4708
  0
VERTEX
  8
0
 10
29.0108
 20
31.5284
  0
VERTEX
  8
0
 10
28.9829
 20
31.5779
  0
VERTEX
  8
0
 10
28.9519
 20
31.6117
  0
VERTEX
  8
0
 10
28.9151
 20
31.6361
  0
VERTEX
  8
0
 10
28.8726
 20
31.6508
  0
VERTEX
  8
0
 10
28.8244
 20
31.656
  0
VERTEX
  8
0
 10
28.7701
 20
31.65
  0
VERTEX
  8
0
 10
28.7232
 20
31.6311
  0
VERTEX
  8
0
 10
28.6838
 20
31.5992
  0
VERTEX
  8
0
 10
28.6538
 20
31.5574
  0
VERTEX
  8
0
 10
28.6356
 20
31.509
  0
VERTEX
  8
0
 10
28.6292
 20
31.4539
  0
VERTEX
  8
0
 10
28.6303
 20
31.4259
  0
VERTEX
  8
0
 10
28.6341
 20
31.3997
  0
VERTEX
  8
0
 10
28.6406
 20
31.3753
  0
VERTEX
  8
0
 10
28.6498
 20
31.3528
  0
VERTEX
  8
0
 10
28.6617
 20
31.332
  0
VERTEX
  8
0
 10
28.6763
 20
31.313
  0
VERTEX
  8
0
 10
28.6936
 20
31.2959
  0
VERTEX
  8
0
 10
28.7137
 20
31.2805
  0
VERTEX
  8
0
 10
28.7364
 20
31.2669
  0
VERTEX
  8
0
 10
28.7618
 20
31.2552
  0
VERTEX
  8
0
 10
28.7899
 20
31.2452
  0
VERTEX
  8
0
 10
28.8208
 20
31.2371
  0
VERTEX
  8
0
 10
28.8543
 20
31.2307
  0
VERTEX
  8
0
 10
28.8272
 20
31.0792
  0
VERTEX
  8
0
 10
28.7562
 20
31.097
  0
VERTEX
  8
0
 10
28.6933
 20
31.1237
  0
VERTEX
  8
0
 10
28.6384
 20
31.1592
  0
VERTEX
  8
0
 10
28.5916
 20
31.2034
  0
VERTEX
  8
0
 10
28.5541
 20
31.2553
  0
VERTEX
  8
0
 10
28.5272
 20
31.3138
  0
VERTEX
  8
0
 10
28.5109
 20
31.3789
  0
VERTEX
  8
0
 10
28.5052
 20
31.4506
  0
VERTEX
  8
0
 10
28.5149
 20
31.5435
  0
VERTEX
  8
0
 10
28.5457
 20
31.6301
  0
VERTEX
  8
0
 10
28.5976
 20
31.7088
  0
VERTEX
  8
0
 10
28.6672
 20
31.7665
  0
VERTEX
  8
0
 10
28.7446
 20
31.8006
  0
VERTEX
  8
0
 10
28.8267
 20
31.812
  0
VERTEX
  8
0
 10
28.8638
 20
31.8099
  0
VERTEX
  8
0
 10
28.8986
 20
31.8037
  0
VERTEX
  8
0
 10
28.931
 20
31.7932
  0
VERTEX
  8
0
 10
28.9612
 20
31.7786
  0
VERTEX
  8
0
 10
28.989
 20
31.7599
  0
VERTEX
  8
0
 10
29.0146
 20
31.7369
  0
VERTEX
  8
0
 10
29.0378
 20
31.7098
  0
VERTEX
  8
0
 10
29.0587
 20
31.6786
  0
VERTEX
  8
0
 10
29.0773
 20
31.6431
  0
VERTEX
  8
0
 10
29.1009
 20
31.7127
  0
VERTEX
  8
0
 10
29.1369
 20
31.7708
  0
VERTEX
  8
0
 10
29.1853
 20
31.8174
  0
VERTEX
  8
0
 10
29.2424
 20
31.8499
  0
VERTEX
  8
0
 10
29.3079
 20
31.8695
  0
VERTEX
  8
0
 10
29.3819
 20
31.876
  0
VERTEX
  8
0
 10
29.4348
 20
31.8727
  0
VERTEX
  8
0
 10
29.4848
 20
31.8629
  0
VERTEX
  8
0
 10
29.532
 20
31.8465
  0
VERTEX
  8
0
 10
29.5763
 20
31.8236
  0
VERTEX
  8
0
 10
29.6179
 20
31.7941
  0
VERTEX
  8
0
 10
29.6565
 20
31.758
  0
VERTEX
  8
0
 10
29.6907
 20
31.7169
  0
VERTEX
  8
0
 10
29.7187
 20
31.6722
  0
VERTEX
  8
0
 10
29.7406
 20
31.624
  0
VERTEX
  8
0
 10
29.7563
 20
31.5723
  0
VERTEX
  8
0
 10
29.7658
 20
31.517
  0
VERTEX
  8
0
 10
29.7692
 20
31.4582
  0
VERTEX
  8
0
 10
29.7654
 20
31.3957
  0
VERTEX
  8
0
 10
29.7541
 20
31.3375
  0
VERTEX
  8
0
 10
29.7353
 20
31.2836
  0
VERTEX
  8
0
 10
29.709
 20
31.2341
  0
VERTEX
  8
0
 10
29.6751
 20
31.1888
  0
VERTEX
  8
0
 10
29.6349
 20
31.1493
  0
VERTEX
  8
0
 10
29.5895
 20
31.117
  0
VERTEX
  8
0
 10
29.539
 20
31.0921
  0
VERTEX
  8
0
 10
29.4832
 20
31.0744
  0
VERTEX
  8
0
 10
29.4223
 20
31.064
  0
VERTEX
  8
0
 10
29.4223
 20
31.064
  0
SEQEND
  0
POLYLINE
  8
0
 66
     1
 10
0
 20
0
  0
VERTEX
  8
0
 10
29.7532
 20
32.6
  0
VERTEX
  8
0
 10
29.7532
 20
32.448
  0
VERTEX
  8
0
 10
28.7809
 20
32.448
  0
VERTEX
  8
0
 10
28.8519
 20
32.3609
  0
VERTEX
  8
0
 10
28.9129
 20
32.2596
  0
VERTEX
  8
0
 10
28.9641
 20
32.144
  0
VERTEX
  8
0
 10
28.8168
 20
32.144
  0
VERTEX
  8
0
 10
28.7883
 20
32.2008
  0
VERTEX
  8
0
 10
28.7584
 20
32.2533
  0
VERTEX
  8
0
 10
28.7268
 20
32.3016
  0
VERTEX
  8
0
 10
28.6938
 20
32.3457
  0
VERTEX
  8
0
 10
28.6591
 20
32.3854
  0
VERTEX
  8
0
 10
28.623
 20
32.421
  0
VERTEX
  8
0
 10
28.5853
 20
32.4523
  0
VERTEX
  8
0
 10
28.546
 20
32.4793
  0
VERTEX
  8
0
 10
28.5052
 20
32.5021
  0
VERTEX
  8
0
 10
28.5052
 20
32.6
  0
VERTEX
  8
0
 10
29.7532
 20
32.6
  0
SEQEND
  0
LINE
  8
0
 10
27.65
 20
31.0938
 11
27.65
 21
32.25
  0
LINE
  8
0
 10
27.9183
 20
31.7133
 11
27.65
 21
32.25
  0
LINE
  8
0
 10
27.3817
 20
31.7133
 11
27.65
 21
32.25
  0
LINE
  8
0
 10
27.95
 20
32.25
 11
26.15
 21
32.25
  0
LINE
  8
0
 10
27.65
 20
31.0938
 11
27.65
 21
29.9375
  0
LINE
  8
0
 10
27.3817
 20
30.4742
 11
27.65
 21
29.9375
  0
LINE
  8
0
 10
27.9183
 20
30.4742
 11
27.65
 21
29.9375
  0
LINE
  8
0
 10
27.95
 20
29.9375
 11
26.15
 21
29.9375
  0
POLYLINE
  8
0
 66
     1
 10
0
 20
0
  0
VERTEX
  8
0
 10
28.2532
 20
18.68
  0
VERTEX
  8
0
 10
28.2532
 20
18.528
  0
VERTEX
  8
0
 10
27.2809
 20
18.528
  0
VERTEX
  8
0
 10
27.3519
 20
18.4409
  0
VERTEX
  8
0
 10
27.4129
 20
18.3396
  0
VERTEX
  8
0
 10
27.4641
 20
18.224
  0
VERTEX
  8
0
 10
27.3168
 20
18.224
  0
VERTEX
  8
0
 10
27.2883
 20
18.2808
  0
VERTEX
  8
0
 10
27.2584
 20
18.3333
  0
VERTEX
  8
0
 10
27.2268
 20
18.3816
  0
VERTEX
  8
0
 10
27.1938
 20
18.4257
  0
VERTEX
  8
0
 10
27.1591
 20
18.4654
  0
VERTEX
  8
0
 10
27.123
 20
18.501
  0
VERTEX
  8
0
 10
27.0853
 20
18.5323
  0
VERTEX
  8
0
 10
27.046
 20
18.5593
  0
VERTEX
  8
0
 10
27.0052
 20
18.5821
  0
VERTEX
  8
0
 10
27.0052
 20
18.68
  0
VERTEX
  8
0
 10
28.2532
 20
18.68
  0
SEQEND
  0
POLYLINE
  8
0
 66
     1
 10
0
 20
0
  0
VERTEX
  8
0
 10
28.0296
 20
19.0667
  0
VERTEX
  8
0
 10
28.0162
 20
19.2122
  0
VERTEX
  8
0
 10
28.0689
 20
19.2345
  0
VERTEX
  8
0
 10
28.114
 20
19.2828
  0
VERTEX
  8
0
 10
28.131
 20
19.3192
  0
VERTEX
  8
0
 10
28.1414
 20
19.3691
  0
VERTEX
  8
0
 10
28.1452
 20
19.4325
  0
VERTEX
  8
0
 10
28.1376
 20
19.497
  0
VERTEX
  8
0
 10
28.1131
 20
19.5544
  0
VERTEX
  8
0
 10
28.0899
 20
19.5861
  0
VERTEX
  8
0
 10
28.0605
 20
19.6147
  0
VERTEX
  8
0
 10
28.0252
 20
19.6401
  0
VERTEX
  8
0
 10
27.9837
 20
19.6624
  0
VERTEX
  8
0
 10
27.9363
 20
19.6814
  0
VERTEX
  8
0
 10
27.8828
 20
19.6973
  0
VERTEX
  8
0
 10
27.7916
 20
19.7143
  0
VERTEX
  8
0
 10
27.6971
 20
19.72
  0
VERTEX
  8
0
 10
27.681
 20
19.7198
  0
VERTEX
  8
0
 10
27.6667
 20
19.7192
  0
VERTEX
  8
0
 10
27.7006
 20
19.6955
  0
VERTEX
  8
0
 10
27.7306
 20
19.6695
  0
VERTEX
  8
0
 10
27.7566
 20
19.6413
  0
VERTEX
  8
0
 10
27.7786
 20
19.6108
  0
VERTEX
  8
0
 10
27.7967
 20
19.5781
  0
VERTEX
  8
0
 10
27.8108
 20
19.5432
  0
VERTEX
  8
0
 10
27.8209
 20
19.506
  0
VERTEX
  8
0
 10
27.827
 20
19.4665
  0
VERTEX
  8
0
 10
27.8292
 20
19.4249
  0
VERTEX
  8
0
 10
27.8261
 20
19.3714
  0
VERTEX
  8
0
 10
27.8161
 20
19.3215
  0
VERTEX
  8
0
 10
27.7994
 20
19.275
  0
VERTEX
  8
0
 10
27.7758
 20
19.2321
  0
VERTEX
  8
0
 10
27.7455
 20
19.1926
  0
VERTEX
  8
0
 10
27.7083
 20
19.1567
  0
VERTEX
  8
0
 10
27.6599
 20
19.1219
  0
VERTEX
  8
0
 10
27.6072
 20
19.0948
  0
VERTEX
  8
0
 10
27.5502
 20
19.0755
  0
VERTEX
  8
0
 10
27.489
 20
19.0639
  0
VERTEX
  8
0
 10
27.4235
 20
19.06
  0
VERTEX
  8
0
 10
27.3625
 20
19.0631
  0
VERTEX
  8
0
 10
27.3057
 20
19.0723
  0
VERTEX
  8
0
 10
27.253
 20
19.0876
  0
VERTEX
  8
0
 10
27.2045
 20
19.109
  0
VERTEX
  8
0
 10
27.1602
 20
19.1366
  0
VERTEX
  8
0
 10
27.1201
 20
19.1703
  0
VERTEX
  8
0
 10
27.0853
 20
19.2087
  0
VERTEX
  8
0
 10
27.0567
 20
19.2503
  0
VERTEX
  8
0
 10
27.0344
 20
19.295
  0
VERTEX
  8
0
 10
27.0184
 20
19.3429
  0
VERTEX
  8
0
 10
27.0086
 20
19.394
  0
VERTEX
  8
0
 10
27.0052
 20
19.4483
  0
VERTEX
  8
0
 10
27.0122
 20
19.5285
  0
VERTEX
  8
0
 10
27.0345
 20
19.6029
  0
VERTEX
  8
0
 10
27.0719
 20
19.6715
  0
VERTEX
  8
0
 10
27.1224
 20
19.7318
  0
VERTEX
  8
0
 10
27.1837
 20
19.7812
  0
VERTEX
  8
0
 10
27.2559
 20
19.8197
  0
VERTEX
  8
0
 10
27.3085
 20
19.8386
  0
VERTEX
  8
0
 10
27.3696
 20
19.8532
  0
VERTEX
  8
0
 10
27.4391
 20
19.8636
  0
VERTEX
  8
0
 10
27.5172
 20
19.8699
  0
VERTEX
  8
0
 10
27.6038
 20
19.872
  0
VERTEX
  8
0
 10
27.6523
 20
19.8714
  0
VERTEX
  8
0
 10
27.6989
 20
19.8695
  0
VERTEX
  8
0
 10
27.7436
 20
19.8663
  0
VERTEX
  8
0
 10
27.7866
 20
19.8619
  0
VERTEX
  8
0
 10
27.8277
 20
19.8562
  0
VERTEX
  8
0
 10
27.867
 20
19.8493
  0
VERTEX
  8
0
 10
27.9044
 20
19.841
  0
VERTEX
  8
0
 10
27.9401
 20
19.8316
  0
VERTEX
  8
0
 10
27.9739
 20
19.8208
  0
VERTEX
  8
0
 10
28.0058
 20
19.8088
  0
VERTEX
  8
0
 10
28.036
 20
19.7956
  0
VERTEX
  8
0
 10
28.0643
 20
19.781
  0
VERTEX
  8
0
 10
28.0908
 20
19.7652
  0
VERTEX
  8
0
 10
28.1154
 20
19.7482
  0
VERTEX
  8
0
 10
28.1383
 20
19.7299
  0
VERTEX
  8
0
 10
28.1593
 20
19.7103
  0
VERTEX
  8
0
 10
28.1784
 20
19.6894
  0
VERTEX
  8
0
 10
28.1958
 20
19.6673
  0
VERTEX
  8
0
 10
28.2279
 20
19.6146
  0
VERTEX
  8
0
 10
28.2508
 20
19.5574
  0
VERTEX
  8
0
 10
28.2646
 20
19.4958
  0
VERTEX
  8
0
 10
28.2692
 20
19.4298
  0
VERTEX
  8
0
 10
28.2674
 20
19.3736
  0
VERTEX
  8
0
 10
28.262
 20
19.3231
  0
VERTEX
  8
0
 10
28.253
 20
19.2782
  0
VERTEX
  8
0
 10
28.2404
 20
19.2388
  0
VERTEX
  8
0
 10
28.2242
 20
19.2051
  0
VERTEX
  8
0
 10
28.2044
 20
19.1771
  0
VERTEX
  8
0
 10
28.1617
 20
19.1329
  0
VERTEX
  8
0
 10
28.1183
 20
19.0998
  0
VERTEX
  8
0
 10
28.0743
 20
19.0777
  0
VERTEX
  8
0
 10
28.0296
 20
19.0667
  0
VERTEX
  8
0
 10
28.0296
 20
19.0667
  0
SEQEND
  0
POLYLINE
  8
0
 66
     1
 10
0
 20
0
  0
VERTEX
  8
0
 10
27.4141
 20
19.704
  0
VERTEX
  8
0
 10
27.341
 20
19.6974
  0
VERTEX
  8
0
 10
27.2759
 20
19.6774
  0
VERTEX
  8
0
 10
27.2188
 20
19.6442
  0
VERTEX
  8
0
 10
27.1799
 20
19.6085
  0
VERTEX
  8
0
 10
27.152
 20
19.5671
  0
VERTEX
  8
0
 10
27.1351
 20
19.52
  0
VERTEX
  8
0
 10
27.1292
 20
19.4672
  0
VERTEX
  8
0
 10
27.1327
 20
19.4233
  0
VERTEX
  8
0
 10
27.1438
 20
19.3829
  0
VERTEX
  8
0
 10
27.1626
 20
19.3458
  0
VERTEX
  8
0
 10
27.189
 20
19.3121
  0
VERTEX
  8
0
 10
27.2231
 20
19.2817
  0
VERTEX
  8
0
 10
27.2837
 20
19.2456
  0
VERTEX
  8
0
 10
27.3516
 20
19.2237
  0
VERTEX
  8
0
 10
27.4268
 20
19.216
  0
VERTEX
  8
0
 10
27.4981
 20
19.223
  0
VERTEX
  8
0
 10
27.561
 20
19.2452
  0
VERTEX
  8
0
 10
27.6154
 20
19.2826
  0
VERTEX
  8
0
 10
27.6494
 20
19.3198
  0
VERTEX
  8
0
 10
27.6737
 20
19.3622
  0
VERTEX
  8
0
 10
27.6883
 20
19.4099
  0
VERTEX
  8
0
 10
27.6932
 20
19.4629
  0
VERTEX
  8
0
 10
27.688
 20
19.5179
  0
VERTEX
  8
0
 10
27.6725
 20
19.5664
  0
VERTEX
  8
0
 10
27.6466
 20
19.6085
  0
VERTEX
  8
0
 10
27.6103
 20
19.6442
  0
VERTEX
  8
0
 10
27.5543
 20
19.6774
  0
VERTEX
  8
0
 10
27.4889
 20
19.6974
  0
VERTEX
  8
0
 10
27.4141
 20
19.704
  0
VERTEX
  8
0
 10
27.4141
 20
19.704
  0
SEQEND
  0
POLYLINE
  8
0
 66
     1
 10
0
 20
0
  0
VERTEX
  8
0
 10
28.2532
 20
20.108
  0
VERTEX
  8
0
 10
28.0772
 20
20.108
  0
VERTEX
  8
0
 10
28.0772
 20
20.28
  0
VERTEX
  8
0
 10
28.2532
 20
20.28
  0
VERTEX
  8
0
 10
28.2532
 20
20.108
  0
SEQEND
  0
POLYLINE
  8
0
 66
     1
 10
0
 20
0
  0
VERTEX
  8
0
 10
27.9223
 20
20.512
  0
VERTEX
  8
0
 10
27.9022
 20
20.6646
  0
VERTEX
  8
0
 10
27.9356
 20
20.6722
  0
VERTEX
  8
0
 10
27.9665
 20
20.6812
  0
VERTEX
  8
0
 10
27.9949
 20
20.6918
  0
VERTEX
  8
0
 10
28.0209
 20
20.7038
  0
VERTEX
  8
0
 10
28.0444
 20
20.7174
  0
VERTEX
  8
0
 10
28.0654
 20
20.7325
  0
VERTEX
  8
0
 10
28.084
 20
20.7492
  0
VERTEX
  8
0
 10
28.1001
 20
20.7673
  0
VERTEX
  8
0
 10
28.1138
 20
20.787
  0
VERTEX
  8
0
 10
28.125
 20
20.8081
  0
VERTEX
  8
0
 10
28.1337
 20
20.8308
  0
VERTEX
  8
0
 10
28.14
 20
20.855
  0
VERTEX
  8
0
 10
28.1438
 20
20.8807
  0
VERTEX
  8
0
 10
28.1452
 20
20.9079
  0
VERTEX
  8
0
 10
28.1409
 20
20.9603
  0
VERTEX
  8
0
 10
28.1271
 20
21.0082
  0
VERTEX
  8
0
 10
28.1039
 20
21.0515
  0
VERTEX
  8
0
 10
28.0713
 20
21.0902
  0
VERTEX
  8
0
 10
28.0178
 20
21.1308
  0
VERTEX
  8
0
 10
27.9568
 20
21.1554
  0
VERTEX
  8
0
 10
27.8884
 20
21.164
  0
VERTEX
  8
0
 10
27.8231
 20
21.1567
  0
VERTEX
  8
0
 10
27.7659
 20
21.1338
  0
VERTEX
  8
0
 10
27.7168
 20
21.0951
  0
VERTEX
  8
0
 10
27.6792
 20
21.0446
  0
VERTEX
  8
0
 10
27.6567
 20
20.9861
  0
VERTEX
  8
0
 10
27.6492
 20
20.9197
  0
VERTEX
  8
0
 10
27.6527
 20
20.8698
  0
VERTEX
  8
0
 10
27.6633
 20
20.8117
  0
VERTEX
  8
0
 10
27.5332
 20
20.8285
  0
VERTEX
  8
0
 10
27.5332
 20
20.8388
  0
VERTEX
  8
0
 10
27.5332
 20
20.8529
  0
VERTEX
  8
0
 10
27.5276
 20
20.9188
  0
VERTEX
  8
0
 10
27.5108
 20
20.9764
  0
VERTEX
  8
0
 10
27.4829
 20
21.0259
  0
VERTEX
  8
0
 10
27.4519
 20
21.0597
  0
VERTEX
  8
0
 10
27.4151
 20
21.0841
  0
VERTEX
  8
0
 10
27.3726
 20
21.0988
  0
VERTEX
  8
0
 10
27.3244
 20
21.104
  0
VERTEX
  8
0
 10
27.2701
 20
21.098
  0
VERTEX
  8
0
 10
27.2232
 20
21.0791
  0
VERTEX
  8
0
 10
27.1838
 20
21.0472
  0
VERTEX
  8
0
 10
27.1538
 20
21.0054
  0
VERTEX
  8
0
 10
27.1356
 20
20.957
  0
VERTEX
  8
0
 10
27.1292
 20
20.9019
  0
VERTEX
  8
0
 10
27.1303
 20
20.8739
  0
VERTEX
  8
0
 10
27.1341
 20
20.8477
  0
VERTEX
  8
0
 10
27.1406
 20
20.8233
  0
VERTEX
  8
0
 10
27.1498
 20
20.8008
  0
VERTEX
  8
0
 10
27.1617
 20
20.78
  0
VERTEX
  8
0
 10
27.1763
 20
20.761
  0
VERTEX
  8
0
 10
27.1936
 20
20.7439
  0
VERTEX
  8
0
 10
27.2137
 20
20.7285
  0
VERTEX
  8
0
 10
27.2364
 20
20.7149
  0
VERTEX
  8
0
 10
27.2618
 20
20.7032
  0
VERTEX
  8
0
 10
27.2899
 20
20.6932
  0
VERTEX
  8
0
 10
27.3208
 20
20.6851
  0
VERTEX
  8
0
 10
27.3543
 20
20.6787
  0
VERTEX
  8
0
 10
27.3272
 20
20.5272
  0
VERTEX
  8
0
 10
27.2562
 20
20.545
  0
VERTEX
  8
0
 10
27.1933
 20
20.5717
  0
VERTEX
  8
0
 10
27.1384
 20
20.6072
  0
VERTEX
  8
0
 10
27.0916
 20
20.6514
  0
VERTEX
  8
0
 10
27.0541
 20
20.7033
  0
VERTEX
  8
0
 10
27.0272
 20
20.7618
  0
VERTEX
  8
0
 10
27.0109
 20
20.8269
  0
VERTEX
  8
0
 10
27.0052
 20
20.8986
  0
VERTEX
  8
0
 10
27.0149
 20
20.9915
  0
VERTEX
  8
0
 10
27.0457
 20
21.0781
  0
VERTEX
  8
0
 10
27.0976
 20
21.1568
  0
VERTEX
  8
0
 10
27.1672
 20
21.2145
  0
VERTEX
  8
0
 10
27.2446
 20
21.2486
  0
VERTEX
  8
0
 10
27.3267
 20
21.26
  0
VERTEX
  8
0
 10
27.3638
 20
21.2579
  0
VERTEX
  8
0
 10
27.3986
 20
21.2517
  0
VERTEX
  8
0
 10
27.431
 20
21.2412
  0
VERTEX
  8
0
 10
27.4612
 20
21.2266
  0
VERTEX
  8
0
 10
27.489
 20
21.2079
  0
VERTEX
  8
0
 10
27.5146
 20
21.1849
  0
VERTEX
  8
0
 10
27.5378
 20
21.1578
  0
VERTEX
  8
0
 10
27.5587
 20
21.1266
  0
VERTEX
  8
0
 10
27.5773
 20
21.0911
  0
VERTEX
  8
0
 10
27.6009
 20
21.1607
  0
VERTEX
  8
0
 10
27.6369
 20
21.2188
  0
VERTEX
  8
0
 10
27.6853
 20
21.2654
  0
VERTEX
  8
0
 10
27.7424
 20
21.2979
  0
VERTEX
  8
0
 10
27.8079
 20
21.3175
  0
VERTEX
  8
0
 10
27.8819
 20
21.324
  0
VERTEX
  8
0
 10
27.9348
 20
21.3207
  0
VERTEX
  8
0
 10
27.9848
 20
21.3109
  0
VERTEX
  8
0
 10
28.032
 20
21.2945
  0
VERTEX
  8
0
 10
28.0763
 20
21.2716
  0
VERTEX
  8
0
 10
28.1179
 20
21.2421
  0
VERTEX
  8
0
 10
28.1565
 20
21.206
  0
VERTEX
  8
0
 10
28.1907
 20
21.1649
  0
VERTEX
  8
0
 10
28.2187
 20
21.1202
  0
VERTEX
  8
0
 10
28.2406
 20
21.072
  0
VERTEX
  8
0
 10
28.2563
 20
21.0203
  0
VERTEX
  8
0
 10
28.2658
 20
20.965
  0
VERTEX
  8
0
 10
28.2692
 20
20.9062
  0
VERTEX
  8
0
 10
28.2654
 20
20.8437
  0
VERTEX
  8
0
 10
28.2541
 20
20.7855
  0
VERTEX
  8
0
 10
28.2353
 20
20.7316
  0
VERTEX
  8
0
 10
28.209
 20
20.6821
  0
VERTEX
  8
0
 10
28.1751
 20
20.6368
  0
VERTEX
  8
0
 10
28.1349
 20
20.5973
  0
VERTEX
  8
0
 10
28.0895
 20
20.565
  0
VERTEX
  8
0
 10
28.039
 20
20.5401
  0
VERTEX
  8
0
 10
27.9832
 20
20.5224
  0
VERTEX
  8
0
 10
27.9223
 20
20.512
  0
VERTEX
  8
0
 10
27.9223
 20
20.512
  0
SEQEND
  0
POLYLINE
  8
0
 66
     1
 10
0
 20
0
  0
VERTEX
  8
0
 10
27.5768
 20
21.7036
  0
VERTEX
  8
0
 10
27.5636
 20
21.671
  0
VERTEX
  8
0
 10
27.5484
 20
21.6416
  0
VERTEX
  8
0
 10
27.5312
 20
21.6152
  0
VERTEX
  8
0
 10
27.5122
 20
21.592
  0
VERTEX
  8
0
 10
27.4912
 20
21.5718
  0
VERTEX
  8
0
 10
27.4682
 20
21.5547
  0
VERTEX
  8
0
 10
27.4433
 20
21.5408
  0
VERTEX
  8
0
 10
27.4165
 20
21.5299
  0
VERTEX
  8
0
 10
27.3877
 20
21.5222
  0
VERTEX
  8
0
 10
27.357
 20
21.5175
  0
VERTEX
  8
0
 10
27.3244
 20
21.516
  0
VERTEX
  8
0
 10
27.277
 20
21.519
  0
VERTEX
  8
0
 10
27.2329
 20
21.5278
  0
VERTEX
  8
0
 10
27.192
 20
21.5426
  0
VERTEX
  8
0
 10
27.1544
 20
21.5633
  0
VERTEX
  8
0
 10
27.1199
 20
21.59
  0
VERTEX
  8
0
 10
27.0888
 20
21.6225
  0
VERTEX
  8
0
 10
27.0525
 20
21.6752
  0
VERTEX
  8
0
 10
27.0265
 20
21.7343
  0
VERTEX
  8
0
 10
27.0107
 20
21.7999
  0
VERTEX
  8
0
 10
27.0052
 20
21.8719
  0
VERTEX
  8
0
 10
27.0105
 20
21.9441
  0
VERTEX
  8
0
 10
27.0265
 20
22.0101
  0
VERTEX
  8
0
 10
27.0531
 20
22.07
  0
VERTEX
  8
0
 10
27.0904
 20
22.1238
  0
VERTEX
  8
0
 10
27.1224
 20
22.1569
  0
VERTEX
  8
0
 10
27.1575
 20
22.1839
  0
VERTEX
  8
0
 10
27.1956
 20
22.2049
  0
VERTEX
  8
0
 10
27.2368
 20
22.22
  0
VERTEX
  8
0
 10
27.2812
 20
22.229
  0
VERTEX
  8
0
 10
27.3286
 20
22.232
  0
VERTEX
  8
0
 10
27.3631
 20
22.2302
  0
VERTEX
  8
0
 10
27.3955
 20
22.2247
  0
VERTEX
  8
0
 10
27.4258
 20
22.2157
  0
VERTEX
  8
0
 10
27.4538
 20
22.203
  0
VERTEX
  8
0
 10
27.4797
 20
22.1866
  0
VERTEX
  8
0
 10
27.5035
 20
22.1667
  0
VERTEX
  8
0
 10
27.5251
 20
22.1431
  0
VERTEX
  8
0
 10
27.5445
 20
22.1159
  0
VERTEX
  8
0
 10
27.5617
 20
22.085
  0
VERTEX
  8
0
 10
27.5768
 20
22.0506
  0
VERTEX
  8
0
 10
27.5884
 20
22.0826
  0
VERTEX
  8
0
 10
27.6017
 20
22.1123
  0
VERTEX
  8
0
 10
27.6167
 20
22.1396
  0
VERTEX
  8
0
 10
27.6334
 20
22.1645
  0
VERTEX
  8
0
 10
27.6518
 20
22.1871
  0
VERTEX
  8
0
 10
27.6719
 20
22.2073
  0
VERTEX
  8
0
 10
27.6938
 20
22.2252
  0
VERTEX
  8
0
 10
27.7173
 20
22.2407
  0
VERTEX
  8
0
 10
27.7425
 20
22.2538
  0
VERTEX
  8
0
 10
27.7695
 20
22.2646
  0
VERTEX
  8
0
 10
27.7981
 20
22.273
  0
VERTEX
  8
0
 10
27.8285
 20
22.279
  0
VERTEX
  8
0
 10
27.8605
 20
22.2827
  0
VERTEX
  8
0
 10
27.8943
 20
22.284
  0
VERTEX
  8
0
 10
27.9491
 20
22.2809
  0
VERTEX
  8
0
 10
28.0002
 20
22.2709
  0
VERTEX
  8
0
 10
28.0478
 20
22.2542
  0
VERTEX
  8
0
 10
28.0917
 20
22.2307
  0
VERTEX
  8
0
 10
28.132
 20
22.2003
  0
VERTEX
  8
0
 10
28.1687
 20
22.1632
  0
VERTEX
  8
0
 10
28.2049
 20
22.1149
  0
VERTEX
  8
0
 10
28.233
 20
22.0621
  0
VERTEX
  8
0
 10
28.2531
 20
22.0047
  0
VERTEX
  8
0
 10
28.2652
 20
21.9426
  0
VERTEX
  8
0
 10
28.2692
 20
21.876
  0
VERTEX
  8
0
 10
28.2651
 20
21.8082
  0
VERTEX
  8
0
 10
28.253
 20
21.7454
  0
VERTEX
  8
0
 10
28.2327
 20
21.6877
  0
VERTEX
  8
0
 10
28.2044
 20
21.6349
  0
VERTEX
  8
0
 10
28.1679
 20
21.5871
  0
VERTEX
  8
0
 10
28.1308
 20
21.551
  0
VERTEX
  8
0
 10
28.0901
 20
21.5213
  0
VERTEX
  8
0
 10
28.0456
 20
21.4982
  0
VERTEX
  8
0
 10
27.9975
 20
21.4816
  0
VERTEX
  8
0
 10
27.9456
 20
21.4715
  0
VERTEX
  8
0
 10
27.8901
 20
21.468
  0
VERTEX
  8
0
 10
27.8576
 20
21.4689
  0
VERTEX
  8
0
 10
27.8267
 20
21.472
  0
VERTEX
  8
0
 10
27.7976
 20
21.4772
  0
VERTEX
  8
0
 10
27.77
 20
21.4844
  0
VERTEX
  8
0
 10
27.7442
 20
21.4938
  0
VERTEX
  8
0
 10
27.72
 20
21.5053
  0
VERTEX
  8
0
 10
27.6974
 20
21.5189
  0
VERTEX
  8
0
 10
27.6766
 20
21.5346
  0
VERTEX
  8
0
 10
27.6573
 20
21.5524
  0
VERTEX
  8
0
 10
27.6398
 20
21.5723
  0
VERTEX
  8
0
 10
27.6239
 20
21.5944
  0
VERTEX
  8
0
 10
27.6096
 20
21.6185
  0
VERTEX
  8
0
 10
27.597
 20
21.6447
  0
VERTEX
  8
0
 10
27.5861
 20
21.6731
  0
VERTEX
  8
0
 10
27.5768
 20
21.7036
  0
VERTEX
  8
0
 10
27.5768
 20
21.7036
  0
SEQEND
  0
POLYLINE
  8
0
 66
     1
 10
0
 20
0
  0
VERTEX
  8
0
 10
27.3201
 20
21.672
  0
VERTEX
  8
0
 10
27.3747
 20
21.6778
  0
VERTEX
  8
0
 10
27.4227
 20
21.6964
  0
VERTEX
  8
0
 10
27.4641
 20
21.7278
  0
VERTEX
  8
0
 10
27.4958
 20
21.7694
  0
VERTEX
  8
0
 10
27.5149
 20
21.8187
  0
VERTEX
  8
0
 10
27.5212
 20
21.8757
  0
VERTEX
  8
0
 10
27.5152
 20
21.9295
  0
VERTEX
  8
0
 10
27.4973
 20
21.9769
  0
VERTEX
  8
0
 10
27.4675
 20
22.0181
  0
VERTEX
  8
0
 10
27.4282
 20
22.0499
  0
VERTEX
  8
0
 10
27.3819
 20
22.0692
  0
VERTEX
  8
0
 10
27.3286
 20
22.076
  0
VERTEX
  8
0
 10
27.2763
 20
22.07
  0
VERTEX
  8
0
 10
27.2294
 20
22.0508
  0
VERTEX
  8
0
 10
27.188
 20
22.0185
  0
VERTEX
  8
0
 10
27.1557
 20
21.9765
  0
VERTEX
  8
0
 10
27.1361
 20
21.9284
  0
VERTEX
  8
0
 10
27.1292
 20
21.874
  0
VERTEX
  8
0
 10
27.1354
 20
21.8189
  0
VERTEX
  8
0
 10
27.1553
 20
21.7696
  0
VERTEX
  8
0
 10
27.1888
 20
21.7261
  0
VERTEX
  8
0
 10
27.2489
 20
21.6859
  0
VERTEX
  8
0
 10
27.3201
 20
21.672
  0
VERTEX
  8
0
 10
27.3201
 20
21.672
  0
SEQEND
  0
POLYLINE
  8
0
 66
     1
 10
0
 20
0
  0
VERTEX
  8
0
 10
27.8927
 20
21.624
  0
VERTEX
  8
0
 10
27.9345
 20
21.6263
  0
VERTEX
  8
0
 10
27.9728
 20
21.6337
  0
VERTEX
  8
0
 10
28.0076
 20
21.6461
  0
VERTEX
  8
0
 10
28.039
 20
21.6636
  0
VERTEX
  8
0
 10
28.067
 20
21.6861
  0
VERTEX
  8
0
 10
28.0914
 20
21.7138
  0
VERTEX
  8
0
 10
28.1124
 20
21.7464
  0
VERTEX
  8
0
 10
28.137
 20
21.8091
  0
VERTEX
  8
0
 10
28.1452
 20
21.8772
  0
VERTEX
  8
0
 10
28.1375
 20
21.9456
  0
VERTEX
  8
0
 10
28.1143
 20
22.0056
  0
VERTEX
  8
0
 10
28.0758
 20
22.0571
  0
VERTEX
  8
0
 10
28.0386
 20
22.0881
  0
VERTEX
  8
0
 10
27.9965
 20
22.1103
  0
VERTEX
  8
0
 10
27.9496
 20
22.1236
  0
VERTEX
  8
0
 10
27.8977
 20
22.128
  0
VERTEX
  8
0
 10
27.8454
 20
22.1235
  0
VERTEX
  8
0
 10
27.7979
 20
22.1098
  0
VERTEX
  8
0
 10
27.7551
 20
22.0872
  0
VERTEX
  8
0
 10
27.7172
 20
22.0554
  0
VERTEX
  8
0
 10
27.6775
 20
22.0028
  0
VERTEX
  8
0
 10
27.6536
 20
21.9417
  0
VERTEX
  8
0
 10
27.6452
 20
21.8722
  0
VERTEX
  8
0
 10
27.6492
 20
21.8206
  0
VERTEX
  8
0
 10
27.6621
 20
21.7737
  0
VERTEX
  8
0
 10
27.6839
 20
21.7317
  0
VERTEX
  8
0
 10
27.7146
 20
21.6945
  0
VERTEX
  8
0
 10
27.7657
 20
21.6557
  0
VERTEX
  8
0
 10
27.825
 20
21.6322
  0
VERTEX
  8
0
 10
27.8927
 20
21.624
  0
VERTEX
  8
0
 10
27.8927
 20
21.624
  0
SEQEND
  0
LINE
  8
0
 10
27.65
 20
22.5793
 11
27.65
 21
29.9375
  0
LINE
  8
0
 10
27.9183
 20
29.4008
 11
27.65
 21
29.9375
  0
LINE
  8
0
 10
27.3817
 20
29.4008
 11
27.65
 21
29.9375
  0
LINE
  8
0
 10
27.65
 20
17.9207
 11
27.65
 21
10.5625
  0
LINE
  8
0
 10
27.3817
 20
11.0992
 11
27.65
 21
10.5625
  0
LINE
  8
0
 10
27.9183
 20
11.0992
 11
27.65
 21
10.5625
  0
LINE
  8
0
 10
27.95
 20
10.5625
 11
26.15
 21
10.5625
  0
POLYLINE
  8
0
 66
     1
 10
0
 20
0
  0
VERTEX
  8
0
 10
1.2932
 20
3.9
  0
VERTEX
  8
0
 10
1.1412
 20
3.9
  0
VERTEX
  8
0
 10
1.1412
 20
4.8723
  0
VERTEX
  8
0
 10
1.0541
 20
4.8013
  0
VERTEX
  8
0
 10
0.9528
 20
4.7403
  0
VERTEX
  8
0
 10
0.8372
 20
4.6891
  0
VERTEX
  8
0
 10
0.8372
 20
4.8364
  0
VERTEX
  8
0
 10
0.894
 20
4.8649
  0
VERTEX
  8
0
 10
0.9465
 20
4.8948
  0
VERTEX
  8
0
 10
0.9948
 20
4.9264
  0
VERTEX
  8
0
 10
1.0389
 20
4.9594
  0
VERTEX
  8
0
 10
1.0786
 20
4.994
  0
VERTEX
  8
0
 10
1.1142
 20
5.0302
  0
VERTEX
  8
0
 10
1.1454
 20
5.0679
  0
VERTEX
  8
0
 10
1.1725
 20
5.1072
  0
VERTEX
  8
0
 10
1.1953
 20
5.148
  0
VERTEX
  8
0
 10
1.2932
 20
5.148
  0
VERTEX
  8
0
 10
1.2932
 20
3.9
  0
SEQEND
  0
POLYLINE
  8
0
 66
     1
 10
0
 20
0
  0
VERTEX
  8
0
 10
1.7612
 20
3.9
  0
VERTEX
  8
0
 10
1.7612
 20
4.076
  0
VERTEX
  8
0
 10
1.9332
 20
4.076
  0
VERTEX
  8
0
 10
1.9332
 20
3.9
  0
VERTEX
  8
0
 10
1.7612
 20
3.9
  0
SEQEND
  0
POLYLINE
  8
0
 66
     1
 10
0
 20
0
  0
VERTEX
  8
0
 10
2.1639
 20
4.1236
  0
VERTEX
  8
0
 10
2.3094
 20
4.137
  0
VERTEX
  8
0
 10
2.3317
 20
4.0843
  0
VERTEX
  8
0
 10
2.38
 20
4.0392
  0
VERTEX
  8
0
 10
2.4164
 20
4.0222
  0
VERTEX
  8
0
 10
2.4663
 20
4.0118
  0
VERTEX
  8
0
 10
2.5297
 20
4.008
  0
VERTEX
  8
0
 10
2.5942
 20
4.0156
  0
VERTEX
  8
0
 10
2.6516
 20
4.0401
  0
VERTEX
  8
0
 10
2.6833
 20
4.0633
  0
VERTEX
  8
0
 10
2.7119
 20
4.0927
  0
VERTEX
  8
0
 10
2.7373
 20
4.128
  0
VERTEX
  8
0
 10
2.7596
 20
4.1694
  0
VERTEX
  8
0
 10
2.7786
 20
4.2169
  0
VERTEX
  8
0
 10
2.7945
 20
4.2704
  0
VERTEX
  8
0
 10
2.8115
 20
4.3616
  0
VERTEX
  8
0
 10
2.8172
 20
4.4561
  0
VERTEX
  8
0
 10
2.817
 20
4.4722
  0
VERTEX
  8
0
 10
2.8164
 20
4.4865
  0
VERTEX
  8
0
 10
2.7927
 20
4.4526
  0
VERTEX
  8
0
 10
2.7667
 20
4.4226
  0
VERTEX
  8
0
 10
2.7385
 20
4.3966
  0
VERTEX
  8
0
 10
2.708
 20
4.3746
  0
VERTEX
  8
0
 10
2.6753
 20
4.3565
  0
VERTEX
  8
0
 10
2.6404
 20
4.3424
  0
VERTEX
  8
0
 10
2.6032
 20
4.3323
  0
VERTEX
  8
0
 10
2.5637
 20
4.3262
  0
VERTEX
  8
0
 10
2.5221
 20
4.324
  0
VERTEX
  8
0
 10
2.4686
 20
4.3271
  0
VERTEX
  8
0
 10
2.4187
 20
4.3371
  0
VERTEX
  8
0
 10
2.3722
 20
4.3538
  0
VERTEX
  8
0
 10
2.3293
 20
4.3774
  0
VERTEX
  8
0
 10
2.2898
 20
4.4077
  0
VERTEX
  8
0
 10
2.2539
 20
4.4449
  0
VERTEX
  8
0
 10
2.2191
 20
4.4933
  0
VERTEX
  8
0
 10
2.192
 20
4.546
  0
VERTEX
  8
0
 10
2.1727
 20
4.603
  0
VERTEX
  8
0
 10
2.1611
 20
4.6642
  0
VERTEX
  8
0
 10
2.1572
 20
4.7297
  0
VERTEX
  8
0
 10
2.1603
 20
4.7907
  0
VERTEX
  8
0
 10
2.1695
 20
4.8475
  0
VERTEX
  8
0
 10
2.1848
 20
4.9002
  0
VERTEX
  8
0
 10
2.2062
 20
4.9487
  0
VERTEX
  8
0
 10
2.2338
 20
4.9929
  0
VERTEX
  8
0
 10
2.2675
 20
5.0331
  0
VERTEX
  8
0
 10
2.3059
 20
5.0679
  0
VERTEX
  8
0
 10
2.3475
 20
5.0965
  0
VERTEX
  8
0
 10
2.3922
 20
5.1188
  0
VERTEX
  8
0
 10
2.4401
 20
5.1348
  0
VERTEX
  8
0
 10
2.4912
 20
5.1446
  0
VERTEX
  8
0
 10
2.5455
 20
5.148
  0
VERTEX
  8
0
 10
2.6257
 20
5.1409
  0
VERTEX
  8
0
 10
2.7001
 20
5.1187
  0
VERTEX
  8
0
 10
2.7687
 20
5.0813
  0
VERTEX
  8
0
 10
2.829
 20
5.0308
  0
VERTEX
  8
0
 10
2.8784
 20
4.9695
  0
VERTEX
  8
0
 10
2.9169
 20
4.8972
  0
VERTEX
  8
0
 10
2.9358
 20
4.8447
  0
VERTEX
  8
0
 10
2.9504
 20
4.7836
  0
VERTEX
  8
0
 10
2.9608
 20
4.7141
  0
VERTEX
  8
0
 10
2.9671
 20
4.636
  0
VERTEX
  8
0
 10
2.9692
 20
4.5494
  0
VERTEX
  8
0
 10
2.9686
 20
4.5009
  0
VERTEX
  8
0
 10
2.9667
 20
4.4543
  0
VERTEX
  8
0
 10
2.9635
 20
4.4096
  0
VERTEX
  8
0
 10
2.9591
 20
4.3666
  0
VERTEX
  8
0
 10
2.9534
 20
4.3255
  0
VERTEX
  8
0
 10
2.9465
 20
4.2862
  0
VERTEX
  8
0
 10
2.9382
 20
4.2488
  0
VERTEX
  8
0
 10
2.9288
 20
4.2131
  0
VERTEX
  8
0
 10
2.918
 20
4.1793
  0
VERTEX
  8
0
 10
2.906
 20
4.1474
  0
VERTEX
  8
0
 10
2.8928
 20
4.1172
  0
VERTEX
  8
0
 10
2.8782
 20
4.0889
  0
VERTEX
  8
0
 10
2.8624
 20
4.0624
  0
VERTEX
  8
0
 10
2.8454
 20
4.0378
  0
VERTEX
  8
0
 10
2.8271
 20
4.0149
  0
VERTEX
  8
0
 10
2.8075
 20
3.9939
  0
VERTEX
  8
0
 10
2.7866
 20
3.9748
  0
VERTEX
  8
0
 10
2.7645
 20
3.9574
  0
VERTEX
  8
0
 10
2.7118
 20
3.9253
  0
VERTEX
  8
0
 10
2.6546
 20
3.9024
  0
VERTEX
  8
0
 10
2.593
 20
3.8886
  0
VERTEX
  8
0
 10
2.527
 20
3.884
  0
VERTEX
  8
0
 10
2.4708
 20
3.8858
  0
VERTEX
  8
0
 10
2.4203
 20
3.8912
  0
VERTEX
  8
0
 10
2.3754
 20
3.9002
  0
VERTEX
  8
0
 10
2.336
 20
3.9128
  0
VERTEX
  8
0
 10
2.3023
 20
3.929
  0
VERTEX
  8
0
 10
2.2743
 20
3.9487
  0
VERTEX
  8
0
 10
2.2301
 20
3.9915
  0
VERTEX
  8
0
 10
2.197
 20
4.0349
  0
VERTEX
  8
0
 10
2.1749
 20
4.0789
  0
VERTEX
  8
0
 10
2.1639
 20
4.1236
  0
VERTEX
  8
0
 10
2.1639
 20
4.1236
  0
SEQEND
  0
POLYLINE
  8
0
 66
     1
 10
0
 20
0
  0
VERTEX
  8
0
 10
2.8012
 20
4.7391
  0
VERTEX
  8
0
 10
2.7946
 20
4.8122
  0
VERTEX
  8
0
 10
2.7746
 20
4.8773
  0
VERTEX
  8
0
 10
2.7414
 20
4.9344
  0
VERTEX
  8
0
 10
2.7057
 20
4.9733
  0
VERTEX
  8
0
 10
2.6643
 20
5.0012
  0
VERTEX
  8
0
 10
2.6172
 20
5.0181
  0
VERTEX
  8
0
 10
2.5644
 20
5.024
  0
VERTEX
  8
0
 10
2.5205
 20
5.0205
  0
VERTEX
  8
0
 10
2.4801
 20
5.0094
  0
VERTEX
  8
0
 10
2.443
 20
4.9906
  0
VERTEX
  8
0
 10
2.4093
 20
4.9642
  0
VERTEX
  8
0
 10
2.3789
 20
4.9301
  0
VERTEX
  8
0
 10
2.3428
 20
4.8695
  0
VERTEX
  8
0
 10
2.3209
 20
4.8016
  0
VERTEX
  8
0
 10
2.3132
 20
4.7264
  0
VERTEX
  8
0
 10
2.3202
 20
4.6551
  0
VERTEX
  8
0
 10
2.3424
 20
4.5922
  0
VERTEX
  8
0
 10
2.3798
 20
4.5378
  0
VERTEX
  8
0
 10
2.417
 20
4.5038
  0
VERTEX
  8
0
 10
2.4594
 20
4.4794
  0
VERTEX
  8
0
 10
2.5071
 20
4.4649
  0
VERTEX
  8
0
 10
2.5601
 20
4.46
  0
VERTEX
  8
0
 10
2.6151
 20
4.4652
  0
VERTEX
  8
0
 10
2.6636
 20
4.4807
  0
VERTEX
  8
0
 10
2.7057
 20
4.5066
  0
VERTEX
  8
0
 10
2.7414
 20
4.5429
  0
VERTEX
  8
0
 10
2.7746
 20
4.5989
  0
VERTEX
  8
0
 10
2.7946
 20
4.6643
  0
VERTEX
  8
0
 10
2.8012
 20
4.7391
  0
VERTEX
  8
0
 10
2.8012
 20
4.7391
  0
SEQEND
  0
POLYLINE
  8
0
 66
     1
 10
0
 20
0
  0
VERTEX
  8
0
 10
3.1292
 20
4.976
  0
VERTEX
  8
0
 10
3.1292
 20
5.124
  0
VERTEX
  8
0
 10
3.9304
 20
5.124
  0
VERTEX
  8
0
 10
3.9304
 20
5.0056
  0
VERTEX
  8
0
 10
3.8714
 20
4.9374
  0
VERTEX
  8
0
 10
3.8126
 20
4.8588
  0
VERTEX
  8
0
 10
3.7541
 20
4.7699
  0
VERTEX
  8
0
 10
3.6957
 20
4.6706
  0
VERTEX
  8
0
 10
3.5948
 20
4.4629
  0
VERTEX
  8
0
 10
3.5167
 20
4.2409
  0
VERTEX
  8
0
 10
3.4794
 20
4.0774
  0
VERTEX
  8
0
 10
3.4584
 20
3.9
  0
VERTEX
  8
0
 10
3.3023
 20
3.9
  0
VERTEX
  8
0
 10
3.3112
 20
4.0203
  0
VERTEX
  8
0
 10
3.3334
 20
4.1492
  0
VERTEX
  8
0
 10
3.3689
 20
4.2868
  0
VERTEX
  8
0
 10
3.4346
 20
4.476
  0
VERTEX
  8
0
 10
3.5167
 20
4.6517
  0
VERTEX
  8
0
 10
3.5868
 20
4.7737
  0
VERTEX
  8
0
 10
3.6597
 20
4.8818
  0
VERTEX
  8
0
 10
3.7354
 20
4.976
  0
VERTEX
  8
0
 10
3.1292
 20
4.976
  0
SEQEND
  0
LINE
  8
0
 10
2.3852
 20
6
 11
3.3704
 21
6
  0
LINE
  8
0
 10
2.8338
 20
5.7317
 11
3.3704
 21
6
  0
LINE
  8
0
 10
2.8338
 20
6.2683
 11
3.3704
 21
6
  0
LINE
  8
0
 10
3.3704
 20
5.7
 11
3.3704
 21
7.5
  0
LINE
  8
0
 10
2.3852
 20
6
 11
1.4
 21
6
  0
LINE
  8
0
 10
1.9367
 20
6.2683
 11
1.4
 21
6
  0
LINE
  8
0
 10
1.9367
 20
5.7317
 11
1.4
 21
6
  0
LINE
  8
0
 10
1.4
 20
5.7
 11
1.4
 21
7.5
  0
POLYLINE
  8
0
 66
     1
 10
0
 20
0
  0
VERTEX
  8
0
 10
12.1132
 20
5.548
  0
VERTEX
  8
0
 10
12.1132
 20
5.4
  0
VERTEX
  8
0
 10
11.2972
 20
5.4
  0
VERTEX
  8
0
 10
11.2995
 20
5.4437
  0
VERTEX
  8
0
 10
11.3087
 20
5.488
  0
VERTEX
  8
0
 10
11.3248
 20
5.533
  0
VERTEX
  8
0
 10
11.3478
 20
5.5786
  0
VERTEX
  8
0
 10
11.3777
 20
5.6249
  0
VERTEX
  8
0
 10
11.4145
 20
5.6719
  0
VERTEX
  8
0
 10
11.4678
 20
5.7298
  0
VERTEX
  8
0
 10
11.5342
 20
5.7927
  0
VERTEX
  8
0
 10
11.6137
 20
5.8605
  0
VERTEX
  8
0
 10
11.6707
 20
5.908
  0
VERTEX
  8
0
 10
11.7208
 20
5.9513
  0
VERTEX
  8
0
 10
11.764
 20
5.9904
  0
VERTEX
  8
0
 10
11.8003
 20
6.0252
  0
VERTEX
  8
0
 10
11.8298
 20
6.0559
  0
VERTEX
  8
0
 10
11.8687
 20
6.1016
  0
VERTEX
  8
0
 10
11.9006
 20
6.1458
  0
VERTEX
  8
0
 10
11.9253
 20
6.1886
  0
VERTEX
  8
0
 10
11.943
 20
6.2299
  0
VERTEX
  8
0
 10
11.9537
 20
6.2698
  0
VERTEX
  8
0
 10
11.9572
 20
6.3082
  0
VERTEX
  8
0
 10
11.9495
 20
6.3687
  0
VERTEX
  8
0
 10
11.9264
 20
6.4211
  0
VERTEX
  8
0
 10
11.888
 20
6.4654
  0
VERTEX
  8
0
 10
11.8406
 20
6.4976
  0
VERTEX
  8
0
 10
11.786
 20
6.5171
  0
VERTEX
  8
0
 10
11.7243
 20
6.524
  0
VERTEX
  8
0
 10
11.6708
 20
6.5201
  0
VERTEX
  8
0
 10
11.6234
 20
6.5076
  0
VERTEX
  8
0
 10
11.5822
 20
6.4863
  0
VERTEX
  8
0
 10
11.547
 20
6.4565
  0
VERTEX
  8
0
 10
11.5113
 20
6.4056
  0
VERTEX
  8
0
 10
11.4897
 20
6.3444
  0
VERTEX
  8
0
 10
11.4821
 20
6.2727
  0
VERTEX
  8
0
 10
11.3259
 20
6.2888
  0
VERTEX
  8
0
 10
11.3335
 20
6.3447
  0
VERTEX
  8
0
 10
11.3461
 20
6.396
  0
VERTEX
  8
0
 10
11.3637
 20
6.4428
  0
VERTEX
  8
0
 10
11.3863
 20
6.485
  0
VERTEX
  8
0
 10
11.414
 20
6.5226
  0
VERTEX
  8
0
 10
11.4466
 20
6.5557
  0
VERTEX
  8
0
 10
11.4916
 20
6.5889
  0
VERTEX
  8
0
 10
11.5422
 20
6.6148
  0
VERTEX
  8
0
 10
11.5984
 20
6.6332
  0
VERTEX
  8
0
 10
11.6602
 20
6.6443
  0
VERTEX
  8
0
 10
11.7276
 20
6.648
  0
VERTEX
  8
0
 10
11.7908
 20
6.6444
  0
VERTEX
  8
0
 10
11.8495
 20
6.6338
  0
VERTEX
  8
0
 10
11.9037
 20
6.616
  0
VERTEX
  8
0
 10
11.9533
 20
6.5911
  0
VERTEX
  8
0
 10
11.9984
 20
6.5591
  0
VERTEX
  8
0
 10
12.0335
 20
6.5256
  0
VERTEX
  8
0
 10
12.0622
 20
6.4885
  0
VERTEX
  8
0
 10
12.0845
 20
6.4477
  0
VERTEX
  8
0
 10
12.1004
 20
6.4033
  0
VERTEX
  8
0
 10
12.11
 20
6.3552
  0
VERTEX
  8
0
 10
12.1132
 20
6.3034
  0
VERTEX
  8
0
 10
12.1095
 20
6.2539
  0
VERTEX
  8
0
 10
12.0986
 20
6.2044
  0
VERTEX
  8
0
 10
12.0803
 20
6.1547
  0
VERTEX
  8
0
 10
12.0547
 20
6.105
  0
VERTEX
  8
0
 10
12.0218
 20
6.0552
  0
VERTEX
  8
0
 10
11.9816
 20
6.0052
  0
VERTEX
  8
0
 10
11.949
 20
5.9702
  0
VERTEX
  8
0
 10
11.9094
 20
5.9309
  0
VERTEX
  8
0
 10
11.8626
 20
5.8872
  0
VERTEX
  8
0
 10
11.8088
 20
5.8392
  0
VERTEX
  8
0
 10
11.7479
 20
5.7868
  0
VERTEX
  8
0
 10
11.7076
 20
5.7528
  0
VERTEX
  8
0
 10
11.6746
 20
5.7247
  0
VERTEX
  8
0
 10
11.6487
 20
5.7026
  0
VERTEX
  8
0
 10
11.6301
 20
5.6863
  0
VERTEX
  8
0
 10
11.6188
 20
5.6759
  0
VERTEX
  8
0
 10
11.5557
 20
5.6109
  0
VERTEX
  8
0
 10
11.5083
 20
5.548
  0
VERTEX
  8
0
 10
12.1132
 20
5.548
  0
SEQEND
  0
POLYLINE
  8
0
 66
     1
 10
0
 20
0
  0
VERTEX
  8
0
 10
12.2772
 20
6.0156
  0
VERTEX
  8
0
 10
12.2779
 20
6.0661
  0
VERTEX
  8
0
 10
12.28
 20
6.1146
  0
VERTEX
  8
0
 10
12.2835
 20
6.161
  0
VERTEX
  8
0
 10
12.2884
 20
6.2054
  0
VERTEX
  8
0
 10
12.2947
 20
6.2476
  0
VERTEX
  8
0
 10
12.3024
 20
6.2878
  0
VERTEX
  8
0
 10
12.3115
 20
6.3259
  0
VERTEX
  8
0
 10
12.322
 20
6.3619
  0
VERTEX
  8
0
 10
12.3339
 20
6.3959
  0
VERTEX
  8
0
 10
12.3472
 20
6.4278
  0
VERTEX
  8
0
 10
12.3619
 20
6.4576
  0
VERTEX
  8
0
 10
12.378
 20
6.4853
  0
VERTEX
  8
0
 10
12.3955
 20
6.5109
  0
VERTEX
  8
0
 10
12.4144
 20
6.5345
  0
VERTEX
  8
0
 10
12.4347
 20
6.556
  0
VERTEX
  8
0
 10
12.4564
 20
6.5754
  0
VERTEX
  8
0
 10
12.5034
 20
6.6068
  0
VERTEX
  8
0
 10
12.5565
 20
6.6294
  0
VERTEX
  8
0
 10
12.6158
 20
6.6431
  0
VERTEX
  8
0
 10
12.6812
 20
6.648
  0
VERTEX
  8
0
 10
12.7735
 20
6.6383
  0
VERTEX
  8
0
 10
12.8561
 20
6.6075
  0
VERTEX
  8
0
 10
12.8903
 20
6.5864
  0
VERTEX
  8
0
 10
12.922
 20
6.5606
  0
VERTEX
  8
0
 10
12.951
 20
6.5301
  0
VERTEX
  8
0
 10
12.9774
 20
6.495
  0
VERTEX
  8
0
 10
13.0013
 20
6.4552
  0
VERTEX
  8
0
 10
13.0226
 20
6.4107
  0
VERTEX
  8
0
 10
13.0412
 20
6.3616
  0
VERTEX
  8
0
 10
13.0573
 20
6.3077
  0
VERTEX
  8
0
 10
13.0695
 20
6.2496
  0
VERTEX
  8
0
 10
13.0782
 20
6.1815
  0
VERTEX
  8
0
 10
13.0835
 20
6.1035
  0
VERTEX
  8
0
 10
13.0852
 20
6.0156
  0
VERTEX
  8
0
 10
13.0844
 20
5.9618
  0
VERTEX
  8
0
 10
13.082
 20
5.9104
  0
VERTEX
  8
0
 10
13.078
 20
5.8614
  0
VERTEX
  8
0
 10
13.0725
 20
5.8147
  0
VERTEX
  8
0
 10
13.0653
 20
5.7703
  0
VERTEX
  8
0
 10
13.0565
 20
5.7284
  0
VERTEX
  8
0
 10
13.0462
 20
5.6888
  0
VERTEX
  8
0
 10
13.0342
 20
5.6515
  0
VERTEX
  8
0
 10
13.0207
 20
5.6166
  0
VERTEX
  8
0
 10
13.0056
 20
5.584
  0
VERTEX
  8
0
 10
12.9888
 20
5.5538
  0
VERTEX
  8
0
 10
12.9705
 20
5.526
  0
VERTEX
  8
0
 10
12.9506
 20
5.5005
  0
VERTEX
  8
0
 10
12.9291
 20
5.4774
  0
VERTEX
  8
0
 10
12.906
 20
5.4566
  0
VERTEX
  8
0
 10
12.859
 20
5.4252
  0
VERTEX
  8
0
 10
12.8059
 20
5.4026
  0
VERTEX
  8
0
 10
12.7466
 20
5.3889
  0
VERTEX
  8
0
 10
12.6812
 20
5.384
  0
VERTEX
  8
0
 10
12.6597
 20
5.3844
  0
VERTEX
  8
0
 10
12.6388
 20
5.3857
  0
VERTEX
  8
0
 10
12.6185
 20
5.3879
  0
VERTEX
  8
0
 10
12.5987
 20
5.3911
  0
VERTEX
  8
0
 10
12.5796
 20
5.3951
  0
VERTEX
  8
0
 10
12.561
 20
5.4001
  0
VERTEX
  8
0
 10
12.5431
 20
5.4061
  0
VERTEX
  8
0
 10
12.5257
 20
5.4129
  0
VERTEX
  8
0
 10
12.5089
 20
5.4207
  0
VERTEX
  8
0
 10
12.4927
 20
5.4295
  0
VERTEX
  8
0
 10
12.4771
 20
5.4391
  0
VERTEX
  8
0
 10
12.462
 20
5.4497
  0
VERTEX
  8
0
 10
12.4476
 20
5.4612
  0
VERTEX
  8
0
 10
12.4337
 20
5.4736
  0
VERTEX
  8
0
 10
12.4204
 20
5.487
  0
VERTEX
  8
0
 10
12.4078
 20
5.5013
  0
VERTEX
  8
0
 10
12.3957
 20
5.5165
  0
VERTEX
  8
0
 10
12.3842
 20
5.5326
  0
VERTEX
  8
0
 10
12.3732
 20
5.5497
  0
VERTEX
  8
0
 10
12.3629
 20
5.5677
  0
VERTEX
  8
0
 10
12.3532
 20
5.5866
  0
VERTEX
  8
0
 10
12.344
 20
5.6065
  0
VERTEX
  8
0
 10
12.3354
 20
5.6272
  0
VERTEX
  8
0
 10
12.3275
 20
5.649
  0
VERTEX
  8
0
 10
12.3201
 20
5.6716
  0
VERTEX
  8
0
 10
12.3133
 20
5.6952
  0
VERTEX
  8
0
 10
12.3071
 20
5.7196
  0
VERTEX
  8
0
 10
12.3014
 20
5.7451
  0
VERTEX
  8
0
 10
12.2964
 20
5.7714
  0
VERTEX
  8
0
 10
12.2919
 20
5.7987
  0
VERTEX
  8
0
 10
12.2881
 20
5.8269
  0
VERTEX
  8
0
 10
12.2848
 20
5.856
  0
VERTEX
  8
0
 10
12.2821
 20
5.8861
  0
VERTEX
  8
0
 10
12.28
 20
5.917
  0
VERTEX
  8
0
 10
12.2785
 20
5.949
  0
VERTEX
  8
0
 10
12.2775
 20
5.9818
  0
VERTEX
  8
0
 10
12.2772
 20
6.0156
  0
VERTEX
  8
0
 10
12.2772
 20
6.0156
  0
SEQEND
  0
POLYLINE
  8
0
 66
     1
 10
0
 20
0
  0
VERTEX
  8
0
 10
12.4332
 20
6.016
  0
VERTEX
  8
0
 10
12.4345
 20
5.937
  0
VERTEX
  8
0
 10
12.4385
 20
5.8658
  0
VERTEX
  8
0
 10
12.4451
 20
5.8024
  0
VERTEX
  8
0
 10
12.4543
 20
5.747
  0
VERTEX
  8
0
 10
12.4662
 20
5.6994
  0
VERTEX
  8
0
 10
12.4786
 20
5.6632
  0
VERTEX
  8
0
 10
12.493
 20
5.6308
  0
VERTEX
  8
0
 10
12.5094
 20
5.6021
  0
VERTEX
  8
0
 10
12.5278
 20
5.5773
  0
VERTEX
  8
0
 10
12.5483
 20
5.5563
  0
VERTEX
  8
0
 10
12.5708
 20
5.539
  0
VERTEX
  8
0
 10
12.5954
 20
5.5256
  0
VERTEX
  8
0
 10
12.622
 20
5.5159
  0
VERTEX
  8
0
 10
12.6506
 20
5.5101
  0
VERTEX
  8
0
 10
12.6812
 20
5.508
  0
VERTEX
  8
0
 10
12.6986
 20
5.5085
  0
VERTEX
  8
0
 10
12.7154
 20
5.5104
  0
VERTEX
  8
0
 10
12.7315
 20
5.5135
  0
VERTEX
  8
0
 10
12.747
 20
5.518
  0
VERTEX
  8
0
 10
12.7619
 20
5.5237
  0
VERTEX
  8
0
 10
12.7761
 20
5.5308
  0
VERTEX
  8
0
 10
12.7897
 20
5.5391
  0
VERTEX
  8
0
 10
12.8027
 20
5.5488
  0
VERTEX
  8
0
 10
12.815
 20
5.5597
  0
VERTEX
  8
0
 10
12.8267
 20
5.572
  0
VERTEX
  8
0
 10
12.8378
 20
5.5856
  0
VERTEX
  8
0
 10
12.8482
 20
5.6005
  0
VERTEX
  8
0
 10
12.858
 20
5.6167
  0
VERTEX
  8
0
 10
12.8672
 20
5.6342
  0
VERTEX
  8
0
 10
12.8757
 20
5.6529
  0
VERTEX
  8
0
 10
12.8836
 20
5.673
  0
VERTEX
  8
0
 10
12.8909
 20
5.6945
  0
VERTEX
  8
0
 10
12.8976
 20
5.7172
  0
VERTEX
  8
0
 10
12.9036
 20
5.7412
  0
VERTEX
  8
0
 10
12.909
 20
5.7665
  0
VERTEX
  8
0
 10
12.9137
 20
5.7931
  0
VERTEX
  8
0
 10
12.9178
 20
5.821
  0
VERTEX
  8
0
 10
12.9213
 20
5.8503
  0
VERTEX
  8
0
 10
12.9241
 20
5.8808
  0
VERTEX
  8
0
 10
12.9263
 20
5.9126
  0
VERTEX
  8
0
 10
12.9279
 20
5.9458
  0
VERTEX
  8
0
 10
12.9289
 20
5.9802
  0
VERTEX
  8
0
 10
12.9292
 20
6.016
  0
VERTEX
  8
0
 10
12.9279
 20
6.095
  0
VERTEX
  8
0
 10
12.9239
 20
6.1662
  0
VERTEX
  8
0
 10
12.9173
 20
6.2296
  0
VERTEX
  8
0
 10
12.9081
 20
6.285
  0
VERTEX
  8
0
 10
12.8962
 20
6.3326
  0
VERTEX
  8
0
 10
12.8837
 20
6.3688
  0
VERTEX
  8
0
 10
12.8691
 20
6.4012
  0
VERTEX
  8
0
 10
12.8525
 20
6.4299
  0
VERTEX
  8
0
 10
12.8339
 20
6.4547
  0
VERTEX
  8
0
 10
12.8132
 20
6.4757
  0
VERTEX
  8
0
 10
12.7906
 20
6.493
  0
VERTEX
  8
0
 10
12.7658
 20
6.5064
  0
VERTEX
  8
0
 10
12.7391
 20
6.5161
  0
VERTEX
  8
0
 10
12.7103
 20
6.5219
  0
VERTEX
  8
0
 10
12.6795
 20
6.524
  0
VERTEX
  8
0
 10
12.6297
 20
6.5188
  0
VERTEX
  8
0
 10
12.5851
 20
6.5022
  0
VERTEX
  8
0
 10
12.5459
 20
6.4743
  0
VERTEX
  8
0
 10
12.5119
 20
6.4351
  0
VERTEX
  8
0
 10
12.4969
 20
6.4108
  0
VERTEX
  8
0
 10
12.4836
 20
6.3826
  0
VERTEX
  8
0
 10
12.4718
 20
6.3504
  0
VERTEX
  8
0
 10
12.4615
 20
6.3144
  0
VERTEX
  8
0
 10
12.4529
 20
6.2744
  0
VERTEX
  8
0
 10
12.4458
 20
6.2306
  0
VERTEX
  8
0
 10
12.4403
 20
6.1828
  0
VERTEX
  8
0
 10
12.4363
 20
6.1311
  0
VERTEX
  8
0
 10
12.434
 20
6.0755
  0
VERTEX
  8
0
 10
12.4332
 20
6.016
  0
VERTEX
  8
0
 10
12.4332
 20
6.016
  0
SEQEND
  0
POLYLINE
  8
0
 66
     1
 10
0
 20
0
  0
VERTEX
  8
0
 10
13.3212
 20
5.4
  0
VERTEX
  8
0
 10
13.3212
 20
5.576
  0
VERTEX
  8
0
 10
13.4932
 20
5.576
  0
VERTEX
  8
0
 10
13.4932
 20
5.4
  0
VERTEX
  8
0
 10
13.3212
 20
5.4
  0
SEQEND
  0
POLYLINE
  8
0
 66
     1
 10
0
 20
0
  0
VERTEX
  8
0
 10
13.7252
 20
6.0156
  0
VERTEX
  8
0
 10
13.7259
 20
6.0661
  0
VERTEX
  8
0
 10
13.728
 20
6.1146
  0
VERTEX
  8
0
 10
13.7315
 20
6.161
  0
VERTEX
  8
0
 10
13.7364
 20
6.2054
  0
VERTEX
  8
0
 10
13.7427
 20
6.2476
  0
VERTEX
  8
0
 10
13.7504
 20
6.2878
  0
VERTEX
  8
0
 10
13.7595
 20
6.3259
  0
VERTEX
  8
0
 10
13.77
 20
6.3619
  0
VERTEX
  8
0
 10
13.7819
 20
6.3959
  0
VERTEX
  8
0
 10
13.7952
 20
6.4278
  0
VERTEX
  8
0
 10
13.8099
 20
6.4576
  0
VERTEX
  8
0
 10
13.826
 20
6.4853
  0
VERTEX
  8
0
 10
13.8435
 20
6.5109
  0
VERTEX
  8
0
 10
13.8624
 20
6.5345
  0
VERTEX
  8
0
 10
13.8827
 20
6.556
  0
VERTEX
  8
0
 10
13.9044
 20
6.5754
  0
VERTEX
  8
0
 10
13.9514
 20
6.6068
  0
VERTEX
  8
0
 10
14.0045
 20
6.6294
  0
VERTEX
  8
0
 10
14.0638
 20
6.6431
  0
VERTEX
  8
0
 10
14.1292
 20
6.648
  0
VERTEX
  8
0
 10
14.2215
 20
6.6383
  0
VERTEX
  8
0
 10
14.3041
 20
6.6075
  0
VERTEX
  8
0
 10
14.3383
 20
6.5864
  0
VERTEX
  8
0
 10
14.37
 20
6.5606
  0
VERTEX
  8
0
 10
14.399
 20
6.5301
  0
VERTEX
  8
0
 10
14.4254
 20
6.495
  0
VERTEX
  8
0
 10
14.4493
 20
6.4552
  0
VERTEX
  8
0
 10
14.4706
 20
6.4107
  0
VERTEX
  8
0
 10
14.4892
 20
6.3616
  0
VERTEX
  8
0
 10
14.5053
 20
6.3077
  0
VERTEX
  8
0
 10
14.5175
 20
6.2496
  0
VERTEX
  8
0
 10
14.5262
 20
6.1815
  0
VERTEX
  8
0
 10
14.5315
 20
6.1035
  0
VERTEX
  8
0
 10
14.5332
 20
6.0156
  0
VERTEX
  8
0
 10
14.5324
 20
5.9618
  0
VERTEX
  8
0
 10
14.53
 20
5.9104
  0
VERTEX
  8
0
 10
14.526
 20
5.8614
  0
VERTEX
  8
0
 10
14.5205
 20
5.8147
  0
VERTEX
  8
0
 10
14.5133
 20
5.7703
  0
VERTEX
  8
0
 10
14.5045
 20
5.7284
  0
VERTEX
  8
0
 10
14.4942
 20
5.6888
  0
VERTEX
  8
0
 10
14.4822
 20
5.6515
  0
VERTEX
  8
0
 10
14.4687
 20
5.6166
  0
VERTEX
  8
0
 10
14.4536
 20
5.584
  0
VERTEX
  8
0
 10
14.4368
 20
5.5538
  0
VERTEX
  8
0
 10
14.4185
 20
5.526
  0
VERTEX
  8
0
 10
14.3986
 20
5.5005
  0
VERTEX
  8
0
 10
14.3771
 20
5.4774
  0
VERTEX
  8
0
 10
14.354
 20
5.4566
  0
VERTEX
  8
0
 10
14.307
 20
5.4252
  0
VERTEX
  8
0
 10
14.2539
 20
5.4026
  0
VERTEX
  8
0
 10
14.1946
 20
5.3889
  0
VERTEX
  8
0
 10
14.1292
 20
5.384
  0
VERTEX
  8
0
 10
14.1077
 20
5.3844
  0
VERTEX
  8
0
 10
14.0868
 20
5.3857
  0
VERTEX
  8
0
 10
14.0665
 20
5.3879
  0
VERTEX
  8
0
 10
14.0467
 20
5.3911
  0
VERTEX
  8
0
 10
14.0276
 20
5.3951
  0
VERTEX
  8
0
 10
14.009
 20
5.4001
  0
VERTEX
  8
0
 10
13.9911
 20
5.4061
  0
VERTEX
  8
0
 10
13.9737
 20
5.4129
  0
VERTEX
  8
0
 10
13.9569
 20
5.4207
  0
VERTEX
  8
0
 10
13.9407
 20
5.4295
  0
VERTEX
  8
0
 10
13.9251
 20
5.4391
  0
VERTEX
  8
0
 10
13.91
 20
5.4497
  0
VERTEX
  8
0
 10
13.8956
 20
5.4612
  0
VERTEX
  8
0
 10
13.8817
 20
5.4736
  0
VERTEX
  8
0
 10
13.8684
 20
5.487
  0
VERTEX
  8
0
 10
13.8558
 20
5.5013
  0
VERTEX
  8
0
 10
13.8437
 20
5.5165
  0
VERTEX
  8
0
 10
13.8322
 20
5.5326
  0
VERTEX
  8
0
 10
13.8212
 20
5.5497
  0
VERTEX
  8
0
 10
13.8109
 20
5.5677
  0
VERTEX
  8
0
 10
13.8012
 20
5.5866
  0
VERTEX
  8
0
 10
13.792
 20
5.6065
  0
VERTEX
  8
0
 10
13.7834
 20
5.6272
  0
VERTEX
  8
0
 10
13.7755
 20
5.649
  0
VERTEX
  8
0
 10
13.7681
 20
5.6716
  0
VERTEX
  8
0
 10
13.7613
 20
5.6952
  0
VERTEX
  8
0
 10
13.7551
 20
5.7196
  0
VERTEX
  8
0
 10
13.7494
 20
5.7451
  0
VERTEX
  8
0
 10
13.7444
 20
5.7714
  0
VERTEX
  8
0
 10
13.7399
 20
5.7987
  0
VERTEX
  8
0
 10
13.7361
 20
5.8269
  0
VERTEX
  8
0
 10
13.7328
 20
5.856
  0
VERTEX
  8
0
 10
13.7301
 20
5.8861
  0
VERTEX
  8
0
 10
13.728
 20
5.917
  0
VERTEX
  8
0
 10
13.7265
 20
5.949
  0
VERTEX
  8
0
 10
13.7255
 20
5.9818
  0
VERTEX
  8
0
 10
13.7252
 20
6.0156
  0
VERTEX
  8
0
 10
13.7252
 20
6.0156
  0
SEQEND
  0
POLYLINE
  8
0
 66
     1
 10
0
 20
0
  0
VERTEX
  8
0
 10
13.8812
 20
6.016
  0
VERTEX
  8
0
 10
13.8825
 20
5.937
  0
VERTEX
  8
0
 10
13.8865
 20
5.8658
  0
VERTEX
  8
0
 10
13.8931
 20
5.8024
  0
VERTEX
  8
0
 10
13.9023
 20
5.747
  0
VERTEX
  8
0
 10
13.9142
 20
5.6994
  0
VERTEX
  8
0
 10
13.9266
 20
5.6632
  0
VERTEX
  8
0
 10
13.941
 20
5.6308
  0
VERTEX
  8
0
 10
13.9574
 20
5.6021
  0
VERTEX
  8
0
 10
13.9758
 20
5.5773
  0
VERTEX
  8
0
 10
13.9963
 20
5.5563
  0
VERTEX
  8
0
 10
14.0188
 20
5.539
  0
VERTEX
  8
0
 10
14.0434
 20
5.5256
  0
VERTEX
  8
0
 10
14.07
 20
5.5159
  0
VERTEX
  8
0
 10
14.0986
 20
5.5101
  0
VERTEX
  8
0
 10
14.1292
 20
5.508
  0
VERTEX
  8
0
 10
14.1466
 20
5.5085
  0
VERTEX
  8
0
 10
14.1634
 20
5.5104
  0
VERTEX
  8
0
 10
14.1795
 20
5.5135
  0
VERTEX
  8
0
 10
14.195
 20
5.518
  0
VERTEX
  8
0
 10
14.2099
 20
5.5237
  0
VERTEX
  8
0
 10
14.2241
 20
5.5308
  0
VERTEX
  8
0
 10
14.2377
 20
5.5391
  0
VERTEX
  8
0
 10
14.2507
 20
5.5488
  0
VERTEX
  8
0
 10
14.263
 20
5.5597
  0
VERTEX
  8
0
 10
14.2747
 20
5.572
  0
VERTEX
  8
0
 10
14.2858
 20
5.5856
  0
VERTEX
  8
0
 10
14.2962
 20
5.6005
  0
VERTEX
  8
0
 10
14.306
 20
5.6167
  0
VERTEX
  8
0
 10
14.3152
 20
5.6342
  0
VERTEX
  8
0
 10
14.3237
 20
5.6529
  0
VERTEX
  8
0
 10
14.3316
 20
5.673
  0
VERTEX
  8
0
 10
14.3389
 20
5.6945
  0
VERTEX
  8
0
 10
14.3456
 20
5.7172
  0
VERTEX
  8
0
 10
14.3516
 20
5.7412
  0
VERTEX
  8
0
 10
14.357
 20
5.7665
  0
VERTEX
  8
0
 10
14.3617
 20
5.7931
  0
VERTEX
  8
0
 10
14.3658
 20
5.821
  0
VERTEX
  8
0
 10
14.3693
 20
5.8503
  0
VERTEX
  8
0
 10
14.3721
 20
5.8808
  0
VERTEX
  8
0
 10
14.3743
 20
5.9126
  0
VERTEX
  8
0
 10
14.3759
 20
5.9458
  0
VERTEX
  8
0
 10
14.3769
 20
5.9802
  0
VERTEX
  8
0
 10
14.3772
 20
6.016
  0
VERTEX
  8
0
 10
14.3759
 20
6.095
  0
VERTEX
  8
0
 10
14.3719
 20
6.1662
  0
VERTEX
  8
0
 10
14.3653
 20
6.2296
  0
VERTEX
  8
0
 10
14.3561
 20
6.285
  0
VERTEX
  8
0
 10
14.3442
 20
6.3326
  0
VERTEX
  8
0
 10
14.3317
 20
6.3688
  0
VERTEX
  8
0
 10
14.3171
 20
6.4012
  0
VERTEX
  8
0
 10
14.3005
 20
6.4299
  0
VERTEX
  8
0
 10
14.2819
 20
6.4547
  0
VERTEX
  8
0
 10
14.2612
 20
6.4757
  0
VERTEX
  8
0
 10
14.2386
 20
6.493
  0
VERTEX
  8
0
 10
14.2138
 20
6.5064
  0
VERTEX
  8
0
 10
14.1871
 20
6.5161
  0
VERTEX
  8
0
 10
14.1583
 20
6.5219
  0
VERTEX
  8
0
 10
14.1275
 20
6.524
  0
VERTEX
  8
0
 10
14.0777
 20
6.5188
  0
VERTEX
  8
0
 10
14.0331
 20
6.5022
  0
VERTEX
  8
0
 10
13.9939
 20
6.4743
  0
VERTEX
  8
0
 10
13.9599
 20
6.4351
  0
VERTEX
  8
0
 10
13.9449
 20
6.4108
  0
VERTEX
  8
0
 10
13.9316
 20
6.3826
  0
VERTEX
  8
0
 10
13.9198
 20
6.3504
  0
VERTEX
  8
0
 10
13.9095
 20
6.3144
  0
VERTEX
  8
0
 10
13.9009
 20
6.2744
  0
VERTEX
  8
0
 10
13.8938
 20
6.2306
  0
VERTEX
  8
0
 10
13.8883
 20
6.1828
  0
VERTEX
  8
0
 10
13.8843
 20
6.1311
  0
VERTEX
  8
0
 10
13.882
 20
6.0755
  0
VERTEX
  8
0
 10
13.8812
 20
6.016
  0
VERTEX
  8
0
 10
13.8812
 20
6.016
  0
SEQEND
  0
POLYLINE
  8
0
 66
     1
 10
0
 20
0
  0
VERTEX
  8
0
 10
15.5081
 20
6.3791
  0
VERTEX
  8
0
 10
15.357
 20
6.3672
  0
VERTEX
  8
0
 10
15.3355
 20
6.4253
  0
VERTEX
  8
0
 10
15.2963
 20
6.4709
  0
VERTEX
  8
0
 10
15.2498
 20
6.5
  0
VERTEX
  8
0
 10
15.195
 20
6.5177
  0
VERTEX
  8
0
 10
15.1316
 20
6.524
  0
VERTEX
  8
0
 10
15.0466
 20
6.5142
  0
VERTEX
  8
0
 10
14.9805
 20
6.4833
  0
VERTEX
  8
0
 10
14.958
 20
6.4649
  0
VERTEX
  8
0
 10
14.9373
 20
6.4439
  0
VERTEX
  8
0
 10
14.9182
 20
6.4204
  0
VERTEX
  8
0
 10
14.901
 20
6.3942
  0
VERTEX
  8
0
 10
14.8855
 20
6.3655
  0
VERTEX
  8
0
 10
14.8717
 20
6.3341
  0
VERTEX
  8
0
 10
14.8597
 20
6.3002
  0
VERTEX
  8
0
 10
14.8494
 20
6.2637
  0
VERTEX
  8
0
 10
14.8409
 20
6.2246
  0
VERTEX
  8
0
 10
14.8341
 20
6.1829
  0
VERTEX
  8
0
 10
14.8291
 20
6.1386
  0
VERTEX
  8
0
 10
14.8258
 20
6.0917
  0
VERTEX
  8
0
 10
14.8243
 20
6.0422
  0
VERTEX
  8
0
 10
14.8492
 20
6.077
  0
VERTEX
  8
0
 10
14.8761
 20
6.1077
  0
VERTEX
  8
0
 10
14.9052
 20
6.1343
  0
VERTEX
  8
0
 10
14.9364
 20
6.1568
  0
VERTEX
  8
0
 10
14.9698
 20
6.1753
  0
VERTEX
  8
0
 10
15.0052
 20
6.1896
  0
VERTEX
  8
0
 10
15.0428
 20
6.1998
  0
VERTEX
  8
0
 10
15.0825
 20
6.206
  0
VERTEX
  8
0
 10
15.1243
 20
6.208
  0
VERTEX
  8
0
 10
15.1769
 20
6.2046
  0
VERTEX
  8
0
 10
15.2262
 20
6.1946
  0
VERTEX
  8
0
 10
15.2722
 20
6.1778
  0
VERTEX
  8
0
 10
15.315
 20
6.1543
  0
VERTEX
  8
0
 10
15.3544
 20
6.1241
  0
VERTEX
  8
0
 10
15.3906
 20
6.0872
  0
VERTEX
  8
0
 10
15.4259
 20
6.0393
  0
VERTEX
  8
0
 10
15.4533
 20
5.9873
  0
VERTEX
  8
0
 10
15.473
 20
5.9312
  0
VERTEX
  8
0
 10
15.485
 20
5.8711
  0
VERTEX
  8
0
 10
15.4892
 20
5.807
  0
VERTEX
  8
0
 10
15.4778
 20
5.6983
  0
VERTEX
  8
0
 10
15.442
 20
5.5967
  0
VERTEX
  8
0
 10
15.4043
 20
5.5329
  0
VERTEX
  8
0
 10
15.3573
 20
5.4797
  0
VERTEX
  8
0
 10
15.3012
 20
5.4372
  0
VERTEX
  8
0
 10
15.2081
 20
5.3973
  0
VERTEX
  8
0
 10
15.1023
 20
5.384
  0
VERTEX
  8
0
 10
15.0788
 20
5.3845
  0
VERTEX
  8
0
 10
15.056
 20
5.3858
  0
VERTEX
  8
0
 10
15.0339
 20
5.3882
  0
VERTEX
  8
0
 10
15.0124
 20
5.3914
  0
VERTEX
  8
0
 10
14.9915
 20
5.3956
  0
VERTEX
  8
0
 10
14.9714
 20
5.4007
  0
VERTEX
  8
0
 10
14.9519
 20
5.4067
  0
VERTEX
  8
0
 10
14.933
 20
5.4136
  0
VERTEX
  8
0
 10
14.9148
 20
5.4215
  0
VERTEX
  8
0
 10
14.8973
 20
5.4303
  0
VERTEX
  8
0
 10
14.8805
 20
5.44
  0
VERTEX
  8
0
 10
14.8643
 20
5.4507
  0
VERTEX
  8
0
 10
14.8487
 20
5.4623
  0
VERTEX
  8
0
 10
14.8338
 20
5.4748
  0
VERTEX
  8
0
 10
14.8196
 20
5.4882
  0
VERTEX
  8
0
 10
14.806
 20
5.5026
  0
VERTEX
  8
0
 10
14.7931
 20
5.5179
  0
VERTEX
  8
0
 10
14.7809
 20
5.5341
  0
VERTEX
  8
0
 10
14.7693
 20
5.5512
  0
VERTEX
  8
0
 10
14.7584
 20
5.5693
  0
VERTEX
  8
0
 10
14.7481
 20
5.5883
  0
VERTEX
  8
0
 10
14.7385
 20
5.6082
  0
VERTEX
  8
0
 10
14.7295
 20
5.629
  0
VERTEX
  8
0
 10
14.7212
 20
5.6508
  0
VERTEX
  8
0
 10
14.7136
 20
5.6735
  0
VERTEX
  8
0
 10
14.7066
 20
5.6971
  0
VERTEX
  8
0
 10
14.7003
 20
5.7217
  0
VERTEX
  8
0
 10
14.6947
 20
5.7471
  0
VERTEX
  8
0
 10
14.6897
 20
5.7736
  0
VERTEX
  8
0
 10
14.6853
 20
5.8009
  0
VERTEX
  8
0
 10
14.6817
 20
5.8291
  0
VERTEX
  8
0
 10
14.6787
 20
5.8583
  0
VERTEX
  8
0
 10
14.6763
 20
5.8884
  0
VERTEX
  8
0
 10
14.6746
 20
5.9195
  0
VERTEX
  8
0
 10
14.6736
 20
5.9514
  0
VERTEX
  8
0
 10
14.6732
 20
5.9843
  0
VERTEX
  8
0
 10
14.6743
 20
6.0479
  0
VERTEX
  8
0
 10
14.6776
 20
6.1083
  0
VERTEX
  8
0
 10
14.6831
 20
6.1655
  0
VERTEX
  8
0
 10
14.6907
 20
6.2194
  0
VERTEX
  8
0
 10
14.7006
 20
6.2701
  0
VERTEX
  8
0
 10
14.7126
 20
6.3175
  0
VERTEX
  8
0
 10
14.7269
 20
6.3617
  0
VERTEX
  8
0
 10
14.7433
 20
6.4027
  0
VERTEX
  8
0
 10
14.7619
 20
6.4404
  0
VERTEX
  8
0
 10
14.7828
 20
6.4749
  0
VERTEX
  8
0
 10
14.8058
 20
6.5061
  0
VERTEX
  8
0
 10
14.8363
 20
6.5394
  0
VERTEX
  8
0
 10
14.8701
 20
6.5682
  0
VERTEX
  8
0
 10
14.9071
 20
6.5926
  0
VERTEX
  8
0
 10
14.9474
 20
6.6125
  0
VERTEX
  8
0
 10
14.9909
 20
6.628
  0
VERTEX
  8
0
 10
15.0376
 20
6.6391
  0
VERTEX
  8
0
 10
15.0876
 20
6.6458
  0
VERTEX
  8
0
 10
15.1409
 20
6.648
  0
VERTEX
  8
0
 10
15.2088
 20
6.6436
  0
VERTEX
  8
0
 10
15.2717
 20
6.6306
  0
VERTEX
  8
0
 10
15.3296
 20
6.6089
  0
VERTEX
  8
0
 10
15.3823
 20
6.5784
  0
VERTEX
  8
0
 10
15.4228
 20
6.5458
  0
VERTEX
  8
0
 10
15.4556
 20
6.5095
  0
VERTEX
  8
0
 10
15.4807
 20
6.4696
  0
VERTEX
  8
0
 10
15.4982
 20
6.4262
  0
VERTEX
  8
0
 10
15.5081
 20
6.3791
  0
VERTEX
  8
0
 10
15.5081
 20
6.3791
  0
SEQEND
  0
POLYLINE
  8
0
 66
     1
 10
0
 20
0
  0
VERTEX
  8
0
 10
14.8492
 20
5.8047
  0
VERTEX
  8
0
 10
14.8566
 20
5.7293
  0
VERTEX
  8
0
 10
14.8803
 20
5.6581
  0
VERTEX
  8
0
 10
14.9207
 20
5.5927
  0
VERTEX
  8
0
 10
14.975
 20
5.5451
  0
VERTEX
  8
0
 10
15.0352
 20
5.5177
  0
VERTEX
  8
0
 10
15.1
 20
5.508
  0
VERTEX
  8
0
 10
15.1425
 20
5.5114
  0
VERTEX
  8
0
 10
15.1812
 20
5.5222
  0
VERTEX
  8
0
 10
15.2163
 20
5.5404
  0
VERTEX
  8
0
 10
15.2476
 20
5.566
  0
VERTEX
  8
0
 10
15.2753
 20
5.5991
  0
VERTEX
  8
0
 10
15.3071
 20
5.6573
  0
VERTEX
  8
0
 10
15.3264
 20
5.7231
  0
VERTEX
  8
0
 10
15.3332
 20
5.7963
  0
VERTEX
  8
0
 10
15.3268
 20
5.8695
  0
VERTEX
  8
0
 10
15.3067
 20
5.9338
  0
VERTEX
  8
0
 10
15.2728
 20
5.9894
  0
VERTEX
  8
0
 10
15.2371
 20
6.0252
  0
VERTEX
  8
0
 10
15.1954
 20
6.0509
  0
VERTEX
  8
0
 10
15.1478
 20
6.0665
  0
VERTEX
  8
0
 10
15.0941
 20
6.072
  0
VERTEX
  8
0
 10
15.0418
 20
6.0673
  0
VERTEX
  8
0
 10
14.9945
 20
6.0526
  0
VERTEX
  8
0
 10
14.9524
 20
6.0277
  0
VERTEX
  8
0
 10
14.9154
 20
5.9927
  0
VERTEX
  8
0
 10
14.879
 20
5.9381
  0
VERTEX
  8
0
 10
14.8569
 20
5.8755
  0
VERTEX
  8
0
 10
14.8492
 20
5.8047
  0
VERTEX
  8
0
 10
14.8492
 20
5.8047
  0
SEQEND
  0
LINE
  8
0
 10
15.8079
 20
6
 11
23.4296
 21
6
  0
LINE
  8
0
 10
22.8929
 20
5.7317
 11
23.4296
 21
6
  0
LINE
  8
0
 10
22.8929
 20
6.2683
 11
23.4296
 21
6
  0
LINE
  8
0
 10
23.4296
 20
5.7
 11
23.4296
 21
7.5
  0
LINE
  8
0
 10
10.9921
 20
6
 11
3.3704
 21
6
  0
LINE
  8
0
 10
3.9071
 20
6.2683
 11
3.3704
 21
6
  0
LINE
  8
0
 10
3.9071
 20
5.7317
 11
3.3704
 21
6
  0
POLYLINE
  8
0
 66
     1
 10
0
 20
0
  0
VERTEX
  8
0
 10
31.1052
 20
20.176
  0
VERTEX
  8
0
 10
31.2532
 20
20.176
  0
VERTEX
  8
0
 10
31.2532
 20
19.36
  0
VERTEX
  8
0
 10
31.2095
 20
19.3623
  0
VERTEX
  8
0
 10
31.1652
 20
19.3715
  0
VERTEX
  8
0
 10
31.1202
 20
19.3876
  0
VERTEX
  8
0
 10
31.0746
 20
19.4106
  0
VERTEX
  8
0
 10
31.0283
 20
19.4405
  0
VERTEX
  8
0
 10
30.9813
 20
19.4773
  0
VERTEX
  8
0
 10
30.9234
 20
19.5306
  0
VERTEX
  8
0
 10
30.8605
 20
19.597
  0
VERTEX
  8
0
 10
30.7927
 20
19.6765
  0
VERTEX
  8
0
 10
30.7452
 20
19.7335
  0
VERTEX
  8
0
 10
30.7019
 20
19.7836
  0
VERTEX
  8
0
 10
30.6628
 20
19.8268
  0
VERTEX
  8
0
 10
30.628
 20
19.8631
  0
VERTEX
  8
0
 10
30.5973
 20
19.8926
  0
VERTEX
  8
0
 10
30.5516
 20
19.9315
  0
VERTEX
  8
0
 10
30.5074
 20
19.9634
  0
VERTEX
  8
0
 10
30.4646
 20
19.9881
  0
VERTEX
  8
0
 10
30.4233
 20
20.0058
  0
VERTEX
  8
0
 10
30.3834
 20
20.0165
  0
VERTEX
  8
0
 10
30.345
 20
20.02
  0
VERTEX
  8
0
 10
30.2845
 20
20.0123
  0
VERTEX
  8
0
 10
30.2321
 20
19.9892
  0
VERTEX
  8
0
 10
30.1878
 20
19.9508
  0
VERTEX
  8
0
 10
30.1556
 20
19.9034
  0
VERTEX
  8
0
 10
30.1361
 20
19.8488
  0
VERTEX
  8
0
 10
30.1292
 20
19.7871
  0
VERTEX
  8
0
 10
30.1331
 20
19.7336
  0
VERTEX
  8
0
 10
30.1457
 20
19.6862
  0
VERTEX
  8
0
 10
30.1669
 20
19.645
  0
VERTEX
  8
0
 10
30.1967
 20
19.6098
  0
VERTEX
  8
0
 10
30.2475
 20
19.5741
  0
VERTEX
  8
0
 10
30.3088
 20
19.5525
  0
VERTEX
  8
0
 10
30.3804
 20
19.5449
  0
VERTEX
  8
0
 10
30.3643
 20
19.3887
  0
VERTEX
  8
0
 10
30.3085
 20
19.3963
  0
VERTEX
  8
0
 10
30.2572
 20
19.4089
  0
VERTEX
  8
0
 10
30.2104
 20
19.4265
  0
VERTEX
  8
0
 10
30.1682
 20
19.4491
  0
VERTEX
  8
0
 10
30.1306
 20
19.4768
  0
VERTEX
  8
0
 10
30.0975
 20
19.5094
  0
VERTEX
  8
0
 10
30.0643
 20
19.5544
  0
VERTEX
  8
0
 10
30.0384
 20
19.605
  0
VERTEX
  8
0
 10
30.02
 20
19.6612
  0
VERTEX
  8
0
 10
30.0089
 20
19.723
  0
VERTEX
  8
0
 10
30.0052
 20
19.7904
  0
VERTEX
  8
0
 10
30.0088
 20
19.8536
  0
VERTEX
  8
0
 10
30.0194
 20
19.9123
  0
VERTEX
  8
0
 10
30.0372
 20
19.9665
  0
VERTEX
  8
0
 10
30.0621
 20
20.0161
  0
VERTEX
  8
0
 10
30.0941
 20
20.0612
  0
VERTEX
  8
0
 10
30.1276
 20
20.0963
  0
VERTEX
  8
0
 10
30.1647
 20
20.125
  0
VERTEX
  8
0
 10
30.2055
 20
20.1473
  0
VERTEX
  8
0
 10
30.2499
 20
20.1632
  0
VERTEX
  8
0
 10
30.298
 20
20.1728
  0
VERTEX
  8
0
 10
30.3498
 20
20.176
  0
VERTEX
  8
0
 10
30.3993
 20
20.1723
  0
VERTEX
  8
0
 10
30.4488
 20
20.1614
  0
VERTEX
  8
0
 10
30.4984
 20
20.1431
  0
VERTEX
  8
0
 10
30.5482
 20
20.1175
  0
VERTEX
  8
0
 10
30.598
 20
20.0846
  0
VERTEX
  8
0
 10
30.6479
 20
20.0444
  0
VERTEX
  8
0
 10
30.683
 20
20.0118
  0
VERTEX
  8
0
 10
30.7223
 20
19.9722
  0
VERTEX
  8
0
 10
30.766
 20
19.9254
  0
VERTEX
  8
0
 10
30.814
 20
19.8716
  0
VERTEX
  8
0
 10
30.8664
 20
19.8107
  0
VERTEX
  8
0
 10
30.9004
 20
19.7704
  0
VERTEX
  8
0
 10
30.9284
 20
19.7374
  0
VERTEX
  8
0
 10
30.9506
 20
19.7115
  0
VERTEX
  8
0
 10
30.9669
 20
19.6929
  0
VERTEX
  8
0
 10
30.9773
 20
19.6816
  0
VERTEX
  8
0
 10
31.0423
 20
19.6185
  0
VERTEX
  8
0
 10
31.1052
 20
19.5711
  0
VERTEX
  8
0
 10
31.1052
 20
20.176
  0
SEQEND
  0
POLYLINE
  8
0
 66
     1
 10
0
 20
0
  0
VERTEX
  8
0
 10
31.2532
 20
20.828
  0
VERTEX
  8
0
 10
30.9532
 20
20.828
  0
VERTEX
  8
0
 10
30.9532
 20
20.292
  0
VERTEX
  8
0
 10
30.8132
 20
20.292
  0
VERTEX
  8
0
 10
30.0132
 20
20.8569
  0
VERTEX
  8
0
 10
30.0132
 20
20.98
  0
VERTEX
  8
0
 10
30.8132
 20
20.98
  0
VERTEX
  8
0
 10
30.8132
 20
21.1481
  0
VERTEX
  8
0
 10
30.9532
 20
21.1481
  0
VERTEX
  8
0
 10
30.9532
 20
20.98
  0
VERTEX
  8
0
 10
31.2532
 20
20.98
  0
VERTEX
  8
0
 10
31.2532
 20
20.828
  0
SEQEND
  0
POLYLINE
  8
0
 66
     1
 10
0
 20
0
  0
VERTEX
  8
0
 10
30.8132
 20
20.828
  0
VERTEX
  8
0
 10
30.2621
 20
20.828
  0
VERTEX
  8
0
 10
30.8136
 20
20.4436
  0
VERTEX
  8
0
 10
30.8132
 20
20.828
  0
SEQEND
  0
LINE
  8
0
 10
30.65
 20
21.4484
 11
30.65
 21
32.25
  0
LINE
  8
0
 10
30.9183
 20
31.7133
 11
30.65
 21
32.25
  0
LINE
  8
0
 10
30.3817
 20
31.7133
 11
30.65
 21
32.25
  0
LINE
  8
0
 10
30.95
 20
32.25
 11
25.7
 21
32.25
  0
LINE
  8
0
 10
30.65
 20
19.0516
 11
30.65
 21
8.25
  0
LINE
  8
0
 10
30.3817
 20
8.7867
 11
30.65
 21
8.25
  0
LINE
  8
0
 10
30.9183
 20
8.7867
 11
30.65
 21
8.25
  0
LINE
  8
0
 10
30.95
 20
8.25
 11
25.7
 21
8.25
  0
POLYLINE
  8
0
 66
     1
 10
0
 20
0
  0
VERTEX
  8
0
 10
13.3212
 20
2.548
  0
VERTEX
  8
0
 10
13.3212
 20
2.4
  0
VERTEX
  8
0
 10
12.5052
 20
2.4
  0
VERTEX
  8
0
 10
12.5075
 20
2.4437
  0
VERTEX
  8
0
 10
12.5167
 20
2.488
  0
VERTEX
  8
0
 10
12.5328
 20
2.533
  0
VERTEX
  8
0
 10
12.5558
 20
2.5786
  0
VERTEX
  8
0
 10
12.5857
 20
2.6249
  0
VERTEX
  8
0
 10
12.6225
 20
2.6719
  0
VERTEX
  8
0
 10
12.6758
 20
2.7298
  0
VERTEX
  8
0
 10
12.7422
 20
2.7927
  0
VERTEX
  8
0
 10
12.8217
 20
2.8605
  0
VERTEX
  8
0
 10
12.8787
 20
2.908
  0
VERTEX
  8
0
 10
12.9288
 20
2.9513
  0
VERTEX
  8
0
 10
12.972
 20
2.9904
  0
VERTEX
  8
0
 10
13.0083
 20
3.0252
  0
VERTEX
  8
0
 10
13.0378
 20
3.0559
  0
VERTEX
  8
0
 10
13.0767
 20
3.1016
  0
VERTEX
  8
0
 10
13.1086
 20
3.1458
  0
VERTEX
  8
0
 10
13.1333
 20
3.1886
  0
VERTEX
  8
0
 10
13.151
 20
3.2299
  0
VERTEX
  8
0
 10
13.1617
 20
3.2698
  0
VERTEX
  8
0
 10
13.1652
 20
3.3082
  0
VERTEX
  8
0
 10
13.1575
 20
3.3687
  0
VERTEX
  8
0
 10
13.1344
 20
3.4211
  0
VERTEX
  8
0
 10
13.096
 20
3.4654
  0
VERTEX
  8
0
 10
13.0486
 20
3.4976
  0
VERTEX
  8
0
 10
12.994
 20
3.5171
  0
VERTEX
  8
0
 10
12.9323
 20
3.524
  0
VERTEX
  8
0
 10
12.8788
 20
3.5201
  0
VERTEX
  8
0
 10
12.8314
 20
3.5076
  0
VERTEX
  8
0
 10
12.7902
 20
3.4863
  0
VERTEX
  8
0
 10
12.755
 20
3.4565
  0
VERTEX
  8
0
 10
12.7193
 20
3.4056
  0
VERTEX
  8
0
 10
12.6977
 20
3.3444
  0
VERTEX
  8
0
 10
12.6901
 20
3.2727
  0
VERTEX
  8
0
 10
12.5339
 20
3.2888
  0
VERTEX
  8
0
 10
12.5415
 20
3.3447
  0
VERTEX
  8
0
 10
12.5541
 20
3.396
  0
VERTEX
  8
0
 10
12.5717
 20
3.4428
  0
VERTEX
  8
0
 10
12.5943
 20
3.485
  0
VERTEX
  8
0
 10
12.622
 20
3.5226
  0
VERTEX
  8
0
 10
12.6546
 20
3.5557
  0
VERTEX
  8
0
 10
12.6996
 20
3.5889
  0
VERTEX
  8
0
 10
12.7502
 20
3.6148
  0
VERTEX
  8
0
 10
12.8064
 20
3.6332
  0
VERTEX
  8
0
 10
12.8682
 20
3.6443
  0
VERTEX
  8
0
 10
12.9356
 20
3.648
  0
VERTEX
  8
0
 10
12.9988
 20
3.6444
  0
VERTEX
  8
0
 10
13.0575
 20
3.6338
  0
VERTEX
  8
0
 10
13.1117
 20
3.616
  0
VERTEX
  8
0
 10
13.1613
 20
3.5911
  0
VERTEX
  8
0
 10
13.2064
 20
3.5591
  0
VERTEX
  8
0
 10
13.2415
 20
3.5256
  0
VERTEX
  8
0
 10
13.2702
 20
3.4885
  0
VERTEX
  8
0
 10
13.2925
 20
3.4477
  0
VERTEX
  8
0
 10
13.3084
 20
3.4033
  0
VERTEX
  8
0
 10
13.318
 20
3.3552
  0
VERTEX
  8
0
 10
13.3212
 20
3.3034
  0
VERTEX
  8
0
 10
13.3175
 20
3.2539
  0
VERTEX
  8
0
 10
13.3066
 20
3.2044
  0
VERTEX
  8
0
 10
13.2883
 20
3.1547
  0
VERTEX
  8
0
 10
13.2627
 20
3.105
  0
VERTEX
  8
0
 10
13.2298
 20
3.0552
  0
VERTEX
  8
0
 10
13.1896
 20
3.0052
  0
VERTEX
  8
0
 10
13.157
 20
2.9702
  0
VERTEX
  8
0
 10
13.1174
 20
2.9309
  0
VERTEX
  8
0
 10
13.0706
 20
2.8872
  0
VERTEX
  8
0
 10
13.0168
 20
2.8392
  0
VERTEX
  8
0
 10
12.9559
 20
2.7868
  0
VERTEX
  8
0
 10
12.9156
 20
2.7528
  0
VERTEX
  8
0
 10
12.8826
 20
2.7247
  0
VERTEX
  8
0
 10
12.8567
 20
2.7026
  0
VERTEX
  8
0
 10
12.8381
 20
2.6863
  0
VERTEX
  8
0
 10
12.8268
 20
2.6759
  0
VERTEX
  8
0
 10
12.7637
 20
2.6109
  0
VERTEX
  8
0
 10
12.7163
 20
2.548
  0
VERTEX
  8
0
 10
13.3212
 20
2.548
  0
SEQEND
  0
POLYLINE
  8
0
 66
     1
 10
0
 20
0
  0
VERTEX
  8
0
 10
13.9732
 20
2.4
  0
VERTEX
  8
0
 10
13.9732
 20
2.7
  0
VERTEX
  8
0
 10
13.4372
 20
2.7
  0
VERTEX
  8
0
 10
13.4372
 20
2.84
  0
VERTEX
  8
0
 10
14.0021
 20
3.64
  0
VERTEX
  8
0
 10
14.1252
 20
3.64
  0
VERTEX
  8
0
 10
14.1252
 20
2.84
  0
VERTEX
  8
0
 10
14.2933
 20
2.84
  0
VERTEX
  8
0
 10
14.2933
 20
2.7
  0
VERTEX
  8
0
 10
14.1252
 20
2.7
  0
VERTEX
  8
0
 10
14.1252
 20
2.4
  0
VERTEX
  8
0
 10
13.9732
 20
2.4
  0
SEQEND
  0
POLYLINE
  8
0
 66
     1
 10
0
 20
0
  0
VERTEX
  8
0
 10
13.9732
 20
2.84
  0
VERTEX
  8
0
 10
13.9732
 20
3.391
  0
VERTEX
  8
0
 10
13.5888
 20
2.8396
  0
VERTEX
  8
0
 10
13.9732
 20
2.84
  0
SEQEND
  0
LINE
  8
0
 10
14.5984
 20
3
 11
25.4
 21
3
  0
LINE
  8
0
 10
24.8633
 20
2.7317
 11
25.4
 21
3
  0
LINE
  8
0
 10
24.8633
 20
3.2683
 11
25.4
 21
3
  0
LINE
  8
0
 10
25.4
 20
2.7
 11
25.4
 21
7.95
  0
LINE
  8
0
 10
12.2016
 20
3
 11
1.4
 21
3
  0
LINE
  8
0
 10
1.9367
 20
3.2683
 11
1.4
 21
3
  0
LINE
  8
0
 10
1.9367
 20
2.7317
 11
1.4
 21
3
  0
LINE
  8
0
 10
1.4
 20
2.7
 11
1.4
 21
7.95
  0
POLYLINE
  8
0
 66
     1
 10
0
 20
0
  0
VERTEX
  8
0
 10
1.8572
 20
0.408
  0
VERTEX
  8
0
 10
1.7052
 20
0.408
  0
VERTEX
  8
0
 10
1.7052
 20
1.3803
  0
VERTEX
  8
0
 10
1.6181
 20
1.3093
  0
VERTEX
  8
0
 10
1.5168
 20
1.2483
  0
VERTEX
  8
0
 10
1.4012
 20
1.1971
  0
VERTEX
  8
0
 10
1.4012
 20
1.3444
  0
VERTEX
  8
0
 10
1.458
 20
1.3729
  0
VERTEX
  8
0
 10
1.5105
 20
1.4028
  0
VERTEX
  8
0
 10
1.5588
 20
1.4344
  0
VERTEX
  8
0
 10
1.6029
 20
1.4674
  0
VERTEX
  8
0
 10
1.6426
 20
1.502
  0
VERTEX
  8
0
 10
1.6782
 20
1.5382
  0
VERTEX
  8
0
 10
1.7094
 20
1.5759
  0
VERTEX
  8
0
 10
1.7365
 20
1.6152
  0
VERTEX
  8
0
 10
1.7593
 20
1.656
  0
VERTEX
  8
0
 10
1.8572
 20
1.656
  0
VERTEX
  8
0
 10
1.8572
 20
0.408
  0
SEQEND
  0
POLYLINE
  8
0
 66
     1
 10
0
 20
0
  0
VERTEX
  8
0
 10
2.3252
 20
0.408
  0
VERTEX
  8
0
 10
2.3252
 20
0.584
  0
VERTEX
  8
0
 10
2.4972
 20
0.584
  0
VERTEX
  8
0
 10
2.4972
 20
0.408
  0
VERTEX
  8
0
 10
2.3252
 20
0.408
  0
SEQEND
  0
POLYLINE
  8
0
 66
     1
 10
0
 20
0
  0
VERTEX
  8
0
 10
2.7212
 20
0.7362
  0
VERTEX
  8
0
 10
2.8809
 20
0.7497
  0
VERTEX
  8
0
 10
2.8868
 20
0.7175
  0
VERTEX
  8
0
 10
2.8944
 20
0.6877
  0
VERTEX
  8
0
 10
2.9038
 20
0.6603
  0
VERTEX
  8
0
 10
2.9148
 20
0.6352
  0
VERTEX
  8
0
 10
2.9276
 20
0.6126
  0
VERTEX
  8
0
 10
2.942
 20
0.5923
  0
VERTEX
  8
0
 10
2.9582
 20
0.5744
  0
VERTEX
  8
0
 10
2.9761
 20
0.5589
  0
VERTEX
  8
0
 10
2.9957
 20
0.5458
  0
VERTEX
  8
0
 10
3.017
 20
0.5351
  0
VERTEX
  8
0
 10
3.04
 20
0.5267
  0
VERTEX
  8
0
 10
3.0647
 20
0.5208
  0
VERTEX
  8
0
 10
3.0911
 20
0.5172
  0
VERTEX
  8
0
 10
3.1192
 20
0.516
  0
VERTEX
  8
0
 10
3.1659
 20
0.5197
  0
VERTEX
  8
0
 10
3.2087
 20
0.5308
  0
VERTEX
  8
0
 10
3.2476
 20
0.5493
  0
VERTEX
  8
0
 10
3.2825
 20
0.5752
  0
VERTEX
  8
0
 10
3.3136
 20
0.6084
  0
VERTEX
  8
0
 10
3.3511
 20
0.669
  0
VERTEX
  8
0
 10
3.3737
 20
0.7385
  0
VERTEX
  8
0
 10
3.3812
 20
0.8169
  0
VERTEX
  8
0
 10
3.3768
 20
0.8762
  0
VERTEX
  8
0
 10
3.3637
 20
0.9294
  0
VERTEX
  8
0
 10
3.3417
 20
0.9768
  0
VERTEX
  8
0
 10
3.311
 20
1.0182
  0
VERTEX
  8
0
 10
3.2726
 20
1.052
  0
VERTEX
  8
0
 10
3.2274
 20
1.0762
  0
VERTEX
  8
0
 10
3.1754
 20
1.0908
  0
VERTEX
  8
0
 10
3.1167
 20
1.096
  0
VERTEX
  8
0
 10
3.07
 20
1.093
  0
VERTEX
  8
0
 10
3.027
 20
1.0833
  0
VERTEX
  8
0
 10
2.9876
 20
1.067
  0
VERTEX
  8
0
 10
2.9518
 20
1.0441
  0
VERTEX
  8
0
 10
2.9196
 20
1.0146
  0
VERTEX
  8
0
 10
2.891
 20
0.9784
  0
VERTEX
  8
0
 10
2.7482
 20
0.997
  0
VERTEX
  8
0
 10
2.8681
 20
1.632
  0
VERTEX
  8
0
 10
3.4835
 20
1.632
  0
VERTEX
  8
0
 10
3.4835
 20
1.488
  0
VERTEX
  8
0
 10
2.9916
 20
1.488
  0
VERTEX
  8
0
 10
2.9245
 20
1.1546
  0
VERTEX
  8
0
 10
2.9998
 20
1.1972
  0
VERTEX
  8
0
 10
3.0775
 20
1.223
  0
VERTEX
  8
0
 10
3.1576
 20
1.232
  0
VERTEX
  8
0
 10
3.212
 20
1.229
  0
VERTEX
  8
0
 10
3.2632
 20
1.2195
  0
VERTEX
  8
0
 10
3.3111
 20
1.2034
  0
VERTEX
  8
0
 10
3.3557
 20
1.1807
  0
VERTEX
  8
0
 10
3.3971
 20
1.1515
  0
VERTEX
  8
0
 10
3.4352
 20
1.1157
  0
VERTEX
  8
0
 10
3.4676
 20
1.0763
  0
VERTEX
  8
0
 10
3.4941
 20
1.0336
  0
VERTEX
  8
0
 10
3.5147
 20
0.9879
  0
VERTEX
  8
0
 10
3.5294
 20
0.939
  0
VERTEX
  8
0
 10
3.5383
 20
0.887
  0
VERTEX
  8
0
 10
3.5412
 20
0.8318
  0
VERTEX
  8
0
 10
3.5373
 20
0.7668
  0
VERTEX
  8
0
 10
3.5255
 20
0.7054
  0
VERTEX
  8
0
 10
3.506
 20
0.6474
  0
VERTEX
  8
0
 10
3.4786
 20
0.5929
  0
VERTEX
  8
0
 10
3.4433
 20
0.542
  0
VERTEX
  8
0
 10
3.4122
 20
0.507
  0
VERTEX
  8
0
 10
3.3784
 20
0.4767
  0
VERTEX
  8
0
 10
3.3419
 20
0.451
  0
VERTEX
  8
0
 10
3.3027
 20
0.4299
  0
VERTEX
  8
0
 10
3.2607
 20
0.4135
  0
VERTEX
  8
0
 10
3.216
 20
0.4017
  0
VERTEX
  8
0
 10
3.1687
 20
0.3945
  0
VERTEX
  8
0
 10
3.1186
 20
0.392
  0
VERTEX
  8
0
 10
3.055
 20
0.3956
  0
VERTEX
  8
0
 10
2.9961
 20
0.4064
  0
VERTEX
  8
0
 10
2.9418
 20
0.4244
  0
VERTEX
  8
0
 10
2.892
 20
0.4496
  0
VERTEX
  8
0
 10
2.8469
 20
0.4821
  0
VERTEX
  8
0
 10
2.8068
 20
0.5218
  0
VERTEX
  8
0
 10
2.7741
 20
0.5672
  0
VERTEX
  8
0
 10
2.749
 20
0.618
  0
VERTEX
  8
0
 10
2.7313
 20
0.6744
  0
VERTEX
  8
0
 10
2.7212
 20
0.7362
  0
VERTEX
  8
0
 10
2.7212
 20
0.7362
  0
SEQEND
  0
POLYLINE
  8
0
 66
     1
 10
0
 20
0
  0
VERTEX
  8
0
 10
3.6852
 20
1.0236
  0
VERTEX
  8
0
 10
3.6859
 20
1.0741
  0
VERTEX
  8
0
 10
3.688
 20
1.1226
  0
VERTEX
  8
0
 10
3.6915
 20
1.169
  0
VERTEX
  8
0
 10
3.6964
 20
1.2134
  0
VERTEX
  8
0
 10
3.7027
 20
1.2556
  0
VERTEX
  8
0
 10
3.7104
 20
1.2958
  0
VERTEX
  8
0
 10
3.7195
 20
1.3339
  0
VERTEX
  8
0
 10
3.73
 20
1.3699
  0
VERTEX
  8
0
 10
3.7419
 20
1.4039
  0
VERTEX
  8
0
 10
3.7552
 20
1.4358
  0
VERTEX
  8
0
 10
3.7699
 20
1.4656
  0
VERTEX
  8
0
 10
3.786
 20
1.4933
  0
VERTEX
  8
0
 10
3.8035
 20
1.5189
  0
VERTEX
  8
0
 10
3.8224
 20
1.5425
  0
VERTEX
  8
0
 10
3.8427
 20
1.564
  0
VERTEX
  8
0
 10
3.8644
 20
1.5834
  0
VERTEX
  8
0
 10
3.9114
 20
1.6148
  0
VERTEX
  8
0
 10
3.9645
 20
1.6374
  0
VERTEX
  8
0
 10
4.0238
 20
1.6511
  0
VERTEX
  8
0
 10
4.0892
 20
1.656
  0
VERTEX
  8
0
 10
4.1815
 20
1.6463
  0
VERTEX
  8
0
 10
4.2641
 20
1.6155
  0
VERTEX
  8
0
 10
4.2983
 20
1.5944
  0
VERTEX
  8
0
 10
4.33
 20
1.5686
  0
VERTEX
  8
0
 10
4.359
 20
1.5381
  0
VERTEX
  8
0
 10
4.3854
 20
1.503
  0
VERTEX
  8
0
 10
4.4093
 20
1.4632
  0
VERTEX
  8
0
 10
4.4306
 20
1.4187
  0
VERTEX
  8
0
 10
4.4492
 20
1.3696
  0
VERTEX
  8
0
 10
4.4653
 20
1.3157
  0
VERTEX
  8
0
 10
4.4775
 20
1.2576
  0
VERTEX
  8
0
 10
4.4862
 20
1.1895
  0
VERTEX
  8
0
 10
4.4915
 20
1.1115
  0
VERTEX
  8
0
 10
4.4932
 20
1.0236
  0
VERTEX
  8
0
 10
4.4924
 20
0.9698
  0
VERTEX
  8
0
 10
4.49
 20
0.9184
  0
VERTEX
  8
0
 10
4.486
 20
0.8694
  0
VERTEX
  8
0
 10
4.4805
 20
0.8227
  0
VERTEX
  8
0
 10
4.4733
 20
0.7783
  0
VERTEX
  8
0
 10
4.4645
 20
0.7364
  0
VERTEX
  8
0
 10
4.4542
 20
0.6968
  0
VERTEX
  8
0
 10
4.4422
 20
0.6595
  0
VERTEX
  8
0
 10
4.4287
 20
0.6246
  0
VERTEX
  8
0
 10
4.4136
 20
0.592
  0
VERTEX
  8
0
 10
4.3968
 20
0.5618
  0
VERTEX
  8
0
 10
4.3785
 20
0.534
  0
VERTEX
  8
0
 10
4.3586
 20
0.5085
  0
VERTEX
  8
0
 10
4.3371
 20
0.4854
  0
VERTEX
  8
0
 10
4.314
 20
0.4646
  0
VERTEX
  8
0
 10
4.267
 20
0.4332
  0
VERTEX
  8
0
 10
4.2139
 20
0.4106
  0
VERTEX
  8
0
 10
4.1546
 20
0.3969
  0
VERTEX
  8
0
 10
4.0892
 20
0.392
  0
VERTEX
  8
0
 10
4.0677
 20
0.3924
  0
VERTEX
  8
0
 10
4.0468
 20
0.3937
  0
VERTEX
  8
0
 10
4.0265
 20
0.3959
  0
VERTEX
  8
0
 10
4.0067
 20
0.3991
  0
VERTEX
  8
0
 10
3.9876
 20
0.4031
  0
VERTEX
  8
0
 10
3.969
 20
0.4081
  0
VERTEX
  8
0
 10
3.9511
 20
0.4141
  0
VERTEX
  8
0
 10
3.9337
 20
0.4209
  0
VERTEX
  8
0
 10
3.9169
 20
0.4287
  0
VERTEX
  8
0
 10
3.9007
 20
0.4375
  0
VERTEX
  8
0
 10
3.8851
 20
0.4471
  0
VERTEX
  8
0
 10
3.87
 20
0.4577
  0
VERTEX
  8
0
 10
3.8556
 20
0.4692
  0
VERTEX
  8
0
 10
3.8417
 20
0.4816
  0
VERTEX
  8
0
 10
3.8284
 20
0.495
  0
VERTEX
  8
0
 10
3.8158
 20
0.5093
  0
VERTEX
  8
0
 10
3.8037
 20
0.5245
  0
VERTEX
  8
0
 10
3.7922
 20
0.5406
  0
VERTEX
  8
0
 10
3.7812
 20
0.5577
  0
VERTEX
  8
0
 10
3.7709
 20
0.5757
  0
VERTEX
  8
0
 10
3.7612
 20
0.5946
  0
VERTEX
  8
0
 10
3.752
 20
0.6145
  0
VERTEX
  8
0
 10
3.7434
 20
0.6352
  0
VERTEX
  8
0
 10
3.7355
 20
0.657
  0
VERTEX
  8
0
 10
3.7281
 20
0.6796
  0
VERTEX
  8
0
 10
3.7213
 20
0.7032
  0
VERTEX
  8
0
 10
3.7151
 20
0.7276
  0
VERTEX
  8
0
 10
3.7094
 20
0.7531
  0
VERTEX
  8
0
 10
3.7044
 20
0.7794
  0
VERTEX
  8
0
 10
3.6999
 20
0.8067
  0
VERTEX
  8
0
 10
3.6961
 20
0.8349
  0
VERTEX
  8
0
 10
3.6928
 20
0.864
  0
VERTEX
  8
0
 10
3.6901
 20
0.8941
  0
VERTEX
  8
0
 10
3.688
 20
0.925
  0
VERTEX
  8
0
 10
3.6865
 20
0.957
  0
VERTEX
  8
0
 10
3.6855
 20
0.9898
  0
VERTEX
  8
0
 10
3.6852
 20
1.0236
  0
VERTEX
  8
0
 10
3.6852
 20
1.0236
  0
SEQEND
  0
POLYLINE
  8
0
 66
     1
 10
0
 20
0
  0
VERTEX
  8
0
 10
3.8412
 20
1.024
  0
VERTEX
  8
0
 10
3.8425
 20
0.945
  0
VERTEX
  8
0
 10
3.8465
 20
0.8738
  0
VERTEX
  8
0
 10
3.8531
 20
0.8104
  0
VERTEX
  8
0
 10
3.8623
 20
0.755
  0
VERTEX
  8
0
 10
3.8742
 20
0.7074
  0
VERTEX
  8
0
 10
3.8866
 20
0.6712
  0
VERTEX
  8
0
 10
3.901
 20
0.6388
  0
VERTEX
  8
0
 10
3.9174
 20
0.6101
  0
VERTEX
  8
0
 10
3.9358
 20
0.5853
  0
VERTEX
  8
0
 10
3.9563
 20
0.5643
  0
VERTEX
  8
0
 10
3.9788
 20
0.547
  0
VERTEX
  8
0
 10
4.0034
 20
0.5336
  0
VERTEX
  8
0
 10
4.03
 20
0.5239
  0
VERTEX
  8
0
 10
4.0586
 20
0.5181
  0
VERTEX
  8
0
 10
4.0892
 20
0.516
  0
VERTEX
  8
0
 10
4.1066
 20
0.5165
  0
VERTEX
  8
0
 10
4.1234
 20
0.5184
  0
VERTEX
  8
0
 10
4.1395
 20
0.5215
  0
VERTEX
  8
0
 10
4.155
 20
0.526
  0
VERTEX
  8
0
 10
4.1699
 20
0.5317
  0
VERTEX
  8
0
 10
4.1841
 20
0.5388
  0
VERTEX
  8
0
 10
4.1977
 20
0.5471
  0
VERTEX
  8
0
 10
4.2107
 20
0.5568
  0
VERTEX
  8
0
 10
4.223
 20
0.5677
  0
VERTEX
  8
0
 10
4.2347
 20
0.58
  0
VERTEX
  8
0
 10
4.2458
 20
0.5936
  0
VERTEX
  8
0
 10
4.2562
 20
0.6085
  0
VERTEX
  8
0
 10
4.266
 20
0.6247
  0
VERTEX
  8
0
 10
4.2752
 20
0.6422
  0
VERTEX
  8
0
 10
4.2837
 20
0.6609
  0
VERTEX
  8
0
 10
4.2916
 20
0.681
  0
VERTEX
  8
0
 10
4.2989
 20
0.7025
  0
VERTEX
  8
0
 10
4.3056
 20
0.7252
  0
VERTEX
  8
0
 10
4.3116
 20
0.7492
  0
VERTEX
  8
0
 10
4.317
 20
0.7745
  0
VERTEX
  8
0
 10
4.3217
 20
0.8011
  0
VERTEX
  8
0
 10
4.3258
 20
0.829
  0
VERTEX
  8
0
 10
4.3293
 20
0.8583
  0
VERTEX
  8
0
 10
4.3321
 20
0.8888
  0
VERTEX
  8
0
 10
4.3343
 20
0.9206
  0
VERTEX
  8
0
 10
4.3359
 20
0.9538
  0
VERTEX
  8
0
 10
4.3369
 20
0.9882
  0
VERTEX
  8
0
 10
4.3372
 20
1.024
  0
VERTEX
  8
0
 10
4.3359
 20
1.103
  0
VERTEX
  8
0
 10
4.3319
 20
1.1742
  0
VERTEX
  8
0
 10
4.3253
 20
1.2376
  0
VERTEX
  8
0
 10
4.3161
 20
1.293
  0
VERTEX
  8
0
 10
4.3042
 20
1.3406
  0
VERTEX
  8
0
 10
4.2917
 20
1.3768
  0
VERTEX
  8
0
 10
4.2771
 20
1.4092
  0
VERTEX
  8
0
 10
4.2605
 20
1.4379
  0
VERTEX
  8
0
 10
4.2419
 20
1.4627
  0
VERTEX
  8
0
 10
4.2212
 20
1.4837
  0
VERTEX
  8
0
 10
4.1986
 20
1.501
  0
VERTEX
  8
0
 10
4.1738
 20
1.5144
  0
VERTEX
  8
0
 10
4.1471
 20
1.5241
  0
VERTEX
  8
0
 10
4.1183
 20
1.5299
  0
VERTEX
  8
0
 10
4.0875
 20
1.532
  0
VERTEX
  8
0
 10
4.0377
 20
1.5268
  0
VERTEX
  8
0
 10
3.9931
 20
1.5102
  0
VERTEX
  8
0
 10
3.9539
 20
1.4823
  0
VERTEX
  8
0
 10
3.9199
 20
1.4431
  0
VERTEX
  8
0
 10
3.9049
 20
1.4188
  0
VERTEX
  8
0
 10
3.8916
 20
1.3906
  0
VERTEX
  8
0
 10
3.8798
 20
1.3584
  0
VERTEX
  8
0
 10
3.8695
 20
1.3224
  0
VERTEX
  8
0
 10
3.8609
 20
1.2824
  0
VERTEX
  8
0
 10
3.8538
 20
1.2386
  0
VERTEX
  8
0
 10
3.8483
 20
1.1908
  0
VERTEX
  8
0
 10
3.8443
 20
1.1391
  0
VERTEX
  8
0
 10
3.842
 20
1.0835
  0
VERTEX
  8
0
 10
3.8412
 20
1.024
  0
VERTEX
  8
0
 10
3.8412
 20
1.024
  0
SEQEND
  0
POLYLINE
  8
0
 66
     1
 10
0
 20
0
  0
VERTEX
  8
0
 10
4.6951
 20
1.212
  0
VERTEX
  8
0
 10
4.6532
 20
1.4464
  0
VERTEX
  8
0
 10
4.6532
 20
1.648
  0
VERTEX
  8
0
 10
4.8252
 20
1.648
  0
VERTEX
  8
0
 10
4.8252
 20
1.4464
  0
VERTEX
  8
0
 10
4.7874
 20
1.212
  0
VERTEX
  8
0
 10
4.6951
 20
1.212
  0
SEQEND
  0
POLYLINE
  8
0
 66
     1
 10
0
 20
0
  0
VERTEX
  8
0
 10
4.9743
 20
1.212
  0
VERTEX
  8
0
 10
4.9332
 20
1.4464
  0
VERTEX
  8
0
 10
4.9332
 20
1.648
  0
VERTEX
  8
0
 10
5.1052
 20
1.648
  0
VERTEX
  8
0
 10
5.1052
 20
1.4464
  0
VERTEX
  8
0
 10
5.0649
 20
1.212
  0
VERTEX
  8
0
 10
4.9743
 20
1.212
  0
SEQEND
  0
POLYLINE
  8
0
 66
     1
 10
0
 20
0
  0
VERTEX
  8
0
 10
6.1252
 20
0.408
  0
VERTEX
  8
0
 10
6.1252
 20
1.648
  0
VERTEX
  8
0
 10
6.6731
 20
1.648
  0
VERTEX
  8
0
 10
6.7603
 20
1.6455
  0
VERTEX
  8
0
 10
6.8331
 20
1.6379
  0
VERTEX
  8
0
 10
6.8915
 20
1.6252
  0
VERTEX
  8
0
 10
6.9445
 20
1.6044
  0
VERTEX
  8
0
 10
6.9905
 20
1.5761
  0
VERTEX
  8
0
 10
7.0296
 20
1.5402
  0
VERTEX
  8
0
 10
7.0618
 20
1.4966
  0
VERTEX
  8
0
 10
7.0999
 20
1.408
  0
VERTEX
  8
0
 10
7.1132
 20
1.3097
  0
VERTEX
  8
0
 10
7.1126
 20
1.2828
  0
VERTEX
  8
0
 10
7.1103
 20
1.2571
  0
VERTEX
  8
0
 10
7.1065
 20
1.2324
  0
VERTEX
  8
0
 10
7.1011
 20
1.2087
  0
VERTEX
  8
0
 10
7.0941
 20
1.1862
  0
VERTEX
  8
0
 10
7.0855
 20
1.1647
  0
VERTEX
  8
0
 10
7.0754
 20
1.1444
  0
VERTEX
  8
0
 10
7.0636
 20
1.125
  0
VERTEX
  8
0
 10
7.0502
 20
1.1068
  0
VERTEX
  8
0
 10
7.0353
 20
1.0897
  0
VERTEX
  8
0
 10
7.0188
 20
1.0736
  0
VERTEX
  8
0
 10
7.0006
 20
1.0586
  0
VERTEX
  8
0
 10
6.9809
 20
1.0447
  0
VERTEX
  8
0
 10
6.9596
 20
1.0319
  0
VERTEX
  8
0
 10
6.9367
 20
1.0201
  0
VERTEX
  8
0
 10
6.9122
 20
1.0094
  0
VERTEX
  8
0
 10
6.8862
 20
0.9998
  0
VERTEX
  8
0
 10
6.8585
 20
0.9913
  0
VERTEX
  8
0
 10
6.8292
 20
0.9838
  0
VERTEX
  8
0
 10
6.7984
 20
0.9775
  0
VERTEX
  8
0
 10
6.7659
 20
0.9722
  0
VERTEX
  8
0
 10
6.8236
 20
0.9411
  0
VERTEX
  8
0
 10
6.8647
 20
0.9104
  0
VERTEX
  8
0
 10
6.9362
 20
0.8341
  0
VERTEX
  8
0
 10
7.0006
 20
0.7455
  0
VERTEX
  8
0
 10
7.2159
 20
0.408
  0
VERTEX
  8
0
 10
7.0126
 20
0.408
  0
VERTEX
  8
0
 10
6.847
 20
0.6701
  0
VERTEX
  8
0
 10
6.7959
 20
0.7488
  0
VERTEX
  8
0
 10
6.7558
 20
0.8068
  0
VERTEX
  8
0
 10
6.6959
 20
0.8801
  0
VERTEX
  8
0
 10
6.645
 20
0.9249
  0
VERTEX
  8
0
 10
6.6078
 20
0.9455
  0
VERTEX
  8
0
 10
6.5706
 20
0.9581
  0
VERTEX
  8
0
 10
6.5347
 20
0.9625
  0
VERTEX
  8
0
 10
6.4794
 20
0.964
  0
VERTEX
  8
0
 10
6.2892
 20
0.964
  0
VERTEX
  8
0
 10
6.2892
 20
0.408
  0
VERTEX
  8
0
 10
6.1252
 20
0.408
  0
SEQEND
  0
POLYLINE
  8
0
 66
     1
 10
0
 20
0
  0
VERTEX
  8
0
 10
6.2892
 20
1.104
  0
VERTEX
  8
0
 10
6.6408
 20
1.104
  0
VERTEX
  8
0
 10
6.6908
 20
1.1055
  0
VERTEX
  8
0
 10
6.7362
 20
1.11
  0
VERTEX
  8
0
 10
6.777
 20
1.1176
  0
VERTEX
  8
0
 10
6.8133
 20
1.1282
  0
VERTEX
  8
0
 10
6.8449
 20
1.1418
  0
VERTEX
  8
0
 10
6.872
 20
1.1584
  0
VERTEX
  8
0
 10
6.8944
 20
1.1781
  0
VERTEX
  8
0
 10
6.9123
 20
1.2007
  0
VERTEX
  8
0
 10
6.937
 20
1.2542
  0
VERTEX
  8
0
 10
6.9452
 20
1.3118
  0
VERTEX
  8
0
 10
6.94
 20
1.3614
  0
VERTEX
  8
0
 10
6.9243
 20
1.4041
  0
VERTEX
  8
0
 10
6.8982
 20
1.44
  0
VERTEX
  8
0
 10
6.8617
 20
1.4691
  0
VERTEX
  8
0
 10
6.8112
 20
1.4929
  0
VERTEX
  8
0
 10
6.7508
 20
1.5072
  0
VERTEX
  8
0
 10
6.6804
 20
1.512
  0
VERTEX
  8
0
 10
6.2892
 20
1.512
  0
VERTEX
  8
0
 10
6.2892
 20
1.104
  0
SEQEND
  0
POLYLINE
  8
0
 66
     1
 10
0
 20
0
  0
VERTEX
  8
0
 10
7.9417
 20
0.5226
  0
VERTEX
  8
0
 10
7.8901
 20
0.4829
  0
VERTEX
  8
0
 10
7.8371
 20
0.4504
  0
VERTEX
  8
0
 10
7.7828
 20
0.425
  0
VERTEX
  8
0
 10
7.7271
 20
0.4069
  0
VERTEX
  8
0
 10
7.6701
 20
0.3958
  0
VERTEX
  8
0
 10
7.6116
 20
0.392
  0
VERTEX
  8
0
 10
7.5293
 20
0.3984
  0
VERTEX
  8
0
 10
7.4578
 20
0.4186
  0
VERTEX
  8
0
 10
7.3972
 20
0.4528
  0
VERTEX
  8
0
 10
7.3644
 20
0.4826
  0
VERTEX
  8
0
 10
7.3387
 20
0.517
  0
VERTEX
  8
0
 10
7.3203
 20
0.5562
  0
VERTEX
  8
0
 10
7.3092
 20
0.6002
  0
VERTEX
  8
0
 10
7.3052
 20
0.6489
  0
VERTEX
  8
0
 10
7.308
 20
0.6913
  0
VERTEX
  8
0
 10
7.3168
 20
0.7306
  0
VERTEX
  8
0
 10
7.3317
 20
0.7667
  0
VERTEX
  8
0
 10
7.3528
 20
0.7998
  0
VERTEX
  8
0
 10
7.3799
 20
0.8298
  0
VERTEX
  8
0
 10
7.4131
 20
0.8567
  0
VERTEX
  8
0
 10
7.4637
 20
0.8857
  0
VERTEX
  8
0
 10
7.5228
 20
0.9066
  0
VERTEX
  8
0
 10
7.578
 20
0.9182
  0
VERTEX
  8
0
 10
7.6577
 20
0.9294
  0
VERTEX
  8
0
 10
7.729
 20
0.9388
  0
VERTEX
  8
0
 10
7.7917
 20
0.9487
  0
VERTEX
  8
0
 10
7.8458
 20
0.9592
  0
VERTEX
  8
0
 10
7.8914
 20
0.9702
  0
VERTEX
  8
0
 10
7.9284
 20
0.9817
  0
VERTEX
  8
0
 10
7.9286
 20
1.0082
  0
VERTEX
  8
0
 10
7.9292
 20
1.0215
  0
VERTEX
  8
0
 10
7.9244
 20
1.0774
  0
VERTEX
  8
0
 10
7.9101
 20
1.121
  0
VERTEX
  8
0
 10
7.8862
 20
1.1524
  0
VERTEX
  8
0
 10
7.8415
 20
1.1807
  0
VERTEX
  8
0
 10
7.7839
 20
1.1979
  0
VERTEX
  8
0
 10
7.7133
 20
1.204
  0
VERTEX
  8
0
 10
7.6505
 20
1.2004
  0
VERTEX
  8
0
 10
7.599
 20
1.1885
  0
VERTEX
  8
0
 10
7.559
 20
1.1683
  0
VERTEX
  8
0
 10
7.5262
 20
1.1362
  0
VERTEX
  8
0
 10
7.4998
 20
1.091
  0
VERTEX
  8
0
 10
7.4798
 20
1.0325
  0
VERTEX
  8
0
 10
7.3313
 20
1.0527
  0
VERTEX
  8
0
 10
7.3431
 20
1.0968
  0
VERTEX
  8
0
 10
7.3587
 20
1.137
  0
VERTEX
  8
0
 10
7.3781
 20
1.1733
  0
VERTEX
  8
0
 10
7.4013
 20
1.2057
  0
VERTEX
  8
0
 10
7.4282
 20
1.2342
  0
VERTEX
  8
0
 10
7.459
 20
1.2587
  0
VERTEX
  8
0
 10
7.4935
 20
1.2793
  0
VERTEX
  8
0
 10
7.5318
 20
1.296
  0
VERTEX
  8
0
 10
7.6251
 20
1.3196
  0
VERTEX
  8
0
 10
7.7349
 20
1.328
  0
VERTEX
  8
0
 10
7.7857
 20
1.3267
  0
VERTEX
  8
0
 10
7.8324
 20
1.3223
  0
VERTEX
  8
0
 10
7.875
 20
1.3149
  0
VERTEX
  8
0
 10
7.9135
 20
1.3045
  0
VERTEX
  8
0
 10
7.9479
 20
1.291
  0
VERTEX
  8
0
 10
7.9782
 20
1.2745
  0
VERTEX
  8
0
 10
8.0044
 20
1.2549
  0
VERTEX
  8
0
 10
8.0264
 20
1.2322
  0
VERTEX
  8
0
 10
8.0546
 20
1.1865
  0
VERTEX
  8
0
 10
8.0736
 20
1.1289
  0
VERTEX
  8
0
 10
8.0778
 20
1.0983
  0
VERTEX
  8
0
 10
8.0804
 20
1.0514
  0
VERTEX
  8
0
 10
8.0812
 20
0.9883
  0
VERTEX
  8
0
 10
8.0812
 20
0.785
  0
VERTEX
  8
0
 10
8.0812
 20
0.7419
  0
VERTEX
  8
0
 10
8.0813
 20
0.7043
  0
VERTEX
  8
0
 10
8.0813
 20
0.672
  0
VERTEX
  8
0
 10
8.0814
 20
0.6452
  0
VERTEX
  8
0
 10
8.0815
 20
0.6238
  0
VERTEX
  8
0
 10
8.0817
 20
0.6077
  0
VERTEX
  8
0
 10
8.0819
 20
0.5971
  0
VERTEX
  8
0
 10
8.0821
 20
0.5918
  0
VERTEX
  8
0
 10
8.0977
 20
0.4899
  0
VERTEX
  8
0
 10
8.1308
 20
0.408
  0
VERTEX
  8
0
 10
7.9721
 20
0.408
  0
VERTEX
  8
0
 10
7.9531
 20
0.4611
  0
VERTEX
  8
0
 10
7.9417
 20
0.5226
  0
VERTEX
  8
0
 10
7.9417
 20
0.5226
  0
SEQEND
  0
POLYLINE
  8
0
 66
     1
 10
0
 20
0
  0
VERTEX
  8
0
 10
7.9292
 20
0.8619
  0
VERTEX
  8
0
 10
7.8828
 20
0.8461
  0
VERTEX
  8
0
 10
7.8262
 20
0.8312
  0
VERTEX
  8
0
 10
7.7592
 20
0.8175
  0
VERTEX
  8
0
 10
7.6819
 20
0.8047
  0
VERTEX
  8
0
 10
7.6172
 20
0.7942
  0
VERTEX
  8
0
 10
7.576
 20
0.7846
  0
VERTEX
  8
0
 10
7.5247
 20
0.7599
  0
VERTEX
  8
0
 10
7.4902
 20
0.7248
  0
VERTEX
  8
0
 10
7.4749
 20
0.6914
  0
VERTEX
  8
0
 10
7.4692
 20
0.6533
  0
VERTEX
  8
0
 10
7.4751
 20
0.6094
  0
VERTEX
  8
0
 10
7.4938
 20
0.5729
  0
VERTEX
  8
0
 10
7.5255
 20
0.5439
  0
VERTEX
  8
0
 10
7.5808
 20
0.52
  0
VERTEX
  8
0
 10
7.6491
 20
0.512
  0
VERTEX
  8
0
 10
7.6893
 20
0.5138
  0
VERTEX
  8
0
 10
7.7266
 20
0.5191
  0
VERTEX
  8
0
 10
7.7609
 20
0.5279
  0
VERTEX
  8
0
 10
7.7923
 20
0.5402
  0
VERTEX
  8
0
 10
7.8207
 20
0.5561
  0
VERTEX
  8
0
 10
7.8461
 20
0.5756
  0
VERTEX
  8
0
 10
7.8686
 20
0.5985
  0
VERTEX
  8
0
 10
7.8882
 20
0.625
  0
VERTEX
  8
0
 10
7.9048
 20
0.655
  0
VERTEX
  8
0
 10
7.9231
 20
0.7185
  0
VERTEX
  8
0
 10
7.9292
 20
0.8064
  0
VERTEX
  8
0
 10
7.9292
 20
0.8619
  0
SEQEND
  0
POLYLINE
  8
0
 66
     1
 10
0
 20
0
  0
VERTEX
  8
0
 10
8.8972
 20
0.408
  0
VERTEX
  8
0
 10
8.8972
 20
0.5251
  0
VERTEX
  8
0
 10
8.8716
 20
0.49
  0
VERTEX
  8
0
 10
8.8427
 20
0.4602
  0
VERTEX
  8
0
 10
8.8104
 20
0.4359
  0
VERTEX
  8
0
 10
8.7749
 20
0.4168
  0
VERTEX
  8
0
 10
8.736
 20
0.4032
  0
VERTEX
  8
0
 10
8.6938
 20
0.3949
  0
VERTEX
  8
0
 10
8.6483
 20
0.392
  0
VERTEX
  8
0
 10
8.5773
 20
0.3984
  0
VERTEX
  8
0
 10
8.5108
 20
0.419
  0
VERTEX
  8
0
 10
8.4488
 20
0.4536
  0
VERTEX
  8
0
 10
8.3709
 20
0.5242
  0
VERTEX
  8
0
 10
8.3134
 20
0.6163
  0
VERTEX
  8
0
 10
8.2776
 20
0.7285
  0
VERTEX
  8
0
 10
8.2652
 20
0.8592
  0
VERTEX
  8
0
 10
8.2662
 20
0.9066
  0
VERTEX
  8
0
 10
8.2697
 20
0.9516
  0
VERTEX
  8
0
 10
8.2757
 20
0.9943
  0
VERTEX
  8
0
 10
8.2843
 20
1.0345
  0
VERTEX
  8
0
 10
8.2953
 20
1.0723
  0
VERTEX
  8
0
 10
8.3089
 20
1.1077
  0
VERTEX
  8
0
 10
8.3251
 20
1.1407
  0
VERTEX
  8
0
 10
8.3437
 20
1.1714
  0
VERTEX
  8
0
 10
8.3649
 20
1.1996
  0
VERTEX
  8
0
 10
8.3886
 20
1.2254
  0
VERTEX
  8
0
 10
8.4148
 20
1.2488
  0
VERTEX
  8
0
 10
8.4435
 20
1.2698
  0
VERTEX
  8
0
 10
8.5049
 20
1.3021
  0
VERTEX
  8
0
 10
8.5713
 20
1.3215
  0
VERTEX
  8
0
 10
8.6428
 20
1.328
  0
VERTEX
  8
0
 10
8.6864
 20
1.3255
  0
VERTEX
  8
0
 10
8.7271
 20
1.318
  0
VERTEX
  8
0
 10
8.7651
 20
1.3055
  0
VERTEX
  8
0
 10
8.8003
 20
1.288
  0
VERTEX
  8
0
 10
8.8327
 20
1.2655
  0
VERTEX
  8
0
 10
8.8623
 20
1.238
  0
VERTEX
  8
0
 10
8.8892
 20
1.2056
  0
VERTEX
  8
0
 10
8.8892
 20
1.648
  0
VERTEX
  8
0
 10
9.0412
 20
1.648
  0
VERTEX
  8
0
 10
9.0412
 20
0.408
  0
VERTEX
  8
0
 10
8.8972
 20
0.408
  0
SEQEND
  0
POLYLINE
  8
0
 66
     1
 10
0
 20
0
  0
VERTEX
  8
0
 10
8.4212
 20
0.8596
  0
VERTEX
  8
0
 10
8.4271
 20
0.7735
  0
VERTEX
  8
0
 10
8.4448
 20
0.6971
  0
VERTEX
  8
0
 10
8.4744
 20
0.6302
  0
VERTEX
  8
0
 10
8.4978
 20
0.5956
  0
VERTEX
  8
0
 10
8.5245
 20
0.5672
  0
VERTEX
  8
0
 10
8.5546
 20
0.545
  0
VERTEX
  8
0
 10
8.5881
 20
0.5291
  0
VERTEX
  8
0
 10
8.625
 20
0.5194
  0
VERTEX
  8
0
 10
8.6653
 20
0.516
  0
VERTEX
  8
0
 10
8.7049
 20
0.5188
  0
VERTEX
  8
0
 10
8.7413
 20
0.5276
  0
VERTEX
  8
0
 10
8.7742
 20
0.5426
  0
VERTEX
  8
0
 10
8.8038
 20
0.5637
  0
VERTEX
  8
0
 10
8.8299
 20
0.591
  0
VERTEX
  8
0
 10
8.8528
 20
0.6243
  0
VERTEX
  8
0
 10
8.8814
 20
0.6889
  0
VERTEX
  8
0
 10
8.8985
 20
0.7631
  0
VERTEX
  8
0
 10
8.9043
 20
0.8469
  0
VERTEX
  8
0
 10
8.8987
 20
0.9376
  0
VERTEX
  8
0
 10
8.8821
 20
1.0169
  0
VERTEX
  8
0
 10
8.8544
 20
1.0847
  0
VERTEX
  8
0
 10
8.8312
 20
1.1211
  0
VERTEX
  8
0
 10
8.8041
 20
1.151
  0
VERTEX
  8
0
 10
8.7734
 20
1.1742
  0
VERTEX
  8
0
 10
8.7388
 20
1.1907
  0
VERTEX
  8
0
 10
8.7005
 20
1.2007
  0
VERTEX
  8
0
 10
8.6585
 20
1.204
  0
VERTEX
  8
0
 10
8.6176
 20
1.2008
  0
VERTEX
  8
0
 10
8.5804
 20
1.1913
  0
VERTEX
  8
0
 10
8.547
 20
1.1754
  0
VERTEX
  8
0
 10
8.5174
 20
1.1532
  0
VERTEX
  8
0
 10
8.4915
 20
1.1247
  0
VERTEX
  8
0
 10
8.4693
 20
1.0897
  0
VERTEX
  8
0
 10
8.4426
 20
1.0243
  0
VERTEX
  8
0
 10
8.4265
 20
0.9476
  0
VERTEX
  8
0
 10
8.4212
 20
0.8596
  0
VERTEX
  8
0
 10
8.4212
 20
0.8596
  0
SEQEND
  0
POLYLINE
  8
0
 66
     1
 10
0
 20
0
  0
VERTEX
  8
0
 10
9.2772
 20
1.472
  0
VERTEX
  8
0
 10
9.2772
 20
1.648
  0
VERTEX
  8
0
 10
9.4292
 20
1.648
  0
VERTEX
  8
0
 10
9.4292
 20
1.472
  0
VERTEX
  8
0
 10
9.2772
 20
1.472
  0
SEQEND
  0
POLYLINE
  8
0
 66
     1
 10
0
 20
0
  0
VERTEX
  8
0
 10
9.2772
 20
0.408
  0
VERTEX
  8
0
 10
9.2772
 20
1.3086
  0
VERTEX
  8
0
 10
9.4292
 20
1.3086
  0
VERTEX
  8
0
 10
9.4292
 20
0.408
  0
VERTEX
  8
0
 10
9.2772
 20
0.408
  0
SEQEND
  0
POLYLINE
  8
0
 66
     1
 10
0
 20
0
  0
VERTEX
  8
0
 10
10.2532
 20
0.408
  0
VERTEX
  8
0
 10
10.2532
 20
0.5437
  0
VERTEX
  8
0
 10
10.226
 20
0.5081
  0
VERTEX
  8
0
 10
10.1964
 20
0.4773
  0
VERTEX
  8
0
 10
10.1644
 20
0.4512
  0
VERTEX
  8
0
 10
10.1299
 20
0.4299
  0
VERTEX
  8
0
 10
10.0931
 20
0.4133
  0
VERTEX
  8
0
 10
10.0539
 20
0.4015
  0
VERTEX
  8
0
 10
10.0122
 20
0.3944
  0
VERTEX
  8
0
 10
9.9682
 20
0.392
  0
VERTEX
  8
0
 10
9.8982
 20
0.3985
  0
VERTEX
  8
0
 10
9.8303
 20
0.4181
  0
VERTEX
  8
0
 10
9.7644
 20
0.4525
  0
VERTEX
  8
0
 10
9.717
 20
0.4982
  0
VERTEX
  8
0
 10
9.6893
 20
0.5484
  0
VERTEX
  8
0
 10
9.6705
 20
0.6113
  0
VERTEX
  8
0
 10
9.6635
 20
0.6695
  0
VERTEX
  8
0
 10
9.6612
 20
0.753
  0
VERTEX
  8
0
 10
9.6612
 20
1.308
  0
VERTEX
  8
0
 10
9.8132
 20
1.308
  0
VERTEX
  8
0
 10
9.8132
 20
0.812
  0
VERTEX
  8
0
 10
9.8138
 20
0.7565
  0
VERTEX
  8
0
 10
9.8155
 20
0.7114
  0
VERTEX
  8
0
 10
9.8184
 20
0.6765
  0
VERTEX
  8
0
 10
9.8225
 20
0.652
  0
VERTEX
  8
0
 10
9.8319
 20
0.6224
  0
VERTEX
  8
0
 10
9.8449
 20
0.5966
  0
VERTEX
  8
0
 10
9.8615
 20
0.5748
  0
VERTEX
  8
0
 10
9.8817
 20
0.5568
  0
VERTEX
  8
0
 10
9.9055
 20
0.5428
  0
VERTEX
  8
0
 10
9.9329
 20
0.5326
  0
VERTEX
  8
0
 10
9.9639
 20
0.5264
  0
VERTEX
  8
0
 10
9.9985
 20
0.524
  0
VERTEX
  8
0
 10
10.0649
 20
0.5321
  0
VERTEX
  8
0
 10
10.1268
 20
0.5581
  0
VERTEX
  8
0
 10
10.1779
 20
0.5995
  0
VERTEX
  8
0
 10
10.2118
 20
0.6537
  0
VERTEX
  8
0
 10
10.2309
 20
0.7278
  0
VERTEX
  8
0
 10
10.2372
 20
0.8288
  0
VERTEX
  8
0
 10
10.2372
 20
1.308
  0
VERTEX
  8
0
 10
10.3892
 20
1.308
  0
VERTEX
  8
0
 10
10.3892
 20
0.408
  0
VERTEX
  8
0
 10
10.2532
 20
0.408
  0
SEQEND
  0
POLYLINE
  8
0
 66
     1
 10
0
 20
0
  0
VERTEX
  8
0
 10
10.5652
 20
0.6796
  0
VERTEX
  8
0
 10
10.7154
 20
0.7032
  0
VERTEX
  8
0
 10
10.721
 20
0.6733
  0
VERTEX
  8
0
 10
10.7291
 20
0.646
  0
VERTEX
  8
0
 10
10.7397
 20
0.6213
  0
VERTEX
  8
0
 10
10.7528
 20
0.5992
  0
VERTEX
  8
0
 10
10.7684
 20
0.5797
  0
VERTEX
  8
0
 10
10.7864
 20
0.5628
  0
VERTEX
  8
0
 10
10.807
 20
0.5485
  0
VERTEX
  8
0
 10
10.8301
 20
0.5368
  0
VERTEX
  8
0
 10
10.8557
 20
0.5277
  0
VERTEX
  8
0
 10
10.8838
 20
0.5212
  0
VERTEX
  8
0
 10
10.9143
 20
0.5173
  0
VERTEX
  8
0
 10
10.9474
 20
0.516
  0
VERTEX
  8
0
 10
11.022
 20
0.5236
  0
VERTEX
  8
0
 10
11.084
 20
0.5464
  0
VERTEX
  8
0
 10
11.1224
 20
0.5753
  0
VERTEX
  8
0
 10
11.1455
 20
0.6128
  0
VERTEX
  8
0
 10
11.1532
 20
0.6586
  0
VERTEX
  8
0
 10
11.142
 20
0.7046
  0
VERTEX
  8
0
 10
11.1084
 20
0.7397
  0
VERTEX
  8
0
 10
11.0872
 20
0.7505
  0
VERTEX
  8
0
 10
11.0543
 20
0.7627
  0
VERTEX
  8
0
 10
11.0095
 20
0.7762
  0
VERTEX
  8
0
 10
10.9528
 20
0.7912
  0
VERTEX
  8
0
 10
10.8998
 20
0.8045
  0
VERTEX
  8
0
 10
10.8551
 20
0.8163
  0
VERTEX
  8
0
 10
10.8188
 20
0.8264
  0
VERTEX
  8
0
 10
10.7907
 20
0.8349
  0
VERTEX
  8
0
 10
10.771
 20
0.8418
  0
VERTEX
  8
0
 10
10.7068
 20
0.8717
  0
VERTEX
  8
0
 10
10.6571
 20
0.9074
  0
VERTEX
  8
0
 10
10.6222
 20
0.949
  0
VERTEX
  8
0
 10
10.5974
 20
1.0058
  0
VERTEX
  8
0
 10
10.5892
 20
1.0697
  0
VERTEX
  8
0
 10
10.5933
 20
1.1164
  0
VERTEX
  8
0
 10
10.6056
 20
1.1594
  0
VERTEX
  8
0
 10
10.6261
 20
1.1985
  0
VERTEX
  8
0
 10
10.6547
 20
1.2339
  0
VERTEX
  8
0
 10
10.6916
 20
1.2656
  0
VERTEX
  8
0
 10
10.7376
 20
1.2925
  0
VERTEX
  8
0
 10
10.7909
 20
1.3119
  0
VERTEX
  8
0
 10
10.8517
 20
1.3238
  0
VERTEX
  8
0
 10
10.9199
 20
1.328
  0
VERTEX
  8
0
 10
11.0178
 20
1.3209
  0
VERTEX
  8
0
 10
11.1051
 20
1.2977
  0
VERTEX
  8
0
 10
11.1747
 20
1.2615
  0
VERTEX
  8
0
 10
11.2244
 20
1.2136
  0
VERTEX
  8
0
 10
11.2555
 20
1.1551
  0
VERTEX
  8
0
 10
11.276
 20
1.0772
  0
VERTEX
  8
0
 10
11.1263
 20
1.057
  0
VERTEX
  8
0
 10
11.1203
 20
1.0848
  0
VERTEX
  8
0
 10
11.1113
 20
1.1096
  0
VERTEX
  8
0
 10
11.0992
 20
1.1316
  0
VERTEX
  8
0
 10
11.0841
 20
1.1507
  0
VERTEX
  8
0
 10
11.0659
 20
1.1668
  0
VERTEX
  8
0
 10
11.0446
 20
1.1801
  0
VERTEX
  8
0
 10
11.0203
 20
1.1904
  0
VERTEX
  8
0
 10
10.9929
 20
1.1978
  0
VERTEX
  8
0
 10
10.9624
 20
1.2024
  0
VERTEX
  8
0
 10
10.9289
 20
1.204
  0
VERTEX
  8
0
 10
10.8952
 20
1.2032
  0
VERTEX
  8
0
 10
10.8647
 20
1.2004
  0
VERTEX
  8
0
 10
10.8374
 20
1.1957
  0
VERTEX
  8
0
 10
10.8132
 20
1.1891
  0
VERTEX
  8
0
 10
10.7923
 20
1.1805
  0
VERTEX
  8
0
 10
10.7745
 20
1.17
  0
VERTEX
  8
0
 10
10.7599
 20
1.1575
  0
VERTEX
  8
0
 10
10.7484
 20
1.1432
  0
VERTEX
  8
0
 10
10.7402
 20
1.1268
  0
VERTEX
  8
0
 10
10.7351
 20
1.1086
  0
VERTEX
  8
0
 10
10.7332
 20
1.0884
  0
VERTEX
  8
0
 10
10.7375
 20
1.061
  0
VERTEX
  8
0
 10
10.7519
 20
1.0347
  0
VERTEX
  8
0
 10
10.7763
 20
1.0119
  0
VERTEX
  8
0
 10
10.8105
 20
0.9947
  0
VERTEX
  8
0
 10
10.8219
 20
0.9907
  0
VERTEX
  8
0
 10
10.8411
 20
0.9848
  0
VERTEX
  8
0
 10
10.8681
 20
0.977
  0
VERTEX
  8
0
 10
10.9029
 20
0.9674
  0
VERTEX
  8
0
 10
10.9456
 20
0.9558
  0
VERTEX
  8
0
 10
11.0071
 20
0.9387
  0
VERTEX
  8
0
 10
11.0605
 20
0.923
  0
VERTEX
  8
0
 10
11.1057
 20
0.9088
  0
VERTEX
  8
0
 10
11.1427
 20
0.8961
  0
VERTEX
  8
0
 10
11.1716
 20
0.8849
  0
VERTEX
  8
0
 10
11.2036
 20
0.8691
  0
VERTEX
  8
0
 10
11.2315
 20
0.8503
  0
VERTEX
  8
0
 10
11.255
 20
0.8286
  0
VERTEX
  8
0
 10
11.2744
 20
0.8039
  0
VERTEX
  8
0
 10
11.2894
 20
0.7763
  0
VERTEX
  8
0
 10
11.3003
 20
0.7457
  0
VERTEX
  8
0
 10
11.3069
 20
0.7121
  0
VERTEX
  8
0
 10
11.3092
 20
0.6756
  0
VERTEX
  8
0
 10
11.2985
 20
0.6022
  0
VERTEX
  8
0
 10
11.2645
 20
0.5321
  0
VERTEX
  8
0
 10
11.2424
 20
0.5029
  0
VERTEX
  8
0
 10
11.2171
 20
0.4771
  0
VERTEX
  8
0
 10
11.1885
 20
0.4547
  0
VERTEX
  8
0
 10
11.1566
 20
0.4357
  0
VERTEX
  8
0
 10
11.1215
 20
0.4201
  0
VERTEX
  8
0
 10
11.083
 20
0.408
  0
VERTEX
  8
0
 10
11.0413
 20
0.3992
  0
VERTEX
  8
0
 10
10.9964
 20
0.3939
  0
VERTEX
  8
0
 10
10.9481
 20
0.392
  0
VERTEX
  8
0
 10
10.9157
 20
0.3926
  0
VERTEX
  8
0
 10
10.8846
 20
0.3946
  0
VERTEX
  8
0
 10
10.855
 20
0.398
  0
VERTEX
  8
0
 10
10.8267
 20
0.403
  0
VERTEX
  8
0
 10
10.7999
 20
0.4093
  0
VERTEX
  8
0
 10
10.7744
 20
0.4172
  0
VERTEX
  8
0
 10
10.7504
 20
0.4265
  0
VERTEX
  8
0
 10
10.7277
 20
0.4372
  0
VERTEX
  8
0
 10
10.7065
 20
0.4494
  0
VERTEX
  8
0
 10
10.6866
 20
0.4631
  0
VERTEX
  8
0
 10
10.6682
 20
0.4782
  0
VERTEX
  8
0
 10
10.6512
 20
0.4947
  0
VERTEX
  8
0
 10
10.6355
 20
0.5128
  0
VERTEX
  8
0
 10
10.6213
 20
0.5322
  0
VERTEX
  8
0
 10
10.6084
 20
0.5532
  0
VERTEX
  8
0
 10
10.597
 20
0.5755
  0
VERTEX
  8
0
 10
10.5869
 20
0.5994
  0
VERTEX
  8
0
 10
10.5783
 20
0.6247
  0
VERTEX
  8
0
 10
10.571
 20
0.6514
  0
VERTEX
  8
0
 10
10.5652
 20
0.6796
  0
VERTEX
  8
0
 10
10.5652
 20
0.6796
  0
SEQEND
  0
POLYLINE
  8
0
 66
     1
 10
0
 20
0
  0
VERTEX
  8
0
 10
11.5412
 20
0.408
  0
VERTEX
  8
0
 10
11.5412
 20
0.584
  0
VERTEX
  8
0
 10
11.7132
 20
0.584
  0
VERTEX
  8
0
 10
11.7132
 20
0.4117
  0
VERTEX
  8
0
 10
11.7114
 20
0.3728
  0
VERTEX
  8
0
 10
11.7062
 20
0.3369
  0
VERTEX
  8
0
 10
11.6975
 20
0.3039
  0
VERTEX
  8
0
 10
11.6852
 20
0.2739
  0
VERTEX
  8
0
 10
11.6695
 20
0.2468
  0
VERTEX
  8
0
 10
11.6503
 20
0.2227
  0
VERTEX
  8
0
 10
11.6275
 20
0.2015
  0
VERTEX
  8
0
 10
11.6013
 20
0.1833
  0
VERTEX
  8
0
 10
11.5716
 20
0.168
  0
VERTEX
  8
0
 10
11.5292
 20
0.2317
  0
VERTEX
  8
0
 10
11.5574
 20
0.2472
  0
VERTEX
  8
0
 10
11.5808
 20
0.2682
  0
VERTEX
  8
0
 10
11.5993
 20
0.2948
  0
VERTEX
  8
0
 10
11.6129
 20
0.327
  0
VERTEX
  8
0
 10
11.6216
 20
0.3647
  0
VERTEX
  8
0
 10
11.6254
 20
0.408
  0
VERTEX
  8
0
 10
11.5412
 20
0.408
  0
SEQEND
  0
POLYLINE
  8
0
 66
     1
 10
0
 20
0
  0
VERTEX
  8
0
 10
12.7412
 20
1.0236
  0
VERTEX
  8
0
 10
12.7419
 20
1.0741
  0
VERTEX
  8
0
 10
12.744
 20
1.1226
  0
VERTEX
  8
0
 10
12.7475
 20
1.169
  0
VERTEX
  8
0
 10
12.7524
 20
1.2134
  0
VERTEX
  8
0
 10
12.7587
 20
1.2556
  0
VERTEX
  8
0
 10
12.7664
 20
1.2958
  0
VERTEX
  8
0
 10
12.7755
 20
1.3339
  0
VERTEX
  8
0
 10
12.786
 20
1.3699
  0
VERTEX
  8
0
 10
12.7979
 20
1.4039
  0
VERTEX
  8
0
 10
12.8112
 20
1.4358
  0
VERTEX
  8
0
 10
12.8259
 20
1.4656
  0
VERTEX
  8
0
 10
12.842
 20
1.4933
  0
VERTEX
  8
0
 10
12.8595
 20
1.5189
  0
VERTEX
  8
0
 10
12.8784
 20
1.5425
  0
VERTEX
  8
0
 10
12.8987
 20
1.564
  0
VERTEX
  8
0
 10
12.9204
 20
1.5834
  0
VERTEX
  8
0
 10
12.9674
 20
1.6148
  0
VERTEX
  8
0
 10
13.0205
 20
1.6374
  0
VERTEX
  8
0
 10
13.0798
 20
1.6511
  0
VERTEX
  8
0
 10
13.1452
 20
1.656
  0
VERTEX
  8
0
 10
13.2375
 20
1.6463
  0
VERTEX
  8
0
 10
13.3201
 20
1.6155
  0
VERTEX
  8
0
 10
13.3543
 20
1.5944
  0
VERTEX
  8
0
 10
13.386
 20
1.5686
  0
VERTEX
  8
0
 10
13.415
 20
1.5381
  0
VERTEX
  8
0
 10
13.4414
 20
1.503
  0
VERTEX
  8
0
 10
13.4653
 20
1.4632
  0
VERTEX
  8
0
 10
13.4866
 20
1.4187
  0
VERTEX
  8
0
 10
13.5052
 20
1.3696
  0
VERTEX
  8
0
 10
13.5213
 20
1.3157
  0
VERTEX
  8
0
 10
13.5335
 20
1.2576
  0
VERTEX
  8
0
 10
13.5422
 20
1.1895
  0
VERTEX
  8
0
 10
13.5475
 20
1.1115
  0
VERTEX
  8
0
 10
13.5492
 20
1.0236
  0
VERTEX
  8
0
 10
13.5484
 20
0.9698
  0
VERTEX
  8
0
 10
13.546
 20
0.9184
  0
VERTEX
  8
0
 10
13.542
 20
0.8694
  0
VERTEX
  8
0
 10
13.5365
 20
0.8227
  0
VERTEX
  8
0
 10
13.5293
 20
0.7783
  0
VERTEX
  8
0
 10
13.5205
 20
0.7364
  0
VERTEX
  8
0
 10
13.5102
 20
0.6968
  0
VERTEX
  8
0
 10
13.4982
 20
0.6595
  0
VERTEX
  8
0
 10
13.4847
 20
0.6246
  0
VERTEX
  8
0
 10
13.4696
 20
0.592
  0
VERTEX
  8
0
 10
13.4528
 20
0.5618
  0
VERTEX
  8
0
 10
13.4345
 20
0.534
  0
VERTEX
  8
0
 10
13.4146
 20
0.5085
  0
VERTEX
  8
0
 10
13.3931
 20
0.4854
  0
VERTEX
  8
0
 10
13.37
 20
0.4646
  0
VERTEX
  8
0
 10
13.323
 20
0.4332
  0
VERTEX
  8
0
 10
13.2699
 20
0.4106
  0
VERTEX
  8
0
 10
13.2106
 20
0.3969
  0
VERTEX
  8
0
 10
13.1452
 20
0.392
  0
VERTEX
  8
0
 10
13.1237
 20
0.3924
  0
VERTEX
  8
0
 10
13.1028
 20
0.3937
  0
VERTEX
  8
0
 10
13.0825
 20
0.3959
  0
VERTEX
  8
0
 10
13.0627
 20
0.3991
  0
VERTEX
  8
0
 10
13.0436
 20
0.4031
  0
VERTEX
  8
0
 10
13.025
 20
0.4081
  0
VERTEX
  8
0
 10
13.0071
 20
0.4141
  0
VERTEX
  8
0
 10
12.9897
 20
0.4209
  0
VERTEX
  8
0
 10
12.9729
 20
0.4287
  0
VERTEX
  8
0
 10
12.9567
 20
0.4375
  0
VERTEX
  8
0
 10
12.9411
 20
0.4471
  0
VERTEX
  8
0
 10
12.926
 20
0.4577
  0
VERTEX
  8
0
 10
12.9116
 20
0.4692
  0
VERTEX
  8
0
 10
12.8977
 20
0.4816
  0
VERTEX
  8
0
 10
12.8844
 20
0.495
  0
VERTEX
  8
0
 10
12.8718
 20
0.5093
  0
VERTEX
  8
0
 10
12.8597
 20
0.5245
  0
VERTEX
  8
0
 10
12.8482
 20
0.5406
  0
VERTEX
  8
0
 10
12.8372
 20
0.5577
  0
VERTEX
  8
0
 10
12.8269
 20
0.5757
  0
VERTEX
  8
0
 10
12.8172
 20
0.5946
  0
VERTEX
  8
0
 10
12.808
 20
0.6145
  0
VERTEX
  8
0
 10
12.7994
 20
0.6352
  0
VERTEX
  8
0
 10
12.7915
 20
0.657
  0
VERTEX
  8
0
 10
12.7841
 20
0.6796
  0
VERTEX
  8
0
 10
12.7773
 20
0.7032
  0
VERTEX
  8
0
 10
12.7711
 20
0.7276
  0
VERTEX
  8
0
 10
12.7654
 20
0.7531
  0
VERTEX
  8
0
 10
12.7604
 20
0.7794
  0
VERTEX
  8
0
 10
12.7559
 20
0.8067
  0
VERTEX
  8
0
 10
12.7521
 20
0.8349
  0
VERTEX
  8
0
 10
12.7488
 20
0.864
  0
VERTEX
  8
0
 10
12.7461
 20
0.8941
  0
VERTEX
  8
0
 10
12.744
 20
0.925
  0
VERTEX
  8
0
 10
12.7425
 20
0.957
  0
VERTEX
  8
0
 10
12.7415
 20
0.9898
  0
VERTEX
  8
0
 10
12.7412
 20
1.0236
  0
VERTEX
  8
0
 10
12.7412
 20
1.0236
  0
SEQEND
  0
POLYLINE
  8
0
 66
     1
 10
0
 20
0
  0
VERTEX
  8
0
 10
12.8972
 20
1.024
  0
VERTEX
  8
0
 10
12.8985
 20
0.945
  0
VERTEX
  8
0
 10
12.9025
 20
0.8738
  0
VERTEX
  8
0
 10
12.9091
 20
0.8104
  0
VERTEX
  8
0
 10
12.9183
 20
0.755
  0
VERTEX
  8
0
 10
12.9302
 20
0.7074
  0
VERTEX
  8
0
 10
12.9426
 20
0.6712
  0
VERTEX
  8
0
 10
12.957
 20
0.6388
  0
VERTEX
  8
0
 10
12.9734
 20
0.6101
  0
VERTEX
  8
0
 10
12.9918
 20
0.5853
  0
VERTEX
  8
0
 10
13.0123
 20
0.5643
  0
VERTEX
  8
0
 10
13.0348
 20
0.547
  0
VERTEX
  8
0
 10
13.0594
 20
0.5336
  0
VERTEX
  8
0
 10
13.086
 20
0.5239
  0
VERTEX
  8
0
 10
13.1146
 20
0.5181
  0
VERTEX
  8
0
 10
13.1452
 20
0.516
  0
VERTEX
  8
0
 10
13.1626
 20
0.5165
  0
VERTEX
  8
0
 10
13.1794
 20
0.5184
  0
VERTEX
  8
0
 10
13.1955
 20
0.5215
  0
VERTEX
  8
0
 10
13.211
 20
0.526
  0
VERTEX
  8
0
 10
13.2259
 20
0.5317
  0
VERTEX
  8
0
 10
13.2401
 20
0.5388
  0
VERTEX
  8
0
 10
13.2537
 20
0.5471
  0
VERTEX
  8
0
 10
13.2667
 20
0.5568
  0
VERTEX
  8
0
 10
13.279
 20
0.5677
  0
VERTEX
  8
0
 10
13.2907
 20
0.58
  0
VERTEX
  8
0
 10
13.3018
 20
0.5936
  0
VERTEX
  8
0
 10
13.3122
 20
0.6085
  0
VERTEX
  8
0
 10
13.322
 20
0.6247
  0
VERTEX
  8
0
 10
13.3312
 20
0.6422
  0
VERTEX
  8
0
 10
13.3397
 20
0.6609
  0
VERTEX
  8
0
 10
13.3476
 20
0.681
  0
VERTEX
  8
0
 10
13.3549
 20
0.7025
  0
VERTEX
  8
0
 10
13.3616
 20
0.7252
  0
VERTEX
  8
0
 10
13.3676
 20
0.7492
  0
VERTEX
  8
0
 10
13.373
 20
0.7745
  0
VERTEX
  8
0
 10
13.3777
 20
0.8011
  0
VERTEX
  8
0
 10
13.3818
 20
0.829
  0
VERTEX
  8
0
 10
13.3853
 20
0.8583
  0
VERTEX
  8
0
 10
13.3881
 20
0.8888
  0
VERTEX
  8
0
 10
13.3903
 20
0.9206
  0
VERTEX
  8
0
 10
13.3919
 20
0.9538
  0
VERTEX
  8
0
 10
13.3929
 20
0.9882
  0
VERTEX
  8
0
 10
13.3932
 20
1.024
  0
VERTEX
  8
0
 10
13.3919
 20
1.103
  0
VERTEX
  8
0
 10
13.3879
 20
1.1742
  0
VERTEX
  8
0
 10
13.3813
 20
1.2376
  0
VERTEX
  8
0
 10
13.3721
 20
1.293
  0
VERTEX
  8
0
 10
13.3602
 20
1.3406
  0
VERTEX
  8
0
 10
13.3477
 20
1.3768
  0
VERTEX
  8
0
 10
13.3331
 20
1.4092
  0
VERTEX
  8
0
 10
13.3165
 20
1.4379
  0
VERTEX
  8
0
 10
13.2979
 20
1.4627
  0
VERTEX
  8
0
 10
13.2772
 20
1.4837
  0
VERTEX
  8
0
 10
13.2546
 20
1.501
  0
VERTEX
  8
0
 10
13.2298
 20
1.5144
  0
VERTEX
  8
0
 10
13.2031
 20
1.5241
  0
VERTEX
  8
0
 10
13.1743
 20
1.5299
  0
VERTEX
  8
0
 10
13.1435
 20
1.532
  0
VERTEX
  8
0
 10
13.0937
 20
1.5268
  0
VERTEX
  8
0
 10
13.0491
 20
1.5102
  0
VERTEX
  8
0
 10
13.0099
 20
1.4823
  0
VERTEX
  8
0
 10
12.9759
 20
1.4431
  0
VERTEX
  8
0
 10
12.9609
 20
1.4188
  0
VERTEX
  8
0
 10
12.9476
 20
1.3906
  0
VERTEX
  8
0
 10
12.9358
 20
1.3584
  0
VERTEX
  8
0
 10
12.9255
 20
1.3224
  0
VERTEX
  8
0
 10
12.9169
 20
1.2824
  0
VERTEX
  8
0
 10
12.9098
 20
1.2386
  0
VERTEX
  8
0
 10
12.9043
 20
1.1908
  0
VERTEX
  8
0
 10
12.9003
 20
1.1391
  0
VERTEX
  8
0
 10
12.898
 20
1.0835
  0
VERTEX
  8
0
 10
12.8972
 20
1.024
  0
VERTEX
  8
0
 10
12.8972
 20
1.024
  0
SEQEND
  0
POLYLINE
  8
0
 66
     1
 10
0
 20
0
  0
VERTEX
  8
0
 10
13.7852
 20
0.408
  0
VERTEX
  8
0
 10
13.7852
 20
0.584
  0
VERTEX
  8
0
 10
13.9572
 20
0.584
  0
VERTEX
  8
0
 10
13.9572
 20
0.408
  0
VERTEX
  8
0
 10
13.7852
 20
0.408
  0
SEQEND
  0
POLYLINE
  8
0
 66
     1
 10
0
 20
0
  0
VERTEX
  8
0
 10
14.1932
 20
1.484
  0
VERTEX
  8
0
 10
14.1932
 20
1.632
  0
VERTEX
  8
0
 10
14.9944
 20
1.632
  0
VERTEX
  8
0
 10
14.9944
 20
1.5136
  0
VERTEX
  8
0
 10
14.9354
 20
1.4454
  0
VERTEX
  8
0
 10
14.8766
 20
1.3668
  0
VERTEX
  8
0
 10
14.8181
 20
1.2779
  0
VERTEX
  8
0
 10
14.7597
 20
1.1786
  0
VERTEX
  8
0
 10
14.6588
 20
0.9709
  0
VERTEX
  8
0
 10
14.5807
 20
0.7489
  0
VERTEX
  8
0
 10
14.5434
 20
0.5854
  0
VERTEX
  8
0
 10
14.5224
 20
0.408
  0
VERTEX
  8
0
 10
14.3663
 20
0.408
  0
VERTEX
  8
0
 10
14.3752
 20
0.5283
  0
VERTEX
  8
0
 10
14.3974
 20
0.6572
  0
VERTEX
  8
0
 10
14.4329
 20
0.7948
  0
VERTEX
  8
0
 10
14.4986
 20
0.984
  0
VERTEX
  8
0
 10
14.5807
 20
1.1597
  0
VERTEX
  8
0
 10
14.6508
 20
1.2817
  0
VERTEX
  8
0
 10
14.7237
 20
1.3898
  0
VERTEX
  8
0
 10
14.7994
 20
1.484
  0
VERTEX
  8
0
 10
14.1932
 20
1.484
  0
SEQEND
  0
POLYLINE
  8
0
 66
     1
 10
0
 20
0
  0
VERTEX
  8
0
 10
15.1412
 20
0.7362
  0
VERTEX
  8
0
 10
15.3009
 20
0.7497
  0
VERTEX
  8
0
 10
15.3068
 20
0.7175
  0
VERTEX
  8
0
 10
15.3144
 20
0.6877
  0
VERTEX
  8
0
 10
15.3238
 20
0.6603
  0
VERTEX
  8
0
 10
15.3348
 20
0.6352
  0
VERTEX
  8
0
 10
15.3476
 20
0.6126
  0
VERTEX
  8
0
 10
15.362
 20
0.5923
  0
VERTEX
  8
0
 10
15.3782
 20
0.5744
  0
VERTEX
  8
0
 10
15.3961
 20
0.5589
  0
VERTEX
  8
0
 10
15.4157
 20
0.5458
  0
VERTEX
  8
0
 10
15.437
 20
0.5351
  0
VERTEX
  8
0
 10
15.46
 20
0.5267
  0
VERTEX
  8
0
 10
15.4847
 20
0.5208
  0
VERTEX
  8
0
 10
15.5111
 20
0.5172
  0
VERTEX
  8
0
 10
15.5392
 20
0.516
  0
VERTEX
  8
0
 10
15.5859
 20
0.5197
  0
VERTEX
  8
0
 10
15.6287
 20
0.5308
  0
VERTEX
  8
0
 10
15.6676
 20
0.5493
  0
VERTEX
  8
0
 10
15.7025
 20
0.5752
  0
VERTEX
  8
0
 10
15.7336
 20
0.6084
  0
VERTEX
  8
0
 10
15.7711
 20
0.669
  0
VERTEX
  8
0
 10
15.7937
 20
0.7385
  0
VERTEX
  8
0
 10
15.8012
 20
0.8169
  0
VERTEX
  8
0
 10
15.7968
 20
0.8762
  0
VERTEX
  8
0
 10
15.7837
 20
0.9294
  0
VERTEX
  8
0
 10
15.7617
 20
0.9768
  0
VERTEX
  8
0
 10
15.731
 20
1.0182
  0
VERTEX
  8
0
 10
15.6926
 20
1.052
  0
VERTEX
  8
0
 10
15.6474
 20
1.0762
  0
VERTEX
  8
0
 10
15.5954
 20
1.0908
  0
VERTEX
  8
0
 10
15.5367
 20
1.096
  0
VERTEX
  8
0
 10
15.49
 20
1.093
  0
VERTEX
  8
0
 10
15.447
 20
1.0833
  0
VERTEX
  8
0
 10
15.4076
 20
1.067
  0
VERTEX
  8
0
 10
15.3718
 20
1.0441
  0
VERTEX
  8
0
 10
15.3396
 20
1.0146
  0
VERTEX
  8
0
 10
15.311
 20
0.9784
  0
VERTEX
  8
0
 10
15.1682
 20
0.997
  0
VERTEX
  8
0
 10
15.2881
 20
1.632
  0
VERTEX
  8
0
 10
15.9035
 20
1.632
  0
VERTEX
  8
0
 10
15.9035
 20
1.488
  0
VERTEX
  8
0
 10
15.4116
 20
1.488
  0
VERTEX
  8
0
 10
15.3445
 20
1.1546
  0
VERTEX
  8
0
 10
15.4198
 20
1.1972
  0
VERTEX
  8
0
 10
15.4975
 20
1.223
  0
VERTEX
  8
0
 10
15.5776
 20
1.232
  0
VERTEX
  8
0
 10
15.632
 20
1.229
  0
VERTEX
  8
0
 10
15.6832
 20
1.2195
  0
VERTEX
  8
0
 10
15.7311
 20
1.2034
  0
VERTEX
  8
0
 10
15.7757
 20
1.1807
  0
VERTEX
  8
0
 10
15.8171
 20
1.1515
  0
VERTEX
  8
0
 10
15.8552
 20
1.1157
  0
VERTEX
  8
0
 10
15.8876
 20
1.0763
  0
VERTEX
  8
0
 10
15.9141
 20
1.0336
  0
VERTEX
  8
0
 10
15.9347
 20
0.9879
  0
VERTEX
  8
0
 10
15.9494
 20
0.939
  0
VERTEX
  8
0
 10
15.9583
 20
0.887
  0
VERTEX
  8
0
 10
15.9612
 20
0.8318
  0
VERTEX
  8
0
 10
15.9573
 20
0.7668
  0
VERTEX
  8
0
 10
15.9455
 20
0.7054
  0
VERTEX
  8
0
 10
15.926
 20
0.6474
  0
VERTEX
  8
0
 10
15.8986
 20
0.5929
  0
VERTEX
  8
0
 10
15.8633
 20
0.542
  0
VERTEX
  8
0
 10
15.8322
 20
0.507
  0
VERTEX
  8
0
 10
15.7984
 20
0.4767
  0
VERTEX
  8
0
 10
15.7619
 20
0.451
  0
VERTEX
  8
0
 10
15.7227
 20
0.4299
  0
VERTEX
  8
0
 10
15.6807
 20
0.4135
  0
VERTEX
  8
0
 10
15.636
 20
0.4017
  0
VERTEX
  8
0
 10
15.5887
 20
0.3945
  0
VERTEX
  8
0
 10
15.5386
 20
0.392
  0
VERTEX
  8
0
 10
15.475
 20
0.3956
  0
VERTEX
  8
0
 10
15.4161
 20
0.4064
  0
VERTEX
  8
0
 10
15.3618
 20
0.4244
  0
VERTEX
  8
0
 10
15.312
 20
0.4496
  0
VERTEX
  8
0
 10
15.2669
 20
0.4821
  0
VERTEX
  8
0
 10
15.2268
 20
0.5218
  0
VERTEX
  8
0
 10
15.1941
 20
0.5672
  0
VERTEX
  8
0
 10
15.169
 20
0.618
  0
VERTEX
  8
0
 10
15.1513
 20
0.6744
  0
VERTEX
  8
0
 10
15.1412
 20
0.7362
  0
VERTEX
  8
0
 10
15.1412
 20
0.7362
  0
SEQEND
  0
POLYLINE
  8
0
 66
     1
 10
0
 20
0
  0
VERTEX
  8
0
 10
16.1551
 20
1.212
  0
VERTEX
  8
0
 10
16.1132
 20
1.4464
  0
VERTEX
  8
0
 10
16.1132
 20
1.648
  0
VERTEX
  8
0
 10
16.2852
 20
1.648
  0
VERTEX
  8
0
 10
16.2852
 20
1.4464
  0
VERTEX
  8
0
 10
16.2474
 20
1.212
  0
VERTEX
  8
0
 10
16.1551
 20
1.212
  0
SEQEND
  0
POLYLINE
  8
0
 66
     1
 10
0
 20
0
  0
VERTEX
  8
0
 10
16.4343
 20
1.212
  0
VERTEX
  8
0
 10
16.3932
 20
1.4464
  0
VERTEX
  8
0
 10
16.3932
 20
1.648
  0
VERTEX
  8
0
 10
16.5652
 20
1.648
  0
VERTEX
  8
0
 10
16.5652
 20
1.4464
  0
VERTEX
  8
0
 10
16.5249
 20
1.212
  0
VERTEX
  8
0
 10
16.4343
 20
1.212
  0
SEQEND
  0
POLYLINE
  8
0
 66
     1
 10
0
 20
0
  0
VERTEX
  8
0
 10
17.5772
 20
0.408
  0
VERTEX
  8
0
 10
17.5772
 20
1.648
  0
VERTEX
  8
0
 10
18.0423
 20
1.648
  0
VERTEX
  8
0
 10
18.1295
 20
1.6438
  0
VERTEX
  8
0
 10
18.2053
 20
1.6311
  0
VERTEX
  8
0
 10
18.2697
 20
1.6099
  0
VERTEX
  8
0
 10
18.3438
 20
1.5641
  0
VERTEX
  8
0
 10
18.402
 20
1.4975
  0
VERTEX
  8
0
 10
18.44
 20
1.4173
  0
VERTEX
  8
0
 10
18.4532
 20
1.3308
  0
VERTEX
  8
0
 10
18.4514
 20
1.2931
  0
VERTEX
  8
0
 10
18.4452
 20
1.2576
  0
VERTEX
  8
0
 10
18.4346
 20
1.2241
  0
VERTEX
  8
0
 10
18.4196
 20
1.1928
  0
VERTEX
  8
0
 10
18.4002
 20
1.1636
  0
VERTEX
  8
0
 10
18.3764
 20
1.1364
  0
VERTEX
  8
0
 10
18.3483
 20
1.1114
  0
VERTEX
  8
0
 10
18.3157
 20
1.0885
  0
VERTEX
  8
0
 10
18.2788
 20
1.0677
  0
VERTEX
  8
0
 10
18.3464
 20
1.0413
  0
VERTEX
  8
0
 10
18.4033
 20
1.005
  0
VERTEX
  8
0
 10
18.4495
 20
0.9586
  0
VERTEX
  8
0
 10
18.4849
 20
0.9021
  0
VERTEX
  8
0
 10
18.5061
 20
0.8383
  0
VERTEX
  8
0
 10
18.5132
 20
0.7675
  0
VERTEX
  8
0
 10
18.5049
 20
0.6895
  0
VERTEX
  8
0
 10
18.4802
 20
0.6144
  0
VERTEX
  8
0
 10
18.4392
 20
0.544
  0
VERTEX
  8
0
 10
18.3855
 20
0.4901
  0
VERTEX
  8
0
 10
18.3522
 20
0.4683
  0
VERTEX
  8
0
 10
18.3139
 20
0.4499
  0
VERTEX
  8
0
 10
18.2709
 20
0.4348
  0
VERTEX
  8
0
 10
18.2229
 20
0.4231
  0
VERTEX
  8
0
 10
18.1701
 20
0.4147
  0
VERTEX
  8
0
 10
18.1124
 20
0.4097
  0
VERTEX
  8
0
 10
18.0498
 20
0.408
  0
VERTEX
  8
0
 10
17.5772
 20
0.408
  0
SEQEND
  0
POLYLINE
  8
0
 66
     1
 10
0
 20
0
  0
VERTEX
  8
0
 10
17.7412
 20
1.128
  0
VERTEX
  8
0
 10
18.01
 20
1.128
  0
VERTEX
  8
0
 10
18.0757
 20
1.1296
  0
VERTEX
  8
0
 10
18.128
 20
1.1343
  0
VERTEX
  8
0
 10
18.1669
 20
1.1422
  0
VERTEX
  8
0
 10
18.2
 20
1.1548
  0
VERTEX
  8
0
 10
18.2281
 20
1.1711
  0
VERTEX
  8
0
 10
18.2511
 20
1.1914
  0
VERTEX
  8
0
 10
18.2692
 20
1.2155
  0
VERTEX
  8
0
 10
18.2822
 20
1.2435
  0
VERTEX
  8
0
 10
18.2902
 20
1.2753
  0
VERTEX
  8
0
 10
18.2932
 20
1.3111
  0
VERTEX
  8
0
 10
18.2913
 20
1.3475
  0
VERTEX
  8
0
 10
18.2845
 20
1.3799
  0
VERTEX
  8
0
 10
18.273
 20
1.4083
  0
VERTEX
  8
0
 10
18.2566
 20
1.4328
  0
VERTEX
  8
0
 10
18.2355
 20
1.4533
  0
VERTEX
  8
0
 10
18.2095
 20
1.4698
  0
VERTEX
  8
0
 10
18.1787
 20
1.4824
  0
VERTEX
  8
0
 10
18.1462
 20
1.4901
  0
VERTEX
  8
0
 10
18.1039
 20
1.4956
  0
VERTEX
  8
0
 10
18.0517
 20
1.4989
  0
VERTEX
  8
0
 10
17.9896
 20
1.5
  0
VERTEX
  8
0
 10
17.7412
 20
1.5
  0
VERTEX
  8
0
 10
17.7412
 20
1.128
  0
SEQEND
  0
POLYLINE
  8
0
 66
     1
 10
0
 20
0
  0
VERTEX
  8
0
 10
17.7412
 20
0.556
  0
VERTEX
  8
0
 10
18.0508
 20
0.556
  0
VERTEX
  8
0
 10
18.1187
 20
0.5575
  0
VERTEX
  8
0
 10
18.1628
 20
0.5619
  0
VERTEX
  8
0
 10
18.2153
 20
0.5761
  0
VERTEX
  8
0
 10
18.2591
 20
0.5979
  0
VERTEX
  8
0
 10
18.2942
 20
0.627
  0
VERTEX
  8
0
 10
18.3206
 20
0.6637
  0
VERTEX
  8
0
 10
18.3386
 20
0.7116
  0
VERTEX
  8
0
 10
18.3452
 20
0.768
  0
VERTEX
  8
0
 10
18.3435
 20
0.8028
  0
VERTEX
  8
0
 10
18.3374
 20
0.8345
  0
VERTEX
  8
0
 10
18.327
 20
0.8631
  0
VERTEX
  8
0
 10
18.3123
 20
0.8885
  0
VERTEX
  8
0
 10
18.2933
 20
0.9108
  0
VERTEX
  8
0
 10
18.27
 20
0.93
  0
VERTEX
  8
0
 10
18.2423
 20
0.946
  0
VERTEX
  8
0
 10
18.2103
 20
0.9589
  0
VERTEX
  8
0
 10
18.1331
 20
0.9747
  0
VERTEX
  8
0
 10
18.0288
 20
0.98
  0
VERTEX
  8
0
 10
17.7412
 20
0.98
  0
VERTEX
  8
0
 10
17.7412
 20
0.556
  0
SEQEND
  0
POLYLINE
  8
0
 66
     1
 10
0
 20
0
  0
VERTEX
  8
0
 10
18.6652
 20
0.86
  0
VERTEX
  8
0
 10
18.6669
 20
0.9137
  0
VERTEX
  8
0
 10
18.672
 20
0.9642
  0
VERTEX
  8
0
 10
18.6806
 20
1.0115
  0
VERTEX
  8
0
 10
18.6925
 20
1.0556
  0
VERTEX
  8
0
 10
18.7079
 20
1.0966
  0
VERTEX
  8
0
 10
18.7267
 20
1.1343
  0
VERTEX
  8
0
 10
18.7489
 20
1.1689
  0
VERTEX
  8
0
 10
18.7746
 20
1.2003
  0
VERTEX
  8
0
 10
18.8036
 20
1.2285
  0
VERTEX
  8
0
 10
18.8517
 20
1.2643
  0
VERTEX
  8
0
 10
18.9039
 20
1.2922
  0
VERTEX
  8
0
 10
18.9603
 20
1.3121
  0
VERTEX
  8
0
 10
19.0209
 20
1.324
  0
VERTEX
  8
0
 10
19.0856
 20
1.328
  0
VERTEX
  8
0
 10
19.1404
 20
1.3253
  0
VERTEX
  8
0
 10
19.1917
 20
1.3173
  0
VERTEX
  8
0
 10
19.2396
 20
1.304
  0
VERTEX
  8
0
 10
19.2841
 20
1.2853
  0
VERTEX
  8
0
 10
19.3252
 20
1.2613
  0
VERTEX
  8
0
 10
19.3629
 20
1.232
  0
VERTEX
  8
0
 10
19.3971
 20
1.1973
  0
VERTEX
  8
0
 10
19.4302
 20
1.1536
  0
VERTEX
  8
0
 10
19.4572
 20
1.1058
  0
VERTEX
  8
0
 10
19.4782
 20
1.0537
  0
VERTEX
  8
0
 10
19.4932
 20
0.9975
  0
VERTEX
  8
0
 10
19.5022
 20
0.9372
  0
VERTEX
  8
0
 10
19.5052
 20
0.8726
  0
VERTEX
  8
0
 10
19.5042
 20
0.8288
  0
VERTEX
  8
0
 10
19.501
 20
0.7871
  0
VERTEX
  8
0
 10
19.4959
 20
0.7474
  0
VERTEX
  8
0
 10
19.4886
 20
0.7098
  0
VERTEX
  8
0
 10
19.4792
 20
0.6743
  0
VERTEX
  8
0
 10
19.4678
 20
0.6408
  0
VERTEX
  8
0
 10
19.4543
 20
0.6093
  0
VERTEX
  8
0
 10
19.4388
 20
0.5799
  0
VERTEX
  8
0
 10
19.4211
 20
0.5526
  0
VERTEX
  8
0
 10
19.4014
 20
0.5273
  0
VERTEX
  8
0
 10
19.3796
 20
0.5041
  0
VERTEX
  8
0
 10
19.3557
 20
0.483
  0
VERTEX
  8
0
 10
19.3298
 20
0.4639
  0
VERTEX
  8
0
 10
19.3018
 20
0.4468
  0
VERTEX
  8
0
 10
19.1983
 20
0.4061
  0
VERTEX
  8
0
 10
19.0856
 20
0.392
  0
VERTEX
  8
0
 10
19.0358
 20
0.3939
  0
VERTEX
  8
0
 10
18.9889
 20
0.4
  0
VERTEX
  8
0
 10
18.9449
 20
0.4104
  0
VERTEX
  8
0
 10
18.9039
 20
0.4251
  0
VERTEX
  8
0
 10
18.8658
 20
0.444
  0
VERTEX
  8
0
 10
18.8306
 20
0.4671
  0
VERTEX
  8
0
 10
18.7983
 20
0.4944
  0
VERTEX
  8
0
 10
18.769
 20
0.5261
  0
VERTEX
  8
0
 10
18.7373
 20
0.57
  0
VERTEX
  8
0
 10
18.7113
 20
0.6186
  0
VERTEX
  8
0
 10
18.6911
 20
0.6719
  0
VERTEX
  8
0
 10
18.6767
 20
0.7299
  0
VERTEX
  8
0
 10
18.6681
 20
0.7926
  0
VERTEX
  8
0
 10
18.6652
 20
0.86
  0
VERTEX
  8
0
 10
18.6652
 20
0.86
  0
SEQEND
  0
POLYLINE
  8
0
 66
     1
 10
0
 20
0
  0
VERTEX
  8
0
 10
18.8212
 20
0.8604
  0
VERTEX
  8
0
 10
18.8248
 20
0.7911
  0
VERTEX
  8
0
 10
18.8358
 20
0.7286
  0
VERTEX
  8
0
 10
18.854
 20
0.673
  0
VERTEX
  8
0
 10
18.8795
 20
0.6243
  0
VERTEX
  8
0
 10
18.9045
 20
0.5915
  0
VERTEX
  8
0
 10
18.9332
 20
0.5645
  0
VERTEX
  8
0
 10
18.9657
 20
0.5435
  0
VERTEX
  8
0
 10
19.0019
 20
0.5284
  0
VERTEX
  8
0
 10
19.0419
 20
0.5192
  0
VERTEX
  8
0
 10
19.0856
 20
0.516
  0
VERTEX
  8
0
 10
19.1294
 20
0.5188
  0
VERTEX
  8
0
 10
19.1693
 20
0.5279
  0
VERTEX
  8
0
 10
19.2056
 20
0.5433
  0
VERTEX
  8
0
 10
19.2381
 20
0.5649
  0
VERTEX
  8
0
 10
19.2668
 20
0.5927
  0
VERTEX
  8
0
 10
19.2918
 20
0.6269
  0
VERTEX
  8
0
 10
19.3237
 20
0.6947
  0
VERTEX
  8
0
 10
19.3428
 20
0.7743
  0
VERTEX
  8
0
 10
19.3492
 20
0.8655
  0
VERTEX
  8
0
 10
19.3425
 20
0.9537
  0
VERTEX
  8
0
 10
19.3225
 20
1.031
  0
VERTEX
  8
0
 10
19.2892
 20
1.0974
  0
VERTEX
  8
0
 10
19.2638
 20
1.13
  0
VERTEX
  8
0
 10
19.2351
 20
1.1566
  0
VERTEX
  8
0
 10
19.2028
 20
1.1773
  0
VERTEX
  8
0
 10
19.1672
 20
1.1921
  0
VERTEX
  8
0
 10
19.1281
 20
1.201
  0
VERTEX
  8
0
 10
19.0856
 20
1.204
  0
VERTEX
  8
0
 10
19.0419
 20
1.201
  0
VERTEX
  8
0
 10
19.0019
 20
1.192
  0
VERTEX
  8
0
 10
18.9657
 20
1.1769
  0
VERTEX
  8
0
 10
18.9332
 20
1.1559
  0
VERTEX
  8
0
 10
18.9045
 20
1.1288
  0
VERTEX
  8
0
 10
18.8795
 20
1.0957
  0
VERTEX
  8
0
 10
18.8471
 20
1.0289
  0
VERTEX
  8
0
 10
18.8277
 20
0.9505
  0
VERTEX
  8
0
 10
18.8212
 20
0.8604
  0
VERTEX
  8
0
 10
18.8212
 20
0.8604
  0
SEQEND
  0
POLYLINE
  8
0
 66
     1
 10
0
 20
0
  0
VERTEX
  8
0
 10
19.6812
 20
0.408
  0
VERTEX
  8
0
 10
19.6812
 20
1.3086
  0
VERTEX
  8
0
 10
19.8172
 20
1.3086
  0
VERTEX
  8
0
 10
19.8172
 20
1.1726
  0
VERTEX
  8
0
 10
19.8569
 20
1.2369
  0
VERTEX
  8
0
 10
19.8933
 20
1.2801
  0
VERTEX
  8
0
 10
19.9479
 20
1.316
  0
VERTEX
  8
0
 10
20.0118
 20
1.328
  0
VERTEX
  8
0
 10
20.089
 20
1.3158
  0
VERTEX
  8
0
 10
20.1683
 20
1.2792
  0
VERTEX
  8
0
 10
20.116
 20
1.1389
  0
VERTEX
  8
0
 10
20.0603
 20
1.1637
  0
VERTEX
  8
0
 10
20.0046
 20
1.172
  0
VERTEX
  8
0
 10
19.9556
 20
1.1633
  0
VERTEX
  8
0
 10
19.91
 20
1.1372
  0
VERTEX
  8
0
 10
19.8794
 20
1.103
  0
VERTEX
  8
0
 10
19.8585
 20
1.0582
  0
VERTEX
  8
0
 10
19.8395
 20
0.9738
  0
VERTEX
  8
0
 10
19.8332
 20
0.88
  0
VERTEX
  8
0
 10
19.8332
 20
0.408
  0
VERTEX
  8
0
 10
19.6812
 20
0.408
  0
SEQEND
  0
POLYLINE
  8
0
 66
     1
 10
0
 20
0
  0
VERTEX
  8
0
 10
20.8412
 20
0.408
  0
VERTEX
  8
0
 10
20.8412
 20
0.5251
  0
VERTEX
  8
0
 10
20.8156
 20
0.49
  0
VERTEX
  8
0
 10
20.7867
 20
0.4602
  0
VERTEX
  8
0
 10
20.7544
 20
0.4359
  0
VERTEX
  8
0
 10
20.7189
 20
0.4168
  0
VERTEX
  8
0
 10
20.68
 20
0.4032
  0
VERTEX
  8
0
 10
20.6378
 20
0.3949
  0
VERTEX
  8
0
 10
20.5923
 20
0.392
  0
VERTEX
  8
0
 10
20.5213
 20
0.3984
  0
VERTEX
  8
0
 10
20.4548
 20
0.419
  0
VERTEX
  8
0
 10
20.3928
 20
0.4536
  0
VERTEX
  8
0
 10
20.3149
 20
0.5242
  0
VERTEX
  8
0
 10
20.2574
 20
0.6163
  0
VERTEX
  8
0
 10
20.2216
 20
0.7285
  0
VERTEX
  8
0
 10
20.2092
 20
0.8592
  0
VERTEX
  8
0
 10
20.2102
 20
0.9066
  0
VERTEX
  8
0
 10
20.2137
 20
0.9516
  0
VERTEX
  8
0
 10
20.2197
 20
0.9943
  0
VERTEX
  8
0
 10
20.2283
 20
1.0345
  0
VERTEX
  8
0
 10
20.2393
 20
1.0723
  0
VERTEX
  8
0
 10
20.2529
 20
1.1077
  0
VERTEX
  8
0
 10
20.2691
 20
1.1407
  0
VERTEX
  8
0
 10
20.2877
 20
1.1714
  0
VERTEX
  8
0
 10
20.3089
 20
1.1996
  0
VERTEX
  8
0
 10
20.3326
 20
1.2254
  0
VERTEX
  8
0
 10
20.3588
 20
1.2488
  0
VERTEX
  8
0
 10
20.3875
 20
1.2698
  0
VERTEX
  8
0
 10
20.4489
 20
1.3021
  0
VERTEX
  8
0
 10
20.5153
 20
1.3215
  0
VERTEX
  8
0
 10
20.5868
 20
1.328
  0
VERTEX
  8
0
 10
20.6304
 20
1.3255
  0
VERTEX
  8
0
 10
20.6711
 20
1.318
  0
VERTEX
  8
0
 10
20.7091
 20
1.3055
  0
VERTEX
  8
0
 10
20.7443
 20
1.288
  0
VERTEX
  8
0
 10
20.7767
 20
1.2655
  0
VERTEX
  8
0
 10
20.8063
 20
1.238
  0
VERTEX
  8
0
 10
20.8332
 20
1.2056
  0
VERTEX
  8
0
 10
20.8332
 20
1.648
  0
VERTEX
  8
0
 10
20.9852
 20
1.648
  0
VERTEX
  8
0
 10
20.9852
 20
0.408
  0
VERTEX
  8
0
 10
20.8412
 20
0.408
  0
SEQEND
  0
POLYLINE
  8
0
 66
     1
 10
0
 20
0
  0
VERTEX
  8
0
 10
20.3652
 20
0.8596
  0
VERTEX
  8
0
 10
20.3711
 20
0.7735
  0
VERTEX
  8
0
 10
20.3888
 20
0.6971
  0
VERTEX
  8
0
 10
20.4184
 20
0.6302
  0
VERTEX
  8
0
 10
20.4418
 20
0.5956
  0
VERTEX
  8
0
 10
20.4685
 20
0.5672
  0
VERTEX
  8
0
 10
20.4986
 20
0.545
  0
VERTEX
  8
0
 10
20.5321
 20
0.5291
  0
VERTEX
  8
0
 10
20.569
 20
0.5194
  0
VERTEX
  8
0
 10
20.6093
 20
0.516
  0
VERTEX
  8
0
 10
20.6489
 20
0.5188
  0
VERTEX
  8
0
 10
20.6853
 20
0.5276
  0
VERTEX
  8
0
 10
20.7182
 20
0.5426
  0
VERTEX
  8
0
 10
20.7478
 20
0.5637
  0
VERTEX
  8
0
 10
20.7739
 20
0.591
  0
VERTEX
  8
0
 10
20.7968
 20
0.6243
  0
VERTEX
  8
0
 10
20.8254
 20
0.6889
  0
VERTEX
  8
0
 10
20.8425
 20
0.7631
  0
VERTEX
  8
0
 10
20.8483
 20
0.8469
  0
VERTEX
  8
0
 10
20.8427
 20
0.9376
  0
VERTEX
  8
0
 10
20.8261
 20
1.0169
  0
VERTEX
  8
0
 10
20.7984
 20
1.0847
  0
VERTEX
  8
0
 10
20.7752
 20
1.1211
  0
VERTEX
  8
0
 10
20.7481
 20
1.151
  0
VERTEX
  8
0
 10
20.7174
 20
1.1742
  0
VERTEX
  8
0
 10
20.6828
 20
1.1907
  0
VERTEX
  8
0
 10
20.6445
 20
1.2007
  0
VERTEX
  8
0
 10
20.6025
 20
1.204
  0
VERTEX
  8
0
 10
20.5616
 20
1.2008
  0
VERTEX
  8
0
 10
20.5244
 20
1.1913
  0
VERTEX
  8
0
 10
20.491
 20
1.1754
  0
VERTEX
  8
0
 10
20.4614
 20
1.1532
  0
VERTEX
  8
0
 10
20.4355
 20
1.1247
  0
VERTEX
  8
0
 10
20.4133
 20
1.0897
  0
VERTEX
  8
0
 10
20.3866
 20
1.0243
  0
VERTEX
  8
0
 10
20.3705
 20
0.9476
  0
VERTEX
  8
0
 10
20.3652
 20
0.8596
  0
VERTEX
  8
0
 10
20.3652
 20
0.8596
  0
SEQEND
  0
POLYLINE
  8
0
 66
     1
 10
0
 20
0
  0
VERTEX
  8
0
 10
21.8374
 20
0.7007
  0
VERTEX
  8
0
 10
21.9946
 20
0.6814
  0
VERTEX
  8
0
 10
21.9853
 20
0.6501
  0
VERTEX
  8
0
 10
21.9744
 20
0.6206
  0
VERTEX
  8
0
 10
21.9621
 20
0.593
  0
VERTEX
  8
0
 10
21.9483
 20
0.5671
  0
VERTEX
  8
0
 10
21.933
 20
0.5429
  0
VERTEX
  8
0
 10
21.9163
 20
0.5206
  0
VERTEX
  8
0
 10
21.8981
 20
0.5001
  0
VERTEX
  8
0
 10
21.8784
 20
0.4813
  0
VERTEX
  8
0
 10
21.8572
 20
0.4643
  0
VERTEX
  8
0
 10
21.8346
 20
0.4492
  0
VERTEX
  8
0
 10
21.8105
 20
0.4358
  0
VERTEX
  8
0
 10
21.7849
 20
0.4241
  0
VERTEX
  8
0
 10
21.7578
 20
0.4143
  0
VERTEX
  8
0
 10
21.7293
 20
0.4063
  0
VERTEX
  8
0
 10
21.6993
 20
0.4
  0
VERTEX
  8
0
 10
21.6678
 20
0.3956
  0
VERTEX
  8
0
 10
21.6348
 20
0.3929
  0
VERTEX
  8
0
 10
21.6004
 20
0.392
  0
VERTEX
  8
0
 10
21.5456
 20
0.3945
  0
VERTEX
  8
0
 10
21.4942
 20
0.4018
  0
VERTEX
  8
0
 10
21.4462
 20
0.4141
  0
VERTEX
  8
0
 10
21.4016
 20
0.4314
  0
VERTEX
  8
0
 10
21.3604
 20
0.4535
  0
VERTEX
  8
0
 10
21.3225
 20
0.4806
  0
VERTEX
  8
0
 10
21.288
 20
0.5126
  0
VERTEX
  8
0
 10
21.2575
 20
0.5491
  0
VERTEX
  8
0
 10
21.2318
 20
0.5896
  0
VERTEX
  8
0
 10
21.2107
 20
0.6341
  0
VERTEX
  8
0
 10
21.1943
 20
0.6826
  0
VERTEX
  8
0
 10
21.1826
 20
0.7352
  0
VERTEX
  8
0
 10
21.1755
 20
0.7918
  0
VERTEX
  8
0
 10
21.1732
 20
0.8524
  0
VERTEX
  8
0
 10
21.1761
 20
0.9196
  0
VERTEX
  8
0
 10
21.1846
 20
0.9824
  0
VERTEX
  8
0
 10
21.1989
 20
1.0407
  0
VERTEX
  8
0
 10
21.219
 20
1.0945
  0
VERTEX
  8
0
 10
21.2447
 20
1.1439
  0
VERTEX
  8
0
 10
21.2762
 20
1.1889
  0
VERTEX
  8
0
 10
21.3059
 20
1.2215
  0
VERTEX
  8
0
 10
21.3384
 20
1.2497
  0
VERTEX
  8
0
 10
21.3736
 20
1.2737
  0
VERTEX
  8
0
 10
21.4117
 20
1.2932
  0
VERTEX
  8
0
 10
21.4526
 20
1.3084
  0
VERTEX
  8
0
 10
21.4962
 20
1.3193
  0
VERTEX
  8
0
 10
21.5427
 20
1.3258
  0
VERTEX
  8
0
 10
21.5919
 20
1.328
  0
VERTEX
  8
0
 10
21.64
 20
1.3259
  0
VERTEX
  8
0
 10
21.6852
 20
1.3195
  0
VERTEX
  8
0
 10
21.7278
 20
1.3088
  0
VERTEX
  8
0
 10
21.7676
 20
1.2938
  0
VERTEX
  8
0
 10
21.8046
 20
1.2746
  0
VERTEX
  8
0
 10
21.8389
 20
1.2511
  0
VERTEX
  8
0
 10
21.8704
 20
1.2233
  0
VERTEX
  8
0
 10
21.8993
 20
1.1913
  0
VERTEX
  8
0
 10
21.9299
 20
1.1473
  0
VERTEX
  8
0
 10
21.9551
 20
1.0991
  0
VERTEX
  8
0
 10
21.9746
 20
1.0466
  0
VERTEX
  8
0
 10
21.9885
 20
0.99
  0
VERTEX
  8
0
 10
21.9969
 20
0.9292
  0
VERTEX
  8
0
 10
21.9997
 20
0.8642
  0
VERTEX
  8
0
 10
21.9995
 20
0.8433
  0
VERTEX
  8
0
 10
21.9988
 20
0.824
  0
VERTEX
  8
0
 10
21.3292
 20
0.824
  0
VERTEX
  8
0
 10
21.3402
 20
0.7413
  0
VERTEX
  8
0
 10
21.3641
 20
0.6697
  0
VERTEX
  8
0
 10
21.4011
 20
0.609
  0
VERTEX
  8
0
 10
21.4326
 20
0.5755
  0
VERTEX
  8
0
 10
21.4683
 20
0.5495
  0
VERTEX
  8
0
 10
21.5082
 20
0.5309
  0
VERTEX
  8
0
 10
21.5523
 20
0.5197
  0
VERTEX
  8
0
 10
21.6006
 20
0.516
  0
VERTEX
  8
0
 10
21.6336
 20
0.5178
  0
VERTEX
  8
0
 10
21.6645
 20
0.5234
  0
VERTEX
  8
0
 10
21.6933
 20
0.5326
  0
VERTEX
  8
0
 10
21.7201
 20
0.5456
  0
VERTEX
  8
0
 10
21.7448
 20
0.5622
  0
VERTEX
  8
0
 10
21.7674
 20
0.5825
  0
VERTEX
  8
0
 10
21.788
 20
0.6065
  0
VERTEX
  8
0
 10
21.8065
 20
0.6342
  0
VERTEX
  8
0
 10
21.823
 20
0.6656
  0
VERTEX
  8
0
 10
21.8374
 20
0.7007
  0
VERTEX
  8
0
 10
21.8374
 20
0.7007
  0
SEQEND
  0
POLYLINE
  8
0
 66
     1
 10
0
 20
0
  0
VERTEX
  8
0
 10
21.3386
 20
0.948
  0
VERTEX
  8
0
 10
21.8393
 20
0.948
  0
VERTEX
  8
0
 10
21.8284
 20
1.0167
  0
VERTEX
  8
0
 10
21.8092
 20
1.073
  0
VERTEX
  8
0
 10
21.7818
 20
1.1167
  0
VERTEX
  8
0
 10
21.7428
 20
1.1546
  0
VERTEX
  8
0
 10
21.6985
 20
1.1818
  0
VERTEX
  8
0
 10
21.6487
 20
1.1982
  0
VERTEX
  8
0
 10
21.5936
 20
1.204
  0
VERTEX
  8
0
 10
21.5408
 20
1.1997
  0
VERTEX
  8
0
 10
21.4931
 20
1.1859
  0
VERTEX
  8
0
 10
21.4505
 20
1.1627
  0
VERTEX
  8
0
 10
21.4129
 20
1.1301
  0
VERTEX
  8
0
 10
21.3751
 20
1.0786
  0
VERTEX
  8
0
 10
21.3503
 20
1.0178
  0
VERTEX
  8
0
 10
21.3386
 20
0.948
  0
VERTEX
  8
0
 10
21.3386
 20
0.948
  0
SEQEND
  0
POLYLINE
  8
0
 66
     1
 10
0
 20
0
  0
VERTEX
  8
0
 10
22.1852
 20
0.408
  0
VERTEX
  8
0
 10
22.1852
 20
1.3086
  0
VERTEX
  8
0
 10
22.3212
 20
1.3086
  0
VERTEX
  8
0
 10
22.3212
 20
1.1726
  0
VERTEX
  8
0
 10
22.3609
 20
1.2369
  0
VERTEX
  8
0
 10
22.3973
 20
1.2801
  0
VERTEX
  8
0
 10
22.4519
 20
1.316
  0
VERTEX
  8
0
 10
22.5158
 20
1.328
  0
VERTEX
  8
0
 10
22.593
 20
1.3158
  0
VERTEX
  8
0
 10
22.6723
 20
1.2792
  0
VERTEX
  8
0
 10
22.62
 20
1.1389
  0
VERTEX
  8
0
 10
22.5643
 20
1.1637
  0
VERTEX
  8
0
 10
22.5086
 20
1.172
  0
VERTEX
  8
0
 10
22.4596
 20
1.1633
  0
VERTEX
  8
0
 10
22.414
 20
1.1372
  0
VERTEX
  8
0
 10
22.3834
 20
1.103
  0
VERTEX
  8
0
 10
22.3625
 20
1.0582
  0
VERTEX
  8
0
 10
22.3435
 20
0.9738
  0
VERTEX
  8
0
 10
22.3372
 20
0.88
  0
VERTEX
  8
0
 10
22.3372
 20
0.408
  0
VERTEX
  8
0
 10
22.1852
 20
0.408
  0
SEQEND
  0
POLYLINE
  8
0
 66
     1
 10
0
 20
0
  0
VERTEX
  8
0
 10
22.8092
 20
0.408
  0
VERTEX
  8
0
 10
22.8092
 20
0.584
  0
VERTEX
  8
0
 10
22.9812
 20
0.584
  0
VERTEX
  8
0
 10
22.9812
 20
0.4117
  0
VERTEX
  8
0
 10
22.9794
 20
0.3728
  0
VERTEX
  8
0
 10
22.9742
 20
0.3369
  0
VERTEX
  8
0
 10
22.9655
 20
0.3039
  0
VERTEX
  8
0
 10
22.9532
 20
0.2739
  0
VERTEX
  8
0
 10
22.9375
 20
0.2468
  0
VERTEX
  8
0
 10
22.9183
 20
0.2227
  0
VERTEX
  8
0
 10
22.8955
 20
0.2015
  0
VERTEX
  8
0
 10
22.8693
 20
0.1833
  0
VERTEX
  8
0
 10
22.8396
 20
0.168
  0
VERTEX
  8
0
 10
22.7972
 20
0.2317
  0
VERTEX
  8
0
 10
22.8254
 20
0.2472
  0
VERTEX
  8
0
 10
22.8488
 20
0.2682
  0
VERTEX
  8
0
 10
22.8673
 20
0.2948
  0
VERTEX
  8
0
 10
22.8809
 20
0.327
  0
VERTEX
  8
0
 10
22.8896
 20
0.3647
  0
VERTEX
  8
0
 10
22.8934
 20
0.408
  0
VERTEX
  8
0
 10
22.8092
 20
0.408
  0
SEQEND
  0
POLYLINE
  8
0
 66
     1
 10
0
 20
0
  0
VERTEX
  8
0
 10
24.2814
 20
0.408
  0
VERTEX
  8
0
 10
23.9532
 20
1.648
  0
VERTEX
  8
0
 10
24.1212
 20
1.648
  0
VERTEX
  8
0
 10
24.3094
 20
0.8379
  0
VERTEX
  8
0
 10
24.3377
 20
0.7098
  0
VERTEX
  8
0
 10
24.3618
 20
0.5851
  0
VERTEX
  8
0
 10
24.3728
 20
0.6315
  0
VERTEX
  8
0
 10
24.3827
 20
0.6728
  0
VERTEX
  8
0
 10
24.3914
 20
0.7091
  0
VERTEX
  8
0
 10
24.3989
 20
0.7402
  0
VERTEX
  8
0
 10
24.4053
 20
0.7663
  0
VERTEX
  8
0
 10
24.4105
 20
0.7872
  0
VERTEX
  8
0
 10
24.4146
 20
0.8031
  0
VERTEX
  8
0
 10
24.4175
 20
0.8139
  0
VERTEX
  8
0
 10
24.653
 20
1.648
  0
VERTEX
  8
0
 10
24.8506
 20
1.648
  0
VERTEX
  8
0
 10
25.0279
 20
1.0232
  0
VERTEX
  8
0
 10
25.0851
 20
0.7976
  0
VERTEX
  8
0
 10
25.1244
 20
0.5851
  0
VERTEX
  8
0
 10
25.1324
 20
0.6231
  0
VERTEX
  8
0
 10
25.1425
 20
0.669
  0
VERTEX
  8
0
 10
25.1549
 20
0.7228
  0
VERTEX
  8
0
 10
25.1695
 20
0.7846
  0
VERTEX
  8
0
 10
25.1863
 20
0.8542
  0
VERTEX
  8
0
 10
25.3786
 20
1.648
  0
VERTEX
  8
0
 10
25.5445
 20
1.648
  0
VERTEX
  8
0
 10
25.2051
 20
0.408
  0
VERTEX
  8
0
 10
25.0486
 20
0.408
  0
VERTEX
  8
0
 10
24.7842
 20
1.3544
  0
VERTEX
  8
0
 10
24.7701
 20
1.4079
  0
VERTEX
  8
0
 10
24.7591
 20
1.4501
  0
VERTEX
  8
0
 10
24.7515
 20
1.4808
  0
VERTEX
  8
0
 10
24.747
 20
1.5001
  0
VERTEX
  8
0
 10
24.7299
 20
1.4258
  0
VERTEX
  8
0
 10
24.7116
 20
1.3549
  0
VERTEX
  8
0
 10
24.4484
 20
0.408
  0
VERTEX
  8
0
 10
24.2814
 20
0.408
  0
SEQEND
  0
POLYLINE
  8
0
 66
     1
 10
0
 20
0
  0
VERTEX
  8
0
 10
25.6812
 20
0.408
  0
VERTEX
  8
0
 10
25.6812
 20
1.648
  0
VERTEX
  8
0
 10
25.8332
 20
1.648
  0
VERTEX
  8
0
 10
25.8332
 20
1.2056
  0
VERTEX
  8
0
 10
25.8703
 20
1.2427
  0
VERTEX
  8
0
 10
25.9105
 20
1.2732
  0
VERTEX
  8
0
 10
25.9539
 20
1.297
  0
VERTEX
  8
0
 10
26.0003
 20
1.314
  0
VERTEX
  8
0
 10
26.0498
 20
1.3244
  0
VERTEX
  8
0
 10
26.1024
 20
1.328
  0
VERTEX
  8
0
 10
26.1945
 20
1.3185
  0
VERTEX
  8
0
 10
26.276
 20
1.2882
  0
VERTEX
  8
0
 10
26.3256
 20
1.2539
  0
VERTEX
  8
0
 10
26.3637
 20
1.2099
  0
VERTEX
  8
0
 10
26.3903
 20
1.156
  0
VERTEX
  8
0
 10
26.4075
 20
1.0793
  0
VERTEX
  8
0
 10
26.4132
 20
0.9781
  0
VERTEX
  8
0
 10
26.4132
 20
0.408
  0
VERTEX
  8
0
 10
26.2612
 20
0.408
  0
VERTEX
  8
0
 10
26.2612
 20
0.9776
  0
VERTEX
  8
0
 10
26.2602
 20
1.0075
  0
VERTEX
  8
0
 10
26.2573
 20
1.0351
  0
VERTEX
  8
0
 10
26.2525
 20
1.0606
  0
VERTEX
  8
0
 10
26.2457
 20
1.0839
  0
VERTEX
  8
0
 10
26.237
 20
1.105
  0
VERTEX
  8
0
 10
26.2263
 20
1.1239
  0
VERTEX
  8
0
 10
26.2137
 20
1.1406
  0
VERTEX
  8
0
 10
26.1992
 20
1.1551
  0
VERTEX
  8
0
 10
26.1827
 20
1.1674
  0
VERTEX
  8
0
 10
26.1643
 20
1.1775
  0
VERTEX
  8
0
 10
26.144
 20
1.1854
  0
VERTEX
  8
0
 10
26.1217
 20
1.1911
  0
VERTEX
  8
0
 10
26.0975
 20
1.1947
  0
VERTEX
  8
0
 10
26.0713
 20
1.196
  0
VERTEX
  8
0
 10
26.0057
 20
1.1878
  0
VERTEX
  8
0
 10
25.9442
 20
1.1613
  0
VERTEX
  8
0
 10
25.8933
 20
1.1197
  0
VERTEX
  8
0
 10
25.859
 20
1.0661
  0
VERTEX
  8
0
 10
25.8397
 20
0.9946
  0
VERTEX
  8
0
 10
25.8332
 20
0.8997
  0
VERTEX
  8
0
 10
25.8332
 20
0.408
  0
VERTEX
  8
0
 10
25.6812
 20
0.408
  0
SEQEND
  0
POLYLINE
  8
0
 66
     1
 10
0
 20
0
  0
VERTEX
  8
0
 10
26.6452
 20
1.472
  0
VERTEX
  8
0
 10
26.6452
 20
1.648
  0
VERTEX
  8
0
 10
26.7972
 20
1.648
  0
VERTEX
  8
0
 10
26.7972
 20
1.472
  0
VERTEX
  8
0
 10
26.6452
 20
1.472
  0
SEQEND
  0
POLYLINE
  8
0
 66
     1
 10
0
 20
0
  0
VERTEX
  8
0
 10
26.6452
 20
0.408
  0
VERTEX
  8
0
 10
26.6452
 20
1.3086
  0
VERTEX
  8
0
 10
26.7972
 20
1.3086
  0
VERTEX
  8
0
 10
26.7972
 20
0.408
  0
VERTEX
  8
0
 10
26.6452
 20
0.408
  0
SEQEND
  0
POLYLINE
  8
0
 66
     1
 10
0
 20
0
  0
VERTEX
  8
0
 10
27.3608
 20
0.5479
  0
VERTEX
  8
0
 10
27.3825
 20
0.4135
  0
VERTEX
  8
0
 10
27.3214
 20
0.4038
  0
VERTEX
  8
0
 10
27.2679
 20
0.4
  0
VERTEX
  8
0
 10
27.2268
 20
0.4015
  0
VERTEX
  8
0
 10
27.1903
 20
0.407
  0
VERTEX
  8
0
 10
27.1583
 20
0.4165
  0
VERTEX
  8
0
 10
27.1309
 20
0.43
  0
VERTEX
  8
0
 10
27.1079
 20
0.4474
  0
VERTEX
  8
0
 10
27.0896
 20
0.4689
  0
VERTEX
  8
0
 10
27.0758
 20
0.4943
  0
VERTEX
  8
0
 10
27.0676
 20
0.5219
  0
VERTEX
  8
0
 10
27.0618
 20
0.561
  0
VERTEX
  8
0
 10
27.0584
 20
0.6116
  0
VERTEX
  8
0
 10
27.0572
 20
0.6736
  0
VERTEX
  8
0
 10
27.0572
 20
1.188
  0
VERTEX
  8
0
 10
26.9452
 20
1.188
  0
VERTEX
  8
0
 10
26.9452
 20
1.308
  0
VERTEX
  8
0
 10
27.0572
 20
1.308
  0
VERTEX
  8
0
 10
27.0572
 20
1.5292
  0
VERTEX
  8
0
 10
27.2092
 20
1.62
  0
VERTEX
  8
0
 10
27.2092
 20
1.308
  0
VERTEX
  8
0
 10
27.3612
 20
1.308
  0
VERTEX
  8
0
 10
27.3612
 20
1.188
  0
VERTEX
  8
0
 10
27.2092
 20
1.188
  0
VERTEX
  8
0
 10
27.2092
 20
0.6641
  0
VERTEX
  8
0
 10
27.2098
 20
0.6235
  0
VERTEX
  8
0
 10
27.2117
 20
0.6016
  0
VERTEX
  8
0
 10
27.2224
 20
0.5717
  0
VERTEX
  8
0
 10
27.2427
 20
0.551
  0
VERTEX
  8
0
 10
27.264
 20
0.5432
  0
VERTEX
  8
0
 10
27.2946
 20
0.54
  0
VERTEX
  8
0
 10
27.3233
 20
0.5416
  0
VERTEX
  8
0
 10
27.3608
 20
0.5479
  0
VERTEX
  8
0
 10
27.3608
 20
0.5479
  0
SEQEND
  0
POLYLINE
  8
0
 66
     1
 10
0
 20
0
  0
VERTEX
  8
0
 10
28.1254
 20
0.7007
  0
VERTEX
  8
0
 10
28.2826
 20
0.6814
  0
VERTEX
  8
0
 10
28.2733
 20
0.6501
  0
VERTEX
  8
0
 10
28.2624
 20
0.6206
  0
VERTEX
  8
0
 10
28.2501
 20
0.593
  0
VERTEX
  8
0
 10
28.2363
 20
0.5671
  0
VERTEX
  8
0
 10
28.221
 20
0.5429
  0
VERTEX
  8
0
 10
28.2043
 20
0.5206
  0
VERTEX
  8
0
 10
28.1861
 20
0.5001
  0
VERTEX
  8
0
 10
28.1664
 20
0.4813
  0
VERTEX
  8
0
 10
28.1452
 20
0.4643
  0
VERTEX
  8
0
 10
28.1226
 20
0.4492
  0
VERTEX
  8
0
 10
28.0985
 20
0.4358
  0
VERTEX
  8
0
 10
28.0729
 20
0.4241
  0
VERTEX
  8
0
 10
28.0458
 20
0.4143
  0
VERTEX
  8
0
 10
28.0173
 20
0.4063
  0
VERTEX
  8
0
 10
27.9873
 20
0.4
  0
VERTEX
  8
0
 10
27.9558
 20
0.3956
  0
VERTEX
  8
0
 10
27.9228
 20
0.3929
  0
VERTEX
  8
0
 10
27.8884
 20
0.392
  0
VERTEX
  8
0
 10
27.8336
 20
0.3945
  0
VERTEX
  8
0
 10
27.7822
 20
0.4018
  0
VERTEX
  8
0
 10
27.7342
 20
0.4141
  0
VERTEX
  8
0
 10
27.6896
 20
0.4314
  0
VERTEX
  8
0
 10
27.6484
 20
0.4535
  0
VERTEX
  8
0
 10
27.6105
 20
0.4806
  0
VERTEX
  8
0
 10
27.576
 20
0.5126
  0
VERTEX
  8
0
 10
27.5455
 20
0.5491
  0
VERTEX
  8
0
 10
27.5198
 20
0.5896
  0
VERTEX
  8
0
 10
27.4987
 20
0.6341
  0
VERTEX
  8
0
 10
27.4823
 20
0.6826
  0
VERTEX
  8
0
 10
27.4706
 20
0.7352
  0
VERTEX
  8
0
 10
27.4635
 20
0.7918
  0
VERTEX
  8
0
 10
27.4612
 20
0.8524
  0
VERTEX
  8
0
 10
27.4641
 20
0.9196
  0
VERTEX
  8
0
 10
27.4726
 20
0.9824
  0
VERTEX
  8
0
 10
27.4869
 20
1.0407
  0
VERTEX
  8
0
 10
27.507
 20
1.0945
  0
VERTEX
  8
0
 10
27.5327
 20
1.1439
  0
VERTEX
  8
0
 10
27.5642
 20
1.1889
  0
VERTEX
  8
0
 10
27.5939
 20
1.2215
  0
VERTEX
  8
0
 10
27.6264
 20
1.2497
  0
VERTEX
  8
0
 10
27.6616
 20
1.2737
  0
VERTEX
  8
0
 10
27.6997
 20
1.2932
  0
VERTEX
  8
0
 10
27.7406
 20
1.3084
  0
VERTEX
  8
0
 10
27.7842
 20
1.3193
  0
VERTEX
  8
0
 10
27.8307
 20
1.3258
  0
VERTEX
  8
0
 10
27.8799
 20
1.328
  0
VERTEX
  8
0
 10
27.928
 20
1.3259
  0
VERTEX
  8
0
 10
27.9732
 20
1.3195
  0
VERTEX
  8
0
 10
28.0158
 20
1.3088
  0
VERTEX
  8
0
 10
28.0556
 20
1.2938
  0
VERTEX
  8
0
 10
28.0926
 20
1.2746
  0
VERTEX
  8
0
 10
28.1269
 20
1.2511
  0
VERTEX
  8
0
 10
28.1584
 20
1.2233
  0
VERTEX
  8
0
 10
28.1873
 20
1.1913
  0
VERTEX
  8
0
 10
28.2179
 20
1.1473
  0
VERTEX
  8
0
 10
28.2431
 20
1.0991
  0
VERTEX
  8
0
 10
28.2626
 20
1.0466
  0
VERTEX
  8
0
 10
28.2765
 20
0.99
  0
VERTEX
  8
0
 10
28.2849
 20
0.9292
  0
VERTEX
  8
0
 10
28.2877
 20
0.8642
  0
VERTEX
  8
0
 10
28.2875
 20
0.8433
  0
VERTEX
  8
0
 10
28.2868
 20
0.824
  0
VERTEX
  8
0
 10
27.6172
 20
0.824
  0
VERTEX
  8
0
 10
27.6282
 20
0.7413
  0
VERTEX
  8
0
 10
27.6521
 20
0.6697
  0
VERTEX
  8
0
 10
27.6891
 20
0.609
  0
VERTEX
  8
0
 10
27.7206
 20
0.5755
  0
VERTEX
  8
0
 10
27.7563
 20
0.5495
  0
VERTEX
  8
0
 10
27.7962
 20
0.5309
  0
VERTEX
  8
0
 10
27.8403
 20
0.5197
  0
VERTEX
  8
0
 10
27.8886
 20
0.516
  0
VERTEX
  8
0
 10
27.9216
 20
0.5178
  0
VERTEX
  8
0
 10
27.9525
 20
0.5234
  0
VERTEX
  8
0
 10
27.9813
 20
0.5326
  0
VERTEX
  8
0
 10
28.0081
 20
0.5456
  0
VERTEX
  8
0
 10
28.0328
 20
0.5622
  0
VERTEX
  8
0
 10
28.0554
 20
0.5825
  0
VERTEX
  8
0
 10
28.076
 20
0.6065
  0
VERTEX
  8
0
 10
28.0945
 20
0.6342
  0
VERTEX
  8
0
 10
28.111
 20
0.6656
  0
VERTEX
  8
0
 10
28.1254
 20
0.7007
  0
VERTEX
  8
0
 10
28.1254
 20
0.7007
  0
SEQEND
  0
POLYLINE
  8
0
 66
     1
 10
0
 20
0
  0
VERTEX
  8
0
 10
27.6266
 20
0.948
  0
VERTEX
  8
0
 10
28.1273
 20
0.948
  0
VERTEX
  8
0
 10
28.1164
 20
1.0167
  0
VERTEX
  8
0
 10
28.0972
 20
1.073
  0
VERTEX
  8
0
 10
28.0698
 20
1.1167
  0
VERTEX
  8
0
 10
28.0308
 20
1.1546
  0
VERTEX
  8
0
 10
27.9865
 20
1.1818
  0
VERTEX
  8
0
 10
27.9367
 20
1.1982
  0
VERTEX
  8
0
 10
27.8816
 20
1.204
  0
VERTEX
  8
0
 10
27.8288
 20
1.1997
  0
VERTEX
  8
0
 10
27.7811
 20
1.1859
  0
VERTEX
  8
0
 10
27.7385
 20
1.1627
  0
VERTEX
  8
0
 10
27.7009
 20
1.1301
  0
VERTEX
  8
0
 10
27.6631
 20
1.0786
  0
VERTEX
  8
0
 10
27.6383
 20
1.0178
  0
VERTEX
  8
0
 10
27.6266
 20
0.948
  0
VERTEX
  8
0
 10
27.6266
 20
0.948
  0
SEQEND
  0
POLYLINE
  8
0
 66
     1
 10
0
 20
0
  0
VERTEX
  8
0
 10
29.2212
 20
0.86
  0
VERTEX
  8
0
 10
29.2229
 20
0.9137
  0
VERTEX
  8
0
 10
29.228
 20
0.9642
  0
VERTEX
  8
0
 10
29.2366
 20
1.0115
  0
VERTEX
  8
0
 10
29.2485
 20
1.0556
  0
VERTEX
  8
0
 10
29.2639
 20
1.0966
  0
VERTEX
  8
0
 10
29.2827
 20
1.1343
  0
VERTEX
  8
0
 10
29.3049
 20
1.1689
  0
VERTEX
  8
0
 10
29.3306
 20
1.2003
  0
VERTEX
  8
0
 10
29.3596
 20
1.2285
  0
VERTEX
  8
0
 10
29.4077
 20
1.2643
  0
VERTEX
  8
0
 10
29.4599
 20
1.2922
  0
VERTEX
  8
0
 10
29.5163
 20
1.3121
  0
VERTEX
  8
0
 10
29.5769
 20
1.324
  0
VERTEX
  8
0
 10
29.6416
 20
1.328
  0
VERTEX
  8
0
 10
29.6964
 20
1.3253
  0
VERTEX
  8
0
 10
29.7477
 20
1.3173
  0
VERTEX
  8
0
 10
29.7956
 20
1.304
  0
VERTEX
  8
0
 10
29.8401
 20
1.2853
  0
VERTEX
  8
0
 10
29.8812
 20
1.2613
  0
VERTEX
  8
0
 10
29.9189
 20
1.232
  0
VERTEX
  8
0
 10
29.9531
 20
1.1973
  0
VERTEX
  8
0
 10
29.9862
 20
1.1536
  0
VERTEX
  8
0
 10
30.0132
 20
1.1058
  0
VERTEX
  8
0
 10
30.0342
 20
1.0537
  0
VERTEX
  8
0
 10
30.0492
 20
0.9975
  0
VERTEX
  8
0
 10
30.0582
 20
0.9372
  0
VERTEX
  8
0
 10
30.0612
 20
0.8726
  0
VERTEX
  8
0
 10
30.0602
 20
0.8288
  0
VERTEX
  8
0
 10
30.057
 20
0.7871
  0
VERTEX
  8
0
 10
30.0519
 20
0.7474
  0
VERTEX
  8
0
 10
30.0446
 20
0.7098
  0
VERTEX
  8
0
 10
30.0352
 20
0.6743
  0
VERTEX
  8
0
 10
30.0238
 20
0.6408
  0
VERTEX
  8
0
 10
30.0103
 20
0.6093
  0
VERTEX
  8
0
 10
29.9948
 20
0.5799
  0
VERTEX
  8
0
 10
29.9771
 20
0.5526
  0
VERTEX
  8
0
 10
29.9574
 20
0.5273
  0
VERTEX
  8
0
 10
29.9356
 20
0.5041
  0
VERTEX
  8
0
 10
29.9117
 20
0.483
  0
VERTEX
  8
0
 10
29.8858
 20
0.4639
  0
VERTEX
  8
0
 10
29.8578
 20
0.4468
  0
VERTEX
  8
0
 10
29.7543
 20
0.4061
  0
VERTEX
  8
0
 10
29.6416
 20
0.392
  0
VERTEX
  8
0
 10
29.5918
 20
0.3939
  0
VERTEX
  8
0
 10
29.5449
 20
0.4
  0
VERTEX
  8
0
 10
29.5009
 20
0.4104
  0
VERTEX
  8
0
 10
29.4599
 20
0.4251
  0
VERTEX
  8
0
 10
29.4218
 20
0.444
  0
VERTEX
  8
0
 10
29.3866
 20
0.4671
  0
VERTEX
  8
0
 10
29.3543
 20
0.4944
  0
VERTEX
  8
0
 10
29.325
 20
0.5261
  0
VERTEX
  8
0
 10
29.2933
 20
0.57
  0
VERTEX
  8
0
 10
29.2673
 20
0.6186
  0
VERTEX
  8
0
 10
29.2471
 20
0.6719
  0
VERTEX
  8
0
 10
29.2327
 20
0.7299
  0
VERTEX
  8
0
 10
29.2241
 20
0.7926
  0
VERTEX
  8
0
 10
29.2212
 20
0.86
  0
VERTEX
  8
0
 10
29.2212
 20
0.86
  0
SEQEND
  0
POLYLINE
  8
0
 66
     1
 10
0
 20
0
  0
VERTEX
  8
0
 10
29.3772
 20
0.8604
  0
VERTEX
  8
0
 10
29.3808
 20
0.7911
  0
VERTEX
  8
0
 10
29.3918
 20
0.7286
  0
VERTEX
  8
0
 10
29.41
 20
0.673
  0
VERTEX
  8
0
 10
29.4355
 20
0.6243
  0
VERTEX
  8
0
 10
29.4605
 20
0.5915
  0
VERTEX
  8
0
 10
29.4892
 20
0.5645
  0
VERTEX
  8
0
 10
29.5217
 20
0.5435
  0
VERTEX
  8
0
 10
29.5579
 20
0.5284
  0
VERTEX
  8
0
 10
29.5979
 20
0.5192
  0
VERTEX
  8
0
 10
29.6416
 20
0.516
  0
VERTEX
  8
0
 10
29.6854
 20
0.5188
  0
VERTEX
  8
0
 10
29.7253
 20
0.5279
  0
VERTEX
  8
0
 10
29.7616
 20
0.5433
  0
VERTEX
  8
0
 10
29.7941
 20
0.5649
  0
VERTEX
  8
0
 10
29.8228
 20
0.5927
  0
VERTEX
  8
0
 10
29.8478
 20
0.6269
  0
VERTEX
  8
0
 10
29.8797
 20
0.6947
  0
VERTEX
  8
0
 10
29.8988
 20
0.7743
  0
VERTEX
  8
0
 10
29.9052
 20
0.8655
  0
VERTEX
  8
0
 10
29.8985
 20
0.9537
  0
VERTEX
  8
0
 10
29.8785
 20
1.031
  0
VERTEX
  8
0
 10
29.8452
 20
1.0974
  0
VERTEX
  8
0
 10
29.8198
 20
1.13
  0
VERTEX
  8
0
 10
29.7911
 20
1.1566
  0
VERTEX
  8
0
 10
29.7588
 20
1.1773
  0
VERTEX
  8
0
 10
29.7232
 20
1.1921
  0
VERTEX
  8
0
 10
29.6841
 20
1.201
  0
VERTEX
  8
0
 10
29.6416
 20
1.204
  0
VERTEX
  8
0
 10
29.5979
 20
1.201
  0
VERTEX
  8
0
 10
29.5579
 20
1.192
  0
VERTEX
  8
0
 10
29.5217
 20
1.1769
  0
VERTEX
  8
0
 10
29.4892
 20
1.1559
  0
VERTEX
  8
0
 10
29.4605
 20
1.1288
  0
VERTEX
  8
0
 10
29.4355
 20
1.0957
  0
VERTEX
  8
0
 10
29.4031
 20
1.0289
  0
VERTEX
  8
0
 10
29.3837
 20
0.9505
  0
VERTEX
  8
0
 10
29.3772
 20
0.8604
  0
VERTEX
  8
0
 10
29.3772
 20
0.8604
  0
SEQEND
  0
POLYLINE
  8
0
 66
     1
 10
0
 20
0
  0
VERTEX
  8
0
 10
30.2372
 20
0.408
  0
VERTEX
  8
0
 10
30.2372
 20
1.3086
  0
VERTEX
  8
0
 10
30.3732
 20
1.3086
  0
VERTEX
  8
0
 10
30.3732
 20
1.1811
  0
VERTEX
  8
0
 10
30.3993
 20
1.2153
  0
VERTEX
  8
0
 10
30.4281
 20
1.245
  0
VERTEX
  8
0
 10
30.4597
 20
1.2702
  0
VERTEX
  8
0
 10
30.494
 20
1.2909
  0
VERTEX
  8
0
 10
30.531
 20
1.307
  0
VERTEX
  8
0
 10
30.5708
 20
1.3185
  0
VERTEX
  8
0
 10
30.6133
 20
1.3255
  0
VERTEX
  8
0
 10
30.6586
 20
1.328
  0
VERTEX
  8
0
 10
30.7351
 20
1.3206
  0
VERTEX
  8
0
 10
30.8073
 20
1.2984
  0
VERTEX
  8
0
 10
30.845
 20
1.2788
  0
VERTEX
  8
0
 10
30.8775
 20
1.2544
  0
VERTEX
  8
0
 10
30.905
 20
1.2253
  0
VERTEX
  8
0
 10
30.9274
 20
1.1914
  0
VERTEX
  8
0
 10
30.9446
 20
1.1528
  0
VERTEX
  8
0
 10
30.9568
 20
1.1094
  0
VERTEX
  8
0
 10
30.9614
 20
1.0753
  0
VERTEX
  8
0
 10
30.9643
 20
1.0259
  0
VERTEX
  8
0
 10
30.9652
 20
0.9612
  0
VERTEX
  8
0
 10
30.9652
 20
0.408
  0
VERTEX
  8
0
 10
30.8132
 20
0.408
  0
VERTEX
  8
0
 10
30.8132
 20
0.9554
  0
VERTEX
  8
0
 10
30.8102
 20
1.025
  0
VERTEX
  8
0
 10
30.8014
 20
1.0748
  0
VERTEX
  8
0
 10
30.7757
 20
1.1286
  0
VERTEX
  8
0
 10
30.7323
 20
1.1681
  0
VERTEX
  8
0
 10
30.6836
 20
1.189
  0
VERTEX
  8
0
 10
30.6269
 20
1.196
  0
VERTEX
  8
0
 10
30.6025
 20
1.1952
  0
VERTEX
  8
0
 10
30.5795
 20
1.1927
  0
VERTEX
  8
0
 10
30.5578
 20
1.1886
  0
VERTEX
  8
0
 10
30.5373
 20
1.1829
  0
VERTEX
  8
0
 10
30.5182
 20
1.1755
  0
VERTEX
  8
0
 10
30.5005
 20
1.1664
  0
VERTEX
  8
0
 10
30.484
 20
1.1557
  0
VERTEX
  8
0
 10
30.4689
 20
1.1434
  0
VERTEX
  8
0
 10
30.455
 20
1.1295
  0
VERTEX
  8
0
 10
30.4425
 20
1.1138
  0
VERTEX
  8
0
 10
30.4313
 20
1.0966
  0
VERTEX
  8
0
 10
30.4215
 20
1.0777
  0
VERTEX
  8
0
 10
30.4129
 20
1.0572
  0
VERTEX
  8
0
 10
30.4057
 20
1.035
  0
VERTEX
  8
0
 10
30.3997
 20
1.0112
  0
VERTEX
  8
0
 10
30.3951
 20
0.9857
  0
VERTEX
  8
0
 10
30.3918
 20
0.9586
  0
VERTEX
  8
0
 10
30.3899
 20
0.9298
  0
VERTEX
  8
0
 10
30.3892
 20
0.8994
  0
VERTEX
  8
0
 10
30.3892
 20
0.408
  0
VERTEX
  8
0
 10
30.2372
 20
0.408
  0
SEQEND
  0
POLYLINE
  8
0
 66
     1
 10
0
 20
0
  0
VERTEX
  8
0
 10
32.6052
 20
0.896
  0
VERTEX
  8
0
 10
32.6052
 20
1.044
  0
VERTEX
  8
0
 10
33.1292
 20
1.044
  0
VERTEX
  8
0
 10
33.1292
 20
0.5851
  0
VERTEX
  8
0
 10
33.0752
 20
0.5446
  0
VERTEX
  8
0
 10
33.0205
 20
0.5088
  0
VERTEX
  8
0
 10
32.965
 20
0.4778
  0
VERTEX
  8
0
 10
32.9089
 20
0.4516
  0
VERTEX
  8
0
 10
32.852
 20
0.4301
  0
VERTEX
  8
0
 10
32.7943
 20
0.4135
  0
VERTEX
  8
0
 10
32.736
 20
0.4015
  0
VERTEX
  8
0
 10
32.6769
 20
0.3944
  0
VERTEX
  8
0
 10
32.6171
 20
0.392
  0
VERTEX
  8
0
 10
32.5292
 20
0.3965
  0
VERTEX
  8
0
 10
32.446
 20
0.4102
  0
VERTEX
  8
0
 10
32.3676
 20
0.4328
  0
VERTEX
  8
0
 10
32.2939
 20
0.4646
  0
VERTEX
  8
0
 10
32.2352
 20
0.4993
  0
VERTEX
  8
0
 10
32.1826
 20
0.5397
  0
VERTEX
  8
0
 10
32.136
 20
0.586
  0
VERTEX
  8
0
 10
32.0955
 20
0.6381
  0
VERTEX
  8
0
 10
32.0611
 20
0.6959
  0
VERTEX
  8
0
 10
32.0279
 20
0.7713
  0
VERTEX
  8
0
 10
32.0042
 20
0.8515
  0
VERTEX
  8
0
 10
31.9899
 20
0.9364
  0
VERTEX
  8
0
 10
31.9852
 20
1.0261
  0
VERTEX
  8
0
 10
31.993
 20
1.1416
  0
VERTEX
  8
0
 10
32.0163
 20
1.2505
  0
VERTEX
  8
0
 10
32.0553
 20
1.3529
  0
VERTEX
  8
0
 10
32.089
 20
1.4155
  0
VERTEX
  8
0
 10
32.1282
 20
1.4712
  0
VERTEX
  8
0
 10
32.1728
 20
1.5198
  0
VERTEX
  8
0
 10
32.2228
 20
1.5614
  0
VERTEX
  8
0
 10
32.2781
 20
1.596
  0
VERTEX
  8
0
 10
32.3517
 20
1.6292
  0
VERTEX
  8
0
 10
32.4307
 20
1.653
  0
VERTEX
  8
0
 10
32.5151
 20
1.6672
  0
VERTEX
  8
0
 10
32.6049
 20
1.672
  0
VERTEX
  8
0
 10
32.7319
 20
1.6609
  0
VERTEX
  8
0
 10
32.848
 20
1.6275
  0
VERTEX
  8
0
 10
32.9468
 20
1.5738
  0
VERTEX
  8
0
 10
33.0219
 20
1.5017
  0
VERTEX
  8
0
 10
33.0725
 20
1.4154
  0
VERTEX
  8
0
 10
33.1114
 20
1.3036
  0
VERTEX
  8
0
 10
32.9635
 20
1.2629
  0
VERTEX
  8
0
 10
32.9337
 20
1.3448
  0
VERTEX
  8
0
 10
32.8984
 20
1.4056
  0
VERTEX
  8
0
 10
32.846
 20
1.4585
  0
VERTEX
  8
0
 10
32.7764
 20
1.4985
  0
VERTEX
  8
0
 10
32.6945
 20
1.5236
  0
VERTEX
  8
0
 10
32.6053
 20
1.532
  0
VERTEX
  8
0
 10
32.5013
 20
1.5234
  0
VERTEX
  8
0
 10
32.4109
 20
1.4975
  0
VERTEX
  8
0
 10
32.3642
 20
1.4748
  0
VERTEX
  8
0
 10
32.3222
 20
1.4472
  0
VERTEX
  8
0
 10
32.2848
 20
1.4145
  0
VERTEX
  8
0
 10
32.2521
 20
1.3768
  0
VERTEX
  8
0
 10
32.224
 20
1.3342
  0
VERTEX
  8
0
 10
32.2005
 20
1.2865
  0
VERTEX
  8
0
 10
32.1655
 20
1.169
  0
VERTEX
  8
0
 10
32.1532
 20
1.0384
  0
VERTEX
  8
0
 10
32.154
 20
0.9953
  0
VERTEX
  8
0
 10
32.1568
 20
0.9542
  0
VERTEX
  8
0
 10
32.1616
 20
0.915
  0
VERTEX
  8
0
 10
32.1684
 20
0.8778
  0
VERTEX
  8
0
 10
32.1772
 20
0.8426
  0
VERTEX
  8
0
 10
32.1881
 20
0.8093
  0
VERTEX
  8
0
 10
32.2009
 20
0.778
  0
VERTEX
  8
0
 10
32.2158
 20
0.7486
  0
VERTEX
  8
0
 10
32.2327
 20
0.7212
  0
VERTEX
  8
0
 10
32.2516
 20
0.6957
  0
VERTEX
  8
0
 10
32.2725
 20
0.6722
  0
VERTEX
  8
0
 10
32.2954
 20
0.6507
  0
VERTEX
  8
0
 10
32.3203
 20
0.6311
  0
VERTEX
  8
0
 10
32.3472
 20
0.6135
  0
VERTEX
  8
0
 10
32.3762
 20
0.5978
  0
VERTEX
  8
0
 10
32.4886
 20
0.5579
  0
VERTEX
  8
0
 10
32.6076
 20
0.544
  0
VERTEX
  8
0
 10
32.7008
 20
0.5521
  0
VERTEX
  8
0
 10
32.7994
 20
0.5779
  0
VERTEX
  8
0
 10
32.8946
 20
0.6187
  0
VERTEX
  8
0
 10
32.9692
 20
0.6699
  0
VERTEX
  8
0
 10
32.9692
 20
0.896
  0
VERTEX
  8
0
 10
32.6052
 20
0.896
  0
SEQEND
  0
POLYLINE
  8
0
 66
     1
 10
0
 20
0
  0
VERTEX
  8
0
 10
33.3532
 20
0.408
  0
VERTEX
  8
0
 10
33.3532
 20
1.3086
  0
VERTEX
  8
0
 10
33.4892
 20
1.3086
  0
VERTEX
  8
0
 10
33.4892
 20
1.1726
  0
VERTEX
  8
0
 10
33.5289
 20
1.2369
  0
VERTEX
  8
0
 10
33.5653
 20
1.2801
  0
VERTEX
  8
0
 10
33.6199
 20
1.316
  0
VERTEX
  8
0
 10
33.6838
 20
1.328
  0
VERTEX
  8
0
 10
33.761
 20
1.3158
  0
VERTEX
  8
0
 10
33.8403
 20
1.2792
  0
VERTEX
  8
0
 10
33.788
 20
1.1389
  0
VERTEX
  8
0
 10
33.7323
 20
1.1637
  0
VERTEX
  8
0
 10
33.6766
 20
1.172
  0
VERTEX
  8
0
 10
33.6276
 20
1.1633
  0
VERTEX
  8
0
 10
33.582
 20
1.1372
  0
VERTEX
  8
0
 10
33.5514
 20
1.103
  0
VERTEX
  8
0
 10
33.5305
 20
1.0582
  0
VERTEX
  8
0
 10
33.5115
 20
0.9738
  0
VERTEX
  8
0
 10
33.5052
 20
0.88
  0
VERTEX
  8
0
 10
33.5052
 20
0.408
  0
VERTEX
  8
0
 10
33.3532
 20
0.408
  0
SEQEND
  0
POLYLINE
  8
0
 66
     1
 10
0
 20
0
  0
VERTEX
  8
0
 10
34.5454
 20
0.7007
  0
VERTEX
  8
0
 10
34.7026
 20
0.6814
  0
VERTEX
  8
0
 10
34.6933
 20
0.6501
  0
VERTEX
  8
0
 10
34.6824
 20
0.6206
  0
VERTEX
  8
0
 10
34.6701
 20
0.593
  0
VERTEX
  8
0
 10
34.6563
 20
0.5671
  0
VERTEX
  8
0
 10
34.641
 20
0.5429
  0
VERTEX
  8
0
 10
34.6243
 20
0.5206
  0
VERTEX
  8
0
 10
34.6061
 20
0.5001
  0
VERTEX
  8
0
 10
34.5864
 20
0.4813
  0
VERTEX
  8
0
 10
34.5652
 20
0.4643
  0
VERTEX
  8
0
 10
34.5426
 20
0.4492
  0
VERTEX
  8
0
 10
34.5185
 20
0.4358
  0
VERTEX
  8
0
 10
34.4929
 20
0.4241
  0
VERTEX
  8
0
 10
34.4658
 20
0.4143
  0
VERTEX
  8
0
 10
34.4373
 20
0.4063
  0
VERTEX
  8
0
 10
34.4073
 20
0.4
  0
VERTEX
  8
0
 10
34.3758
 20
0.3956
  0
VERTEX
  8
0
 10
34.3428
 20
0.3929
  0
VERTEX
  8
0
 10
34.3084
 20
0.392
  0
VERTEX
  8
0
 10
34.2536
 20
0.3945
  0
VERTEX
  8
0
 10
34.2022
 20
0.4018
  0
VERTEX
  8
0
 10
34.1542
 20
0.4141
  0
VERTEX
  8
0
 10
34.1096
 20
0.4314
  0
VERTEX
  8
0
 10
34.0684
 20
0.4535
  0
VERTEX
  8
0
 10
34.0305
 20
0.4806
  0
VERTEX
  8
0
 10
33.996
 20
0.5126
  0
VERTEX
  8
0
 10
33.9655
 20
0.5491
  0
VERTEX
  8
0
 10
33.9398
 20
0.5896
  0
VERTEX
  8
0
 10
33.9187
 20
0.6341
  0
VERTEX
  8
0
 10
33.9023
 20
0.6826
  0
VERTEX
  8
0
 10
33.8906
 20
0.7352
  0
VERTEX
  8
0
 10
33.8835
 20
0.7918
  0
VERTEX
  8
0
 10
33.8812
 20
0.8524
  0
VERTEX
  8
0
 10
33.8841
 20
0.9196
  0
VERTEX
  8
0
 10
33.8926
 20
0.9824
  0
VERTEX
  8
0
 10
33.9069
 20
1.0407
  0
VERTEX
  8
0
 10
33.927
 20
1.0945
  0
VERTEX
  8
0
 10
33.9527
 20
1.1439
  0
VERTEX
  8
0
 10
33.9842
 20
1.1889
  0
VERTEX
  8
0
 10
34.0139
 20
1.2215
  0
VERTEX
  8
0
 10
34.0464
 20
1.2497
  0
VERTEX
  8
0
 10
34.0816
 20
1.2737
  0
VERTEX
  8
0
 10
34.1197
 20
1.2932
  0
VERTEX
  8
0
 10
34.1606
 20
1.3084
  0
VERTEX
  8
0
 10
34.2042
 20
1.3193
  0
VERTEX
  8
0
 10
34.2507
 20
1.3258
  0
VERTEX
  8
0
 10
34.2999
 20
1.328
  0
VERTEX
  8
0
 10
34.348
 20
1.3259
  0
VERTEX
  8
0
 10
34.3932
 20
1.3195
  0
VERTEX
  8
0
 10
34.4358
 20
1.3088
  0
VERTEX
  8
0
 10
34.4756
 20
1.2938
  0
VERTEX
  8
0
 10
34.5126
 20
1.2746
  0
VERTEX
  8
0
 10
34.5469
 20
1.2511
  0
VERTEX
  8
0
 10
34.5784
 20
1.2233
  0
VERTEX
  8
0
 10
34.6073
 20
1.1913
  0
VERTEX
  8
0
 10
34.6379
 20
1.1473
  0
VERTEX
  8
0
 10
34.6631
 20
1.0991
  0
VERTEX
  8
0
 10
34.6826
 20
1.0466
  0
VERTEX
  8
0
 10
34.6965
 20
0.99
  0
VERTEX
  8
0
 10
34.7049
 20
0.9292
  0
VERTEX
  8
0
 10
34.7077
 20
0.8642
  0
VERTEX
  8
0
 10
34.7075
 20
0.8433
  0
VERTEX
  8
0
 10
34.7068
 20
0.824
  0
VERTEX
  8
0
 10
34.0372
 20
0.824
  0
VERTEX
  8
0
 10
34.0482
 20
0.7413
  0
VERTEX
  8
0
 10
34.0721
 20
0.6697
  0
VERTEX
  8
0
 10
34.1091
 20
0.609
  0
VERTEX
  8
0
 10
34.1406
 20
0.5755
  0
VERTEX
  8
0
 10
34.1763
 20
0.5495
  0
VERTEX
  8
0
 10
34.2162
 20
0.5309
  0
VERTEX
  8
0
 10
34.2603
 20
0.5197
  0
VERTEX
  8
0
 10
34.3086
 20
0.516
  0
VERTEX
  8
0
 10
34.3416
 20
0.5178
  0
VERTEX
  8
0
 10
34.3725
 20
0.5234
  0
VERTEX
  8
0
 10
34.4013
 20
0.5326
  0
VERTEX
  8
0
 10
34.4281
 20
0.5456
  0
VERTEX
  8
0
 10
34.4528
 20
0.5622
  0
VERTEX
  8
0
 10
34.4754
 20
0.5825
  0
VERTEX
  8
0
 10
34.496
 20
0.6065
  0
VERTEX
  8
0
 10
34.5145
 20
0.6342
  0
VERTEX
  8
0
 10
34.531
 20
0.6656
  0
VERTEX
  8
0
 10
34.5454
 20
0.7007
  0
VERTEX
  8
0
 10
34.5454
 20
0.7007
  0
SEQEND
  0
POLYLINE
  8
0
 66
     1
 10
0
 20
0
  0
VERTEX
  8
0
 10
34.0466
 20
0.948
  0
VERTEX
  8
0
 10
34.5473
 20
0.948
  0
VERTEX
  8
0
 10
34.5364
 20
1.0167
  0
VERTEX
  8
0
 10
34.5172
 20
1.073
  0
VERTEX
  8
0
 10
34.4898
 20
1.1167
  0
VERTEX
  8
0
 10
34.4508
 20
1.1546
  0
VERTEX
  8
0
 10
34.4065
 20
1.1818
  0
VERTEX
  8
0
 10
34.3567
 20
1.1982
  0
VERTEX
  8
0
 10
34.3016
 20
1.204
  0
VERTEX
  8
0
 10
34.2488
 20
1.1997
  0
VERTEX
  8
0
 10
34.2011
 20
1.1859
  0
VERTEX
  8
0
 10
34.1585
 20
1.1627
  0
VERTEX
  8
0
 10
34.1209
 20
1.1301
  0
VERTEX
  8
0
 10
34.0831
 20
1.0786
  0
VERTEX
  8
0
 10
34.0583
 20
1.0178
  0
VERTEX
  8
0
 10
34.0466
 20
0.948
  0
VERTEX
  8
0
 10
34.0466
 20
0.948
  0
SEQEND
  0
POLYLINE
  8
0
 66
     1
 10
0
 20
0
  0
VERTEX
  8
0
 10
35.5054
 20
0.7007
  0
VERTEX
  8
0
 10
35.6626
 20
0.6814
  0
VERTEX
  8
0
 10
35.6533
 20
0.6501
  0
VERTEX
  8
0
 10
35.6424
 20
0.6206
  0
VERTEX
  8
0
 10
35.6301
 20
0.593
  0
VERTEX
  8
0
 10
35.6163
 20
0.5671
  0
VERTEX
  8
0
 10
35.601
 20
0.5429
  0
VERTEX
  8
0
 10
35.5843
 20
0.5206
  0
VERTEX
  8
0
 10
35.5661
 20
0.5001
  0
VERTEX
  8
0
 10
35.5464
 20
0.4813
  0
VERTEX
  8
0
 10
35.5252
 20
0.4643
  0
VERTEX
  8
0
 10
35.5026
 20
0.4492
  0
VERTEX
  8
0
 10
35.4785
 20
0.4358
  0
VERTEX
  8
0
 10
35.4529
 20
0.4241
  0
VERTEX
  8
0
 10
35.4258
 20
0.4143
  0
VERTEX
  8
0
 10
35.3973
 20
0.4063
  0
VERTEX
  8
0
 10
35.3673
 20
0.4
  0
VERTEX
  8
0
 10
35.3358
 20
0.3956
  0
VERTEX
  8
0
 10
35.3028
 20
0.3929
  0
VERTEX
  8
0
 10
35.2684
 20
0.392
  0
VERTEX
  8
0
 10
35.2136
 20
0.3945
  0
VERTEX
  8
0
 10
35.1622
 20
0.4018
  0
VERTEX
  8
0
 10
35.1142
 20
0.4141
  0
VERTEX
  8
0
 10
35.0696
 20
0.4314
  0
VERTEX
  8
0
 10
35.0284
 20
0.4535
  0
VERTEX
  8
0
 10
34.9905
 20
0.4806
  0
VERTEX
  8
0
 10
34.956
 20
0.5126
  0
VERTEX
  8
0
 10
34.9255
 20
0.5491
  0
VERTEX
  8
0
 10
34.8998
 20
0.5896
  0
VERTEX
  8
0
 10
34.8787
 20
0.6341
  0
VERTEX
  8
0
 10
34.8623
 20
0.6826
  0
VERTEX
  8
0
 10
34.8506
 20
0.7352
  0
VERTEX
  8
0
 10
34.8435
 20
0.7918
  0
VERTEX
  8
0
 10
34.8412
 20
0.8524
  0
VERTEX
  8
0
 10
34.8441
 20
0.9196
  0
VERTEX
  8
0
 10
34.8526
 20
0.9824
  0
VERTEX
  8
0
 10
34.8669
 20
1.0407
  0
VERTEX
  8
0
 10
34.887
 20
1.0945
  0
VERTEX
  8
0
 10
34.9127
 20
1.1439
  0
VERTEX
  8
0
 10
34.9442
 20
1.1889
  0
VERTEX
  8
0
 10
34.9739
 20
1.2215
  0
VERTEX
  8
0
 10
35.0064
 20
1.2497
  0
VERTEX
  8
0
 10
35.0416
 20
1.2737
  0
VERTEX
  8
0
 10
35.0797
 20
1.2932
  0
VERTEX
  8
0
 10
35.1206
 20
1.3084
  0
VERTEX
  8
0
 10
35.1642
 20
1.3193
  0
VERTEX
  8
0
 10
35.2107
 20
1.3258
  0
VERTEX
  8
0
 10
35.2599
 20
1.328
  0
VERTEX
  8
0
 10
35.308
 20
1.3259
  0
VERTEX
  8
0
 10
35.3532
 20
1.3195
  0
VERTEX
  8
0
 10
35.3958
 20
1.3088
  0
VERTEX
  8
0
 10
35.4356
 20
1.2938
  0
VERTEX
  8
0
 10
35.4726
 20
1.2746
  0
VERTEX
  8
0
 10
35.5069
 20
1.2511
  0
VERTEX
  8
0
 10
35.5384
 20
1.2233
  0
VERTEX
  8
0
 10
35.5673
 20
1.1913
  0
VERTEX
  8
0
 10
35.5979
 20
1.1473
  0
VERTEX
  8
0
 10
35.6231
 20
1.0991
  0
VERTEX
  8
0
 10
35.6426
 20
1.0466
  0
VERTEX
  8
0
 10
35.6565
 20
0.99
  0
VERTEX
  8
0
 10
35.6649
 20
0.9292
  0
VERTEX
  8
0
 10
35.6677
 20
0.8642
  0
VERTEX
  8
0
 10
35.6675
 20
0.8433
  0
VERTEX
  8
0
 10
35.6668
 20
0.824
  0
VERTEX
  8
0
 10
34.9972
 20
0.824
  0
VERTEX
  8
0
 10
35.0082
 20
0.7413
  0
VERTEX
  8
0
 10
35.0321
 20
0.6697
  0
VERTEX
  8
0
 10
35.0691
 20
0.609
  0
VERTEX
  8
0
 10
35.1006
 20
0.5755
  0
VERTEX
  8
0
 10
35.1363
 20
0.5495
  0
VERTEX
  8
0
 10
35.1762
 20
0.5309
  0
VERTEX
  8
0
 10
35.2203
 20
0.5197
  0
VERTEX
  8
0
 10
35.2686
 20
0.516
  0
VERTEX
  8
0
 10
35.3016
 20
0.5178
  0
VERTEX
  8
0
 10
35.3325
 20
0.5234
  0
VERTEX
  8
0
 10
35.3613
 20
0.5326
  0
VERTEX
  8
0
 10
35.3881
 20
0.5456
  0
VERTEX
  8
0
 10
35.4128
 20
0.5622
  0
VERTEX
  8
0
 10
35.4354
 20
0.5825
  0
VERTEX
  8
0
 10
35.456
 20
0.6065
  0
VERTEX
  8
0
 10
35.4745
 20
0.6342
  0
VERTEX
  8
0
 10
35.491
 20
0.6656
  0
VERTEX
  8
0
 10
35.5054
 20
0.7007
  0
VERTEX
  8
0
 10
35.5054
 20
0.7007
  0
SEQEND
  0
POLYLINE
  8
0
 66
     1
 10
0
 20
0
  0
VERTEX
  8
0
 10
35.0066
 20
0.948
  0
VERTEX
  8
0
 10
35.5073
 20
0.948
  0
VERTEX
  8
0
 10
35.4964
 20
1.0167
  0
VERTEX
  8
0
 10
35.4772
 20
1.073
  0
VERTEX
  8
0
 10
35.4498
 20
1.1167
  0
VERTEX
  8
0
 10
35.4108
 20
1.1546
  0
VERTEX
  8
0
 10
35.3665
 20
1.1818
  0
VERTEX
  8
0
 10
35.3167
 20
1.1982
  0
VERTEX
  8
0
 10
35.2616
 20
1.204
  0
VERTEX
  8
0
 10
35.2088
 20
1.1997
  0
VERTEX
  8
0
 10
35.1611
 20
1.1859
  0
VERTEX
  8
0
 10
35.1185
 20
1.1627
  0
VERTEX
  8
0
 10
35.0809
 20
1.1301
  0
VERTEX
  8
0
 10
35.0431
 20
1.0786
  0
VERTEX
  8
0
 10
35.0183
 20
1.0178
  0
VERTEX
  8
0
 10
35.0066
 20
0.948
  0
VERTEX
  8
0
 10
35.0066
 20
0.948
  0
SEQEND
  0
POLYLINE
  8
0
 66
     1
 10
0
 20
0
  0
VERTEX
  8
0
 10
35.8532
 20
0.408
  0
VERTEX
  8
0
 10
35.8532
 20
1.3086
  0
VERTEX
  8
0
 10
35.9892
 20
1.3086
  0
VERTEX
  8
0
 10
35.9892
 20
1.1811
  0
VERTEX
  8
0
 10
36.0153
 20
1.2153
  0
VERTEX
  8
0
 10
36.0441
 20
1.245
  0
VERTEX
  8
0
 10
36.0757
 20
1.2702
  0
VERTEX
  8
0
 10
36.11
 20
1.2909
  0
VERTEX
  8
0
 10
36.147
 20
1.307
  0
VERTEX
  8
0
 10
36.1868
 20
1.3185
  0
VERTEX
  8
0
 10
36.2294
 20
1.3255
  0
VERTEX
  8
0
 10
36.2746
 20
1.328
  0
VERTEX
  8
0
 10
36.3511
 20
1.3206
  0
VERTEX
  8
0
 10
36.4233
 20
1.2984
  0
VERTEX
  8
0
 10
36.461
 20
1.2788
  0
VERTEX
  8
0
 10
36.4935
 20
1.2544
  0
VERTEX
  8
0
 10
36.521
 20
1.2253
  0
VERTEX
  8
0
 10
36.5434
 20
1.1914
  0
VERTEX
  8
0
 10
36.5606
 20
1.1528
  0
VERTEX
  8
0
 10
36.5728
 20
1.1094
  0
VERTEX
  8
0
 10
36.5774
 20
1.0753
  0
VERTEX
  8
0
 10
36.5803
 20
1.0259
  0
VERTEX
  8
0
 10
36.5812
 20
0.9612
  0
VERTEX
  8
0
 10
36.5812
 20
0.408
  0
VERTEX
  8
0
 10
36.4292
 20
0.408
  0
VERTEX
  8
0
 10
36.4292
 20
0.9554
  0
VERTEX
  8
0
 10
36.4262
 20
1.025
  0
VERTEX
  8
0
 10
36.4174
 20
1.0748
  0
VERTEX
  8
0
 10
36.3917
 20
1.1286
  0
VERTEX
  8
0
 10
36.3483
 20
1.1681
  0
VERTEX
  8
0
 10
36.2996
 20
1.189
  0
VERTEX
  8
0
 10
36.2429
 20
1.196
  0
VERTEX
  8
0
 10
36.2185
 20
1.1952
  0
VERTEX
  8
0
 10
36.1955
 20
1.1927
  0
VERTEX
  8
0
 10
36.1738
 20
1.1886
  0
VERTEX
  8
0
 10
36.1533
 20
1.1829
  0
VERTEX
  8
0
 10
36.1342
 20
1.1755
  0
VERTEX
  8
0
 10
36.1165
 20
1.1664
  0
VERTEX
  8
0
 10
36.1
 20
1.1557
  0
VERTEX
  8
0
 10
36.0849
 20
1.1434
  0
VERTEX
  8
0
 10
36.071
 20
1.1295
  0
VERTEX
  8
0
 10
36.0585
 20
1.1138
  0
VERTEX
  8
0
 10
36.0473
 20
1.0966
  0
VERTEX
  8
0
 10
36.0375
 20
1.0777
  0
VERTEX
  8
0
 10
36.0289
 20
1.0572
  0
VERTEX
  8
0
 10
36.0217
 20
1.035
  0
VERTEX
  8
0
 10
36.0157
 20
1.0112
  0
VERTEX
  8
0
 10
36.0111
 20
0.9857
  0
VERTEX
  8
0
 10
36.0078
 20
0.9586
  0
VERTEX
  8
0
 10
36.0059
 20
0.9298
  0
VERTEX
  8
0
 10
36.0052
 20
0.8994
  0
VERTEX
  8
0
 10
36.0052
 20
0.408
  0
VERTEX
  8
0
 10
35.8532
 20
0.408
  0
SEQEND
  0
POLYLINE
  8
0
 66
     1
 10
0
 20
0
  0
VERTEX
  8
0
 10
36.8652
 20
1.136
  0
VERTEX
  8
0
 10
36.8652
 20
1.308
  0
VERTEX
  8
0
 10
37.0372
 20
1.308
  0
VERTEX
  8
0
 10
37.0372
 20
1.136
  0
VERTEX
  8
0
 10
36.8652
 20
1.136
  0
SEQEND
  0
POLYLINE
  8
0
 66
     1
 10
0
 20
0
  0
VERTEX
  8
0
 10
36.8652
 20
0.408
  0
VERTEX
  8
0
 10
36.8652
 20
0.58
  0
VERTEX
  8
0
 10
37.0372
 20
0.58
  0
VERTEX
  8
0
 10
37.0372
 20
0.4094
  0
VERTEX
  8
0
 10
37.0354
 20
0.3709
  0
VERTEX
  8
0
 10
37.0302
 20
0.3353
  0
VERTEX
  8
0
 10
37.0215
 20
0.3026
  0
VERTEX
  8
0
 10
37.0092
 20
0.2729
  0
VERTEX
  8
0
 10
36.9935
 20
0.2461
  0
VERTEX
  8
0
 10
36.9743
 20
0.2222
  0
VERTEX
  8
0
 10
36.9515
 20
0.2012
  0
VERTEX
  8
0
 10
36.9253
 20
0.1831
  0
VERTEX
  8
0
 10
36.8956
 20
0.168
  0
VERTEX
  8
0
 10
36.8532
 20
0.2317
  0
VERTEX
  8
0
 10
36.8814
 20
0.2472
  0
VERTEX
  8
0
 10
36.9048
 20
0.2682
  0
VERTEX
  8
0
 10
36.9233
 20
0.2948
  0
VERTEX
  8
0
 10
36.9369
 20
0.327
  0
VERTEX
  8
0
 10
36.9456
 20
0.3647
  0
VERTEX
  8
0
 10
36.9494
 20
0.408
  0
VERTEX
  8
0
 10
36.8652
 20
0.408
  0
SEQEND
  0
POLYLINE
  8
0
 66
     1
 10
0
 20
0
  0
VERTEX
  8
0
 10
8.0076
 20
24.0929
  0
VERTEX
  8
0
 10
8.0076
 20
26.7696
  0
VERTEX
  8
0
 10
9.6283
 20
26.7696
  0
VERTEX
  8
0
 10
9.6283
 20
28.2158
  0
VERTEX
  8
0
 10
12.0341
 20
28.2158
  0
VERTEX
  8
0
 10
12.0341
 20
29.9375
  0
VERTEX
  8
0
 10
14.0083
 20
29.9375
  0
VERTEX
  8
0
 10
14.7751
 20
29.9375
  0
VERTEX
  8
0
 10
14.7751
 20
28.2158
  0
VERTEX
  8
0
 10
17.1809
 20
28.2158
  0
VERTEX
  8
0
 10
17.1809
 20
26.7696
  0
VERTEX
  8
0
 10
18.7924
 20
26.7696
  0
VERTEX
  8
0
 10
18.7924
 20
24.1158
  0
VERTEX
  8
0
 10
19.752
 20
23.7485
  0
VERTEX
  8
0
 10
19.9173
 20
23.6705
  0
VERTEX
  8
0
 10
20.0504
 20
23.5557
  0
VERTEX
  8
0
 10
20.156
 20
23.4271
  0
VERTEX
  8
0
 10
20.2386
 20
23.271
  0
VERTEX
  8
0
 10
20.2846
 20
23.1103
  0
VERTEX
  8
0
 10
20.2983
 20
22.9359
  0
VERTEX
  8
0
 10
20.28
 20
22.766
  0
VERTEX
  8
0
 10
20.2203
 20
22.5915
  0
VERTEX
  8
0
 10
20.2203
 20
22.5961
  0
VERTEX
  8
0
 10
18.7603
 20
19.4511
  0
VERTEX
  8
0
 10
17.8145
 20
14.9379
  0
VERTEX
  8
0
 10
18.0211
 20
14.915
  0
VERTEX
  8
0
 10
18.2231
 20
14.915
  0
VERTEX
  8
0
 10
18.4205
 20
14.9288
  0
VERTEX
  8
0
 10
18.6225
 20
14.9609
  0
VERTEX
  8
0
 10
18.8108
 20
15.0114
  0
VERTEX
  8
0
 10
18.999
 20
15.0757
  0
VERTEX
  8
0
 10
19.1873
 20
15.1537
  0
VERTEX
  8
0
 10
19.3709
 20
15.2547
  0
VERTEX
  8
0
 10
19.6647
 20
15.4017
  0
VERTEX
  8
0
 10
19.9723
 20
15.5119
  0
VERTEX
  8
0
 10
20.2846
 20
15.5761
  0
VERTEX
  8
0
 10
20.606
 20
15.5991
  0
VERTEX
  8
0
 10
20.9273
 20
15.5761
  0
VERTEX
  8
0
 10
21.2395
 20
15.5119
  0
VERTEX
  8
0
 10
21.5472
 20
15.4017
  0
VERTEX
  8
0
 10
21.841
 20
15.2547
  0
VERTEX
  8
0
 10
22.0246
 20
15.1537
  0
VERTEX
  8
0
 10
22.2083
 20
15.0711
  0
VERTEX
  8
0
 10
22.4057
 20
15.0068
  0
VERTEX
  8
0
 10
22.6077
 20
14.9609
  0
VERTEX
  8
0
 10
22.8097
 20
14.9288
  0
VERTEX
  8
0
 10
23.0118
 20
14.915
  0
VERTEX
  8
0
 10
23.2184
 20
14.9196
  0
VERTEX
  8
0
 10
23.4296
 20
14.9379
  0
VERTEX
  8
0
 10
23.4296
 20
13.2805
  0
VERTEX
  8
0
 10
23.2184
 20
13.2576
  0
VERTEX
  8
0
 10
23.0118
 20
13.2576
  0
VERTEX
  8
0
 10
22.8097
 20
13.2713
  0
VERTEX
  8
0
 10
22.6077
 20
13.3035
  0
VERTEX
  8
0
 10
22.4057
 20
13.3494
  0
VERTEX
  8
0
 10
22.2083
 20
13.4137
  0
VERTEX
  8
0
 10
22.0246
 20
13.5009
  0
VERTEX
  8
0
 10
21.841
 20
13.5973
  0
VERTEX
  8
0
 10
21.5472
 20
13.7488
  0
VERTEX
  8
0
 10
21.2395
 20
13.8544
  0
VERTEX
  8
0
 10
20.9273
 20
13.9187
  0
VERTEX
  8
0
 10
20.606
 20
13.9417
  0
VERTEX
  8
0
 10
20.2846
 20
13.9187
  0
VERTEX
  8
0
 10
19.9723
 20
13.8544
  0
VERTEX
  8
0
 10
19.6647
 20
13.7488
  0
VERTEX
  8
0
 10
19.3709
 20
13.5973
  0
VERTEX
  8
0
 10
19.0771
 20
13.4504
  0
VERTEX
  8
0
 10
18.7694
 20
13.3402
  0
VERTEX
  8
0
 10
18.4664
 20
13.2759
  0
VERTEX
  8
0
 10
18.1404
 20
13.2576
  0
VERTEX
  8
0
 10
17.8191
 20
13.2759
  0
VERTEX
  8
0
 10
17.5069
 20
13.3402
  0
VERTEX
  8
0
 10
17.1992
 20
13.4504
  0
VERTEX
  8
0
 10
16.9054
 20
13.5973
  0
VERTEX
  8
0
 10
16.6116
 20
13.7488
  0
VERTEX
  8
0
 10
16.3039
 20
13.8544
  0
VERTEX
  8
0
 10
15.9917
 20
13.9187
  0
VERTEX
  8
0
 10
15.6704
 20
13.9417
  0
VERTEX
  8
0
 10
15.349
 20
13.9187
  0
VERTEX
  8
0
 10
15.0368
 20
13.8544
  0
VERTEX
  8
0
 10
14.7292
 20
13.7488
  0
VERTEX
  8
0
 10
14.4353
 20
13.5973
  0
VERTEX
  8
0
 10
14.1415
 20
13.4504
  0
VERTEX
  8
0
 10
13.8339
 20
13.3402
  0
VERTEX
  8
0
 10
13.5217
 20
13.2759
  0
VERTEX
  8
0
 10
13.2003
 20
13.2576
  0
VERTEX
  8
0
 10
12.8743
 20
13.2759
  0
VERTEX
  8
0
 10
12.5621
 20
13.3402
  0
VERTEX
  8
0
 10
12.2545
 20
13.4504
  0
VERTEX
  8
0
 10
11.9606
 20
13.5973
  0
VERTEX
  8
0
 10
11.6668
 20
13.7488
  0
VERTEX
  8
0
 10
11.3638
 20
13.8544
  0
VERTEX
  8
0
 10
11.047
 20
13.9187
  0
VERTEX
  8
0
 10
10.7256
 20
13.9417
  0
VERTEX
  8
0
 10
10.4088
 20
13.9187
  0
VERTEX
  8
0
 10
10.092
 20
13.8544
  0
VERTEX
  8
0
 10
9.7844
 20
13.7488
  0
VERTEX
  8
0
 10
9.4906
 20
13.5973
  0
VERTEX
  8
0
 10
9.1967
 20
13.4504
  0
VERTEX
  8
0
 10
8.8891
 20
13.3402
  0
VERTEX
  8
0
 10
8.5769
 20
13.2759
  0
VERTEX
  8
0
 10
8.2555
 20
13.2576
  0
VERTEX
  8
0
 10
7.9295
 20
13.2759
  0
VERTEX
  8
0
 10
7.6173
 20
13.3402
  0
VERTEX
  8
0
 10
7.3097
 20
13.4504
  0
VERTEX
  8
0
 10
7.0159
 20
13.5973
  0
VERTEX
  8
0
 10
6.722
 20
13.7488
  0
VERTEX
  8
0
 10
6.419
 20
13.8544
  0
VERTEX
  8
0
 10
6.1022
 20
13.9187
  0
VERTEX
  8
0
 10
5.7808
 20
13.9417
  0
VERTEX
  8
0
 10
5.464
 20
13.9187
  0
VERTEX
  8
0
 10
5.1473
 20
13.8544
  0
VERTEX
  8
0
 10
4.8396
 20
13.7488
  0
VERTEX
  8
0
 10
4.5458
 20
13.5973
  0
VERTEX
  8
0
 10
4.2703
 20
13.455
  0
VERTEX
  8
0
 10
3.9811
 20
13.3494
  0
VERTEX
  8
0
 10
3.6781
 20
13.2851
  0
VERTEX
  8
0
 10
3.3704
 20
13.2576
  0
VERTEX
  8
0
 10
3.3704
 20
14.915
  0
VERTEX
  8
0
 10
3.6781
 20
14.9425
  0
VERTEX
  8
0
 10
3.9811
 20
15.0068
  0
VERTEX
  8
0
 10
4.2703
 20
15.1124
  0
VERTEX
  8
0
 10
4.5458
 20
15.2547
  0
VERTEX
  8
0
 10
4.8396
 20
15.4017
  0
VERTEX
  8
0
 10
5.1473
 20
15.5119
  0
VERTEX
  8
0
 10
5.464
 20
15.5761
  0
VERTEX
  8
0
 10
5.7808
 20
15.5991
  0
VERTEX
  8
0
 10
6.1022
 20
15.5761
  0
VERTEX
  8
0
 10
6.419
 20
15.5119
  0
VERTEX
  8
0
 10
6.722
 20
15.4017
  0
VERTEX
  8
0
 10
7.0159
 20
15.2547
  0
VERTEX
  8
0
 10
7.2454
 20
15.1354
  0
VERTEX
  8
0
 10
7.4796
 20
15.039
  0
VERTEX
  8
0
 10
7.7229
 20
14.9747
  0
VERTEX
  8
0
 10
7.9709
 20
14.9288
  0
VERTEX
  8
0
 10
8.2188
 20
14.915
  0
VERTEX
  8
0
 10
8.4713
 20
14.9242
  0
VERTEX
  8
0
 10
8.7238
 20
14.9609
  0
VERTEX
  8
0
 10
8.9718
 20
15.0206
  0
VERTEX
  8
0
 10
8.0443
 20
19.4511
  0
VERTEX
  8
0
 10
6.5797
 20
22.5961
  0
VERTEX
  8
0
 10
6.52
 20
22.766
  0
VERTEX
  8
0
 10
6.5017
 20
22.9405
  0
VERTEX
  8
0
 10
6.5154
 20
23.1103
  0
VERTEX
  8
0
 10
6.5614
 20
23.271
  0
VERTEX
  8
0
 10
6.6394
 20
23.4271
  0
VERTEX
  8
0
 10
6.7496
 20
23.5557
  0
VERTEX
  8
0
 10
6.8873
 20
23.6705
  0
VERTEX
  8
0
 10
7.0434
 20
23.7485
  0
VERTEX
  8
0
 10
8.0076
 20
24.1158
  0
VERTEX
  8
0
 10
8.0076
 20
24.0929
  0
SEQEND
  0
POLYLINE
  8
0
 66
     1
 10
0
 20
0
  0
VERTEX
  8
0
 10
23.4296
 20
10.5855
  0
VERTEX
  8
0
 10
23.2184
 20
10.5671
  0
VERTEX
  8
0
 10
23.0118
 20
10.5625
  0
VERTEX
  8
0
 10
22.8097
 20
10.5763
  0
VERTEX
  8
0
 10
22.6077
 20
10.6084
  0
VERTEX
  8
0
 10
22.4057
 20
10.6589
  0
VERTEX
  8
0
 10
22.2083
 20
10.7232
  0
VERTEX
  8
0
 10
22.0246
 20
10.8012
  0
VERTEX
  8
0
 10
21.841
 20
10.8977
  0
VERTEX
  8
0
 10
21.841
 20
10.8931
  0
VERTEX
  8
0
 10
21.5472
 20
11.0446
  0
VERTEX
  8
0
 10
21.2395
 20
11.1548
  0
VERTEX
  8
0
 10
20.9273
 20
11.2145
  0
VERTEX
  8
0
 10
20.606
 20
11.2374
  0
VERTEX
  8
0
 10
20.2846
 20
11.2145
  0
VERTEX
  8
0
 10
19.9723
 20
11.1548
  0
VERTEX
  8
0
 10
19.6647
 20
11.0446
  0
VERTEX
  8
0
 10
19.3709
 20
10.8931
  0
VERTEX
  8
0
 10
19.0771
 20
10.7507
  0
VERTEX
  8
0
 10
18.7694
 20
10.6451
  0
VERTEX
  8
0
 10
18.4664
 20
10.5855
  0
VERTEX
  8
0
 10
18.1404
 20
10.5625
  0
VERTEX
  8
0
 10
17.8191
 20
10.5855
  0
VERTEX
  8
0
 10
17.5069
 20
10.6451
  0
VERTEX
  8
0
 10
17.1992
 20
10.7507
  0
VERTEX
  8
0
 10
16.9054
 20
10.8977
  0
VERTEX
  8
0
 10
16.9054
 20
10.8931
  0
VERTEX
  8
0
 10
16.6116
 20
11.0446
  0
VERTEX
  8
0
 10
16.3039
 20
11.1548
  0
VERTEX
  8
0
 10
15.9917
 20
11.2145
  0
VERTEX
  8
0
 10
15.6704
 20
11.2374
  0
VERTEX
  8
0
 10
15.349
 20
11.2145
  0
VERTEX
  8
0
 10
15.0368
 20
11.1548
  0
VERTEX
  8
0
 10
14.7292
 20
11.0446
  0
VERTEX
  8
0
 10
14.4353
 20
10.8931
  0
VERTEX
  8
0
 10
14.1415
 20
10.7507
  0
VERTEX
  8
0
 10
13.8339
 20
10.6451
  0
VERTEX
  8
0
 10
13.5217
 20
10.5855
  0
VERTEX
  8
0
 10
13.2003
 20
10.5625
  0
VERTEX
  8
0
 10
12.8743
 20
10.5855
  0
VERTEX
  8
0
 10
12.5621
 20
10.6451
  0
VERTEX
  8
0
 10
12.2545
 20
10.7507
  0
VERTEX
  8
0
 10
11.9606
 20
10.8977
  0
VERTEX
  8
0
 10
11.9606
 20
10.8931
  0
VERTEX
  8
0
 10
11.6668
 20
11.0446
  0
VERTEX
  8
0
 10
11.3638
 20
11.1548
  0
VERTEX
  8
0
 10
11.047
 20
11.2145
  0
VERTEX
  8
0
 10
10.7256
 20
11.2374
  0
VERTEX
  8
0
 10
10.4088
 20
11.2145
  0
VERTEX
  8
0
 10
10.092
 20
11.1548
  0
VERTEX
  8
0
 10
9.7844
 20
11.0446
  0
VERTEX
  8
0
 10
9.4906
 20
10.8931
  0
VERTEX
  8
0
 10
9.1967
 20
10.7507
  0
VERTEX
  8
0
 10
8.8891
 20
10.6451
  0
VERTEX
  8
0
 10
8.5769
 20
10.5855
  0
VERTEX
  8
0
 10
8.2555
 20
10.5625
  0
VERTEX
  8
0
 10
7.9295
 20
10.5855
  0
VERTEX
  8
0
 10
7.6173
 20
10.6451
  0
VERTEX
  8
0
 10
7.3097
 20
10.7507
  0
VERTEX
  8
0
 10
7.0159
 20
10.8977
  0
VERTEX
  8
0
 10
7.0159
 20
10.8931
  0
VERTEX
  8
0
 10
6.722
 20
11.0446
  0
VERTEX
  8
0
 10
6.419
 20
11.1548
  0
VERTEX
  8
0
 10
6.1022
 20
11.2145
  0
VERTEX
  8
0
 10
5.7808
 20
11.2374
  0
VERTEX
  8
0
 10
5.464
 20
11.2145
  0
VERTEX
  8
0
 10
5.1473
 20
11.1548
  0
VERTEX
  8
0
 10
4.8396
 20
11.0446
  0
VERTEX
  8
0
 10
4.5458
 20
10.8931
  0
VERTEX
  8
0
 10
4.2703
 20
10.7599
  0
VERTEX
  8
0
 10
3.9811
 20
10.6589
  0
VERTEX
  8
0
 10
3.6781
 20
10.59
  0
VERTEX
  8
0
 10
3.3704
 20
10.5625
  0
VERTEX
  8
0
 10
3.3704
 20
12.2108
  0
VERTEX
  8
0
 10
3.6781
 20
12.2337
  0
VERTEX
  8
0
 10
3.9811
 20
12.3072
  0
VERTEX
  8
0
 10
4.2703
 20
12.4082
  0
VERTEX
  8
0
 10
4.5458
 20
12.5551
  0
VERTEX
  8
0
 10
4.8396
 20
12.702
  0
VERTEX
  8
0
 10
5.1473
 20
12.8076
  0
VERTEX
  8
0
 10
5.464
 20
12.8765
  0
VERTEX
  8
0
 10
5.7808
 20
12.8948
  0
VERTEX
  8
0
 10
6.1022
 20
12.8765
  0
VERTEX
  8
0
 10
6.419
 20
12.8076
  0
VERTEX
  8
0
 10
6.722
 20
12.702
  0
VERTEX
  8
0
 10
7.0159
 20
12.5551
  0
VERTEX
  8
0
 10
7.3097
 20
12.4036
  0
VERTEX
  8
0
 10
7.6173
 20
12.298
  0
VERTEX
  8
0
 10
7.9295
 20
12.2291
  0
VERTEX
  8
0
 10
8.2555
 20
12.2062
  0
VERTEX
  8
0
 10
8.5769
 20
12.2291
  0
VERTEX
  8
0
 10
8.8891
 20
12.298
  0
VERTEX
  8
0
 10
9.1967
 20
12.4036
  0
VERTEX
  8
0
 10
9.4906
 20
12.5551
  0
VERTEX
  8
0
 10
9.7844
 20
12.702
  0
VERTEX
  8
0
 10
10.092
 20
12.8076
  0
VERTEX
  8
0
 10
10.4088
 20
12.8765
  0
VERTEX
  8
0
 10
10.7256
 20
12.8948
  0
VERTEX
  8
0
 10
11.047
 20
12.8765
  0
VERTEX
  8
0
 10
11.3592
 20
12.8076
  0
VERTEX
  8
0
 10
11.6668
 20
12.702
  0
VERTEX
  8
0
 10
11.9606
 20
12.5551
  0
VERTEX
  8
0
 10
12.2545
 20
12.4036
  0
VERTEX
  8
0
 10
12.5621
 20
12.298
  0
VERTEX
  8
0
 10
12.8743
 20
12.2291
  0
VERTEX
  8
0
 10
13.2003
 20
12.2062
  0
VERTEX
  8
0
 10
13.5217
 20
12.2291
  0
VERTEX
  8
0
 10
13.8339
 20
12.298
  0
VERTEX
  8
0
 10
14.1415
 20
12.4036
  0
VERTEX
  8
0
 10
14.4353
 20
12.5551
  0
VERTEX
  8
0
 10
14.7292
 20
12.702
  0
VERTEX
  8
0
 10
15.0368
 20
12.8076
  0
VERTEX
  8
0
 10
15.349
 20
12.8765
  0
VERTEX
  8
0
 10
15.6704
 20
12.8948
  0
VERTEX
  8
0
 10
15.9917
 20
12.8765
  0
VERTEX
  8
0
 10
16.3039
 20
12.8076
  0
VERTEX
  8
0
 10
16.6116
 20
12.702
  0
VERTEX
  8
0
 10
16.9054
 20
12.5551
  0
VERTEX
  8
0
 10
17.1992
 20
12.4036
  0
VERTEX
  8
0
 10
17.5069
 20
12.298
  0
VERTEX
  8
0
 10
17.8191
 20
12.2291
  0
VERTEX
  8
0
 10
18.1404
 20
12.2062
  0
VERTEX
  8
0
 10
18.4664
 20
12.2291
  0
VERTEX
  8
0
 10
18.7694
 20
12.298
  0
VERTEX
  8
0
 10
19.0771
 20
12.4036
  0
VERTEX
  8
0
 10
19.3709
 20
12.5551
  0
VERTEX
  8
0
 10
19.6647
 20
12.702
  0
VERTEX
  8
0
 10
19.9723
 20
12.8076
  0
VERTEX
  8
0
 10
20.2846
 20
12.8765
  0
VERTEX
  8
0
 10
20.606
 20
12.8948
  0
VERTEX
  8
0
 10
20.9273
 20
12.8765
  0
VERTEX
  8
0
 10
21.2395
 20
12.8076
  0
VERTEX
  8
0
 10
21.5472
 20
12.702
  0
VERTEX
  8
0
 10
21.841
 20
12.5551
  0
VERTEX
  8
0
 10
22.0246
 20
12.4541
  0
VERTEX
  8
0
 10
22.2083
 20
12.3715
  0
VERTEX
  8
0
 10
22.4057
 20
12.3072
  0
VERTEX
  8
0
 10
22.6077
 20
12.2521
  0
VERTEX
  8
0
 10
22.8097
 20
12.2245
  0
VERTEX
  8
0
 10
23.0118
 20
12.2062
  0
VERTEX
  8
0
 10
23.2184
 20
12.2108
  0
VERTEX
  8
0
 10
23.4296
 20
12.2337
  0
VERTEX
  8
0
 10
23.4296
 20
10.5855
  0
SEQEND
  0
POLYLINE
  8
0
 66
     1
 10
0
 20
0
  0
VERTEX
  8
0
 10
13.4023
 20
26.1865
  0
VERTEX
  8
0
 10
17.6767
 20
24.552
  0
VERTEX
  8
0
 10
17.6767
 20
25.6447
  0
VERTEX
  8
0
 10
16.0514
 20
25.6447
  0
VERTEX
  8
0
 10
16.0514
 20
27.0909
  0
VERTEX
  8
0
 10
10.7532
 20
27.0909
  0
VERTEX
  8
0
 10
10.7532
 20
25.6447
  0
VERTEX
  8
0
 10
9.1324
 20
25.6447
  0
VERTEX
  8
0
 10
9.1324
 20
24.552
  0
VERTEX
  8
0
 10
13.4023
 20
26.1865
  0
SEQEND
  0
ENDSEC
  0
EOF