  0
SECTION
  2
HEADER
  9
$ACADVER
  1
AC1009
  0
ENDSEC
  0
SECTION
  2
TABLES
  0
TABLE
  2
STYLE
 70
   1
  0
STYLE
  2
STANDARD
 70
    64
 40
0.0
 41
1.0
 50
0.0
 71
     0
 42
1.0
  3
txt
  4

  0
ENDTAB
  0
ENDSEC
  0
SECTION
  2
ENTITIES
  0
ARC
  8
0
 10
1.5
 20
9.75
 40
1.5
 50
180
 51
270
  0
ARC
  8
0
 10
28.5
 20
9.75
 40
1.5
 50
270
 51
360
  0
ARC
  8
0
 10
28.5
 20
36.75
 40
1.5
 50
0
 51
90
  0
ARC
  8
0
 10
1.5
 20
36.75
 40
1.5
 50
90
 51
180
  0
POLYLINE
  8
0
 66
     1
 10
0
 20
0
  0
VERTEX
  8
0
 10
1.5
 20
8.25
  0
VERTEX
  8
0
 10
28.5
 20
8.25
  0
SEQEND
  0
POLYLINE
  8
0
 66
     1
 10
0
 20
0
  0
VERTEX
  8
0
 10
30
 20
9.75
  0
VERTEX
  8
0
 10
30
 20
36.75
  0
SEQEND
  0
POLYLINE
  8
0
 66
     1
 10
0
 20
0
  0
VERTEX
  8
0
 10
28.5
 20
38.25
  0
VERTEX
  8
0
 10
1.5
 20
38.25
  0
SEQEND
  0
POLYLINE
  8
0
 66
     1
 10
0
 20
0
  0
VERTEX
  8
0
 10
0
 20
36.75
  0
VERTEX
  8
0
 10
0
 20
9.75
  0
SEQEND
  0
ARC
  8
0
 10
1.5
 20
9.75
 40
1.5
 50
180
 51
270
  0
ARC
  8
0
 10
1.5
 20
9.75
 40
0.75
 50
180
 51
270
  0
ARC
  8
0
 10
28.5
 20
9.75
 40
1.5
 50
270
 51
360
  0
ARC
  8
0
 10
28.5
 20
9.75
 40
0.75
 50
270
 51
360
  0
ARC
  8
0
 10
28.5
 20
36.75
 40
1.5
 50
0
 51
90
  0
ARC
  8
0
 10
28.5
 20
36.75
 40
0.75
 50
0
 51
90
  0
ARC
  8
0
 10
1.5
 20
36.75
 40
1.5
 50
90
 51
180
  0
ARC
  8
0
 10
1.5
 20
36.75
 40
0.75
 50
90
 51
180
  0
POLYLINE
  8
0
 66
     1
 10
0
 20
0
  0
VERTEX
  8
0
 10
1.5
 20
9
  0
VERTEX
  8
0
 10
28.5
 20
9
  0
SEQEND
  0
POLYLINE
  8
0
 66
     1
 10
0
 20
0
  0
VERTEX
  8
0
 10
28.5
 20
8.25
  0
VERTEX
  8
0
 10
1.5
 20
8.25
  0
SEQEND
  0
POLYLINE
  8
0
 66
     1
 10
0
 20
0
  0
VERTEX
  8
0
 10
29.25
 20
9.75
  0
VERTEX
  8
0
 10
29.25
 20
36.75
  0
SEQEND
  0
POLYLINE
  8
0
 66
     1
 10
0
 20
0
  0
VERTEX
  8
0
 10
30
 20
36.75
  0
VERTEX
  8
0
 10
30
 20
9.75
  0
SEQEND
  0
POLYLINE
  8
0
 66
     1
 10
0
 20
0
  0
VERTEX
  8
0
 10
28.5
 20
37.5
  0
VERTEX
  8
0
 10
1.5
 20
37.5
  0
SEQEND
  0
POLYLINE
  8
0
 66
     1
 10
0
 20
0
  0
VERTEX
  8
0
 10
1.5
 20
38.25
  0
VERTEX
  8
0
 10
28.5
 20
38.25
  0
SEQEND
  0
POLYLINE
  8
0
 66
     1
 10
0
 20
0
  0
VERTEX
  8
0
 10
0.75
 20
36.75
  0
VERTEX
  8
0
 10
0.75
 20
9.75
  0
SEQEND
  0
POLYLINE
  8
0
 66
     1
 10
0
 20
0
  0
VERTEX
  8
0
 10
0
 20
9.75
  0
VERTEX
  8
0
 10
0
 20
36.75
  0
SEQEND
  0
POLYLINE
  8
0
 66
     1
 10
0
 20
0
  0
VERTEX
  8
0
 10
34.2061
 20
35.9901
  0
VERTEX
  8
0
 10
34.3541
 20
35.9901
  0
VERTEX
  8
0
 10
34.3541
 20
35.1741
  0
VERTEX
  8
0
 10
34.3104
 20
35.1764
  0
VERTEX
  8
0
 10
34.2661
 20
35.1856
  0
VERTEX
  8
0
 10
34.2211
 20
35.2017
  0
VERTEX
  8
0
 10
34.1755
 20
35.2247
  0
VERTEX
  8
0
 10
34.1292
 20
35.2546
  0
VERTEX
  8
0
 10
34.0822
 20
35.2914
  0
VERTEX
  8
0
 10
34.0243
 20
35.3447
  0
VERTEX
  8
0
 10
33.9614
 20
35.4111
  0
VERTEX
  8
0
 10
33.8936
 20
35.4906
  0
VERTEX
  8
0
 10
33.8461
 20
35.5476
  0
VERTEX
  8
0
 10
33.8028
 20
35.5977
  0
VERTEX
  8
0
 10
33.7638
 20
35.6409
  0
VERTEX
  8
0
 10
33.7289
 20
35.6772
  0
VERTEX
  8
0
 10
33.6982
 20
35.7066
  0
VERTEX
  8
0
 10
33.6525
 20
35.7456
  0
VERTEX
  8
0
 10
33.6083
 20
35.7774
  0
VERTEX
  8
0
 10
33.5655
 20
35.8022
  0
VERTEX
  8
0
 10
33.5242
 20
35.8199
  0
VERTEX
  8
0
 10
33.4843
 20
35.8305
  0
VERTEX
  8
0
 10
33.4459
 20
35.8341
  0
VERTEX
  8
0
 10
33.3854
 20
35.8264
  0
VERTEX
  8
0
 10
33.333
 20
35.8033
  0
VERTEX
  8
0
 10
33.2887
 20
35.7649
  0
VERTEX
  8
0
 10
33.2566
 20
35.7174
  0
VERTEX
  8
0
 10
33.237
 20
35.6629
  0
VERTEX
  8
0
 10
33.2301
 20
35.6011
  0
VERTEX
  8
0
 10
33.234
 20
35.5477
  0
VERTEX
  8
0
 10
33.2466
 20
35.5003
  0
VERTEX
  8
0
 10
33.2678
 20
35.4591
  0
VERTEX
  8
0
 10
33.2976
 20
35.4239
  0
VERTEX
  8
0
 10
33.3484
 20
35.3882
  0
VERTEX
  8
0
 10
33.4097
 20
35.3665
  0
VERTEX
  8
0
 10
33.4814
 20
35.359
  0
VERTEX
  8
0
 10
33.4652
 20
35.2028
  0
VERTEX
  8
0
 10
33.4094
 20
35.2104
  0
VERTEX
  8
0
 10
33.3581
 20
35.223
  0
VERTEX
  8
0
 10
33.3113
 20
35.2406
  0
VERTEX
  8
0
 10
33.2691
 20
35.2632
  0
VERTEX
  8
0
 10
33.2315
 20
35.2908
  0
VERTEX
  8
0
 10
33.1985
 20
35.3235
  0
VERTEX
  8
0
 10
33.1652
 20
35.3685
  0
VERTEX
  8
0
 10
33.1394
 20
35.4191
  0
VERTEX
  8
0
 10
33.1209
 20
35.4753
  0
VERTEX
  8
0
 10
33.1098
 20
35.5371
  0
VERTEX
  8
0
 10
33.1061
 20
35.6045
  0
VERTEX
  8
0
 10
33.1097
 20
35.6677
  0
VERTEX
  8
0
 10
33.1203
 20
35.7264
  0
VERTEX
  8
0
 10
33.1381
 20
35.7805
  0
VERTEX
  8
0
 10
33.163
 20
35.8302
  0
VERTEX
  8
0
 10
33.1951
 20
35.8753
  0
VERTEX
  8
0
 10
33.2285
 20
35.9104
  0
VERTEX
  8
0
 10
33.2656
 20
35.9391
  0
VERTEX
  8
0
 10
33.3064
 20
35.9614
  0
VERTEX
  8
0
 10
33.3508
 20
35.9773
  0
VERTEX
  8
0
 10
33.3989
 20
35.9869
  0
VERTEX
  8
0
 10
33.4507
 20
35.9901
  0
VERTEX
  8
0
 10
33.5002
 20
35.9864
  0
VERTEX
  8
0
 10
33.5497
 20
35.9755
  0
VERTEX
  8
0
 10
33.5994
 20
35.9572
  0
VERTEX
  8
0
 10
33.6491
 20
35.9316
  0
VERTEX
  8
0
 10
33.6989
 20
35.8987
  0
VERTEX
  8
0
 10
33.7489
 20
35.8585
  0
VERTEX
  8
0
 10
33.7839
 20
35.8259
  0
VERTEX
  8
0
 10
33.8232
 20
35.7862
  0
VERTEX
  8
0
 10
33.8669
 20
35.7395
  0
VERTEX
  8
0
 10
33.9149
 20
35.6857
  0
VERTEX
  8
0
 10
33.9673
 20
35.6248
  0
VERTEX
  8
0
 10
34.0013
 20
35.5845
  0
VERTEX
  8
0
 10
34.0294
 20
35.5515
  0
VERTEX
  8
0
 10
34.0515
 20
35.5256
  0
VERTEX
  8
0
 10
34.0678
 20
35.507
  0
VERTEX
  8
0
 10
34.0782
 20
35.4956
  0
VERTEX
  8
0
 10
34.1432
 20
35.4326
  0
VERTEX
  8
0
 10
34.2061
 20
35.3851
  0
VERTEX
  8
0
 10
34.2061
 20
35.9901
  0
SEQEND
  0
POLYLINE
  8
0
 66
     1
 10
0
 20
0
  0
VERTEX
  8
0
 10
34.3541
 20
36.2381
  0
VERTEX
  8
0
 10
34.1781
 20
36.2381
  0
VERTEX
  8
0
 10
34.1781
 20
36.4101
  0
VERTEX
  8
0
 10
34.3541
 20
36.4101
  0
VERTEX
  8
0
 10
34.3541
 20
36.2381
  0
SEQEND
  0
POLYLINE
  8
0
 66
     1
 10
0
 20
0
  0
VERTEX
  8
0
 10
34.1306
 20
36.6408
  0
VERTEX
  8
0
 10
34.1171
 20
36.7863
  0
VERTEX
  8
0
 10
34.1698
 20
36.8086
  0
VERTEX
  8
0
 10
34.2149
 20
36.8569
  0
VERTEX
  8
0
 10
34.2319
 20
36.8933
  0
VERTEX
  8
0
 10
34.2423
 20
36.9432
  0
VERTEX
  8
0
 10
34.2461
 20
37.0066
  0
VERTEX
  8
0
 10
34.2385
 20
37.0711
  0
VERTEX
  8
0
 10
34.2141
 20
37.1285
  0
VERTEX
  8
0
 10
34.1908
 20
37.1602
  0
VERTEX
  8
0
 10
34.1615
 20
37.1888
  0
VERTEX
  8
0
 10
34.1261
 20
37.2142
  0
VERTEX
  8
0
 10
34.0847
 20
37.2365
  0
VERTEX
  8
0
 10
34.0372
 20
37.2555
  0
VERTEX
  8
0
 10
33.9837
 20
37.2714
  0
VERTEX
  8
0
 10
33.8925
 20
37.2884
  0
VERTEX
  8
0
 10
33.798
 20
37.2941
  0
VERTEX
  8
0
 10
33.782
 20
37.2939
  0
VERTEX
  8
0
 10
33.7676
 20
37.2933
  0
VERTEX
  8
0
 10
33.8016
 20
37.2695
  0
VERTEX
  8
0
 10
33.8315
 20
37.2436
  0
VERTEX
  8
0
 10
33.8575
 20
37.2153
  0
VERTEX
  8
0
 10
33.8796
 20
37.1849
  0
VERTEX
  8
0
 10
33.8976
 20
37.1522
  0
VERTEX
  8
0
 10
33.9117
 20
37.1172
  0
VERTEX
  8
0
 10
33.9218
 20
37.0801
  0
VERTEX
  8
0
 10
33.9279
 20
37.0406
  0
VERTEX
  8
0
 10
33.9301
 20
36.999
  0
VERTEX
  8
0
 10
33.927
 20
36.9455
  0
VERTEX
  8
0
 10
33.917
 20
36.8955
  0
VERTEX
  8
0
 10
33.9003
 20
36.8491
  0
VERTEX
  8
0
 10
33.8768
 20
36.8062
  0
VERTEX
  8
0
 10
33.8464
 20
36.7667
  0
VERTEX
  8
0
 10
33.8092
 20
36.7308
  0
VERTEX
  8
0
 10
33.7608
 20
36.696
  0
VERTEX
  8
0
 10
33.7081
 20
36.6689
  0
VERTEX
  8
0
 10
33.6511
 20
36.6496
  0
VERTEX
  8
0
 10
33.5899
 20
36.6379
  0
VERTEX
  8
0
 10
33.5244
 20
36.6341
  0
VERTEX
  8
0
 10
33.4634
 20
36.6371
  0
VERTEX
  8
0
 10
33.4066
 20
36.6463
  0
VERTEX
  8
0
 10
33.3539
 20
36.6617
  0
VERTEX
  8
0
 10
33.3055
 20
36.6831
  0
VERTEX
  8
0
 10
33.2612
 20
36.7107
  0
VERTEX
  8
0
 10
33.2211
 20
36.7444
  0
VERTEX
  8
0
 10
33.1862
 20
36.7828
  0
VERTEX
  8
0
 10
33.1576
 20
36.8244
  0
VERTEX
  8
0
 10
33.1353
 20
36.8691
  0
VERTEX
  8
0
 10
33.1193
 20
36.917
  0
VERTEX
  8
0
 10
33.1095
 20
36.9681
  0
VERTEX
  8
0
 10
33.1061
 20
37.0224
  0
VERTEX
  8
0
 10
33.1132
 20
37.1026
  0
VERTEX
  8
0
 10
33.1354
 20
37.177
  0
VERTEX
  8
0
 10
33.1728
 20
37.2456
  0
VERTEX
  8
0
 10
33.2233
 20
37.3059
  0
VERTEX
  8
0
 10
33.2846
 20
37.3553
  0
VERTEX
  8
0
 10
33.3569
 20
37.3938
  0
VERTEX
  8
0
 10
33.4094
 20
37.4126
  0
VERTEX
  8
0
 10
33.4705
 20
37.4273
  0
VERTEX
  8
0
 10
33.5401
 20
37.4377
  0
VERTEX
  8
0
 10
33.6181
 20
37.444
  0
VERTEX
  8
0
 10
33.7047
 20
37.4461
  0
VERTEX
  8
0
 10
33.7532
 20
37.4454
  0
VERTEX
  8
0
 10
33.7998
 20
37.4436
  0
VERTEX
  8
0
 10
33.8445
 20
37.4404
  0
VERTEX
  8
0
 10
33.8875
 20
37.436
  0
VERTEX
  8
0
 10
33.9286
 20
37.4303
  0
VERTEX
  8
0
 10
33.9679
 20
37.4233
  0
VERTEX
  8
0
 10
34.0054
 20
37.4151
  0
VERTEX
  8
0
 10
34.041
 20
37.4056
  0
VERTEX
  8
0
 10
34.0748
 20
37.3949
  0
VERTEX
  8
0
 10
34.1068
 20
37.3829
  0
VERTEX
  8
0
 10
34.1369
 20
37.3696
  0
VERTEX
  8
0
 10
34.1652
 20
37.3551
  0
VERTEX
  8
0
 10
34.1917
 20
37.3393
  0
VERTEX
  8
0
 10
34.2163
 20
37.3223
  0
VERTEX
  8
0
 10
34.2392
 20
37.3039
  0
VERTEX
  8
0
 10
34.2602
 20
37.2844
  0
VERTEX
  8
0
 10
34.2793
 20
37.2635
  0
VERTEX
  8
0
 10
34.2967
 20
37.2414
  0
VERTEX
  8
0
 10
34.3288
 20
37.1887
  0
VERTEX
  8
0
 10
34.3518
 20
37.1315
  0
VERTEX
  8
0
 10
34.3655
 20
37.0699
  0
VERTEX
  8
0
 10
34.3701
 20
37.0039
  0
VERTEX
  8
0
 10
34.3683
 20
36.9477
  0
VERTEX
  8
0
 10
34.3629
 20
36.8972
  0
VERTEX
  8
0
 10
34.3539
 20
36.8522
  0
VERTEX
  8
0
 10
34.3413
 20
36.8129
  0
VERTEX
  8
0
 10
34.3251
 20
36.7792
  0
VERTEX
  8
0
 10
34.3054
 20
36.7511
  0
VERTEX
  8
0
 10
34.2626
 20
36.707
  0
VERTEX
  8
0
 10
34.2192
 20
36.6739
  0
VERTEX
  8
0
 10
34.1752
 20
36.6518
  0
VERTEX
  8
0
 10
34.1306
 20
36.6408
  0
VERTEX
  8
0
 10
34.1306
 20
36.6408
  0
SEQEND
  0
POLYLINE
  8
0
 66
     1
 10
0
 20
0
  0
VERTEX
  8
0
 10
33.5151
 20
37.2781
  0
VERTEX
  8
0
 10
33.4419
 20
37.2714
  0
VERTEX
  8
0
 10
33.3768
 20
37.2515
  0
VERTEX
  8
0
 10
33.3197
 20
37.2183
  0
VERTEX
  8
0
 10
33.2809
 20
37.1826
  0
VERTEX
  8
0
 10
33.253
 20
37.1411
  0
VERTEX
  8
0
 10
33.236
 20
37.0941
  0
VERTEX
  8
0
 10
33.2301
 20
37.0413
  0
VERTEX
  8
0
 10
33.2336
 20
36.9974
  0
VERTEX
  8
0
 10
33.2447
 20
36.957
  0
VERTEX
  8
0
 10
33.2635
 20
36.9199
  0
VERTEX
  8
0
 10
33.2899
 20
36.8862
  0
VERTEX
  8
0
 10
33.324
 20
36.8558
  0
VERTEX
  8
0
 10
33.3846
 20
36.8197
  0
VERTEX
  8
0
 10
33.4525
 20
36.7977
  0
VERTEX
  8
0
 10
33.5277
 20
36.7901
  0
VERTEX
  8
0
 10
33.5991
 20
36.7971
  0
VERTEX
  8
0
 10
33.6619
 20
36.8193
  0
VERTEX
  8
0
 10
33.7163
 20
36.8566
  0
VERTEX
  8
0
 10
33.7503
 20
36.8938
  0
VERTEX
  8
0
 10
33.7747
 20
36.9363
  0
VERTEX
  8
0
 10
33.7892
 20
36.984
  0
VERTEX
  8
0
 10
33.7941
 20
37.037
  0
VERTEX
  8
0
 10
33.7889
 20
37.092
  0
VERTEX
  8
0
 10
33.7734
 20
37.1405
  0
VERTEX
  8
0
 10
33.7475
 20
37.1826
  0
VERTEX
  8
0
 10
33.7112
 20
37.2183
  0
VERTEX
  8
0
 10
33.6552
 20
37.2515
  0
VERTEX
  8
0
 10
33.5898
 20
37.2714
  0
VERTEX
  8
0
 10
33.5151
 20
37.2781
  0
VERTEX
  8
0
 10
33.5151
 20
37.2781
  0
SEQEND
  0
POLYLINE
  8
0
 66
     1
 10
0
 20
0
  0
VERTEX
  8
0
 10
34.0232
 20
37.6021
  0
VERTEX
  8
0
 10
34.0031
 20
37.7547
  0
VERTEX
  8
0
 10
34.0365
 20
37.7622
  0
VERTEX
  8
0
 10
34.0674
 20
37.7713
  0
VERTEX
  8
0
 10
34.0958
 20
37.7819
  0
VERTEX
  8
0
 10
34.1218
 20
37.7939
  0
VERTEX
  8
0
 10
34.1453
 20
37.8075
  0
VERTEX
  8
0
 10
34.1663
 20
37.8226
  0
VERTEX
  8
0
 10
34.1849
 20
37.8393
  0
VERTEX
  8
0
 10
34.2011
 20
37.8574
  0
VERTEX
  8
0
 10
34.2147
 20
37.877
  0
VERTEX
  8
0
 10
34.2259
 20
37.8982
  0
VERTEX
  8
0
 10
34.2347
 20
37.9209
  0
VERTEX
  8
0
 10
34.2409
 20
37.9451
  0
VERTEX
  8
0
 10
34.2448
 20
37.9708
  0
VERTEX
  8
0
 10
34.2461
 20
37.998
  0
VERTEX
  8
0
 10
34.2418
 20
38.0504
  0
VERTEX
  8
0
 10
34.2281
 20
38.0983
  0
VERTEX
  8
0
 10
34.2049
 20
38.1416
  0
VERTEX
  8
0
 10
34.1722
 20
38.1803
  0
VERTEX
  8
0
 10
34.1187
 20
38.2209
  0
VERTEX
  8
0
 10
34.0577
 20
38.2455
  0
VERTEX
  8
0
 10
33.9893
 20
38.2541
  0
VERTEX
  8
0
 10
33.924
 20
38.2468
  0
VERTEX
  8
0
 10
33.8668
 20
38.2238
  0
VERTEX
  8
0
 10
33.8177
 20
38.1852
  0
VERTEX
  8
0
 10
33.7801
 20
38.1347
  0
VERTEX
  8
0
 10
33.7576
 20
38.0762
  0
VERTEX
  8
0
 10
33.7501
 20
38.0098
  0
VERTEX
  8
0
 10
33.7536
 20
37.9598
  0
VERTEX
  8
0
 10
33.7642
 20
37.9018
  0
VERTEX
  8
0
 10
33.6341
 20
37.9186
  0
VERTEX
  8
0
 10
33.6341
 20
37.9289
  0
VERTEX
  8
0
 10
33.6341
 20
37.943
  0
VERTEX
  8
0
 10
33.6285
 20
38.0088
  0
VERTEX
  8
0
 10
33.6118
 20
38.0665
  0
VERTEX
  8
0
 10
33.5838
 20
38.116
  0
VERTEX
  8
0
 10
33.5528
 20
38.1498
  0
VERTEX
  8
0
 10
33.5161
 20
38.1741
  0
VERTEX
  8
0
 10
33.4736
 20
38.1889
  0
VERTEX
  8
0
 10
33.4253
 20
38.1941
  0
VERTEX
  8
0
 10
33.371
 20
38.1881
  0
VERTEX
  8
0
 10
33.3242
 20
38.1692
  0
VERTEX
  8
0
 10
33.2847
 20
38.1372
  0
VERTEX
  8
0
 10
33.2548
 20
38.0955
  0
VERTEX
  8
0
 10
33.2366
 20
38.047
  0
VERTEX
  8
0
 10
33.2301
 20
37.992
  0
VERTEX
  8
0
 10
33.2312
 20
37.964
  0
VERTEX
  8
0
 10
33.235
 20
37.9378
  0
VERTEX
  8
0
 10
33.2415
 20
37.9134
  0
VERTEX
  8
0
 10
33.2507
 20
37.8908
  0
VERTEX
  8
0
 10
33.2626
 20
37.8701
  0
VERTEX
  8
0
 10
33.2772
 20
37.8511
  0
VERTEX
  8
0
 10
33.2945
 20
37.8339
  0
VERTEX
  8
0
 10
33.3146
 20
37.8186
  0
VERTEX
  8
0
 10
33.3373
 20
37.805
  0
VERTEX
  8
0
 10
33.3627
 20
37.7933
  0
VERTEX
  8
0
 10
33.3909
 20
37.7833
  0
VERTEX
  8
0
 10
33.4217
 20
37.7752
  0
VERTEX
  8
0
 10
33.4552
 20
37.7688
  0
VERTEX
  8
0
 10
33.4281
 20
37.6173
  0
VERTEX
  8
0
 10
33.3571
 20
37.6351
  0
VERTEX
  8
0
 10
33.2942
 20
37.6618
  0
VERTEX
  8
0
 10
33.2394
 20
37.6972
  0
VERTEX
  8
0
 10
33.1926
 20
37.7415
  0
VERTEX
  8
0
 10
33.1551
 20
37.7934
  0
VERTEX
  8
0
 10
33.1282
 20
37.8519
  0
VERTEX
  8
0
 10
33.1118
 20
37.917
  0
VERTEX
  8
0
 10
33.1061
 20
37.9887
  0
VERTEX
  8
0
 10
33.1158
 20
38.0816
  0
VERTEX
  8
0
 10
33.1466
 20
38.1681
  0
VERTEX
  8
0
 10
33.1985
 20
38.2469
  0
VERTEX
  8
0
 10
33.2681
 20
38.3046
  0
VERTEX
  8
0
 10
33.3456
 20
38.3387
  0
VERTEX
  8
0
 10
33.4276
 20
38.3501
  0
VERTEX
  8
0
 10
33.4647
 20
38.348
  0
VERTEX
  8
0
 10
33.4995
 20
38.3417
  0
VERTEX
  8
0
 10
33.532
 20
38.3313
  0
VERTEX
  8
0
 10
33.5621
 20
38.3167
  0
VERTEX
  8
0
 10
33.5899
 20
38.298
  0
VERTEX
  8
0
 10
33.6155
 20
38.275
  0
VERTEX
  8
0
 10
33.6387
 20
38.2479
  0
VERTEX
  8
0
 10
33.6596
 20
38.2166
  0
VERTEX
  8
0
 10
33.6782
 20
38.1812
  0
VERTEX
  8
0
 10
33.7018
 20
38.2508
  0
VERTEX
  8
0
 10
33.7378
 20
38.3089
  0
VERTEX
  8
0
 10
33.7862
 20
38.3555
  0
VERTEX
  8
0
 10
33.8433
 20
38.388
  0
VERTEX
  8
0
 10
33.9088
 20
38.4076
  0
VERTEX
  8
0
 10
33.9828
 20
38.4141
  0
VERTEX
  8
0
 10
34.0357
 20
38.4108
  0
VERTEX
  8
0
 10
34.0857
 20
38.401
  0
VERTEX
  8
0
 10
34.1329
 20
38.3846
  0
VERTEX
  8
0
 10
34.1773
 20
38.3616
  0
VERTEX
  8
0
 10
34.2188
 20
38.3321
  0
VERTEX
  8
0
 10
34.2575
 20
38.2961
  0
VERTEX
  8
0
 10
34.2916
 20
38.255
  0
VERTEX
  8
0
 10
34.3197
 20
38.2103
  0
VERTEX
  8
0
 10
34.3415
 20
38.1621
  0
VERTEX
  8
0
 10
34.3572
 20
38.1104
  0
VERTEX
  8
0
 10
34.3667
 20
38.0551
  0
VERTEX
  8
0
 10
34.3701
 20
37.9963
  0
VERTEX
  8
0
 10
34.3664
 20
37.9338
  0
VERTEX
  8
0
 10
34.3551
 20
37.8756
  0
VERTEX
  8
0
 10
34.3363
 20
37.8217
  0
VERTEX
  8
0
 10
34.3099
 20
37.7721
  0
VERTEX
  8
0
 10
34.2761
 20
37.7269
  0
VERTEX
  8
0
 10
34.2358
 20
37.6874
  0
VERTEX
  8
0
 10
34.1905
 20
37.6551
  0
VERTEX
  8
0
 10
34.1399
 20
37.6302
  0
VERTEX
  8
0
 10
34.0842
 20
37.6125
  0
VERTEX
  8
0
 10
34.0232
 20
37.6021
  0
VERTEX
  8
0
 10
34.0232
 20
37.6021
  0
SEQEND
  0
LINE
  8
0
 10
32.25
 20
36.7868
 11
32.25
 21
38.25
  0
LINE
  8
0
 10
32.5183
 20
37.7133
 11
32.25
 21
38.25
  0
LINE
  8
0
 10
31.9817
 20
37.7133
 11
32.25
 21
38.25
  0
LINE
  8
0
 10
32.55
 20
38.25
 11
30.75
 21
38.25
  0
LINE
  8
0
 10
32.25
 20
36.7868
 11
32.25
 21
35.3237
  0
LINE
  8
0
 10
31.9817
 20
35.8604
 11
32.25
 21
35.3237
  0
LINE
  8
0
 10
32.5183
 20
35.8604
 11
32.25
 21
35.3237
  0
LINE
  8
0
 10
32.55
 20
35.3237
 11
30.75
 21
35.3237
  0
POLYLINE
  8
0
 66
     1
 10
0
 20
0
  0
VERTEX
  8
0
 10
32.7061
 20
21.9741
  0
VERTEX
  8
0
 10
32.8541
 20
21.9741
  0
VERTEX
  8
0
 10
32.8541
 20
21.1581
  0
VERTEX
  8
0
 10
32.8104
 20
21.1604
  0
VERTEX
  8
0
 10
32.7661
 20
21.1696
  0
VERTEX
  8
0
 10
32.7211
 20
21.1857
  0
VERTEX
  8
0
 10
32.6755
 20
21.2087
  0
VERTEX
  8
0
 10
32.6292
 20
21.2386
  0
VERTEX
  8
0
 10
32.5822
 20
21.2754
  0
VERTEX
  8
0
 10
32.5243
 20
21.3287
  0
VERTEX
  8
0
 10
32.4614
 20
21.3951
  0
VERTEX
  8
0
 10
32.3936
 20
21.4746
  0
VERTEX
  8
0
 10
32.3461
 20
21.5316
  0
VERTEX
  8
0
 10
32.3028
 20
21.5817
  0
VERTEX
  8
0
 10
32.2638
 20
21.6249
  0
VERTEX
  8
0
 10
32.2289
 20
21.6612
  0
VERTEX
  8
0
 10
32.1982
 20
21.6906
  0
VERTEX
  8
0
 10
32.1525
 20
21.7296
  0
VERTEX
  8
0
 10
32.1083
 20
21.7614
  0
VERTEX
  8
0
 10
32.0655
 20
21.7862
  0
VERTEX
  8
0
 10
32.0242
 20
21.8039
  0
VERTEX
  8
0
 10
31.9843
 20
21.8145
  0
VERTEX
  8
0
 10
31.9459
 20
21.8181
  0
VERTEX
  8
0
 10
31.8854
 20
21.8104
  0
VERTEX
  8
0
 10
31.833
 20
21.7873
  0
VERTEX
  8
0
 10
31.7887
 20
21.7489
  0
VERTEX
  8
0
 10
31.7566
 20
21.7014
  0
VERTEX
  8
0
 10
31.737
 20
21.6469
  0
VERTEX
  8
0
 10
31.7301
 20
21.5851
  0
VERTEX
  8
0
 10
31.734
 20
21.5317
  0
VERTEX
  8
0
 10
31.7466
 20
21.4843
  0
VERTEX
  8
0
 10
31.7678
 20
21.4431
  0
VERTEX
  8
0
 10
31.7976
 20
21.4079
  0
VERTEX
  8
0
 10
31.8484
 20
21.3722
  0
VERTEX
  8
0
 10
31.9097
 20
21.3505
  0
VERTEX
  8
0
 10
31.9814
 20
21.343
  0
VERTEX
  8
0
 10
31.9652
 20
21.1868
  0
VERTEX
  8
0
 10
31.9094
 20
21.1944
  0
VERTEX
  8
0
 10
31.8581
 20
21.207
  0
VERTEX
  8
0
 10
31.8113
 20
21.2246
  0
VERTEX
  8
0
 10
31.7691
 20
21.2472
  0
VERTEX
  8
0
 10
31.7315
 20
21.2748
  0
VERTEX
  8
0
 10
31.6985
 20
21.3075
  0
VERTEX
  8
0
 10
31.6652
 20
21.3525
  0
VERTEX
  8
0
 10
31.6394
 20
21.4031
  0
VERTEX
  8
0
 10
31.6209
 20
21.4593
  0
VERTEX
  8
0
 10
31.6098
 20
21.5211
  0
VERTEX
  8
0
 10
31.6061
 20
21.5885
  0
VERTEX
  8
0
 10
31.6097
 20
21.6517
  0
VERTEX
  8
0
 10
31.6203
 20
21.7104
  0
VERTEX
  8
0
 10
31.6381
 20
21.7645
  0
VERTEX
  8
0
 10
31.663
 20
21.8142
  0
VERTEX
  8
0
 10
31.6951
 20
21.8593
  0
VERTEX
  8
0
 10
31.7285
 20
21.8944
  0
VERTEX
  8
0
 10
31.7656
 20
21.9231
  0
VERTEX
  8
0
 10
31.8064
 20
21.9454
  0
VERTEX
  8
0
 10
31.8508
 20
21.9613
  0
VERTEX
  8
0
 10
31.8989
 20
21.9709
  0
VERTEX
  8
0
 10
31.9507
 20
21.9741
  0
VERTEX
  8
0
 10
32.0002
 20
21.9704
  0
VERTEX
  8
0
 10
32.0497
 20
21.9595
  0
VERTEX
  8
0
 10
32.0994
 20
21.9412
  0
VERTEX
  8
0
 10
32.1491
 20
21.9156
  0
VERTEX
  8
0
 10
32.1989
 20
21.8827
  0
VERTEX
  8
0
 10
32.2489
 20
21.8425
  0
VERTEX
  8
0
 10
32.2839
 20
21.8099
  0
VERTEX
  8
0
 10
32.3232
 20
21.7702
  0
VERTEX
  8
0
 10
32.3669
 20
21.7235
  0
VERTEX
  8
0
 10
32.4149
 20
21.6697
  0
VERTEX
  8
0
 10
32.4673
 20
21.6088
  0
VERTEX
  8
0
 10
32.5013
 20
21.5685
  0
VERTEX
  8
0
 10
32.5294
 20
21.5355
  0
VERTEX
  8
0
 10
32.5515
 20
21.5096
  0
VERTEX
  8
0
 10
32.5678
 20
21.491
  0
VERTEX
  8
0
 10
32.5782
 20
21.4796
  0
VERTEX
  8
0
 10
32.6432
 20
21.4166
  0
VERTEX
  8
0
 10
32.7061
 20
21.3691
  0
VERTEX
  8
0
 10
32.7061
 20
21.9741
  0
SEQEND
  0
POLYLINE
  8
0
 66
     1
 10
0
 20
0
  0
VERTEX
  8
0
 10
32.8541
 20
22.6261
  0
VERTEX
  8
0
 10
32.5541
 20
22.6261
  0
VERTEX
  8
0
 10
32.5541
 20
22.0901
  0
VERTEX
  8
0
 10
32.4141
 20
22.0901
  0
VERTEX
  8
0
 10
31.6141
 20
22.655
  0
VERTEX
  8
0
 10
31.6141
 20
22.7781
  0
VERTEX
  8
0
 10
32.4141
 20
22.7781
  0
VERTEX
  8
0
 10
32.4141
 20
22.9461
  0
VERTEX
  8
0
 10
32.5541
 20
22.9461
  0
VERTEX
  8
0
 10
32.5541
 20
22.7781
  0
VERTEX
  8
0
 10
32.8541
 20
22.7781
  0
VERTEX
  8
0
 10
32.8541
 20
22.6261
  0
SEQEND
  0
POLYLINE
  8
0
 66
     1
 10
0
 20
0
  0
VERTEX
  8
0
 10
32.4141
 20
22.6261
  0
VERTEX
  8
0
 10
31.8631
 20
22.6261
  0
VERTEX
  8
0
 10
32.4145
 20
22.2416
  0
VERTEX
  8
0
 10
32.4141
 20
22.6261
  0
SEQEND
  0
POLYLINE
  8
0
 66
     1
 10
0
 20
0
  0
VERTEX
  8
0
 10
32.8541
 20
23.1821
  0
VERTEX
  8
0
 10
32.6781
 20
23.1821
  0
VERTEX
  8
0
 10
32.6781
 20
23.3541
  0
VERTEX
  8
0
 10
32.8541
 20
23.3541
  0
VERTEX
  8
0
 10
32.8541
 20
23.1821
  0
SEQEND
  0
POLYLINE
  8
0
 66
     1
 10
0
 20
0
  0
VERTEX
  8
0
 10
32.8541
 20
24.1581
  0
VERTEX
  8
0
 10
32.8541
 20
24.0061
  0
VERTEX
  8
0
 10
31.8818
 20
24.0061
  0
VERTEX
  8
0
 10
31.9528
 20
23.919
  0
VERTEX
  8
0
 10
32.0139
 20
23.8177
  0
VERTEX
  8
0
 10
32.065
 20
23.7021
  0
VERTEX
  8
0
 10
31.9177
 20
23.7021
  0
VERTEX
  8
0
 10
31.8892
 20
23.7589
  0
VERTEX
  8
0
 10
31.8593
 20
23.8114
  0
VERTEX
  8
0
 10
31.8278
 20
23.8597
  0
VERTEX
  8
0
 10
31.7947
 20
23.9037
  0
VERTEX
  8
0
 10
31.7601
 20
23.9435
  0
VERTEX
  8
0
 10
31.7239
 20
23.9791
  0
VERTEX
  8
0
 10
31.6862
 20
24.0103
  0
VERTEX
  8
0
 10
31.6469
 20
24.0374
  0
VERTEX
  8
0
 10
31.6061
 20
24.0601
  0
VERTEX
  8
0
 10
31.6061
 20
24.1581
  0
VERTEX
  8
0
 10
32.8541
 20
24.1581
  0
SEQEND
  0
POLYLINE
  8
0
 66
     1
 10
0
 20
0
  0
VERTEX
  8
0
 10
32.8541
 20
25.0301
  0
VERTEX
  8
0
 10
32.5541
 20
25.0301
  0
VERTEX
  8
0
 10
32.5541
 20
24.4941
  0
VERTEX
  8
0
 10
32.4141
 20
24.4941
  0
VERTEX
  8
0
 10
31.6141
 20
25.059
  0
VERTEX
  8
0
 10
31.6141
 20
25.1821
  0
VERTEX
  8
0
 10
32.4141
 20
25.1821
  0
VERTEX
  8
0
 10
32.4141
 20
25.3501
  0
VERTEX
  8
0
 10
32.5541
 20
25.3501
  0
VERTEX
  8
0
 10
32.5541
 20
25.1821
  0
VERTEX
  8
0
 10
32.8541
 20
25.1821
  0
VERTEX
  8
0
 10
32.8541
 20
25.0301
  0
SEQEND
  0
POLYLINE
  8
0
 66
     1
 10
0
 20
0
  0
VERTEX
  8
0
 10
32.4141
 20
25.0301
  0
VERTEX
  8
0
 10
31.8631
 20
25.0301
  0
VERTEX
  8
0
 10
32.4145
 20
24.6456
  0
VERTEX
  8
0
 10
32.4141
 20
25.0301
  0
SEQEND
  0
LINE
  8
0
 10
32.25
 20
25.6516
 11
32.25
 21
35.3237
  0
LINE
  8
0
 10
32.5183
 20
34.787
 11
32.25
 21
35.3237
  0
LINE
  8
0
 10
31.9817
 20
34.787
 11
32.25
 21
35.3237
  0
LINE
  8
0
 10
32.25
 20
20.8484
 11
32.25
 21
11.1763
  0
LINE
  8
0
 10
31.9817
 20
11.713
 11
32.25
 21
11.1763
  0
LINE
  8
0
 10
32.5183
 20
11.713
 11
32.25
 21
11.1763
  0
LINE
  8
0
 10
32.55
 20
11.1763
 11
30.75
 21
11.1763
  0
POLYLINE
  8
0
 66
     1
 10
0
 20
0
  0
VERTEX
  8
0
 10
0.9261
 20
4.0461
  0
VERTEX
  8
0
 10
0.9261
 20
3.8981
  0
VERTEX
  8
0
 10
0.1101
 20
3.8981
  0
VERTEX
  8
0
 10
0.1124
 20
3.9417
  0
VERTEX
  8
0
 10
0.1216
 20
3.9861
  0
VERTEX
  8
0
 10
0.1378
 20
4.0311
  0
VERTEX
  8
0
 10
0.1608
 20
4.0767
  0
VERTEX
  8
0
 10
0.1906
 20
4.123
  0
VERTEX
  8
0
 10
0.2274
 20
4.17
  0
VERTEX
  8
0
 10
0.2807
 20
4.2279
  0
VERTEX
  8
0
 10
0.3471
 20
4.2908
  0
VERTEX
  8
0
 10
0.4266
 20
4.3586
  0
VERTEX
  8
0
 10
0.4836
 20
4.4061
  0
VERTEX
  8
0
 10
0.5337
 20
4.4494
  0
VERTEX
  8
0
 10
0.5769
 20
4.4884
  0
VERTEX
  8
0
 10
0.6132
 20
4.5233
  0
VERTEX
  8
0
 10
0.6427
 20
4.554
  0
VERTEX
  8
0
 10
0.6816
 20
4.5997
  0
VERTEX
  8
0
 10
0.7135
 20
4.6439
  0
VERTEX
  8
0
 10
0.7383
 20
4.6867
  0
VERTEX
  8
0
 10
0.756
 20
4.728
  0
VERTEX
  8
0
 10
0.7666
 20
4.7679
  0
VERTEX
  8
0
 10
0.7701
 20
4.8063
  0
VERTEX
  8
0
 10
0.7624
 20
4.8668
  0
VERTEX
  8
0
 10
0.7394
 20
4.9192
  0
VERTEX
  8
0
 10
0.7009
 20
4.9635
  0
VERTEX
  8
0
 10
0.6535
 20
4.9956
  0
VERTEX
  8
0
 10
0.5989
 20
5.0152
  0
VERTEX
  8
0
 10
0.5372
 20
5.0221
  0
VERTEX
  8
0
 10
0.4837
 20
5.0182
  0
VERTEX
  8
0
 10
0.4363
 20
5.0056
  0
VERTEX
  8
0
 10
0.3951
 20
4.9844
  0
VERTEX
  8
0
 10
0.36
 20
4.9546
  0
VERTEX
  8
0
 10
0.3242
 20
4.9037
  0
VERTEX
  8
0
 10
0.3026
 20
4.8425
  0
VERTEX
  8
0
 10
0.295
 20
4.7708
  0
VERTEX
  8
0
 10
0.1389
 20
4.7869
  0
VERTEX
  8
0
 10
0.1464
 20
4.8428
  0
VERTEX
  8
0
 10
0.159
 20
4.8941
  0
VERTEX
  8
0
 10
0.1766
 20
4.9409
  0
VERTEX
  8
0
 10
0.1992
 20
4.983
  0
VERTEX
  8
0
 10
0.2269
 20
5.0207
  0
VERTEX
  8
0
 10
0.2595
 20
5.0537
  0
VERTEX
  8
0
 10
0.3045
 20
5.087
  0
VERTEX
  8
0
 10
0.3551
 20
5.1128
  0
VERTEX
  8
0
 10
0.4113
 20
5.1313
  0
VERTEX
  8
0
 10
0.4731
 20
5.1424
  0
VERTEX
  8
0
 10
0.5405
 20
5.1461
  0
VERTEX
  8
0
 10
0.6037
 20
5.1425
  0
VERTEX
  8
0
 10
0.6624
 20
5.1319
  0
VERTEX
  8
0
 10
0.7166
 20
5.1141
  0
VERTEX
  8
0
 10
0.7662
 20
5.0892
  0
VERTEX
  8
0
 10
0.8114
 20
5.0571
  0
VERTEX
  8
0
 10
0.8464
 20
5.0237
  0
VERTEX
  8
0
 10
0.8751
 20
4.9866
  0
VERTEX
  8
0
 10
0.8974
 20
4.9458
  0
VERTEX
  8
0
 10
0.9134
 20
4.9014
  0
VERTEX
  8
0
 10
0.9229
 20
4.8532
  0
VERTEX
  8
0
 10
0.9261
 20
4.8015
  0
VERTEX
  8
0
 10
0.9225
 20
4.752
  0
VERTEX
  8
0
 10
0.9115
 20
4.7025
  0
VERTEX
  8
0
 10
0.8932
 20
4.6528
  0
VERTEX
  8
0
 10
0.8676
 20
4.6031
  0
VERTEX
  8
0
 10
0.8347
 20
4.5533
  0
VERTEX
  8
0
 10
0.7945
 20
4.5033
  0
VERTEX
  8
0
 10
0.7619
 20
4.4683
  0
VERTEX
  8
0
 10
0.7223
 20
4.429
  0
VERTEX
  8
0
 10
0.6755
 20
4.3853
  0
VERTEX
  8
0
 10
0.6217
 20
4.3373
  0
VERTEX
  8
0
 10
0.5608
 20
4.2849
  0
VERTEX
  8
0
 10
0.5205
 20
4.2509
  0
VERTEX
  8
0
 10
0.4875
 20
4.2228
  0
VERTEX
  8
0
 10
0.4617
 20
4.2006
  0
VERTEX
  8
0
 10
0.4431
 20
4.1844
  0
VERTEX
  8
0
 10
0.4317
 20
4.174
  0
VERTEX
  8
0
 10
0.3686
 20
4.109
  0
VERTEX
  8
0
 10
0.3212
 20
4.0461
  0
VERTEX
  8
0
 10
0.9261
 20
4.0461
  0
SEQEND
  0
POLYLINE
  8
0
 66
     1
 10
0
 20
0
  0
VERTEX
  8
0
 10
1.1741
 20
3.8981
  0
VERTEX
  8
0
 10
1.1741
 20
4.0741
  0
VERTEX
  8
0
 10
1.3461
 20
4.0741
  0
VERTEX
  8
0
 10
1.3461
 20
3.8981
  0
VERTEX
  8
0
 10
1.1741
 20
3.8981
  0
SEQEND
  0
POLYLINE
  8
0
 66
     1
 10
0
 20
0
  0
VERTEX
  8
0
 10
1.5701
 20
4.2263
  0
VERTEX
  8
0
 10
1.7298
 20
4.2398
  0
VERTEX
  8
0
 10
1.7357
 20
4.2076
  0
VERTEX
  8
0
 10
1.7434
 20
4.1778
  0
VERTEX
  8
0
 10
1.7527
 20
4.1503
  0
VERTEX
  8
0
 10
1.7637
 20
4.1253
  0
VERTEX
  8
0
 10
1.7765
 20
4.1027
  0
VERTEX
  8
0
 10
1.791
 20
4.0824
  0
VERTEX
  8
0
 10
1.8071
 20
4.0645
  0
VERTEX
  8
0
 10
1.825
 20
4.049
  0
VERTEX
  8
0
 10
1.8446
 20
4.0359
  0
VERTEX
  8
0
 10
1.8659
 20
4.0252
  0
VERTEX
  8
0
 10
1.8889
 20
4.0168
  0
VERTEX
  8
0
 10
1.9136
 20
4.0109
  0
VERTEX
  8
0
 10
1.94
 20
4.0073
  0
VERTEX
  8
0
 10
1.9681
 20
4.0061
  0
VERTEX
  8
0
 10
2.0148
 20
4.0098
  0
VERTEX
  8
0
 10
2.0576
 20
4.0209
  0
VERTEX
  8
0
 10
2.0965
 20
4.0394
  0
VERTEX
  8
0
 10
2.1315
 20
4.0652
  0
VERTEX
  8
0
 10
2.1625
 20
4.0985
  0
VERTEX
  8
0
 10
2.2001
 20
4.159
  0
VERTEX
  8
0
 10
2.2226
 20
4.2285
  0
VERTEX
  8
0
 10
2.2301
 20
4.307
  0
VERTEX
  8
0
 10
2.2257
 20
4.3662
  0
VERTEX
  8
0
 10
2.2126
 20
4.4195
  0
VERTEX
  8
0
 10
2.1907
 20
4.4669
  0
VERTEX
  8
0
 10
2.16
 20
4.5083
  0
VERTEX
  8
0
 10
2.1215
 20
4.542
  0
VERTEX
  8
0
 10
2.0763
 20
4.5662
  0
VERTEX
  8
0
 10
2.0243
 20
4.5809
  0
VERTEX
  8
0
 10
1.9656
 20
4.5861
  0
VERTEX
  8
0
 10
1.919
 20
4.5831
  0
VERTEX
  8
0
 10
1.8759
 20
4.5734
  0
VERTEX
  8
0
 10
1.8365
 20
4.5571
  0
VERTEX
  8
0
 10
1.8007
 20
4.5342
  0
VERTEX
  8
0
 10
1.7685
 20
4.5047
  0
VERTEX
  8
0
 10
1.7399
 20
4.4685
  0
VERTEX
  8
0
 10
1.5971
 20
4.4871
  0
VERTEX
  8
0
 10
1.717
 20
5.1221
  0
VERTEX
  8
0
 10
2.3324
 20
5.1221
  0
VERTEX
  8
0
 10
2.3324
 20
4.9781
  0
VERTEX
  8
0
 10
1.8405
 20
4.9781
  0
VERTEX
  8
0
 10
1.7734
 20
4.6446
  0
VERTEX
  8
0
 10
1.8487
 20
4.6873
  0
VERTEX
  8
0
 10
1.9264
 20
4.7131
  0
VERTEX
  8
0
 10
2.0065
 20
4.7221
  0
VERTEX
  8
0
 10
2.0609
 20
4.7191
  0
VERTEX
  8
0
 10
2.1121
 20
4.7096
  0
VERTEX
  8
0
 10
2.16
 20
4.6935
  0
VERTEX
  8
0
 10
2.2047
 20
4.6708
  0
VERTEX
  8
0
 10
2.246
 20
4.6416
  0
VERTEX
  8
0
 10
2.2841
 20
4.6058
  0
VERTEX
  8
0
 10
2.3165
 20
4.5663
  0
VERTEX
  8
0
 10
2.343
 20
4.5237
  0
VERTEX
  8
0
 10
2.3636
 20
4.478
  0
VERTEX
  8
0
 10
2.3783
 20
4.4291
  0
VERTEX
  8
0
 10
2.3872
 20
4.3771
  0
VERTEX
  8
0
 10
2.3901
 20
4.3219
  0
VERTEX
  8
0
 10
2.3862
 20
4.2569
  0
VERTEX
  8
0
 10
2.3745
 20
4.1955
  0
VERTEX
  8
0
 10
2.3549
 20
4.1375
  0
VERTEX
  8
0
 10
2.3275
 20
4.083
  0
VERTEX
  8
0
 10
2.2922
 20
4.0321
  0
VERTEX
  8
0
 10
2.2611
 20
3.9971
  0
VERTEX
  8
0
 10
2.2273
 20
3.9668
  0
VERTEX
  8
0
 10
2.1908
 20
3.9411
  0
VERTEX
  8
0
 10
2.1516
 20
3.92
  0
VERTEX
  8
0
 10
2.1096
 20
3.9036
  0
VERTEX
  8
0
 10
2.065
 20
3.8918
  0
VERTEX
  8
0
 10
2.0176
 20
3.8846
  0
VERTEX
  8
0
 10
1.9675
 20
3.8821
  0
VERTEX
  8
0
 10
1.904
 20
3.8857
  0
VERTEX
  8
0
 10
1.845
 20
3.8965
  0
VERTEX
  8
0
 10
1.7907
 20
3.9145
  0
VERTEX
  8
0
 10
1.7409
 20
3.9397
  0
VERTEX
  8
0
 10
1.6958
 20
3.9721
  0
VERTEX
  8
0
 10
1.6557
 20
4.0119
  0
VERTEX
  8
0
 10
1.623
 20
4.0572
  0
VERTEX
  8
0
 10
1.5979
 20
4.1081
  0
VERTEX
  8
0
 10
1.5803
 20
4.1644
  0
VERTEX
  8
0
 10
1.5701
 20
4.2263
  0
VERTEX
  8
0
 10
1.5701
 20
4.2263
  0
SEQEND
  0
LINE
  8
0
 10
1.25
 20
6
 11
2.5
 21
6
  0
LINE
  8
0
 10
1.9633
 20
5.7317
 11
2.5
 21
6
  0
LINE
  8
0
 10
1.9633
 20
6.2683
 11
2.5
 21
6
  0
LINE
  8
0
 10
2.5
 20
5.7
 11
2.5
 21
7.5
  0
LINE
  8
0
 10
1.25
 20
6
 11
0
 21
6
  0
LINE
  8
0
 10
0.5367
 20
6.2683
 11
0
 21
6
  0
LINE
  8
0
 10
0.5367
 20
5.7317
 11
0
 21
6
  0
LINE
  8
0
 10
0
 20
5.7
 11
0
 21
7.5
  0
POLYLINE
  8
0
 66
     1
 10
0
 20
0
  0
VERTEX
  8
0
 10
14.9181
 20
5.5461
  0
VERTEX
  8
0
 10
14.9181
 20
5.3981
  0
VERTEX
  8
0
 10
14.1021
 20
5.3981
  0
VERTEX
  8
0
 10
14.1044
 20
5.4417
  0
VERTEX
  8
0
 10
14.1136
 20
5.4861
  0
VERTEX
  8
0
 10
14.1298
 20
5.5311
  0
VERTEX
  8
0
 10
14.1528
 20
5.5767
  0
VERTEX
  8
0
 10
14.1826
 20
5.623
  0
VERTEX
  8
0
 10
14.2194
 20
5.67
  0
VERTEX
  8
0
 10
14.2727
 20
5.7279
  0
VERTEX
  8
0
 10
14.3391
 20
5.7908
  0
VERTEX
  8
0
 10
14.4186
 20
5.8586
  0
VERTEX
  8
0
 10
14.4756
 20
5.9061
  0
VERTEX
  8
0
 10
14.5257
 20
5.9494
  0
VERTEX
  8
0
 10
14.5689
 20
5.9884
  0
VERTEX
  8
0
 10
14.6052
 20
6.0233
  0
VERTEX
  8
0
 10
14.6347
 20
6.054
  0
VERTEX
  8
0
 10
14.6736
 20
6.0997
  0
VERTEX
  8
0
 10
14.7055
 20
6.1439
  0
VERTEX
  8
0
 10
14.7303
 20
6.1867
  0
VERTEX
  8
0
 10
14.748
 20
6.228
  0
VERTEX
  8
0
 10
14.7586
 20
6.2679
  0
VERTEX
  8
0
 10
14.7621
 20
6.3063
  0
VERTEX
  8
0
 10
14.7544
 20
6.3668
  0
VERTEX
  8
0
 10
14.7314
 20
6.4192
  0
VERTEX
  8
0
 10
14.6929
 20
6.4635
  0
VERTEX
  8
0
 10
14.6455
 20
6.4956
  0
VERTEX
  8
0
 10
14.5909
 20
6.5152
  0
VERTEX
  8
0
 10
14.5292
 20
6.5221
  0
VERTEX
  8
0
 10
14.4757
 20
6.5182
  0
VERTEX
  8
0
 10
14.4283
 20
6.5056
  0
VERTEX
  8
0
 10
14.3871
 20
6.4844
  0
VERTEX
  8
0
 10
14.352
 20
6.4546
  0
VERTEX
  8
0
 10
14.3162
 20
6.4037
  0
VERTEX
  8
0
 10
14.2946
 20
6.3425
  0
VERTEX
  8
0
 10
14.287
 20
6.2708
  0
VERTEX
  8
0
 10
14.1309
 20
6.2869
  0
VERTEX
  8
0
 10
14.1384
 20
6.3428
  0
VERTEX
  8
0
 10
14.151
 20
6.3941
  0
VERTEX
  8
0
 10
14.1686
 20
6.4409
  0
VERTEX
  8
0
 10
14.1912
 20
6.483
  0
VERTEX
  8
0
 10
14.2189
 20
6.5207
  0
VERTEX
  8
0
 10
14.2515
 20
6.5537
  0
VERTEX
  8
0
 10
14.2965
 20
6.587
  0
VERTEX
  8
0
 10
14.3471
 20
6.6128
  0
VERTEX
  8
0
 10
14.4033
 20
6.6313
  0
VERTEX
  8
0
 10
14.4651
 20
6.6424
  0
VERTEX
  8
0
 10
14.5325
 20
6.6461
  0
VERTEX
  8
0
 10
14.5957
 20
6.6425
  0
VERTEX
  8
0
 10
14.6544
 20
6.6319
  0
VERTEX
  8
0
 10
14.7086
 20
6.6141
  0
VERTEX
  8
0
 10
14.7582
 20
6.5892
  0
VERTEX
  8
0
 10
14.8034
 20
6.5571
  0
VERTEX
  8
0
 10
14.8384
 20
6.5237
  0
VERTEX
  8
0
 10
14.8671
 20
6.4866
  0
VERTEX
  8
0
 10
14.8894
 20
6.4458
  0
VERTEX
  8
0
 10
14.9054
 20
6.4014
  0
VERTEX
  8
0
 10
14.9149
 20
6.3532
  0
VERTEX
  8
0
 10
14.9181
 20
6.3015
  0
VERTEX
  8
0
 10
14.9145
 20
6.252
  0
VERTEX
  8
0
 10
14.9035
 20
6.2025
  0
VERTEX
  8
0
 10
14.8852
 20
6.1528
  0
VERTEX
  8
0
 10
14.8596
 20
6.1031
  0
VERTEX
  8
0
 10
14.8267
 20
6.0533
  0
VERTEX
  8
0
 10
14.7865
 20
6.0033
  0
VERTEX
  8
0
 10
14.7539
 20
5.9683
  0
VERTEX
  8
0
 10
14.7143
 20
5.929
  0
VERTEX
  8
0
 10
14.6675
 20
5.8853
  0
VERTEX
  8
0
 10
14.6137
 20
5.8373
  0
VERTEX
  8
0
 10
14.5528
 20
5.7849
  0
VERTEX
  8
0
 10
14.5125
 20
5.7509
  0
VERTEX
  8
0
 10
14.4795
 20
5.7228
  0
VERTEX
  8
0
 10
14.4537
 20
5.7006
  0
VERTEX
  8
0
 10
14.4351
 20
5.6844
  0
VERTEX
  8
0
 10
14.4237
 20
5.674
  0
VERTEX
  8
0
 10
14.3606
 20
5.609
  0
VERTEX
  8
0
 10
14.3132
 20
5.5461
  0
VERTEX
  8
0
 10
14.9181
 20
5.5461
  0
SEQEND
  0
POLYLINE
  8
0
 66
     1
 10
0
 20
0
  0
VERTEX
  8
0
 10
15.0781
 20
5.7263
  0
VERTEX
  8
0
 10
15.2378
 20
5.7398
  0
VERTEX
  8
0
 10
15.2437
 20
5.7076
  0
VERTEX
  8
0
 10
15.2514
 20
5.6778
  0
VERTEX
  8
0
 10
15.2607
 20
5.6503
  0
VERTEX
  8
0
 10
15.2717
 20
5.6253
  0
VERTEX
  8
0
 10
15.2845
 20
5.6027
  0
VERTEX
  8
0
 10
15.299
 20
5.5824
  0
VERTEX
  8
0
 10
15.3151
 20
5.5645
  0
VERTEX
  8
0
 10
15.333
 20
5.549
  0
VERTEX
  8
0
 10
15.3526
 20
5.5359
  0
VERTEX
  8
0
 10
15.3739
 20
5.5252
  0
VERTEX
  8
0
 10
15.3969
 20
5.5168
  0
VERTEX
  8
0
 10
15.4216
 20
5.5109
  0
VERTEX
  8
0
 10
15.448
 20
5.5073
  0
VERTEX
  8
0
 10
15.4761
 20
5.5061
  0
VERTEX
  8
0
 10
15.5228
 20
5.5098
  0
VERTEX
  8
0
 10
15.5656
 20
5.5209
  0
VERTEX
  8
0
 10
15.6045
 20
5.5394
  0
VERTEX
  8
0
 10
15.6395
 20
5.5652
  0
VERTEX
  8
0
 10
15.6705
 20
5.5985
  0
VERTEX
  8
0
 10
15.7081
 20
5.659
  0
VERTEX
  8
0
 10
15.7306
 20
5.7285
  0
VERTEX
  8
0
 10
15.7381
 20
5.807
  0
VERTEX
  8
0
 10
15.7337
 20
5.8662
  0
VERTEX
  8
0
 10
15.7206
 20
5.9195
  0
VERTEX
  8
0
 10
15.6987
 20
5.9669
  0
VERTEX
  8
0
 10
15.668
 20
6.0083
  0
VERTEX
  8
0
 10
15.6295
 20
6.042
  0
VERTEX
  8
0
 10
15.5843
 20
6.0662
  0
VERTEX
  8
0
 10
15.5323
 20
6.0809
  0
VERTEX
  8
0
 10
15.4736
 20
6.0861
  0
VERTEX
  8
0
 10
15.427
 20
6.0831
  0
VERTEX
  8
0
 10
15.3839
 20
6.0734
  0
VERTEX
  8
0
 10
15.3445
 20
6.0571
  0
VERTEX
  8
0
 10
15.3087
 20
6.0342
  0
VERTEX
  8
0
 10
15.2765
 20
6.0047
  0
VERTEX
  8
0
 10
15.2479
 20
5.9685
  0
VERTEX
  8
0
 10
15.1051
 20
5.9871
  0
VERTEX
  8
0
 10
15.225
 20
6.6221
  0
VERTEX
  8
0
 10
15.8404
 20
6.6221
  0
VERTEX
  8
0
 10
15.8404
 20
6.4781
  0
VERTEX
  8
0
 10
15.3485
 20
6.4781
  0
VERTEX
  8
0
 10
15.2814
 20
6.1446
  0
VERTEX
  8
0
 10
15.3567
 20
6.1873
  0
VERTEX
  8
0
 10
15.4344
 20
6.2131
  0
VERTEX
  8
0
 10
15.5145
 20
6.2221
  0
VERTEX
  8
0
 10
15.5689
 20
6.2191
  0
VERTEX
  8
0
 10
15.6201
 20
6.2096
  0
VERTEX
  8
0
 10
15.668
 20
6.1935
  0
VERTEX
  8
0
 10
15.7127
 20
6.1708
  0
VERTEX
  8
0
 10
15.754
 20
6.1416
  0
VERTEX
  8
0
 10
15.7921
 20
6.1058
  0
VERTEX
  8
0
 10
15.8245
 20
6.0663
  0
VERTEX
  8
0
 10
15.851
 20
6.0237
  0
VERTEX
  8
0
 10
15.8716
 20
5.978
  0
VERTEX
  8
0
 10
15.8863
 20
5.9291
  0
VERTEX
  8
0
 10
15.8952
 20
5.8771
  0
VERTEX
  8
0
 10
15.8981
 20
5.8219
  0
VERTEX
  8
0
 10
15.8942
 20
5.7569
  0
VERTEX
  8
0
 10
15.8825
 20
5.6955
  0
VERTEX
  8
0
 10
15.8629
 20
5.6375
  0
VERTEX
  8
0
 10
15.8355
 20
5.583
  0
VERTEX
  8
0
 10
15.8002
 20
5.5321
  0
VERTEX
  8
0
 10
15.7691
 20
5.4971
  0
VERTEX
  8
0
 10
15.7353
 20
5.4668
  0
VERTEX
  8
0
 10
15.6988
 20
5.4411
  0
VERTEX
  8
0
 10
15.6596
 20
5.42
  0
VERTEX
  8
0
 10
15.6176
 20
5.4036
  0
VERTEX
  8
0
 10
15.573
 20
5.3918
  0
VERTEX
  8
0
 10
15.5256
 20
5.3846
  0
VERTEX
  8
0
 10
15.4755
 20
5.3821
  0
VERTEX
  8
0
 10
15.412
 20
5.3857
  0
VERTEX
  8
0
 10
15.353
 20
5.3965
  0
VERTEX
  8
0
 10
15.2987
 20
5.4145
  0
VERTEX
  8
0
 10
15.2489
 20
5.4397
  0
VERTEX
  8
0
 10
15.2038
 20
5.4721
  0
VERTEX
  8
0
 10
15.1637
 20
5.5119
  0
VERTEX
  8
0
 10
15.131
 20
5.5572
  0
VERTEX
  8
0
 10
15.1059
 20
5.6081
  0
VERTEX
  8
0
 10
15.0883
 20
5.6644
  0
VERTEX
  8
0
 10
15.0781
 20
5.7263
  0
VERTEX
  8
0
 10
15.0781
 20
5.7263
  0
SEQEND
  0
LINE
  8
0
 10
16.2016
 20
6
 11
27.5
 21
6
  0
LINE
  8
0
 10
26.9633
 20
5.7317
 11
27.5
 21
6
  0
LINE
  8
0
 10
26.9633
 20
6.2683
 11
27.5
 21
6
  0
LINE
  8
0
 10
27.5
 20
5.7
 11
27.5
 21
7.5
  0
LINE
  8
0
 10
13.7984
 20
6
 11
2.5
 21
6
  0
LINE
  8
0
 10
3.0367
 20
6.2683
 11
2.5
 21
6
  0
LINE
  8
0
 10
3.0367
 20
5.7317
 11
2.5
 21
6
  0
POLYLINE
  8
0
 66
     1
 10
0
 20
0
  0
VERTEX
  8
0
 10
28.4261
 20
4.0461
  0
VERTEX
  8
0
 10
28.4261
 20
3.8981
  0
VERTEX
  8
0
 10
27.6101
 20
3.8981
  0
VERTEX
  8
0
 10
27.6124
 20
3.9417
  0
VERTEX
  8
0
 10
27.6216
 20
3.9861
  0
VERTEX
  8
0
 10
27.6378
 20
4.0311
  0
VERTEX
  8
0
 10
27.6608
 20
4.0767
  0
VERTEX
  8
0
 10
27.6906
 20
4.123
  0
VERTEX
  8
0
 10
27.7274
 20
4.17
  0
VERTEX
  8
0
 10
27.7807
 20
4.2279
  0
VERTEX
  8
0
 10
27.8471
 20
4.2908
  0
VERTEX
  8
0
 10
27.9266
 20
4.3586
  0
VERTEX
  8
0
 10
27.9836
 20
4.4061
  0
VERTEX
  8
0
 10
28.0337
 20
4.4494
  0
VERTEX
  8
0
 10
28.0769
 20
4.4884
  0
VERTEX
  8
0
 10
28.1132
 20
4.5233
  0
VERTEX
  8
0
 10
28.1427
 20
4.554
  0
VERTEX
  8
0
 10
28.1816
 20
4.5997
  0
VERTEX
  8
0
 10
28.2135
 20
4.6439
  0
VERTEX
  8
0
 10
28.2383
 20
4.6867
  0
VERTEX
  8
0
 10
28.256
 20
4.728
  0
VERTEX
  8
0
 10
28.2666
 20
4.7679
  0
VERTEX
  8
0
 10
28.2701
 20
4.8063
  0
VERTEX
  8
0
 10
28.2624
 20
4.8668
  0
VERTEX
  8
0
 10
28.2394
 20
4.9192
  0
VERTEX
  8
0
 10
28.2009
 20
4.9635
  0
VERTEX
  8
0
 10
28.1535
 20
4.9956
  0
VERTEX
  8
0
 10
28.0989
 20
5.0152
  0
VERTEX
  8
0
 10
28.0372
 20
5.0221
  0
VERTEX
  8
0
 10
27.9837
 20
5.0182
  0
VERTEX
  8
0
 10
27.9363
 20
5.0056
  0
VERTEX
  8
0
 10
27.8951
 20
4.9844
  0
VERTEX
  8
0
 10
27.86
 20
4.9546
  0
VERTEX
  8
0
 10
27.8242
 20
4.9037
  0
VERTEX
  8
0
 10
27.8026
 20
4.8425
  0
VERTEX
  8
0
 10
27.795
 20
4.7708
  0
VERTEX
  8
0
 10
27.6389
 20
4.7869
  0
VERTEX
  8
0
 10
27.6464
 20
4.8428
  0
VERTEX
  8
0
 10
27.659
 20
4.8941
  0
VERTEX
  8
0
 10
27.6766
 20
4.9409
  0
VERTEX
  8
0
 10
27.6992
 20
4.983
  0
VERTEX
  8
0
 10
27.7269
 20
5.0207
  0
VERTEX
  8
0
 10
27.7595
 20
5.0537
  0
VERTEX
  8
0
 10
27.8045
 20
5.087
  0
VERTEX
  8
0
 10
27.8551
 20
5.1128
  0
VERTEX
  8
0
 10
27.9113
 20
5.1313
  0
VERTEX
  8
0
 10
27.9731
 20
5.1424
  0
VERTEX
  8
0
 10
28.0405
 20
5.1461
  0
VERTEX
  8
0
 10
28.1037
 20
5.1425
  0
VERTEX
  8
0
 10
28.1624
 20
5.1319
  0
VERTEX
  8
0
 10
28.2166
 20
5.1141
  0
VERTEX
  8
0
 10
28.2662
 20
5.0892
  0
VERTEX
  8
0
 10
28.3114
 20
5.0571
  0
VERTEX
  8
0
 10
28.3464
 20
5.0237
  0
VERTEX
  8
0
 10
28.3751
 20
4.9866
  0
VERTEX
  8
0
 10
28.3974
 20
4.9458
  0
VERTEX
  8
0
 10
28.4134
 20
4.9014
  0
VERTEX
  8
0
 10
28.4229
 20
4.8532
  0
VERTEX
  8
0
 10
28.4261
 20
4.8015
  0
VERTEX
  8
0
 10
28.4225
 20
4.752
  0
VERTEX
  8
0
 10
28.4115
 20
4.7025
  0
VERTEX
  8
0
 10
28.3932
 20
4.6528
  0
VERTEX
  8
0
 10
28.3676
 20
4.6031
  0
VERTEX
  8
0
 10
28.3347
 20
4.5533
  0
VERTEX
  8
0
 10
28.2945
 20
4.5033
  0
VERTEX
  8
0
 10
28.2619
 20
4.4683
  0
VERTEX
  8
0
 10
28.2223
 20
4.429
  0
VERTEX
  8
0
 10
28.1755
 20
4.3853
  0
VERTEX
  8
0
 10
28.1217
 20
4.3373
  0
VERTEX
  8
0
 10
28.0608
 20
4.2849
  0
VERTEX
  8
0
 10
28.0205
 20
4.2509
  0
VERTEX
  8
0
 10
27.9875
 20
4.2228
  0
VERTEX
  8
0
 10
27.9617
 20
4.2006
  0
VERTEX
  8
0
 10
27.9431
 20
4.1844
  0
VERTEX
  8
0
 10
27.9317
 20
4.174
  0
VERTEX
  8
0
 10
27.8686
 20
4.109
  0
VERTEX
  8
0
 10
27.8212
 20
4.0461
  0
VERTEX
  8
0
 10
28.4261
 20
4.0461
  0
SEQEND
  0
POLYLINE
  8
0
 66
     1
 10
0
 20
0
  0
VERTEX
  8
0
 10
28.6741
 20
3.8981
  0
VERTEX
  8
0
 10
28.6741
 20
4.0741
  0
VERTEX
  8
0
 10
28.8461
 20
4.0741
  0
VERTEX
  8
0
 10
28.8461
 20
3.8981
  0
VERTEX
  8
0
 10
28.6741
 20
3.8981
  0
SEQEND
  0
POLYLINE
  8
0
 66
     1
 10
0
 20
0
  0
VERTEX
  8
0
 10
29.0701
 20
4.2263
  0
VERTEX
  8
0
 10
29.2298
 20
4.2398
  0
VERTEX
  8
0
 10
29.2357
 20
4.2076
  0
VERTEX
  8
0
 10
29.2434
 20
4.1778
  0
VERTEX
  8
0
 10
29.2527
 20
4.1503
  0
VERTEX
  8
0
 10
29.2637
 20
4.1253
  0
VERTEX
  8
0
 10
29.2765
 20
4.1027
  0
VERTEX
  8
0
 10
29.291
 20
4.0824
  0
VERTEX
  8
0
 10
29.3071
 20
4.0645
  0
VERTEX
  8
0
 10
29.325
 20
4.049
  0
VERTEX
  8
0
 10
29.3446
 20
4.0359
  0
VERTEX
  8
0
 10
29.3659
 20
4.0252
  0
VERTEX
  8
0
 10
29.3889
 20
4.0168
  0
VERTEX
  8
0
 10
29.4136
 20
4.0109
  0
VERTEX
  8
0
 10
29.44
 20
4.0073
  0
VERTEX
  8
0
 10
29.4681
 20
4.0061
  0
VERTEX
  8
0
 10
29.5148
 20
4.0098
  0
VERTEX
  8
0
 10
29.5576
 20
4.0209
  0
VERTEX
  8
0
 10
29.5965
 20
4.0394
  0
VERTEX
  8
0
 10
29.6315
 20
4.0652
  0
VERTEX
  8
0
 10
29.6625
 20
4.0985
  0
VERTEX
  8
0
 10
29.7001
 20
4.159
  0
VERTEX
  8
0
 10
29.7226
 20
4.2285
  0
VERTEX
  8
0
 10
29.7301
 20
4.307
  0
VERTEX
  8
0
 10
29.7257
 20
4.3662
  0
VERTEX
  8
0
 10
29.7126
 20
4.4195
  0
VERTEX
  8
0
 10
29.6906
 20
4.4669
  0
VERTEX
  8
0
 10
29.66
 20
4.5083
  0
VERTEX
  8
0
 10
29.6215
 20
4.542
  0
VERTEX
  8
0
 10
29.5763
 20
4.5662
  0
VERTEX
  8
0
 10
29.5243
 20
4.5809
  0
VERTEX
  8
0
 10
29.4656
 20
4.5861
  0
VERTEX
  8
0
 10
29.419
 20
4.5831
  0
VERTEX
  8
0
 10
29.3759
 20
4.5734
  0
VERTEX
  8
0
 10
29.3365
 20
4.5571
  0
VERTEX
  8
0
 10
29.3007
 20
4.5342
  0
VERTEX
  8
0
 10
29.2685
 20
4.5047
  0
VERTEX
  8
0
 10
29.2399
 20
4.4685
  0
VERTEX
  8
0
 10
29.0971
 20
4.4871
  0
VERTEX
  8
0
 10
29.217
 20
5.1221
  0
VERTEX
  8
0
 10
29.8324
 20
5.1221
  0
VERTEX
  8
0
 10
29.8324
 20
4.9781
  0
VERTEX
  8
0
 10
29.3405
 20
4.9781
  0
VERTEX
  8
0
 10
29.2734
 20
4.6446
  0
VERTEX
  8
0
 10
29.3487
 20
4.6873
  0
VERTEX
  8
0
 10
29.4264
 20
4.7131
  0
VERTEX
  8
0
 10
29.5065
 20
4.7221
  0
VERTEX
  8
0
 10
29.5609
 20
4.7191
  0
VERTEX
  8
0
 10
29.6121
 20
4.7096
  0
VERTEX
  8
0
 10
29.66
 20
4.6935
  0
VERTEX
  8
0
 10
29.7047
 20
4.6708
  0
VERTEX
  8
0
 10
29.746
 20
4.6416
  0
VERTEX
  8
0
 10
29.7841
 20
4.6058
  0
VERTEX
  8
0
 10
29.8165
 20
4.5663
  0
VERTEX
  8
0
 10
29.843
 20
4.5237
  0
VERTEX
  8
0
 10
29.8636
 20
4.478
  0
VERTEX
  8
0
 10
29.8783
 20
4.4291
  0
VERTEX
  8
0
 10
29.8872
 20
4.3771
  0
VERTEX
  8
0
 10
29.8901
 20
4.3219
  0
VERTEX
  8
0
 10
29.8862
 20
4.2569
  0
VERTEX
  8
0
 10
29.8745
 20
4.1955
  0
VERTEX
  8
0
 10
29.8549
 20
4.1375
  0
VERTEX
  8
0
 10
29.8275
 20
4.083
  0
VERTEX
  8
0
 10
29.7922
 20
4.0321
  0
VERTEX
  8
0
 10
29.7611
 20
3.9971
  0
VERTEX
  8
0
 10
29.7273
 20
3.9668
  0
VERTEX
  8
0
 10
29.6908
 20
3.9411
  0
VERTEX
  8
0
 10
29.6516
 20
3.92
  0
VERTEX
  8
0
 10
29.6096
 20
3.9036
  0
VERTEX
  8
0
 10
29.565
 20
3.8918
  0
VERTEX
  8
0
 10
29.5176
 20
3.8846
  0
VERTEX
  8
0
 10
29.4675
 20
3.8821
  0
VERTEX
  8
0
 10
29.404
 20
3.8857
  0
VERTEX
  8
0
 10
29.345
 20
3.8965
  0
VERTEX
  8
0
 10
29.2907
 20
3.9145
  0
VERTEX
  8
0
 10
29.2409
 20
3.9397
  0
VERTEX
  8
0
 10
29.1958
 20
3.9721
  0
VERTEX
  8
0
 10
29.1557
 20
4.0119
  0
VERTEX
  8
0
 10
29.123
 20
4.0572
  0
VERTEX
  8
0
 10
29.0979
 20
4.1081
  0
VERTEX
  8
0
 10
29.0803
 20
4.1644
  0
VERTEX
  8
0
 10
29.0701
 20
4.2263
  0
VERTEX
  8
0
 10
29.0701
 20
4.2263
  0
SEQEND
  0
LINE
  8
0
 10
28.75
 20
6
 11
30
 21
6
  0
LINE
  8
0
 10
29.4633
 20
5.7317
 11
30
 21
6
  0
LINE
  8
0
 10
29.4633
 20
6.2683
 11
30
 21
6
  0
LINE
  8
0
 10
30
 20
5.7
 11
30
 21
7.5
  0
LINE
  8
0
 10
28.75
 20
6
 11
27.5
 21
6
  0
LINE
  8
0
 10
28.0367
 20
6.2683
 11
27.5
 21
6
  0
LINE
  8
0
 10
28.0367
 20
5.7317
 11
27.5
 21
6
  0
LINE
  8
0
 10
27.5
 20
5.7
 11
27.5
 21
7.5
  0
POLYLINE
  8
0
 66
     1
 10
0
 20
0
  0
VERTEX
  8
0
 10
34.2061
 20
8.9181
  0
VERTEX
  8
0
 10
34.3541
 20
8.9181
  0
VERTEX
  8
0
 10
34.3541
 20
8.1021
  0
VERTEX
  8
0
 10
34.3104
 20
8.1044
  0
VERTEX
  8
0
 10
34.2661
 20
8.1136
  0
VERTEX
  8
0
 10
34.2211
 20
8.1297
  0
VERTEX
  8
0
 10
34.1755
 20
8.1527
  0
VERTEX
  8
0
 10
34.1292
 20
8.1826
  0
VERTEX
  8
0
 10
34.0822
 20
8.2194
  0
VERTEX
  8
0
 10
34.0243
 20
8.2727
  0
VERTEX
  8
0
 10
33.9614
 20
8.3391
  0
VERTEX
  8
0
 10
33.8936
 20
8.4186
  0
VERTEX
  8
0
 10
33.8461
 20
8.4756
  0
VERTEX
  8
0
 10
33.8028
 20
8.5257
  0
VERTEX
  8
0
 10
33.7638
 20
8.5689
  0
VERTEX
  8
0
 10
33.7289
 20
8.6052
  0
VERTEX
  8
0
 10
33.6982
 20
8.6346
  0
VERTEX
  8
0
 10
33.6525
 20
8.6736
  0
VERTEX
  8
0
 10
33.6083
 20
8.7054
  0
VERTEX
  8
0
 10
33.5655
 20
8.7302
  0
VERTEX
  8
0
 10
33.5242
 20
8.7479
  0
VERTEX
  8
0
 10
33.4843
 20
8.7585
  0
VERTEX
  8
0
 10
33.4459
 20
8.7621
  0
VERTEX
  8
0
 10
33.3854
 20
8.7544
  0
VERTEX
  8
0
 10
33.333
 20
8.7313
  0
VERTEX
  8
0
 10
33.2887
 20
8.6929
  0
VERTEX
  8
0
 10
33.2566
 20
8.6455
  0
VERTEX
  8
0
 10
33.237
 20
8.5909
  0
VERTEX
  8
0
 10
33.2301
 20
8.5291
  0
VERTEX
  8
0
 10
33.234
 20
8.4757
  0
VERTEX
  8
0
 10
33.2466
 20
8.4283
  0
VERTEX
  8
0
 10
33.2678
 20
8.3871
  0
VERTEX
  8
0
 10
33.2976
 20
8.3519
  0
VERTEX
  8
0
 10
33.3484
 20
8.3162
  0
VERTEX
  8
0
 10
33.4097
 20
8.2945
  0
VERTEX
  8
0
 10
33.4814
 20
8.287
  0
VERTEX
  8
0
 10
33.4652
 20
8.1308
  0
VERTEX
  8
0
 10
33.4094
 20
8.1384
  0
VERTEX
  8
0
 10
33.3581
 20
8.151
  0
VERTEX
  8
0
 10
33.3113
 20
8.1686
  0
VERTEX
  8
0
 10
33.2691
 20
8.1912
  0
VERTEX
  8
0
 10
33.2315
 20
8.2188
  0
VERTEX
  8
0
 10
33.1985
 20
8.2515
  0
VERTEX
  8
0
 10
33.1652
 20
8.2965
  0
VERTEX
  8
0
 10
33.1394
 20
8.3471
  0
VERTEX
  8
0
 10
33.1209
 20
8.4033
  0
VERTEX
  8
0
 10
33.1098
 20
8.4651
  0
VERTEX
  8
0
 10
33.1061
 20
8.5325
  0
VERTEX
  8
0
 10
33.1097
 20
8.5957
  0
VERTEX
  8
0
 10
33.1203
 20
8.6544
  0
VERTEX
  8
0
 10
33.1381
 20
8.7085
  0
VERTEX
  8
0
 10
33.163
 20
8.7582
  0
VERTEX
  8
0
 10
33.1951
 20
8.8033
  0
VERTEX
  8
0
 10
33.2285
 20
8.8384
  0
VERTEX
  8
0
 10
33.2656
 20
8.8671
  0
VERTEX
  8
0
 10
33.3064
 20
8.8894
  0
VERTEX
  8
0
 10
33.3508
 20
8.9053
  0
VERTEX
  8
0
 10
33.3989
 20
8.9149
  0
VERTEX
  8
0
 10
33.4507
 20
8.9181
  0
VERTEX
  8
0
 10
33.5002
 20
8.9144
  0
VERTEX
  8
0
 10
33.5497
 20
8.9035
  0
VERTEX
  8
0
 10
33.5994
 20
8.8852
  0
VERTEX
  8
0
 10
33.6491
 20
8.8596
  0
VERTEX
  8
0
 10
33.6989
 20
8.8267
  0
VERTEX
  8
0
 10
33.7489
 20
8.7865
  0
VERTEX
  8
0
 10
33.7839
 20
8.7539
  0
VERTEX
  8
0
 10
33.8232
 20
8.7142
  0
VERTEX
  8
0
 10
33.8669
 20
8.6675
  0
VERTEX
  8
0
 10
33.9149
 20
8.6137
  0
VERTEX
  8
0
 10
33.9673
 20
8.5528
  0
VERTEX
  8
0
 10
34.0013
 20
8.5125
  0
VERTEX
  8
0
 10
34.0294
 20
8.4795
  0
VERTEX
  8
0
 10
34.0515
 20
8.4536
  0
VERTEX
  8
0
 10
34.0678
 20
8.435
  0
VERTEX
  8
0
 10
34.0782
 20
8.4236
  0
VERTEX
  8
0
 10
34.1432
 20
8.3606
  0
VERTEX
  8
0
 10
34.2061
 20
8.3131
  0
VERTEX
  8
0
 10
34.2061
 20
8.9181
  0
SEQEND
  0
POLYLINE
  8
0
 66
     1
 10
0
 20
0
  0
VERTEX
  8
0
 10
34.3541
 20
9.1661
  0
VERTEX
  8
0
 10
34.1781
 20
9.1661
  0
VERTEX
  8
0
 10
34.1781
 20
9.3381
  0
VERTEX
  8
0
 10
34.3541
 20
9.3381
  0
VERTEX
  8
0
 10
34.3541
 20
9.1661
  0
SEQEND
  0
POLYLINE
  8
0
 66
     1
 10
0
 20
0
  0
VERTEX
  8
0
 10
34.1306
 20
9.5648
  0
VERTEX
  8
0
 10
34.1171
 20
9.7103
  0
VERTEX
  8
0
 10
34.1698
 20
9.7326
  0
VERTEX
  8
0
 10
34.2149
 20
9.7809
  0
VERTEX
  8
0
 10
34.2319
 20
9.8173
  0
VERTEX
  8
0
 10
34.2423
 20
9.8672
  0
VERTEX
  8
0
 10
34.2461
 20
9.9306
  0
VERTEX
  8
0
 10
34.2385
 20
9.9951
  0
VERTEX
  8
0
 10
34.2141
 20
10.0525
  0
VERTEX
  8
0
 10
34.1908
 20
10.0842
  0
VERTEX
  8
0
 10
34.1615
 20
10.1128
  0
VERTEX
  8
0
 10
34.1261
 20
10.1382
  0
VERTEX
  8
0
 10
34.0847
 20
10.1605
  0
VERTEX
  8
0
 10
34.0372
 20
10.1795
  0
VERTEX
  8
0
 10
33.9837
 20
10.1954
  0
VERTEX
  8
0
 10
33.8925
 20
10.2124
  0
VERTEX
  8
0
 10
33.798
 20
10.2181
  0
VERTEX
  8
0
 10
33.782
 20
10.2179
  0
VERTEX
  8
0
 10
33.7676
 20
10.2173
  0
VERTEX
  8
0
 10
33.8016
 20
10.1935
  0
VERTEX
  8
0
 10
33.8315
 20
10.1676
  0
VERTEX
  8
0
 10
33.8575
 20
10.1393
  0
VERTEX
  8
0
 10
33.8796
 20
10.1089
  0
VERTEX
  8
0
 10
33.8976
 20
10.0762
  0
VERTEX
  8
0
 10
33.9117
 20
10.0412
  0
VERTEX
  8
0
 10
33.9218
 20
10.0041
  0
VERTEX
  8
0
 10
33.9279
 20
9.9646
  0
VERTEX
  8
0
 10
33.9301
 20
9.923
  0
VERTEX
  8
0
 10
33.927
 20
9.8695
  0
VERTEX
  8
0
 10
33.917
 20
9.8195
  0
VERTEX
  8
0
 10
33.9003
 20
9.7731
  0
VERTEX
  8
0
 10
33.8768
 20
9.7302
  0
VERTEX
  8
0
 10
33.8464
 20
9.6907
  0
VERTEX
  8
0
 10
33.8092
 20
9.6548
  0
VERTEX
  8
0
 10
33.7608
 20
9.62
  0
VERTEX
  8
0
 10
33.7081
 20
9.5929
  0
VERTEX
  8
0
 10
33.6511
 20
9.5736
  0
VERTEX
  8
0
 10
33.5899
 20
9.5619
  0
VERTEX
  8
0
 10
33.5244
 20
9.5581
  0
VERTEX
  8
0
 10
33.4634
 20
9.5611
  0
VERTEX
  8
0
 10
33.4066
 20
9.5703
  0
VERTEX
  8
0
 10
33.3539
 20
9.5857
  0
VERTEX
  8
0
 10
33.3055
 20
9.6071
  0
VERTEX
  8
0
 10
33.2612
 20
9.6347
  0
VERTEX
  8
0
 10
33.2211
 20
9.6684
  0
VERTEX
  8
0
 10
33.1862
 20
9.7068
  0
VERTEX
  8
0
 10
33.1576
 20
9.7484
  0
VERTEX
  8
0
 10
33.1353
 20
9.7931
  0
VERTEX
  8
0
 10
33.1193
 20
9.841
  0
VERTEX
  8
0
 10
33.1095
 20
9.8921
  0
VERTEX
  8
0
 10
33.1061
 20
9.9464
  0
VERTEX
  8
0
 10
33.1132
 20
10.0266
  0
VERTEX
  8
0
 10
33.1354
 20
10.101
  0
VERTEX
  8
0
 10
33.1728
 20
10.1696
  0
VERTEX
  8
0
 10
33.2233
 20
10.2299
  0
VERTEX
  8
0
 10
33.2846
 20
10.2793
  0
VERTEX
  8
0
 10
33.3569
 20
10.3178
  0
VERTEX
  8
0
 10
33.4094
 20
10.3366
  0
VERTEX
  8
0
 10
33.4705
 20
10.3513
  0
VERTEX
  8
0
 10
33.5401
 20
10.3617
  0
VERTEX
  8
0
 10
33.6181
 20
10.368
  0
VERTEX
  8
0
 10
33.7047
 20
10.3701
  0
VERTEX
  8
0
 10
33.7532
 20
10.3695
  0
VERTEX
  8
0
 10
33.7998
 20
10.3676
  0
VERTEX
  8
0
 10
33.8445
 20
10.3644
  0
VERTEX
  8
0
 10
33.8875
 20
10.36
  0
VERTEX
  8
0
 10
33.9286
 20
10.3543
  0
VERTEX
  8
0
 10
33.9679
 20
10.3473
  0
VERTEX
  8
0
 10
34.0054
 20
10.3391
  0
VERTEX
  8
0
 10
34.041
 20
10.3297
  0
VERTEX
  8
0
 10
34.0748
 20
10.3189
  0
VERTEX
  8
0
 10
34.1068
 20
10.3069
  0
VERTEX
  8
0
 10
34.1369
 20
10.2936
  0
VERTEX
  8
0
 10
34.1652
 20
10.2791
  0
VERTEX
  8
0
 10
34.1917
 20
10.2633
  0
VERTEX
  8
0
 10
34.2163
 20
10.2463
  0
VERTEX
  8
0
 10
34.2392
 20
10.2279
  0
VERTEX
  8
0
 10
34.2602
 20
10.2084
  0
VERTEX
  8
0
 10
34.2793
 20
10.1875
  0
VERTEX
  8
0
 10
34.2967
 20
10.1654
  0
VERTEX
  8
0
 10
34.3288
 20
10.1127
  0
VERTEX
  8
0
 10
34.3518
 20
10.0555
  0
VERTEX
  8
0
 10
34.3655
 20
9.9939
  0
VERTEX
  8
0
 10
34.3701
 20
9.9279
  0
VERTEX
  8
0
 10
34.3683
 20
9.8717
  0
VERTEX
  8
0
 10
34.3629
 20
9.8212
  0
VERTEX
  8
0
 10
34.3539
 20
9.7762
  0
VERTEX
  8
0
 10
34.3413
 20
9.7369
  0
VERTEX
  8
0
 10
34.3251
 20
9.7032
  0
VERTEX
  8
0
 10
34.3054
 20
9.6751
  0
VERTEX
  8
0
 10
34.2626
 20
9.631
  0
VERTEX
  8
0
 10
34.2192
 20
9.5979
  0
VERTEX
  8
0
 10
34.1752
 20
9.5758
  0
VERTEX
  8
0
 10
34.1306
 20
9.5648
  0
VERTEX
  8
0
 10
34.1306
 20
9.5648
  0
SEQEND
  0
POLYLINE
  8
0
 66
     1
 10
0
 20
0
  0
VERTEX
  8
0
 10
33.5151
 20
10.2021
  0
VERTEX
  8
0
 10
33.4419
 20
10.1954
  0
VERTEX
  8
0
 10
33.3768
 20
10.1755
  0
VERTEX
  8
0
 10
33.3197
 20
10.1423
  0
VERTEX
  8
0
 10
33.2809
 20
10.1066
  0
VERTEX
  8
0
 10
33.253
 20
10.0651
  0
VERTEX
  8
0
 10
33.236
 20
10.0181
  0
VERTEX
  8
0
 10
33.2301
 20
9.9653
  0
VERTEX
  8
0
 10
33.2336
 20
9.9214
  0
VERTEX
  8
0
 10
33.2447
 20
9.881
  0
VERTEX
  8
0
 10
33.2635
 20
9.8439
  0
VERTEX
  8
0
 10
33.2899
 20
9.8102
  0
VERTEX
  8
0
 10
33.324
 20
9.7798
  0
VERTEX
  8
0
 10
33.3846
 20
9.7437
  0
VERTEX
  8
0
 10
33.4525
 20
9.7217
  0
VERTEX
  8
0
 10
33.5277
 20
9.7141
  0
VERTEX
  8
0
 10
33.5991
 20
9.7211
  0
VERTEX
  8
0
 10
33.6619
 20
9.7433
  0
VERTEX
  8
0
 10
33.7163
 20
9.7806
  0
VERTEX
  8
0
 10
33.7503
 20
9.8178
  0
VERTEX
  8
0
 10
33.7747
 20
9.8603
  0
VERTEX
  8
0
 10
33.7892
 20
9.908
  0
VERTEX
  8
0
 10
33.7941
 20
9.961
  0
VERTEX
  8
0
 10
33.7889
 20
10.016
  0
VERTEX
  8
0
 10
33.7734
 20
10.0645
  0
VERTEX
  8
0
 10
33.7475
 20
10.1066
  0
VERTEX
  8
0
 10
33.7112
 20
10.1423
  0
VERTEX
  8
0
 10
33.6552
 20
10.1755
  0
VERTEX
  8
0
 10
33.5898
 20
10.1954
  0
VERTEX
  8
0
 10
33.5151
 20
10.2021
  0
VERTEX
  8
0
 10
33.5151
 20
10.2021
  0
SEQEND
  0
POLYLINE
  8
0
 66
     1
 10
0
 20
0
  0
VERTEX
  8
0
 10
34.0232
 20
10.5261
  0
VERTEX
  8
0
 10
34.0031
 20
10.6787
  0
VERTEX
  8
0
 10
34.0365
 20
10.6862
  0
VERTEX
  8
0
 10
34.0674
 20
10.6953
  0
VERTEX
  8
0
 10
34.0958
 20
10.7059
  0
VERTEX
  8
0
 10
34.1218
 20
10.7179
  0
VERTEX
  8
0
 10
34.1453
 20
10.7315
  0
VERTEX
  8
0
 10
34.1663
 20
10.7466
  0
VERTEX
  8
0
 10
34.1849
 20
10.7633
  0
VERTEX
  8
0
 10
34.2011
 20
10.7814
  0
VERTEX
  8
0
 10
34.2147
 20
10.801
  0
VERTEX
  8
0
 10
34.2259
 20
10.8222
  0
VERTEX
  8
0
 10
34.2347
 20
10.8449
  0
VERTEX
  8
0
 10
34.2409
 20
10.8691
  0
VERTEX
  8
0
 10
34.2448
 20
10.8948
  0
VERTEX
  8
0
 10
34.2461
 20
10.922
  0
VERTEX
  8
0
 10
34.2418
 20
10.9744
  0
VERTEX
  8
0
 10
34.2281
 20
11.0223
  0
VERTEX
  8
0
 10
34.2049
 20
11.0656
  0
VERTEX
  8
0
 10
34.1722
 20
11.1043
  0
VERTEX
  8
0
 10
34.1187
 20
11.1449
  0
VERTEX
  8
0
 10
34.0577
 20
11.1695
  0
VERTEX
  8
0
 10
33.9893
 20
11.1781
  0
VERTEX
  8
0
 10
33.924
 20
11.1708
  0
VERTEX
  8
0
 10
33.8668
 20
11.1478
  0
VERTEX
  8
0
 10
33.8177
 20
11.1092
  0
VERTEX
  8
0
 10
33.7801
 20
11.0587
  0
VERTEX
  8
0
 10
33.7576
 20
11.0002
  0
VERTEX
  8
0
 10
33.7501
 20
10.9338
  0
VERTEX
  8
0
 10
33.7536
 20
10.8838
  0
VERTEX
  8
0
 10
33.7642
 20
10.8258
  0
VERTEX
  8
0
 10
33.6341
 20
10.8426
  0
VERTEX
  8
0
 10
33.6341
 20
10.8529
  0
VERTEX
  8
0
 10
33.6341
 20
10.867
  0
VERTEX
  8
0
 10
33.6285
 20
10.9328
  0
VERTEX
  8
0
 10
33.6118
 20
10.9905
  0
VERTEX
  8
0
 10
33.5838
 20
11.04
  0
VERTEX
  8
0
 10
33.5528
 20
11.0738
  0
VERTEX
  8
0
 10
33.5161
 20
11.0981
  0
VERTEX
  8
0
 10
33.4736
 20
11.1129
  0
VERTEX
  8
0
 10
33.4253
 20
11.1181
  0
VERTEX
  8
0
 10
33.371
 20
11.1121
  0
VERTEX
  8
0
 10
33.3242
 20
11.0932
  0
VERTEX
  8
0
 10
33.2847
 20
11.0612
  0
VERTEX
  8
0
 10
33.2548
 20
11.0195
  0
VERTEX
  8
0
 10
33.2366
 20
10.971
  0
VERTEX
  8
0
 10
33.2301
 20
10.916
  0
VERTEX
  8
0
 10
33.2312
 20
10.888
  0
VERTEX
  8
0
 10
33.235
 20
10.8618
  0
VERTEX
  8
0
 10
33.2415
 20
10.8374
  0
VERTEX
  8
0
 10
33.2507
 20
10.8148
  0
VERTEX
  8
0
 10
33.2626
 20
10.7941
  0
VERTEX
  8
0
 10
33.2772
 20
10.7751
  0
VERTEX
  8
0
 10
33.2945
 20
10.7579
  0
VERTEX
  8
0
 10
33.3146
 20
10.7426
  0
VERTEX
  8
0
 10
33.3373
 20
10.729
  0
VERTEX
  8
0
 10
33.3627
 20
10.7173
  0
VERTEX
  8
0
 10
33.3909
 20
10.7073
  0
VERTEX
  8
0
 10
33.4217
 20
10.6992
  0
VERTEX
  8
0
 10
33.4552
 20
10.6928
  0
VERTEX
  8
0
 10
33.4281
 20
10.5413
  0
VERTEX
  8
0
 10
33.3571
 20
10.5591
  0
VERTEX
  8
0
 10
33.2942
 20
10.5858
  0
VERTEX
  8
0
 10
33.2394
 20
10.6212
  0
VERTEX
  8
0
 10
33.1926
 20
10.6655
  0
VERTEX
  8
0
 10
33.1551
 20
10.7174
  0
VERTEX
  8
0
 10
33.1282
 20
10.7759
  0
VERTEX
  8
0
 10
33.1118
 20
10.841
  0
VERTEX
  8
0
 10
33.1061
 20
10.9127
  0
VERTEX
  8
0
 10
33.1158
 20
11.0056
  0
VERTEX
  8
0
 10
33.1466
 20
11.0921
  0
VERTEX
  8
0
 10
33.1985
 20
11.1709
  0
VERTEX
  8
0
 10
33.2681
 20
11.2286
  0
VERTEX
  8
0
 10
33.3456
 20
11.2627
  0
VERTEX
  8
0
 10
33.4276
 20
11.2741
  0
VERTEX
  8
0
 10
33.4647
 20
11.272
  0
VERTEX
  8
0
 10
33.4995
 20
11.2657
  0
VERTEX
  8
0
 10
33.532
 20
11.2553
  0
VERTEX
  8
0
 10
33.5621
 20
11.2407
  0
VERTEX
  8
0
 10
33.5899
 20
11.222
  0
VERTEX
  8
0
 10
33.6155
 20
11.199
  0
VERTEX
  8
0
 10
33.6387
 20
11.1719
  0
VERTEX
  8
0
 10
33.6596
 20
11.1407
  0
VERTEX
  8
0
 10
33.6782
 20
11.1052
  0
VERTEX
  8
0
 10
33.7018
 20
11.1748
  0
VERTEX
  8
0
 10
33.7378
 20
11.2329
  0
VERTEX
  8
0
 10
33.7862
 20
11.2795
  0
VERTEX
  8
0
 10
33.8433
 20
11.312
  0
VERTEX
  8
0
 10
33.9088
 20
11.3316
  0
VERTEX
  8
0
 10
33.9828
 20
11.3381
  0
VERTEX
  8
0
 10
34.0357
 20
11.3348
  0
VERTEX
  8
0
 10
34.0857
 20
11.325
  0
VERTEX
  8
0
 10
34.1329
 20
11.3086
  0
VERTEX
  8
0
 10
34.1773
 20
11.2856
  0
VERTEX
  8
0
 10
34.2188
 20
11.2561
  0
VERTEX
  8
0
 10
34.2575
 20
11.2201
  0
VERTEX
  8
0
 10
34.2916
 20
11.179
  0
VERTEX
  8
0
 10
34.3197
 20
11.1343
  0
VERTEX
  8
0
 10
34.3415
 20
11.0861
  0
VERTEX
  8
0
 10
34.3572
 20
11.0344
  0
VERTEX
  8
0
 10
34.3667
 20
10.9791
  0
VERTEX
  8
0
 10
34.3701
 20
10.9203
  0
VERTEX
  8
0
 10
34.3664
 20
10.8578
  0
VERTEX
  8
0
 10
34.3551
 20
10.7996
  0
VERTEX
  8
0
 10
34.3363
 20
10.7457
  0
VERTEX
  8
0
 10
34.3099
 20
10.6961
  0
VERTEX
  8
0
 10
34.2761
 20
10.6509
  0
VERTEX
  8
0
 10
34.2358
 20
10.6114
  0
VERTEX
  8
0
 10
34.1905
 20
10.5791
  0
VERTEX
  8
0
 10
34.1399
 20
10.5542
  0
VERTEX
  8
0
 10
34.0842
 20
10.5365
  0
VERTEX
  8
0
 10
34.0232
 20
10.5261
  0
VERTEX
  8
0
 10
34.0232
 20
10.5261
  0
SEQEND
  0
LINE
  8
0
 10
32.25
 20
9.7132
 11
32.25
 21
11.1763
  0
LINE
  8
0
 10
32.5183
 20
10.6396
 11
32.25
 21
11.1763
  0
LINE
  8
0
 10
31.9817
 20
10.6396
 11
32.25
 21
11.1763
  0
LINE
  8
0
 10
32.55
 20
11.1763
 11
30.75
 21
11.1763
  0
LINE
  8
0
 10
32.25
 20
9.7132
 11
32.25
 21
8.25
  0
LINE
  8
0
 10
31.9817
 20
8.7867
 11
32.25
 21
8.25
  0
LINE
  8
0
 10
32.5183
 20
8.7867
 11
32.25
 21
8.25
  0
LINE
  8
0
 10
32.55
 20
8.25
 11
30.75
 21
8.25
  0
POLYLINE
  8
0
 66
     1
 10
0
 20
0
  0
VERTEX
  8
0
 10
35.5232
 20
22.3701
  0
VERTEX
  8
0
 10
35.5031
 20
22.5227
  0
VERTEX
  8
0
 10
35.5365
 20
22.5302
  0
VERTEX
  8
0
 10
35.5674
 20
22.5393
  0
VERTEX
  8
0
 10
35.5958
 20
22.5499
  0
VERTEX
  8
0
 10
35.6218
 20
22.5619
  0
VERTEX
  8
0
 10
35.6453
 20
22.5755
  0
VERTEX
  8
0
 10
35.6663
 20
22.5906
  0
VERTEX
  8
0
 10
35.6849
 20
22.6073
  0
VERTEX
  8
0
 10
35.7011
 20
22.6254
  0
VERTEX
  8
0
 10
35.7147
 20
22.645
  0
VERTEX
  8
0
 10
35.7259
 20
22.6662
  0
VERTEX
  8
0
 10
35.7347
 20
22.6889
  0
VERTEX
  8
0
 10
35.7409
 20
22.7131
  0
VERTEX
  8
0
 10
35.7448
 20
22.7388
  0
VERTEX
  8
0
 10
35.7461
 20
22.766
  0
VERTEX
  8
0
 10
35.7418
 20
22.8184
  0
VERTEX
  8
0
 10
35.728
 20
22.8663
  0
VERTEX
  8
0
 10
35.7049
 20
22.9096
  0
VERTEX
  8
0
 10
35.6722
 20
22.9483
  0
VERTEX
  8
0
 10
35.6187
 20
22.9889
  0
VERTEX
  8
0
 10
35.5577
 20
23.0135
  0
VERTEX
  8
0
 10
35.4893
 20
23.0221
  0
VERTEX
  8
0
 10
35.424
 20
23.0148
  0
VERTEX
  8
0
 10
35.3668
 20
22.9918
  0
VERTEX
  8
0
 10
35.3177
 20
22.9532
  0
VERTEX
  8
0
 10
35.2801
 20
22.9027
  0
VERTEX
  8
0
 10
35.2576
 20
22.8442
  0
VERTEX
  8
0
 10
35.2501
 20
22.7778
  0
VERTEX
  8
0
 10
35.2536
 20
22.7278
  0
VERTEX
  8
0
 10
35.2642
 20
22.6698
  0
VERTEX
  8
0
 10
35.1341
 20
22.6866
  0
VERTEX
  8
0
 10
35.1341
 20
22.6969
  0
VERTEX
  8
0
 10
35.1341
 20
22.711
  0
VERTEX
  8
0
 10
35.1285
 20
22.7768
  0
VERTEX
  8
0
 10
35.1118
 20
22.8345
  0
VERTEX
  8
0
 10
35.0838
 20
22.884
  0
VERTEX
  8
0
 10
35.0528
 20
22.9178
  0
VERTEX
  8
0
 10
35.016
 20
22.9421
  0
VERTEX
  8
0
 10
34.9735
 20
22.9569
  0
VERTEX
  8
0
 10
34.9253
 20
22.9621
  0
VERTEX
  8
0
 10
34.871
 20
22.9561
  0
VERTEX
  8
0
 10
34.8242
 20
22.9372
  0
VERTEX
  8
0
 10
34.7847
 20
22.9052
  0
VERTEX
  8
0
 10
34.7548
 20
22.8635
  0
VERTEX
  8
0
 10
34.7366
 20
22.815
  0
VERTEX
  8
0
 10
34.7301
 20
22.76
  0
VERTEX
  8
0
 10
34.7312
 20
22.732
  0
VERTEX
  8
0
 10
34.735
 20
22.7058
  0
VERTEX
  8
0
 10
34.7415
 20
22.6814
  0
VERTEX
  8
0
 10
34.7507
 20
22.6588
  0
VERTEX
  8
0
 10
34.7626
 20
22.6381
  0
VERTEX
  8
0
 10
34.7772
 20
22.6191
  0
VERTEX
  8
0
 10
34.7945
 20
22.6019
  0
VERTEX
  8
0
 10
34.8146
 20
22.5866
  0
VERTEX
  8
0
 10
34.8373
 20
22.573
  0
VERTEX
  8
0
 10
34.8627
 20
22.5613
  0
VERTEX
  8
0
 10
34.8909
 20
22.5513
  0
VERTEX
  8
0
 10
34.9217
 20
22.5432
  0
VERTEX
  8
0
 10
34.9552
 20
22.5368
  0
VERTEX
  8
0
 10
34.9281
 20
22.3853
  0
VERTEX
  8
0
 10
34.8571
 20
22.4031
  0
VERTEX
  8
0
 10
34.7942
 20
22.4298
  0
VERTEX
  8
0
 10
34.7394
 20
22.4652
  0
VERTEX
  8
0
 10
34.6926
 20
22.5095
  0
VERTEX
  8
0
 10
34.6551
 20
22.5614
  0
VERTEX
  8
0
 10
34.6282
 20
22.6199
  0
VERTEX
  8
0
 10
34.6118
 20
22.685
  0
VERTEX
  8
0
 10
34.6061
 20
22.7567
  0
VERTEX
  8
0
 10
34.6158
 20
22.8496
  0
VERTEX
  8
0
 10
34.6466
 20
22.9361
  0
VERTEX
  8
0
 10
34.6985
 20
23.0149
  0
VERTEX
  8
0
 10
34.7681
 20
23.0726
  0
VERTEX
  8
0
 10
34.8455
 20
23.1067
  0
VERTEX
  8
0
 10
34.9276
 20
23.1181
  0
VERTEX
  8
0
 10
34.9647
 20
23.116
  0
VERTEX
  8
0
 10
34.9995
 20
23.1097
  0
VERTEX
  8
0
 10
35.032
 20
23.0993
  0
VERTEX
  8
0
 10
35.0621
 20
23.0847
  0
VERTEX
  8
0
 10
35.0899
 20
23.066
  0
VERTEX
  8
0
 10
35.1155
 20
23.043
  0
VERTEX
  8
0
 10
35.1387
 20
23.0159
  0
VERTEX
  8
0
 10
35.1596
 20
22.9846
  0
VERTEX
  8
0
 10
35.1782
 20
22.9492
  0
VERTEX
  8
0
 10
35.2018
 20
23.0188
  0
VERTEX
  8
0
 10
35.2378
 20
23.0769
  0
VERTEX
  8
0
 10
35.2862
 20
23.1235
  0
VERTEX
  8
0
 10
35.3433
 20
23.156
  0
VERTEX
  8
0
 10
35.4088
 20
23.1756
  0
VERTEX
  8
0
 10
35.4828
 20
23.1821
  0
VERTEX
  8
0
 10
35.5357
 20
23.1788
  0
VERTEX
  8
0
 10
35.5857
 20
23.169
  0
VERTEX
  8
0
 10
35.6329
 20
23.1526
  0
VERTEX
  8
0
 10
35.6773
 20
23.1296
  0
VERTEX
  8
0
 10
35.7188
 20
23.1001
  0
VERTEX
  8
0
 10
35.7575
 20
23.0641
  0
VERTEX
  8
0
 10
35.7916
 20
23.023
  0
VERTEX
  8
0
 10
35.8197
 20
22.9783
  0
VERTEX
  8
0
 10
35.8415
 20
22.9301
  0
VERTEX
  8
0
 10
35.8572
 20
22.8784
  0
VERTEX
  8
0
 10
35.8667
 20
22.8231
  0
VERTEX
  8
0
 10
35.8701
 20
22.7643
  0
VERTEX
  8
0
 10
35.8663
 20
22.7018
  0
VERTEX
  8
0
 10
35.8551
 20
22.6436
  0
VERTEX
  8
0
 10
35.8362
 20
22.5897
  0
VERTEX
  8
0
 10
35.8099
 20
22.5401
  0
VERTEX
  8
0
 10
35.776
 20
22.4949
  0
VERTEX
  8
0
 10
35.7358
 20
22.4554
  0
VERTEX
  8
0
 10
35.6904
 20
22.4231
  0
VERTEX
  8
0
 10
35.6399
 20
22.3982
  0
VERTEX
  8
0
 10
35.5841
 20
22.3805
  0
VERTEX
  8
0
 10
35.5232
 20
22.3701
  0
VERTEX
  8
0
 10
35.5232
 20
22.3701
  0
SEQEND
  0
POLYLINE
  8
0
 66
     1
 10
0
 20
0
  0
VERTEX
  8
0
 10
35.2385
 20
23.3301
  0
VERTEX
  8
0
 10
35.188
 20
23.3308
  0
VERTEX
  8
0
 10
35.1395
 20
23.3329
  0
VERTEX
  8
0
 10
35.0931
 20
23.3364
  0
VERTEX
  8
0
 10
35.0487
 20
23.3413
  0
VERTEX
  8
0
 10
35.0065
 20
23.3476
  0
VERTEX
  8
0
 10
34.9663
 20
23.3553
  0
VERTEX
  8
0
 10
34.9282
 20
23.3644
  0
VERTEX
  8
0
 10
34.8922
 20
23.3749
  0
VERTEX
  8
0
 10
34.8582
 20
23.3868
  0
VERTEX
  8
0
 10
34.8263
 20
23.4001
  0
VERTEX
  8
0
 10
34.7965
 20
23.4148
  0
VERTEX
  8
0
 10
34.7688
 20
23.4309
  0
VERTEX
  8
0
 10
34.7432
 20
23.4484
  0
VERTEX
  8
0
 10
34.7196
 20
23.4673
  0
VERTEX
  8
0
 10
34.6981
 20
23.4876
  0
VERTEX
  8
0
 10
34.6787
 20
23.5093
  0
VERTEX
  8
0
 10
34.6473
 20
23.5563
  0
VERTEX
  8
0
 10
34.6247
 20
23.6094
  0
VERTEX
  8
0
 10
34.611
 20
23.6687
  0
VERTEX
  8
0
 10
34.6061
 20
23.7341
  0
VERTEX
  8
0
 10
34.6158
 20
23.8264
  0
VERTEX
  8
0
 10
34.6466
 20
23.909
  0
VERTEX
  8
0
 10
34.6677
 20
23.9432
  0
VERTEX
  8
0
 10
34.6935
 20
23.9748
  0
VERTEX
  8
0
 10
34.724
 20
24.0039
  0
VERTEX
  8
0
 10
34.7591
 20
24.0303
  0
VERTEX
  8
0
 10
34.7989
 20
24.0542
  0
VERTEX
  8
0
 10
34.8434
 20
24.0754
  0
VERTEX
  8
0
 10
34.8926
 20
24.0941
  0
VERTEX
  8
0
 10
34.9464
 20
24.1102
  0
VERTEX
  8
0
 10
35.0045
 20
24.1224
  0
VERTEX
  8
0
 10
35.0726
 20
24.1311
  0
VERTEX
  8
0
 10
35.1506
 20
24.1363
  0
VERTEX
  8
0
 10
35.2385
 20
24.1381
  0
VERTEX
  8
0
 10
35.2923
 20
24.1373
  0
VERTEX
  8
0
 10
35.3437
 20
24.1349
  0
VERTEX
  8
0
 10
35.3927
 20
24.1309
  0
VERTEX
  8
0
 10
35.4394
 20
24.1253
  0
VERTEX
  8
0
 10
35.4838
 20
24.1182
  0
VERTEX
  8
0
 10
35.5257
 20
24.1094
  0
VERTEX
  8
0
 10
35.5654
 20
24.0991
  0
VERTEX
  8
0
 10
35.6026
 20
24.0871
  0
VERTEX
  8
0
 10
35.6375
 20
24.0736
  0
VERTEX
  8
0
 10
35.6701
 20
24.0584
  0
VERTEX
  8
0
 10
35.7003
 20
24.0417
  0
VERTEX
  8
0
 10
35.7281
 20
24.0234
  0
VERTEX
  8
0
 10
35.7536
 20
24.0035
  0
VERTEX
  8
0
 10
35.7767
 20
23.982
  0
VERTEX
  8
0
 10
35.7975
 20
23.9589
  0
VERTEX
  8
0
 10
35.8289
 20
23.9119
  0
VERTEX
  8
0
 10
35.8515
 20
23.8588
  0
VERTEX
  8
0
 10
35.8652
 20
23.7995
  0
VERTEX
  8
0
 10
35.8701
 20
23.7341
  0
VERTEX
  8
0
 10
35.8697
 20
23.7126
  0
VERTEX
  8
0
 10
35.8684
 20
23.6917
  0
VERTEX
  8
0
 10
35.8662
 20
23.6714
  0
VERTEX
  8
0
 10
35.8631
 20
23.6516
  0
VERTEX
  8
0
 10
35.859
 20
23.6325
  0
VERTEX
  8
0
 10
35.854
 20
23.6139
  0
VERTEX
  8
0
 10
35.848
 20
23.5959
  0
VERTEX
  8
0
 10
35.8412
 20
23.5786
  0
VERTEX
  8
0
 10
35.8334
 20
23.5618
  0
VERTEX
  8
0
 10
35.8246
 20
23.5456
  0
VERTEX
  8
0
 10
35.815
 20
23.5299
  0
VERTEX
  8
0
 10
35.8044
 20
23.5149
  0
VERTEX
  8
0
 10
35.7929
 20
23.5005
  0
VERTEX
  8
0
 10
35.7805
 20
23.4866
  0
VERTEX
  8
0
 10
35.7671
 20
23.4733
  0
VERTEX
  8
0
 10
35.7528
 20
23.4607
  0
VERTEX
  8
0
 10
35.7376
 20
23.4486
  0
VERTEX
  8
0
 10
35.7215
 20
23.4371
  0
VERTEX
  8
0
 10
35.7044
 20
23.4261
  0
VERTEX
  8
0
 10
35.6864
 20
23.4158
  0
VERTEX
  8
0
 10
35.6675
 20
23.4061
  0
VERTEX
  8
0
 10
35.6476
 20
23.3969
  0
VERTEX
  8
0
 10
35.6269
 20
23.3883
  0
VERTEX
  8
0
 10
35.6052
 20
23.3804
  0
VERTEX
  8
0
 10
35.5825
 20
23.373
  0
VERTEX
  8
0
 10
35.559
 20
23.3662
  0
VERTEX
  8
0
 10
35.5345
 20
23.3599
  0
VERTEX
  8
0
 10
35.5091
 20
23.3543
  0
VERTEX
  8
0
 10
35.4827
 20
23.3493
  0
VERTEX
  8
0
 10
35.4554
 20
23.3448
  0
VERTEX
  8
0
 10
35.4272
 20
23.3409
  0
VERTEX
  8
0
 10
35.3981
 20
23.3377
  0
VERTEX
  8
0
 10
35.368
 20
23.335
  0
VERTEX
  8
0
 10
35.3371
 20
23.3329
  0
VERTEX
  8
0
 10
35.3052
 20
23.3314
  0
VERTEX
  8
0
 10
35.2723
 20
23.3304
  0
VERTEX
  8
0
 10
35.2385
 20
23.3301
  0
VERTEX
  8
0
 10
35.2385
 20
23.3301
  0
SEQEND
  0
POLYLINE
  8
0
 66
     1
 10
0
 20
0
  0
VERTEX
  8
0
 10
35.2381
 20
23.4861
  0
VERTEX
  8
0
 10
35.3172
 20
23.4874
  0
VERTEX
  8
0
 10
35.3883
 20
23.4914
  0
VERTEX
  8
0
 10
35.4517
 20
23.498
  0
VERTEX
  8
0
 10
35.5071
 20
23.5072
  0
VERTEX
  8
0
 10
35.5547
 20
23.5191
  0
VERTEX
  8
0
 10
35.5909
 20
23.5314
  0
VERTEX
  8
0
 10
35.6234
 20
23.5458
  0
VERTEX
  8
0
 10
35.652
 20
23.5623
  0
VERTEX
  8
0
 10
35.6768
 20
23.5807
  0
VERTEX
  8
0
 10
35.6978
 20
23.6012
  0
VERTEX
  8
0
 10
35.7151
 20
23.6237
  0
VERTEX
  8
0
 10
35.7285
 20
23.6483
  0
VERTEX
  8
0
 10
35.7382
 20
23.6748
  0
VERTEX
  8
0
 10
35.744
 20
23.7034
  0
VERTEX
  8
0
 10
35.7461
 20
23.7341
  0
VERTEX
  8
0
 10
35.7456
 20
23.7515
  0
VERTEX
  8
0
 10
35.7437
 20
23.7682
  0
VERTEX
  8
0
 10
35.7406
 20
23.7844
  0
VERTEX
  8
0
 10
35.7362
 20
23.7999
  0
VERTEX
  8
0
 10
35.7304
 20
23.8147
  0
VERTEX
  8
0
 10
35.7234
 20
23.829
  0
VERTEX
  8
0
 10
35.715
 20
23.8426
  0
VERTEX
  8
0
 10
35.7053
 20
23.8556
  0
VERTEX
  8
0
 10
35.6944
 20
23.8679
  0
VERTEX
  8
0
 10
35.6821
 20
23.8796
  0
VERTEX
  8
0
 10
35.6685
 20
23.8907
  0
VERTEX
  8
0
 10
35.6536
 20
23.9011
  0
VERTEX
  8
0
 10
35.6374
 20
23.9109
  0
VERTEX
  8
0
 10
35.62
 20
23.9201
  0
VERTEX
  8
0
 10
35.6012
 20
23.9286
  0
VERTEX
  8
0
 10
35.5811
 20
23.9365
  0
VERTEX
  8
0
 10
35.5597
 20
23.9438
  0
VERTEX
  8
0
 10
35.5369
 20
23.9504
  0
VERTEX
  8
0
 10
35.5129
 20
23.9565
  0
VERTEX
  8
0
 10
35.4876
 20
23.9618
  0
VERTEX
  8
0
 10
35.461
 20
23.9666
  0
VERTEX
  8
0
 10
35.4331
 20
23.9707
  0
VERTEX
  8
0
 10
35.4038
 20
23.9742
  0
VERTEX
  8
0
 10
35.3733
 20
23.977
  0
VERTEX
  8
0
 10
35.3415
 20
23.9792
  0
VERTEX
  8
0
 10
35.3083
 20
23.9808
  0
VERTEX
  8
0
 10
35.2739
 20
23.9818
  0
VERTEX
  8
0
 10
35.2381
 20
23.9821
  0
VERTEX
  8
0
 10
35.1591
 20
23.9808
  0
VERTEX
  8
0
 10
35.0879
 20
23.9768
  0
VERTEX
  8
0
 10
35.0246
 20
23.9702
  0
VERTEX
  8
0
 10
34.9691
 20
23.961
  0
VERTEX
  8
0
 10
34.9215
 20
23.9491
  0
VERTEX
  8
0
 10
34.8853
 20
23.9366
  0
VERTEX
  8
0
 10
34.8529
 20
23.922
  0
VERTEX
  8
0
 10
34.8243
 20
23.9054
  0
VERTEX
  8
0
 10
34.7994
 20
23.8868
  0
VERTEX
  8
0
 10
34.7784
 20
23.8661
  0
VERTEX
  8
0
 10
34.7612
 20
23.8434
  0
VERTEX
  8
0
 10
34.7477
 20
23.8187
  0
VERTEX
  8
0
 10
34.738
 20
23.792
  0
VERTEX
  8
0
 10
34.7322
 20
23.7632
  0
VERTEX
  8
0
 10
34.7301
 20
23.7324
  0
VERTEX
  8
0
 10
34.7354
 20
23.6826
  0
VERTEX
  8
0
 10
34.7519
 20
23.638
  0
VERTEX
  8
0
 10
34.7798
 20
23.5988
  0
VERTEX
  8
0
 10
34.819
 20
23.5648
  0
VERTEX
  8
0
 10
34.8433
 20
23.5498
  0
VERTEX
  8
0
 10
34.8715
 20
23.5364
  0
VERTEX
  8
0
 10
34.9037
 20
23.5246
  0
VERTEX
  8
0
 10
34.9397
 20
23.5144
  0
VERTEX
  8
0
 10
34.9797
 20
23.5058
  0
VERTEX
  8
0
 10
35.0235
 20
23.4987
  0
VERTEX
  8
0
 10
35.0713
 20
23.4932
  0
VERTEX
  8
0
 10
35.123
 20
23.4892
  0
VERTEX
  8
0
 10
35.1786
 20
23.4869
  0
VERTEX
  8
0
 10
35.2381
 20
23.4861
  0
VERTEX
  8
0
 10
35.2381
 20
23.4861
  0
SEQEND
  0
LINE
  8
0
 10
35.25
 20
24.4359
 11
35.25
 21
38.25
  0
LINE
  8
0
 10
35.5183
 20
37.7133
 11
35.25
 21
38.25
  0
LINE
  8
0
 10
34.9817
 20
37.7133
 11
35.25
 21
38.25
  0
LINE
  8
0
 10
35.55
 20
38.25
 11
30.3
 21
38.25
  0
LINE
  8
0
 10
35.25
 20
22.0641
 11
35.25
 21
8.25
  0
LINE
  8
0
 10
34.9817
 20
8.7867
 11
35.25
 21
8.25
  0
LINE
  8
0
 10
35.5183
 20
8.7867
 11
35.25
 21
8.25
  0
LINE
  8
0
 10
35.55
 20
8.25
 11
30.3
 21
8.25
  0
POLYLINE
  8
0
 66
     1
 10
0
 20
0
  0
VERTEX
  8
0
 10
14.1141
 20
2.729
  0
VERTEX
  8
0
 10
14.2667
 20
2.7491
  0
VERTEX
  8
0
 10
14.2743
 20
2.7157
  0
VERTEX
  8
0
 10
14.2833
 20
2.6848
  0
VERTEX
  8
0
 10
14.2939
 20
2.6564
  0
VERTEX
  8
0
 10
14.306
 20
2.6304
  0
VERTEX
  8
0
 10
14.3196
 20
2.6069
  0
VERTEX
  8
0
 10
14.3347
 20
2.5859
  0
VERTEX
  8
0
 10
14.3513
 20
2.5673
  0
VERTEX
  8
0
 10
14.3694
 20
2.5511
  0
VERTEX
  8
0
 10
14.3891
 20
2.5375
  0
VERTEX
  8
0
 10
14.4102
 20
2.5263
  0
VERTEX
  8
0
 10
14.4329
 20
2.5175
  0
VERTEX
  8
0
 10
14.4571
 20
2.5113
  0
VERTEX
  8
0
 10
14.4828
 20
2.5074
  0
VERTEX
  8
0
 10
14.5101
 20
2.5061
  0
VERTEX
  8
0
 10
14.5625
 20
2.5104
  0
VERTEX
  8
0
 10
14.6103
 20
2.5241
  0
VERTEX
  8
0
 10
14.6536
 20
2.5473
  0
VERTEX
  8
0
 10
14.6923
 20
2.58
  0
VERTEX
  8
0
 10
14.7329
 20
2.6335
  0
VERTEX
  8
0
 10
14.7575
 20
2.6945
  0
VERTEX
  8
0
 10
14.7661
 20
2.7629
  0
VERTEX
  8
0
 10
14.7588
 20
2.8282
  0
VERTEX
  8
0
 10
14.7358
 20
2.8854
  0
VERTEX
  8
0
 10
14.6972
 20
2.9345
  0
VERTEX
  8
0
 10
14.6467
 20
2.9721
  0
VERTEX
  8
0
 10
14.5883
 20
2.9946
  0
VERTEX
  8
0
 10
14.5219
 20
3.0021
  0
VERTEX
  8
0
 10
14.4719
 20
2.9986
  0
VERTEX
  8
0
 10
14.4138
 20
2.988
  0
VERTEX
  8
0
 10
14.4306
 20
3.1181
  0
VERTEX
  8
0
 10
14.4409
 20
3.1181
  0
VERTEX
  8
0
 10
14.455
 20
3.1181
  0
VERTEX
  8
0
 10
14.5209
 20
3.1237
  0
VERTEX
  8
0
 10
14.5785
 20
3.1404
  0
VERTEX
  8
0
 10
14.628
 20
3.1684
  0
VERTEX
  8
0
 10
14.6619
 20
3.1994
  0
VERTEX
  8
0
 10
14.6862
 20
3.2361
  0
VERTEX
  8
0
 10
14.7009
 20
3.2786
  0
VERTEX
  8
0
 10
14.7061
 20
3.3269
  0
VERTEX
  8
0
 10
14.7002
 20
3.3812
  0
VERTEX
  8
0
 10
14.6813
 20
3.428
  0
VERTEX
  8
0
 10
14.6493
 20
3.4675
  0
VERTEX
  8
0
 10
14.6075
 20
3.4974
  0
VERTEX
  8
0
 10
14.5591
 20
3.5156
  0
VERTEX
  8
0
 10
14.504
 20
3.5221
  0
VERTEX
  8
0
 10
14.476
 20
3.521
  0
VERTEX
  8
0
 10
14.4498
 20
3.5172
  0
VERTEX
  8
0
 10
14.4254
 20
3.5107
  0
VERTEX
  8
0
 10
14.4029
 20
3.5015
  0
VERTEX
  8
0
 10
14.3821
 20
3.4896
  0
VERTEX
  8
0
 10
14.3631
 20
3.475
  0
VERTEX
  8
0
 10
14.346
 20
3.4576
  0
VERTEX
  8
0
 10
14.3306
 20
3.4376
  0
VERTEX
  8
0
 10
14.3171
 20
3.4149
  0
VERTEX
  8
0
 10
14.3053
 20
3.3895
  0
VERTEX
  8
0
 10
14.2954
 20
3.3613
  0
VERTEX
  8
0
 10
14.2872
 20
3.3305
  0
VERTEX
  8
0
 10
14.2809
 20
3.297
  0
VERTEX
  8
0
 10
14.1293
 20
3.3241
  0
VERTEX
  8
0
 10
14.1472
 20
3.3951
  0
VERTEX
  8
0
 10
14.1738
 20
3.458
  0
VERTEX
  8
0
 10
14.2093
 20
3.5128
  0
VERTEX
  8
0
 10
14.2535
 20
3.5596
  0
VERTEX
  8
0
 10
14.3055
 20
3.5971
  0
VERTEX
  8
0
 10
14.364
 20
3.624
  0
VERTEX
  8
0
 10
14.4291
 20
3.6404
  0
VERTEX
  8
0
 10
14.5007
 20
3.6461
  0
VERTEX
  8
0
 10
14.5936
 20
3.6364
  0
VERTEX
  8
0
 10
14.6802
 20
3.6056
  0
VERTEX
  8
0
 10
14.7589
 20
3.5537
  0
VERTEX
  8
0
 10
14.8166
 20
3.4841
  0
VERTEX
  8
0
 10
14.8507
 20
3.4066
  0
VERTEX
  8
0
 10
14.8621
 20
3.3246
  0
VERTEX
  8
0
 10
14.86
 20
3.2875
  0
VERTEX
  8
0
 10
14.8538
 20
3.2527
  0
VERTEX
  8
0
 10
14.8433
 20
3.2202
  0
VERTEX
  8
0
 10
14.8288
 20
3.1901
  0
VERTEX
  8
0
 10
14.81
 20
3.1622
  0
VERTEX
  8
0
 10
14.7871
 20
3.1367
  0
VERTEX
  8
0
 10
14.76
 20
3.1135
  0
VERTEX
  8
0
 10
14.7287
 20
3.0926
  0
VERTEX
  8
0
 10
14.6932
 20
3.074
  0
VERTEX
  8
0
 10
14.7628
 20
3.0504
  0
VERTEX
  8
0
 10
14.8209
 20
3.0144
  0
VERTEX
  8
0
 10
14.8675
 20
2.966
  0
VERTEX
  8
0
 10
14.9001
 20
2.9089
  0
VERTEX
  8
0
 10
14.9196
 20
2.8433
  0
VERTEX
  8
0
 10
14.9261
 20
2.7694
  0
VERTEX
  8
0
 10
14.9228
 20
2.7165
  0
VERTEX
  8
0
 10
14.913
 20
2.6665
  0
VERTEX
  8
0
 10
14.8966
 20
2.6193
  0
VERTEX
  8
0
 10
14.8737
 20
2.5749
  0
VERTEX
  8
0
 10
14.8442
 20
2.5334
  0
VERTEX
  8
0
 10
14.8081
 20
2.4947
  0
VERTEX
  8
0
 10
14.767
 20
2.4606
  0
VERTEX
  8
0
 10
14.7224
 20
2.4325
  0
VERTEX
  8
0
 10
14.6742
 20
2.4107
  0
VERTEX
  8
0
 10
14.6224
 20
2.395
  0
VERTEX
  8
0
 10
14.5671
 20
2.3855
  0
VERTEX
  8
0
 10
14.5083
 20
2.3821
  0
VERTEX
  8
0
 10
14.4458
 20
2.3858
  0
VERTEX
  8
0
 10
14.3876
 20
2.3971
  0
VERTEX
  8
0
 10
14.3338
 20
2.4159
  0
VERTEX
  8
0
 10
14.2842
 20
2.4423
  0
VERTEX
  8
0
 10
14.2389
 20
2.4761
  0
VERTEX
  8
0
 10
14.1994
 20
2.5164
  0
VERTEX
  8
0
 10
14.1672
 20
2.5617
  0
VERTEX
  8
0
 10
14.1422
 20
2.6123
  0
VERTEX
  8
0
 10
14.1245
 20
2.668
  0
VERTEX
  8
0
 10
14.1141
 20
2.729
  0
VERTEX
  8
0
 10
14.1141
 20
2.729
  0
SEQEND
  0
POLYLINE
  8
0
 66
     1
 10
0
 20
0
  0
VERTEX
  8
0
 10
15.0741
 20
3.0136
  0
VERTEX
  8
0
 10
15.0748
 20
3.0642
  0
VERTEX
  8
0
 10
15.0769
 20
3.1127
  0
VERTEX
  8
0
 10
15.0804
 20
3.1591
  0
VERTEX
  8
0
 10
15.0853
 20
3.2035
  0
VERTEX
  8
0
 10
15.0916
 20
3.2457
  0
VERTEX
  8
0
 10
15.0993
 20
3.2859
  0
VERTEX
  8
0
 10
15.1084
 20
3.324
  0
VERTEX
  8
0
 10
15.1189
 20
3.36
  0
VERTEX
  8
0
 10
15.1308
 20
3.394
  0
VERTEX
  8
0
 10
15.1441
 20
3.4259
  0
VERTEX
  8
0
 10
15.1588
 20
3.4557
  0
VERTEX
  8
0
 10
15.1749
 20
3.4834
  0
VERTEX
  8
0
 10
15.1924
 20
3.509
  0
VERTEX
  8
0
 10
15.2113
 20
3.5326
  0
VERTEX
  8
0
 10
15.2316
 20
3.5541
  0
VERTEX
  8
0
 10
15.2533
 20
3.5735
  0
VERTEX
  8
0
 10
15.3003
 20
3.6049
  0
VERTEX
  8
0
 10
15.3534
 20
3.6275
  0
VERTEX
  8
0
 10
15.4127
 20
3.6412
  0
VERTEX
  8
0
 10
15.4781
 20
3.6461
  0
VERTEX
  8
0
 10
15.5704
 20
3.6364
  0
VERTEX
  8
0
 10
15.6531
 20
3.6056
  0
VERTEX
  8
0
 10
15.6873
 20
3.5845
  0
VERTEX
  8
0
 10
15.7189
 20
3.5587
  0
VERTEX
  8
0
 10
15.7479
 20
3.5282
  0
VERTEX
  8
0
 10
15.7743
 20
3.4931
  0
VERTEX
  8
0
 10
15.7982
 20
3.4532
  0
VERTEX
  8
0
 10
15.8195
 20
3.4088
  0
VERTEX
  8
0
 10
15.8381
 20
3.3596
  0
VERTEX
  8
0
 10
15.8542
 20
3.3058
  0
VERTEX
  8
0
 10
15.8664
 20
3.2477
  0
VERTEX
  8
0
 10
15.8751
 20
3.1796
  0
VERTEX
  8
0
 10
15.8804
 20
3.1016
  0
VERTEX
  8
0
 10
15.8821
 20
3.0136
  0
VERTEX
  8
0
 10
15.8813
 20
2.9599
  0
VERTEX
  8
0
 10
15.8789
 20
2.9085
  0
VERTEX
  8
0
 10
15.8749
 20
2.8594
  0
VERTEX
  8
0
 10
15.8694
 20
2.8128
  0
VERTEX
  8
0
 10
15.8622
 20
2.7684
  0
VERTEX
  8
0
 10
15.8534
 20
2.7265
  0
VERTEX
  8
0
 10
15.8431
 20
2.6868
  0
VERTEX
  8
0
 10
15.8311
 20
2.6496
  0
VERTEX
  8
0
 10
15.8176
 20
2.6147
  0
VERTEX
  8
0
 10
15.8025
 20
2.5821
  0
VERTEX
  8
0
 10
15.7858
 20
2.5519
  0
VERTEX
  8
0
 10
15.7674
 20
2.5241
  0
VERTEX
  8
0
 10
15.7475
 20
2.4986
  0
VERTEX
  8
0
 10
15.726
 20
2.4755
  0
VERTEX
  8
0
 10
15.7029
 20
2.4547
  0
VERTEX
  8
0
 10
15.6559
 20
2.4233
  0
VERTEX
  8
0
 10
15.6028
 20
2.4007
  0
VERTEX
  8
0
 10
15.5435
 20
2.3869
  0
VERTEX
  8
0
 10
15.4781
 20
2.3821
  0
VERTEX
  8
0
 10
15.4566
 20
2.3825
  0
VERTEX
  8
0
 10
15.4357
 20
2.3838
  0
VERTEX
  8
0
 10
15.4154
 20
2.386
  0
VERTEX
  8
0
 10
15.3957
 20
2.3891
  0
VERTEX
  8
0
 10
15.3765
 20
2.3932
  0
VERTEX
  8
0
 10
15.3579
 20
2.3982
  0
VERTEX
  8
0
 10
15.34
 20
2.4042
  0
VERTEX
  8
0
 10
15.3226
 20
2.411
  0
VERTEX
  8
0
 10
15.3058
 20
2.4188
  0
VERTEX
  8
0
 10
15.2896
 20
2.4276
  0
VERTEX
  8
0
 10
15.274
 20
2.4372
  0
VERTEX
  8
0
 10
15.2589
 20
2.4478
  0
VERTEX
  8
0
 10
15.2445
 20
2.4593
  0
VERTEX
  8
0
 10
15.2306
 20
2.4717
  0
VERTEX
  8
0
 10
15.2174
 20
2.4851
  0
VERTEX
  8
0
 10
15.2047
 20
2.4994
  0
VERTEX
  8
0
 10
15.1926
 20
2.5146
  0
VERTEX
  8
0
 10
15.1811
 20
2.5307
  0
VERTEX
  8
0
 10
15.1702
 20
2.5478
  0
VERTEX
  8
0
 10
15.1598
 20
2.5658
  0
VERTEX
  8
0
 10
15.1501
 20
2.5847
  0
VERTEX
  8
0
 10
15.1409
 20
2.6046
  0
VERTEX
  8
0
 10
15.1324
 20
2.6253
  0
VERTEX
  8
0
 10
15.1244
 20
2.647
  0
VERTEX
  8
0
 10
15.117
 20
2.6697
  0
VERTEX
  8
0
 10
15.1102
 20
2.6932
  0
VERTEX
  8
0
 10
15.104
 20
2.7177
  0
VERTEX
  8
0
 10
15.0983
 20
2.7431
  0
VERTEX
  8
0
 10
15.0933
 20
2.7695
  0
VERTEX
  8
0
 10
15.0888
 20
2.7968
  0
VERTEX
  8
0
 10
15.085
 20
2.825
  0
VERTEX
  8
0
 10
15.0817
 20
2.8541
  0
VERTEX
  8
0
 10
15.079
 20
2.8841
  0
VERTEX
  8
0
 10
15.0769
 20
2.9151
  0
VERTEX
  8
0
 10
15.0754
 20
2.947
  0
VERTEX
  8
0
 10
15.0745
 20
2.9799
  0
VERTEX
  8
0
 10
15.0741
 20
3.0136
  0
VERTEX
  8
0
 10
15.0741
 20
3.0136
  0
SEQEND
  0
POLYLINE
  8
0
 66
     1
 10
0
 20
0
  0
VERTEX
  8
0
 10
15.2301
 20
3.0141
  0
VERTEX
  8
0
 10
15.2314
 20
2.935
  0
VERTEX
  8
0
 10
15.2354
 20
2.8639
  0
VERTEX
  8
0
 10
15.242
 20
2.8005
  0
VERTEX
  8
0
 10
15.2512
 20
2.7451
  0
VERTEX
  8
0
 10
15.2631
 20
2.6975
  0
VERTEX
  8
0
 10
15.2755
 20
2.6613
  0
VERTEX
  8
0
 10
15.2899
 20
2.6288
  0
VERTEX
  8
0
 10
15.3063
 20
2.6002
  0
VERTEX
  8
0
 10
15.3248
 20
2.5754
  0
VERTEX
  8
0
 10
15.3452
 20
2.5544
  0
VERTEX
  8
0
 10
15.3678
 20
2.5371
  0
VERTEX
  8
0
 10
15.3923
 20
2.5237
  0
VERTEX
  8
0
 10
15.4189
 20
2.514
  0
VERTEX
  8
0
 10
15.4475
 20
2.5082
  0
VERTEX
  8
0
 10
15.4781
 20
2.5061
  0
VERTEX
  8
0
 10
15.4955
 20
2.5066
  0
VERTEX
  8
0
 10
15.5123
 20
2.5085
  0
VERTEX
  8
0
 10
15.5284
 20
2.5116
  0
VERTEX
  8
0
 10
15.5439
 20
2.516
  0
VERTEX
  8
0
 10
15.5588
 20
2.5218
  0
VERTEX
  8
0
 10
15.573
 20
2.5288
  0
VERTEX
  8
0
 10
15.5866
 20
2.5372
  0
VERTEX
  8
0
 10
15.5996
 20
2.5469
  0
VERTEX
  8
0
 10
15.6119
 20
2.5578
  0
VERTEX
  8
0
 10
15.6236
 20
2.5701
  0
VERTEX
  8
0
 10
15.6347
 20
2.5837
  0
VERTEX
  8
0
 10
15.6451
 20
2.5986
  0
VERTEX
  8
0
 10
15.6549
 20
2.6147
  0
VERTEX
  8
0
 10
15.6641
 20
2.6322
  0
VERTEX
  8
0
 10
15.6727
 20
2.651
  0
VERTEX
  8
0
 10
15.6806
 20
2.6711
  0
VERTEX
  8
0
 10
15.6878
 20
2.6925
  0
VERTEX
  8
0
 10
15.6945
 20
2.7152
  0
VERTEX
  8
0
 10
15.7005
 20
2.7393
  0
VERTEX
  8
0
 10
15.7059
 20
2.7646
  0
VERTEX
  8
0
 10
15.7106
 20
2.7912
  0
VERTEX
  8
0
 10
15.7147
 20
2.8191
  0
VERTEX
  8
0
 10
15.7182
 20
2.8484
  0
VERTEX
  8
0
 10
15.7211
 20
2.8789
  0
VERTEX
  8
0
 10
15.7233
 20
2.9107
  0
VERTEX
  8
0
 10
15.7248
 20
2.9439
  0
VERTEX
  8
0
 10
15.7258
 20
2.9783
  0
VERTEX
  8
0
 10
15.7261
 20
3.0141
  0
VERTEX
  8
0
 10
15.7248
 20
3.0931
  0
VERTEX
  8
0
 10
15.7208
 20
3.1643
  0
VERTEX
  8
0
 10
15.7142
 20
3.2276
  0
VERTEX
  8
0
 10
15.705
 20
3.2831
  0
VERTEX
  8
0
 10
15.6931
 20
3.3307
  0
VERTEX
  8
0
 10
15.6806
 20
3.3669
  0
VERTEX
  8
0
 10
15.666
 20
3.3993
  0
VERTEX
  8
0
 10
15.6494
 20
3.4279
  0
VERTEX
  8
0
 10
15.6308
 20
3.4528
  0
VERTEX
  8
0
 10
15.6102
 20
3.4738
  0
VERTEX
  8
0
 10
15.5875
 20
3.491
  0
VERTEX
  8
0
 10
15.5628
 20
3.5045
  0
VERTEX
  8
0
 10
15.536
 20
3.5141
  0
VERTEX
  8
0
 10
15.5072
 20
3.52
  0
VERTEX
  8
0
 10
15.4764
 20
3.5221
  0
VERTEX
  8
0
 10
15.4266
 20
3.5169
  0
VERTEX
  8
0
 10
15.3821
 20
3.5003
  0
VERTEX
  8
0
 10
15.3428
 20
3.4724
  0
VERTEX
  8
0
 10
15.3088
 20
3.4332
  0
VERTEX
  8
0
 10
15.2939
 20
3.4089
  0
VERTEX
  8
0
 10
15.2805
 20
3.3807
  0
VERTEX
  8
0
 10
15.2687
 20
3.3485
  0
VERTEX
  8
0
 10
15.2584
 20
3.3125
  0
VERTEX
  8
0
 10
15.2498
 20
3.2725
  0
VERTEX
  8
0
 10
15.2427
 20
3.2287
  0
VERTEX
  8
0
 10
15.2372
 20
3.1809
  0
VERTEX
  8
0
 10
15.2333
 20
3.1292
  0
VERTEX
  8
0
 10
15.2309
 20
3.0736
  0
VERTEX
  8
0
 10
15.2301
 20
3.0141
  0
VERTEX
  8
0
 10
15.2301
 20
3.0141
  0
SEQEND
  0
LINE
  8
0
 10
16.1859
 20
3
 11
30
 21
3
  0
LINE
  8
0
 10
29.4633
 20
2.7317
 11
30
 21
3
  0
LINE
  8
0
 10
29.4633
 20
3.2683
 11
30
 21
3
  0
LINE
  8
0
 10
30
 20
2.7
 11
30
 21
7.95
  0
LINE
  8
0
 10
13.8141
 20
3
 11
0
 21
3
  0
LINE
  8
0
 10
0.5367
 20
3.2683
 11
0
 21
3
  0
LINE
  8
0
 10
0.5367
 20
2.7317
 11
0
 21
3
  0
LINE
  8
0
 10
0
 20
2.7
 11
0
 21
7.95
  0
POLYLINE
  8
0
 66
     1
 10
0
 20
0
  0
VERTEX
  8
0
 10
0.4541
 20
0.4061
  0
VERTEX
  8
0
 10
0.3021
 20
0.4061
  0
VERTEX
  8
0
 10
0.3021
 20
1.3784
  0
VERTEX
  8
0
 10
0.215
 20
1.3074
  0
VERTEX
  8
0
 10
0.1137
 20
1.2463
  0
VERTEX
  8
0
 10
-0.0019
 20
1.1952
  0
VERTEX
  8
0
 10
-0.0019
 20
1.3425
  0
VERTEX
  8
0
 10
0.0549
 20
1.3709
  0
VERTEX
  8
0
 10
0.1074
 20
1.4009
  0
VERTEX
  8
0
 10
0.1557
 20
1.4324
  0
VERTEX
  8
0
 10
0.1998
 20
1.4655
  0
VERTEX
  8
0
 10
0.2396
 20
1.5001
  0
VERTEX
  8
0
 10
0.2751
 20
1.5363
  0
VERTEX
  8
0
 10
0.3064
 20
1.574
  0
VERTEX
  8
0
 10
0.3334
 20
1.6133
  0
VERTEX
  8
0
 10
0.3562
 20
1.6541
  0
VERTEX
  8
0
 10
0.4541
 20
1.6541
  0
VERTEX
  8
0
 10
0.4541
 20
0.4061
  0
SEQEND
  0
POLYLINE
  8
0
 66
     1
 10
0
 20
0
  0
VERTEX
  8
0
 10
0.9221
 20
0.4061
  0
VERTEX
  8
0
 10
0.9221
 20
0.5821
  0
VERTEX
  8
0
 10
1.0941
 20
0.5821
  0
VERTEX
  8
0
 10
1.0941
 20
0.4061
  0
VERTEX
  8
0
 10
0.9221
 20
0.4061
  0
SEQEND
  0
POLYLINE
  8
0
 66
     1
 10
0
 20
0
  0
VERTEX
  8
0
 10
1.3181
 20
0.7343
  0
VERTEX
  8
0
 10
1.4778
 20
0.7478
  0
VERTEX
  8
0
 10
1.4837
 20
0.7156
  0
VERTEX
  8
0
 10
1.4914
 20
0.6858
  0
VERTEX
  8
0
 10
1.5007
 20
0.6583
  0
VERTEX
  8
0
 10
1.5117
 20
0.6333
  0
VERTEX
  8
0
 10
1.5245
 20
0.6107
  0
VERTEX
  8
0
 10
1.539
 20
0.5904
  0
VERTEX
  8
0
 10
1.5551
 20
0.5725
  0
VERTEX
  8
0
 10
1.573
 20
0.557
  0
VERTEX
  8
0
 10
1.5926
 20
0.5439
  0
VERTEX
  8
0
 10
1.6139
 20
0.5332
  0
VERTEX
  8
0
 10
1.6369
 20
0.5248
  0
VERTEX
  8
0
 10
1.6616
 20
0.5189
  0
VERTEX
  8
0
 10
1.688
 20
0.5153
  0
VERTEX
  8
0
 10
1.7161
 20
0.5141
  0
VERTEX
  8
0
 10
1.7628
 20
0.5178
  0
VERTEX
  8
0
 10
1.8056
 20
0.5289
  0
VERTEX
  8
0
 10
1.8445
 20
0.5474
  0
VERTEX
  8
0
 10
1.8795
 20
0.5732
  0
VERTEX
  8
0
 10
1.9105
 20
0.6065
  0
VERTEX
  8
0
 10
1.9481
 20
0.667
  0
VERTEX
  8
0
 10
1.9706
 20
0.7365
  0
VERTEX
  8
0
 10
1.9781
 20
0.815
  0
VERTEX
  8
0
 10
1.9737
 20
0.8742
  0
VERTEX
  8
0
 10
1.9606
 20
0.9275
  0
VERTEX
  8
0
 10
1.9387
 20
0.9749
  0
VERTEX
  8
0
 10
1.908
 20
1.0163
  0
VERTEX
  8
0
 10
1.8695
 20
1.05
  0
VERTEX
  8
0
 10
1.8243
 20
1.0742
  0
VERTEX
  8
0
 10
1.7723
 20
1.0889
  0
VERTEX
  8
0
 10
1.7136
 20
1.0941
  0
VERTEX
  8
0
 10
1.667
 20
1.0911
  0
VERTEX
  8
0
 10
1.6239
 20
1.0814
  0
VERTEX
  8
0
 10
1.5845
 20
1.0651
  0
VERTEX
  8
0
 10
1.5487
 20
1.0422
  0
VERTEX
  8
0
 10
1.5165
 20
1.0127
  0
VERTEX
  8
0
 10
1.4879
 20
0.9765
  0
VERTEX
  8
0
 10
1.3451
 20
0.9951
  0
VERTEX
  8
0
 10
1.465
 20
1.6301
  0
VERTEX
  8
0
 10
2.0804
 20
1.6301
  0
VERTEX
  8
0
 10
2.0804
 20
1.4861
  0
VERTEX
  8
0
 10
1.5885
 20
1.4861
  0
VERTEX
  8
0
 10
1.5214
 20
1.1526
  0
VERTEX
  8
0
 10
1.5967
 20
1.1953
  0
VERTEX
  8
0
 10
1.6744
 20
1.2211
  0
VERTEX
  8
0
 10
1.7545
 20
1.2301
  0
VERTEX
  8
0
 10
1.8089
 20
1.2271
  0
VERTEX
  8
0
 10
1.8601
 20
1.2176
  0
VERTEX
  8
0
 10
1.908
 20
1.2015
  0
VERTEX
  8
0
 10
1.9527
 20
1.1788
  0
VERTEX
  8
0
 10
1.994
 20
1.1496
  0
VERTEX
  8
0
 10
2.0321
 20
1.1138
  0
VERTEX
  8
0
 10
2.0645
 20
1.0743
  0
VERTEX
  8
0
 10
2.091
 20
1.0317
  0
VERTEX
  8
0
 10
2.1116
 20
0.986
  0
VERTEX
  8
0
 10
2.1263
 20
0.9371
  0
VERTEX
  8
0
 10
2.1352
 20
0.8851
  0
VERTEX
  8
0
 10
2.1381
 20
0.8299
  0
VERTEX
  8
0
 10
2.1342
 20
0.7649
  0
VERTEX
  8
0
 10
2.1225
 20
0.7035
  0
VERTEX
  8
0
 10
2.1029
 20
0.6455
  0
VERTEX
  8
0
 10
2.0755
 20
0.591
  0
VERTEX
  8
0
 10
2.0402
 20
0.5401
  0
VERTEX
  8
0
 10
2.0091
 20
0.5051
  0
VERTEX
  8
0
 10
1.9753
 20
0.4748
  0
VERTEX
  8
0
 10
1.9388
 20
0.4491
  0
VERTEX
  8
0
 10
1.8996
 20
0.428
  0
VERTEX
  8
0
 10
1.8576
 20
0.4116
  0
VERTEX
  8
0
 10
1.813
 20
0.3998
  0
VERTEX
  8
0
 10
1.7656
 20
0.3926
  0
VERTEX
  8
0
 10
1.7155
 20
0.3901
  0
VERTEX
  8
0
 10
1.652
 20
0.3937
  0
VERTEX
  8
0
 10
1.593
 20
0.4045
  0
VERTEX
  8
0
 10
1.5387
 20
0.4225
  0
VERTEX
  8
0
 10
1.4889
 20
0.4477
  0
VERTEX
  8
0
 10
1.4438
 20
0.4801
  0
VERTEX
  8
0
 10
1.4037
 20
0.5199
  0
VERTEX
  8
0
 10
1.371
 20
0.5652
  0
VERTEX
  8
0
 10
1.3459
 20
0.6161
  0
VERTEX
  8
0
 10
1.3283
 20
0.6724
  0
VERTEX
  8
0
 10
1.3181
 20
0.7343
  0
VERTEX
  8
0
 10
1.3181
 20
0.7343
  0
SEQEND
  0
POLYLINE
  8
0
 66
     1
 10
0
 20
0
  0
VERTEX
  8
0
 10
2.2861
 20
1.0216
  0
VERTEX
  8
0
 10
2.2868
 20
1.0722
  0
VERTEX
  8
0
 10
2.2889
 20
1.1207
  0
VERTEX
  8
0
 10
2.2924
 20
1.1671
  0
VERTEX
  8
0
 10
2.2973
 20
1.2115
  0
VERTEX
  8
0
 10
2.3036
 20
1.2537
  0
VERTEX
  8
0
 10
2.3113
 20
1.2939
  0
VERTEX
  8
0
 10
2.3204
 20
1.332
  0
VERTEX
  8
0
 10
2.3309
 20
1.368
  0
VERTEX
  8
0
 10
2.3428
 20
1.402
  0
VERTEX
  8
0
 10
2.3561
 20
1.4339
  0
VERTEX
  8
0
 10
2.3708
 20
1.4637
  0
VERTEX
  8
0
 10
2.3869
 20
1.4914
  0
VERTEX
  8
0
 10
2.4044
 20
1.517
  0
VERTEX
  8
0
 10
2.4233
 20
1.5406
  0
VERTEX
  8
0
 10
2.4436
 20
1.5621
  0
VERTEX
  8
0
 10
2.4653
 20
1.5815
  0
VERTEX
  8
0
 10
2.5123
 20
1.6129
  0
VERTEX
  8
0
 10
2.5654
 20
1.6355
  0
VERTEX
  8
0
 10
2.6247
 20
1.6492
  0
VERTEX
  8
0
 10
2.6901
 20
1.6541
  0
VERTEX
  8
0
 10
2.7824
 20
1.6444
  0
VERTEX
  8
0
 10
2.8651
 20
1.6136
  0
VERTEX
  8
0
 10
2.8993
 20
1.5925
  0
VERTEX
  8
0
 10
2.9309
 20
1.5667
  0
VERTEX
  8
0
 10
2.9599
 20
1.5362
  0
VERTEX
  8
0
 10
2.9863
 20
1.5011
  0
VERTEX
  8
0
 10
3.0102
 20
1.4612
  0
VERTEX
  8
0
 10
3.0315
 20
1.4168
  0
VERTEX
  8
0
 10
3.0501
 20
1.3676
  0
VERTEX
  8
0
 10
3.0662
 20
1.3138
  0
VERTEX
  8
0
 10
3.0784
 20
1.2557
  0
VERTEX
  8
0
 10
3.0871
 20
1.1876
  0
VERTEX
  8
0
 10
3.0924
 20
1.1096
  0
VERTEX
  8
0
 10
3.0941
 20
1.0216
  0
VERTEX
  8
0
 10
3.0933
 20
0.9679
  0
VERTEX
  8
0
 10
3.0909
 20
0.9165
  0
VERTEX
  8
0
 10
3.0869
 20
0.8674
  0
VERTEX
  8
0
 10
3.0814
 20
0.8208
  0
VERTEX
  8
0
 10
3.0742
 20
0.7764
  0
VERTEX
  8
0
 10
3.0654
 20
0.7345
  0
VERTEX
  8
0
 10
3.0551
 20
0.6948
  0
VERTEX
  8
0
 10
3.0431
 20
0.6576
  0
VERTEX
  8
0
 10
3.0296
 20
0.6227
  0
VERTEX
  8
0
 10
3.0145
 20
0.5901
  0
VERTEX
  8
0
 10
2.9978
 20
0.5599
  0
VERTEX
  8
0
 10
2.9794
 20
0.5321
  0
VERTEX
  8
0
 10
2.9595
 20
0.5066
  0
VERTEX
  8
0
 10
2.938
 20
0.4835
  0
VERTEX
  8
0
 10
2.9149
 20
0.4627
  0
VERTEX
  8
0
 10
2.8679
 20
0.4313
  0
VERTEX
  8
0
 10
2.8148
 20
0.4087
  0
VERTEX
  8
0
 10
2.7555
 20
0.3949
  0
VERTEX
  8
0
 10
2.6901
 20
0.3901
  0
VERTEX
  8
0
 10
2.6686
 20
0.3905
  0
VERTEX
  8
0
 10
2.6477
 20
0.3918
  0
VERTEX
  8
0
 10
2.6274
 20
0.394
  0
VERTEX
  8
0
 10
2.6077
 20
0.3971
  0
VERTEX
  8
0
 10
2.5885
 20
0.4012
  0
VERTEX
  8
0
 10
2.5699
 20
0.4062
  0
VERTEX
  8
0
 10
2.552
 20
0.4122
  0
VERTEX
  8
0
 10
2.5346
 20
0.419
  0
VERTEX
  8
0
 10
2.5178
 20
0.4268
  0
VERTEX
  8
0
 10
2.5016
 20
0.4356
  0
VERTEX
  8
0
 10
2.486
 20
0.4452
  0
VERTEX
  8
0
 10
2.4709
 20
0.4558
  0
VERTEX
  8
0
 10
2.4565
 20
0.4673
  0
VERTEX
  8
0
 10
2.4426
 20
0.4797
  0
VERTEX
  8
0
 10
2.4294
 20
0.4931
  0
VERTEX
  8
0
 10
2.4167
 20
0.5074
  0
VERTEX
  8
0
 10
2.4046
 20
0.5226
  0
VERTEX
  8
0
 10
2.3931
 20
0.5387
  0
VERTEX
  8
0
 10
2.3822
 20
0.5558
  0
VERTEX
  8
0
 10
2.3718
 20
0.5738
  0
VERTEX
  8
0
 10
2.3621
 20
0.5927
  0
VERTEX
  8
0
 10
2.3529
 20
0.6126
  0
VERTEX
  8
0
 10
2.3444
 20
0.6333
  0
VERTEX
  8
0
 10
2.3364
 20
0.655
  0
VERTEX
  8
0
 10
2.329
 20
0.6777
  0
VERTEX
  8
0
 10
2.3222
 20
0.7012
  0
VERTEX
  8
0
 10
2.316
 20
0.7257
  0
VERTEX
  8
0
 10
2.3103
 20
0.7511
  0
VERTEX
  8
0
 10
2.3053
 20
0.7775
  0
VERTEX
  8
0
 10
2.3008
 20
0.8048
  0
VERTEX
  8
0
 10
2.297
 20
0.833
  0
VERTEX
  8
0
 10
2.2937
 20
0.8621
  0
VERTEX
  8
0
 10
2.291
 20
0.8921
  0
VERTEX
  8
0
 10
2.2889
 20
0.9231
  0
VERTEX
  8
0
 10
2.2874
 20
0.955
  0
VERTEX
  8
0
 10
2.2865
 20
0.9879
  0
VERTEX
  8
0
 10
2.2861
 20
1.0216
  0
VERTEX
  8
0
 10
2.2861
 20
1.0216
  0
SEQEND
  0
POLYLINE
  8
0
 66
     1
 10
0
 20
0
  0
VERTEX
  8
0
 10
2.4421
 20
1.0221
  0
VERTEX
  8
0
 10
2.4434
 20
0.943
  0
VERTEX
  8
0
 10
2.4474
 20
0.8719
  0
VERTEX
  8
0
 10
2.454
 20
0.8085
  0
VERTEX
  8
0
 10
2.4632
 20
0.7531
  0
VERTEX
  8
0
 10
2.4751
 20
0.7055
  0
VERTEX
  8
0
 10
2.4875
 20
0.6693
  0
VERTEX
  8
0
 10
2.5019
 20
0.6368
  0
VERTEX
  8
0
 10
2.5183
 20
0.6082
  0
VERTEX
  8
0
 10
2.5368
 20
0.5834
  0
VERTEX
  8
0
 10
2.5572
 20
0.5624
  0
VERTEX
  8
0
 10
2.5798
 20
0.5451
  0
VERTEX
  8
0
 10
2.6043
 20
0.5317
  0
VERTEX
  8
0
 10
2.6309
 20
0.522
  0
VERTEX
  8
0
 10
2.6595
 20
0.5162
  0
VERTEX
  8
0
 10
2.6901
 20
0.5141
  0
VERTEX
  8
0
 10
2.7075
 20
0.5146
  0
VERTEX
  8
0
 10
2.7243
 20
0.5165
  0
VERTEX
  8
0
 10
2.7404
 20
0.5196
  0
VERTEX
  8
0
 10
2.7559
 20
0.524
  0
VERTEX
  8
0
 10
2.7708
 20
0.5298
  0
VERTEX
  8
0
 10
2.785
 20
0.5368
  0
VERTEX
  8
0
 10
2.7986
 20
0.5452
  0
VERTEX
  8
0
 10
2.8116
 20
0.5549
  0
VERTEX
  8
0
 10
2.8239
 20
0.5658
  0
VERTEX
  8
0
 10
2.8356
 20
0.5781
  0
VERTEX
  8
0
 10
2.8467
 20
0.5917
  0
VERTEX
  8
0
 10
2.8571
 20
0.6066
  0
VERTEX
  8
0
 10
2.8669
 20
0.6227
  0
VERTEX
  8
0
 10
2.8761
 20
0.6402
  0
VERTEX
  8
0
 10
2.8847
 20
0.659
  0
VERTEX
  8
0
 10
2.8926
 20
0.6791
  0
VERTEX
  8
0
 10
2.8998
 20
0.7005
  0
VERTEX
  8
0
 10
2.9065
 20
0.7232
  0
VERTEX
  8
0
 10
2.9125
 20
0.7473
  0
VERTEX
  8
0
 10
2.9179
 20
0.7726
  0
VERTEX
  8
0
 10
2.9226
 20
0.7992
  0
VERTEX
  8
0
 10
2.9267
 20
0.8271
  0
VERTEX
  8
0
 10
2.9302
 20
0.8564
  0
VERTEX
  8
0
 10
2.9331
 20
0.8869
  0
VERTEX
  8
0
 10
2.9353
 20
0.9187
  0
VERTEX
  8
0
 10
2.9368
 20
0.9519
  0
VERTEX
  8
0
 10
2.9378
 20
0.9863
  0
VERTEX
  8
0
 10
2.9381
 20
1.0221
  0
VERTEX
  8
0
 10
2.9368
 20
1.1011
  0
VERTEX
  8
0
 10
2.9328
 20
1.1723
  0
VERTEX
  8
0
 10
2.9262
 20
1.2356
  0
VERTEX
  8
0
 10
2.917
 20
1.2911
  0
VERTEX
  8
0
 10
2.9051
 20
1.3387
  0
VERTEX
  8
0
 10
2.8926
 20
1.3749
  0
VERTEX
  8
0
 10
2.878
 20
1.4073
  0
VERTEX
  8
0
 10
2.8614
 20
1.4359
  0
VERTEX
  8
0
 10
2.8428
 20
1.4608
  0
VERTEX
  8
0
 10
2.8222
 20
1.4818
  0
VERTEX
  8
0
 10
2.7995
 20
1.499
  0
VERTEX
  8
0
 10
2.7748
 20
1.5125
  0
VERTEX
  8
0
 10
2.748
 20
1.5221
  0
VERTEX
  8
0
 10
2.7192
 20
1.528
  0
VERTEX
  8
0
 10
2.6884
 20
1.5301
  0
VERTEX
  8
0
 10
2.6386
 20
1.5249
  0
VERTEX
  8
0
 10
2.5941
 20
1.5083
  0
VERTEX
  8
0
 10
2.5548
 20
1.4804
  0
VERTEX
  8
0
 10
2.5208
 20
1.4412
  0
VERTEX
  8
0
 10
2.5059
 20
1.4169
  0
VERTEX
  8
0
 10
2.4925
 20
1.3887
  0
VERTEX
  8
0
 10
2.4807
 20
1.3565
  0
VERTEX
  8
0
 10
2.4704
 20
1.3205
  0
VERTEX
  8
0
 10
2.4618
 20
1.2805
  0
VERTEX
  8
0
 10
2.4547
 20
1.2367
  0
VERTEX
  8
0
 10
2.4492
 20
1.1889
  0
VERTEX
  8
0
 10
2.4453
 20
1.1372
  0
VERTEX
  8
0
 10
2.4429
 20
1.0816
  0
VERTEX
  8
0
 10
2.4421
 20
1.0221
  0
VERTEX
  8
0
 10
2.4421
 20
1.0221
  0
SEQEND
  0
POLYLINE
  8
0
 66
     1
 10
0
 20
0
  0
VERTEX
  8
0
 10
3.2961
 20
1.2101
  0
VERTEX
  8
0
 10
3.2541
 20
1.4445
  0
VERTEX
  8
0
 10
3.2541
 20
1.6461
  0
VERTEX
  8
0
 10
3.4261
 20
1.6461
  0
VERTEX
  8
0
 10
3.4261
 20
1.4445
  0
VERTEX
  8
0
 10
3.3884
 20
1.2101
  0
VERTEX
  8
0
 10
3.2961
 20
1.2101
  0
SEQEND
  0
POLYLINE
  8
0
 66
     1
 10
0
 20
0
  0
VERTEX
  8
0
 10
3.5752
 20
1.2101
  0
VERTEX
  8
0
 10
3.5341
 20
1.4445
  0
VERTEX
  8
0
 10
3.5341
 20
1.6461
  0
VERTEX
  8
0
 10
3.7061
 20
1.6461
  0
VERTEX
  8
0
 10
3.7061
 20
1.4445
  0
VERTEX
  8
0
 10
3.6659
 20
1.2101
  0
VERTEX
  8
0
 10
3.5752
 20
1.2101
  0
SEQEND
  0
POLYLINE
  8
0
 66
     1
 10
0
 20
0
  0
VERTEX
  8
0
 10
4.7261
 20
0.4061
  0
VERTEX
  8
0
 10
4.7261
 20
1.6461
  0
VERTEX
  8
0
 10
5.2741
 20
1.6461
  0
VERTEX
  8
0
 10
5.3613
 20
1.6435
  0
VERTEX
  8
0
 10
5.4341
 20
1.6359
  0
VERTEX
  8
0
 10
5.4924
 20
1.6233
  0
VERTEX
  8
0
 10
5.5454
 20
1.6025
  0
VERTEX
  8
0
 10
5.5915
 20
1.5742
  0
VERTEX
  8
0
 10
5.6305
 20
1.5383
  0
VERTEX
  8
0
 10
5.6627
 20
1.4947
  0
VERTEX
  8
0
 10
5.7008
 20
1.4061
  0
VERTEX
  8
0
 10
5.7141
 20
1.3078
  0
VERTEX
  8
0
 10
5.7135
 20
1.2809
  0
VERTEX
  8
0
 10
5.7113
 20
1.2551
  0
VERTEX
  8
0
 10
5.7074
 20
1.2304
  0
VERTEX
  8
0
 10
5.702
 20
1.2068
  0
VERTEX
  8
0
 10
5.695
 20
1.1843
  0
VERTEX
  8
0
 10
5.6865
 20
1.1628
  0
VERTEX
  8
0
 10
5.6763
 20
1.1424
  0
VERTEX
  8
0
 10
5.6645
 20
1.1231
  0
VERTEX
  8
0
 10
5.6512
 20
1.1049
  0
VERTEX
  8
0
 10
5.6362
 20
1.0878
  0
VERTEX
  8
0
 10
5.6197
 20
1.0717
  0
VERTEX
  8
0
 10
5.6016
 20
1.0567
  0
VERTEX
  8
0
 10
5.5818
 20
1.0428
  0
VERTEX
  8
0
 10
5.5605
 20
1.0299
  0
VERTEX
  8
0
 10
5.5376
 20
1.0182
  0
VERTEX
  8
0
 10
5.5131
 20
1.0075
  0
VERTEX
  8
0
 10
5.4871
 20
0.9979
  0
VERTEX
  8
0
 10
5.4594
 20
0.9894
  0
VERTEX
  8
0
 10
5.4301
 20
0.9819
  0
VERTEX
  8
0
 10
5.3993
 20
0.9756
  0
VERTEX
  8
0
 10
5.3669
 20
0.9703
  0
VERTEX
  8
0
 10
5.4245
 20
0.9392
  0
VERTEX
  8
0
 10
5.4656
 20
0.9085
  0
VERTEX
  8
0
 10
5.5372
 20
0.8322
  0
VERTEX
  8
0
 10
5.6016
 20
0.7436
  0
VERTEX
  8
0
 10
5.8168
 20
0.4061
  0
VERTEX
  8
0
 10
5.6135
 20
0.4061
  0
VERTEX
  8
0
 10
5.4479
 20
0.6681
  0
VERTEX
  8
0
 10
5.3968
 20
0.7469
  0
VERTEX
  8
0
 10
5.3567
 20
0.8049
  0
VERTEX
  8
0
 10
5.2969
 20
0.8782
  0
VERTEX
  8
0
 10
5.2459
 20
0.923
  0
VERTEX
  8
0
 10
5.2087
 20
0.9436
  0
VERTEX
  8
0
 10
5.1716
 20
0.9561
  0
VERTEX
  8
0
 10
5.1356
 20
0.9606
  0
VERTEX
  8
0
 10
5.0803
 20
0.9621
  0
VERTEX
  8
0
 10
4.8901
 20
0.9621
  0
VERTEX
  8
0
 10
4.8901
 20
0.4061
  0
VERTEX
  8
0
 10
4.7261
 20
0.4061
  0
SEQEND
  0
POLYLINE
  8
0
 66
     1
 10
0
 20
0
  0
VERTEX
  8
0
 10
4.8901
 20
1.1021
  0
VERTEX
  8
0
 10
5.2417
 20
1.1021
  0
VERTEX
  8
0
 10
5.2917
 20
1.1036
  0
VERTEX
  8
0
 10
5.3371
 20
1.1081
  0
VERTEX
  8
0
 10
5.3779
 20
1.1157
  0
VERTEX
  8
0
 10
5.4142
 20
1.1263
  0
VERTEX
  8
0
 10
5.4458
 20
1.1399
  0
VERTEX
  8
0
 10
5.4729
 20
1.1565
  0
VERTEX
  8
0
 10
5.4954
 20
1.1762
  0
VERTEX
  8
0
 10
5.5132
 20
1.1988
  0
VERTEX
  8
0
 10
5.5379
 20
1.2523
  0
VERTEX
  8
0
 10
5.5461
 20
1.3099
  0
VERTEX
  8
0
 10
5.5409
 20
1.3595
  0
VERTEX
  8
0
 10
5.5252
 20
1.4022
  0
VERTEX
  8
0
 10
5.4991
 20
1.4381
  0
VERTEX
  8
0
 10
5.4626
 20
1.4672
  0
VERTEX
  8
0
 10
5.4121
 20
1.491
  0
VERTEX
  8
0
 10
5.3517
 20
1.5053
  0
VERTEX
  8
0
 10
5.2814
 20
1.5101
  0
VERTEX
  8
0
 10
4.8901
 20
1.5101
  0
VERTEX
  8
0
 10
4.8901
 20
1.1021
  0
SEQEND
  0
POLYLINE
  8
0
 66
     1
 10
0
 20
0
  0
VERTEX
  8
0
 10
6.5426
 20
0.5206
  0
VERTEX
  8
0
 10
6.491
 20
0.481
  0
VERTEX
  8
0
 10
6.4381
 20
0.4485
  0
VERTEX
  8
0
 10
6.3837
 20
0.4231
  0
VERTEX
  8
0
 10
6.328
 20
0.405
  0
VERTEX
  8
0
 10
6.271
 20
0.3939
  0
VERTEX
  8
0
 10
6.2126
 20
0.3901
  0
VERTEX
  8
0
 10
6.1302
 20
0.3965
  0
VERTEX
  8
0
 10
6.0587
 20
0.4167
  0
VERTEX
  8
0
 10
5.9981
 20
0.4509
  0
VERTEX
  8
0
 10
5.9653
 20
0.4806
  0
VERTEX
  8
0
 10
5.9397
 20
0.5151
  0
VERTEX
  8
0
 10
5.9213
 20
0.5543
  0
VERTEX
  8
0
 10
5.9101
 20
0.5983
  0
VERTEX
  8
0
 10
5.9061
 20
0.647
  0
VERTEX
  8
0
 10
5.9089
 20
0.6893
  0
VERTEX
  8
0
 10
5.9177
 20
0.7286
  0
VERTEX
  8
0
 10
5.9327
 20
0.7648
  0
VERTEX
  8
0
 10
5.9537
 20
0.7979
  0
VERTEX
  8
0
 10
5.9808
 20
0.8279
  0
VERTEX
  8
0
 10
6.0141
 20
0.8548
  0
VERTEX
  8
0
 10
6.0646
 20
0.8838
  0
VERTEX
  8
0
 10
6.1237
 20
0.9046
  0
VERTEX
  8
0
 10
6.1789
 20
0.9163
  0
VERTEX
  8
0
 10
6.2586
 20
0.9275
  0
VERTEX
  8
0
 10
6.3299
 20
0.9369
  0
VERTEX
  8
0
 10
6.3926
 20
0.9468
  0
VERTEX
  8
0
 10
6.4467
 20
0.9573
  0
VERTEX
  8
0
 10
6.4923
 20
0.9683
  0
VERTEX
  8
0
 10
6.5293
 20
0.9798
  0
VERTEX
  8
0
 10
6.5295
 20
1.0063
  0
VERTEX
  8
0
 10
6.5301
 20
1.0196
  0
VERTEX
  8
0
 10
6.5253
 20
1.0754
  0
VERTEX
  8
0
 10
6.511
 20
1.1191
  0
VERTEX
  8
0
 10
6.4871
 20
1.1505
  0
VERTEX
  8
0
 10
6.4424
 20
1.1788
  0
VERTEX
  8
0
 10
6.3848
 20
1.196
  0
VERTEX
  8
0
 10
6.3142
 20
1.2021
  0
VERTEX
  8
0
 10
6.2514
 20
1.1985
  0
VERTEX
  8
0
 10
6.1999
 20
1.1866
  0
VERTEX
  8
0
 10
6.1599
 20
1.1664
  0
VERTEX
  8
0
 10
6.1271
 20
1.1343
  0
VERTEX
  8
0
 10
6.1007
 20
1.0891
  0
VERTEX
  8
0
 10
6.0807
 20
1.0306
  0
VERTEX
  8
0
 10
5.9322
 20
1.0508
  0
VERTEX
  8
0
 10
5.944
 20
1.0949
  0
VERTEX
  8
0
 10
5.9596
 20
1.1351
  0
VERTEX
  8
0
 10
5.979
 20
1.1714
  0
VERTEX
  8
0
 10
6.0022
 20
1.2038
  0
VERTEX
  8
0
 10
6.0291
 20
1.2322
  0
VERTEX
  8
0
 10
6.0599
 20
1.2568
  0
VERTEX
  8
0
 10
6.0944
 20
1.2774
  0
VERTEX
  8
0
 10
6.1327
 20
1.2941
  0
VERTEX
  8
0
 10
6.2261
 20
1.3177
  0
VERTEX
  8
0
 10
6.3358
 20
1.3261
  0
VERTEX
  8
0
 10
6.3866
 20
1.3248
  0
VERTEX
  8
0
 10
6.4333
 20
1.3204
  0
VERTEX
  8
0
 10
6.4759
 20
1.313
  0
VERTEX
  8
0
 10
6.5144
 20
1.3026
  0
VERTEX
  8
0
 10
6.5488
 20
1.2891
  0
VERTEX
  8
0
 10
6.5791
 20
1.2726
  0
VERTEX
  8
0
 10
6.6053
 20
1.253
  0
VERTEX
  8
0
 10
6.6274
 20
1.2303
  0
VERTEX
  8
0
 10
6.6556
 20
1.1846
  0
VERTEX
  8
0
 10
6.6746
 20
1.127
  0
VERTEX
  8
0
 10
6.6788
 20
1.0963
  0
VERTEX
  8
0
 10
6.6813
 20
1.0495
  0
VERTEX
  8
0
 10
6.6821
 20
0.9864
  0
VERTEX
  8
0
 10
6.6821
 20
0.7831
  0
VERTEX
  8
0
 10
6.6821
 20
0.74
  0
VERTEX
  8
0
 10
6.6822
 20
0.7024
  0
VERTEX
  8
0
 10
6.6822
 20
0.6701
  0
VERTEX
  8
0
 10
6.6823
 20
0.6433
  0
VERTEX
  8
0
 10
6.6825
 20
0.6218
  0
VERTEX
  8
0
 10
6.6826
 20
0.6058
  0
VERTEX
  8
0
 10
6.6828
 20
0.5951
  0
VERTEX
  8
0
 10
6.683
 20
0.5899
  0
VERTEX
  8
0
 10
6.6986
 20
0.488
  0
VERTEX
  8
0
 10
6.7317
 20
0.4061
  0
VERTEX
  8
0
 10
6.5731
 20
0.4061
  0
VERTEX
  8
0
 10
6.554
 20
0.4592
  0
VERTEX
  8
0
 10
6.5426
 20
0.5206
  0
VERTEX
  8
0
 10
6.5426
 20
0.5206
  0
SEQEND
  0
POLYLINE
  8
0
 66
     1
 10
0
 20
0
  0
VERTEX
  8
0
 10
6.5301
 20
0.86
  0
VERTEX
  8
0
 10
6.4837
 20
0.8441
  0
VERTEX
  8
0
 10
6.4271
 20
0.8293
  0
VERTEX
  8
0
 10
6.3601
 20
0.8155
  0
VERTEX
  8
0
 10
6.2829
 20
0.8028
  0
VERTEX
  8
0
 10
6.2181
 20
0.7923
  0
VERTEX
  8
0
 10
6.1769
 20
0.7826
  0
VERTEX
  8
0
 10
6.1256
 20
0.758
  0
VERTEX
  8
0
 10
6.0911
 20
0.7229
  0
VERTEX
  8
0
 10
6.0758
 20
0.6895
  0
VERTEX
  8
0
 10
6.0701
 20
0.6514
  0
VERTEX
  8
0
 10
6.076
 20
0.6075
  0
VERTEX
  8
0
 10
6.0948
 20
0.571
  0
VERTEX
  8
0
 10
6.1264
 20
0.542
  0
VERTEX
  8
0
 10
6.1817
 20
0.5181
  0
VERTEX
  8
0
 10
6.2501
 20
0.5101
  0
VERTEX
  8
0
 10
6.2903
 20
0.5118
  0
VERTEX
  8
0
 10
6.3275
 20
0.5171
  0
VERTEX
  8
0
 10
6.3618
 20
0.526
  0
VERTEX
  8
0
 10
6.3932
 20
0.5383
  0
VERTEX
  8
0
 10
6.4216
 20
0.5542
  0
VERTEX
  8
0
 10
6.4471
 20
0.5736
  0
VERTEX
  8
0
 10
6.4696
 20
0.5966
  0
VERTEX
  8
0
 10
6.4891
 20
0.6231
  0
VERTEX
  8
0
 10
6.5057
 20
0.6531
  0
VERTEX
  8
0
 10
6.524
 20
0.7166
  0
VERTEX
  8
0
 10
6.5301
 20
0.8045
  0
VERTEX
  8
0
 10
6.5301
 20
0.86
  0
SEQEND
  0
POLYLINE
  8
0
 66
     1
 10
0
 20
0
  0
VERTEX
  8
0
 10
7.4981
 20
0.4061
  0
VERTEX
  8
0
 10
7.4981
 20
0.5232
  0
VERTEX
  8
0
 10
7.4725
 20
0.4881
  0
VERTEX
  8
0
 10
7.4436
 20
0.4583
  0
VERTEX
  8
0
 10
7.4113
 20
0.434
  0
VERTEX
  8
0
 10
7.3758
 20
0.4149
  0
VERTEX
  8
0
 10
7.3369
 20
0.4013
  0
VERTEX
  8
0
 10
7.2947
 20
0.393
  0
VERTEX
  8
0
 10
7.2492
 20
0.3901
  0
VERTEX
  8
0
 10
7.1782
 20
0.3965
  0
VERTEX
  8
0
 10
7.1117
 20
0.4171
  0
VERTEX
  8
0
 10
7.0497
 20
0.4516
  0
VERTEX
  8
0
 10
6.9718
 20
0.5223
  0
VERTEX
  8
0
 10
6.9143
 20
0.6144
  0
VERTEX
  8
0
 10
6.8786
 20
0.7266
  0
VERTEX
  8
0
 10
6.8661
 20
0.8573
  0
VERTEX
  8
0
 10
6.8671
 20
0.9047
  0
VERTEX
  8
0
 10
6.8706
 20
0.9497
  0
VERTEX
  8
0
 10
6.8766
 20
0.9923
  0
VERTEX
  8
0
 10
6.8852
 20
1.0326
  0
VERTEX
  8
0
 10
6.8963
 20
1.0704
  0
VERTEX
  8
0
 10
6.9098
 20
1.1058
  0
VERTEX
  8
0
 10
6.926
 20
1.1388
  0
VERTEX
  8
0
 10
6.9446
 20
1.1694
  0
VERTEX
  8
0
 10
6.9658
 20
1.1977
  0
VERTEX
  8
0
 10
6.9895
 20
1.2235
  0
VERTEX
  8
0
 10
7.0157
 20
1.2469
  0
VERTEX
  8
0
 10
7.0444
 20
1.2679
  0
VERTEX
  8
0
 10
7.1058
 20
1.3002
  0
VERTEX
  8
0
 10
7.1722
 20
1.3196
  0
VERTEX
  8
0
 10
7.2437
 20
1.3261
  0
VERTEX
  8
0
 10
7.2873
 20
1.3236
  0
VERTEX
  8
0
 10
7.328
 20
1.3161
  0
VERTEX
  8
0
 10
7.366
 20
1.3036
  0
VERTEX
  8
0
 10
7.4012
 20
1.2861
  0
VERTEX
  8
0
 10
7.4336
 20
1.2636
  0
VERTEX
  8
0
 10
7.4633
 20
1.2361
  0
VERTEX
  8
0
 10
7.4901
 20
1.2036
  0
VERTEX
  8
0
 10
7.4901
 20
1.6461
  0
VERTEX
  8
0
 10
7.6421
 20
1.6461
  0
VERTEX
  8
0
 10
7.6421
 20
0.4061
  0
VERTEX
  8
0
 10
7.4981
 20
0.4061
  0
SEQEND
  0
POLYLINE
  8
0
 66
     1
 10
0
 20
0
  0
VERTEX
  8
0
 10
7.0221
 20
0.8576
  0
VERTEX
  8
0
 10
7.028
 20
0.7716
  0
VERTEX
  8
0
 10
7.0458
 20
0.6952
  0
VERTEX
  8
0
 10
7.0753
 20
0.6283
  0
VERTEX
  8
0
 10
7.0987
 20
0.5937
  0
VERTEX
  8
0
 10
7.1254
 20
0.5652
  0
VERTEX
  8
0
 10
7.1556
 20
0.5431
  0
VERTEX
  8
0
 10
7.1891
 20
0.5272
  0
VERTEX
  8
0
 10
7.2259
 20
0.5175
  0
VERTEX
  8
0
 10
7.2662
 20
0.5141
  0
VERTEX
  8
0
 10
7.3059
 20
0.5168
  0
VERTEX
  8
0
 10
7.3422
 20
0.5257
  0
VERTEX
  8
0
 10
7.3751
 20
0.5407
  0
VERTEX
  8
0
 10
7.4047
 20
0.5618
  0
VERTEX
  8
0
 10
7.4309
 20
0.5891
  0
VERTEX
  8
0
 10
7.4537
 20
0.6224
  0
VERTEX
  8
0
 10
7.4823
 20
0.687
  0
VERTEX
  8
0
 10
7.4995
 20
0.7612
  0
VERTEX
  8
0
 10
7.5052
 20
0.845
  0
VERTEX
  8
0
 10
7.4996
 20
0.9357
  0
VERTEX
  8
0
 10
7.483
 20
1.015
  0
VERTEX
  8
0
 10
7.4554
 20
1.0828
  0
VERTEX
  8
0
 10
7.4321
 20
1.1192
  0
VERTEX
  8
0
 10
7.4051
 20
1.1491
  0
VERTEX
  8
0
 10
7.3743
 20
1.1723
  0
VERTEX
  8
0
 10
7.3398
 20
1.1888
  0
VERTEX
  8
0
 10
7.3015
 20
1.1988
  0
VERTEX
  8
0
 10
7.2594
 20
1.2021
  0
VERTEX
  8
0
 10
7.2185
 20
1.1989
  0
VERTEX
  8
0
 10
7.1813
 20
1.1894
  0
VERTEX
  8
0
 10
7.1479
 20
1.1735
  0
VERTEX
  8
0
 10
7.1183
 20
1.1513
  0
VERTEX
  8
0
 10
7.0924
 20
1.1227
  0
VERTEX
  8
0
 10
7.0702
 20
1.0878
  0
VERTEX
  8
0
 10
7.0435
 20
1.0224
  0
VERTEX
  8
0
 10
7.0275
 20
0.9457
  0
VERTEX
  8
0
 10
7.0221
 20
0.8576
  0
VERTEX
  8
0
 10
7.0221
 20
0.8576
  0
SEQEND
  0
POLYLINE
  8
0
 66
     1
 10
0
 20
0
  0
VERTEX
  8
0
 10
7.8781
 20
1.4701
  0
VERTEX
  8
0
 10
7.8781
 20
1.6461
  0
VERTEX
  8
0
 10
8.0301
 20
1.6461
  0
VERTEX
  8
0
 10
8.0301
 20
1.4701
  0
VERTEX
  8
0
 10
7.8781
 20
1.4701
  0
SEQEND
  0
POLYLINE
  8
0
 66
     1
 10
0
 20
0
  0
VERTEX
  8
0
 10
7.8781
 20
0.4061
  0
VERTEX
  8
0
 10
7.8781
 20
1.3066
  0
VERTEX
  8
0
 10
8.0301
 20
1.3066
  0
VERTEX
  8
0
 10
8.0301
 20
0.4061
  0
VERTEX
  8
0
 10
7.8781
 20
0.4061
  0
SEQEND
  0
POLYLINE
  8
0
 66
     1
 10
0
 20
0
  0
VERTEX
  8
0
 10
8.8541
 20
0.4061
  0
VERTEX
  8
0
 10
8.8541
 20
0.5418
  0
VERTEX
  8
0
 10
8.8269
 20
0.5062
  0
VERTEX
  8
0
 10
8.7973
 20
0.4754
  0
VERTEX
  8
0
 10
8.7653
 20
0.4493
  0
VERTEX
  8
0
 10
8.7309
 20
0.428
  0
VERTEX
  8
0
 10
8.694
 20
0.4114
  0
VERTEX
  8
0
 10
8.6548
 20
0.3996
  0
VERTEX
  8
0
 10
8.6132
 20
0.3925
  0
VERTEX
  8
0
 10
8.5691
 20
0.3901
  0
VERTEX
  8
0
 10
8.4991
 20
0.3966
  0
VERTEX
  8
0
 10
8.4312
 20
0.4162
  0
VERTEX
  8
0
 10
8.3653
 20
0.4506
  0
VERTEX
  8
0
 10
8.3179
 20
0.4963
  0
VERTEX
  8
0
 10
8.2902
 20
0.5465
  0
VERTEX
  8
0
 10
8.2714
 20
0.6094
  0
VERTEX
  8
0
 10
8.2644
 20
0.6676
  0
VERTEX
  8
0
 10
8.2621
 20
0.7511
  0
VERTEX
  8
0
 10
8.2621
 20
1.3061
  0
VERTEX
  8
0
 10
8.4141
 20
1.3061
  0
VERTEX
  8
0
 10
8.4141
 20
0.8101
  0
VERTEX
  8
0
 10
8.4147
 20
0.7546
  0
VERTEX
  8
0
 10
8.4164
 20
0.7095
  0
VERTEX
  8
0
 10
8.4194
 20
0.6746
  0
VERTEX
  8
0
 10
8.4234
 20
0.6501
  0
VERTEX
  8
0
 10
8.4328
 20
0.6205
  0
VERTEX
  8
0
 10
8.4458
 20
0.5947
  0
VERTEX
  8
0
 10
8.4624
 20
0.5729
  0
VERTEX
  8
0
 10
8.4826
 20
0.5549
  0
VERTEX
  8
0
 10
8.5064
 20
0.5409
  0
VERTEX
  8
0
 10
8.5338
 20
0.5307
  0
VERTEX
  8
0
 10
8.5648
 20
0.5245
  0
VERTEX
  8
0
 10
8.5994
 20
0.5221
  0
VERTEX
  8
0
 10
8.6658
 20
0.5302
  0
VERTEX
  8
0
 10
8.7277
 20
0.5562
  0
VERTEX
  8
0
 10
8.7788
 20
0.5976
  0
VERTEX
  8
0
 10
8.8127
 20
0.6518
  0
VERTEX
  8
0
 10
8.8318
 20
0.7259
  0
VERTEX
  8
0
 10
8.8381
 20
0.8269
  0
VERTEX
  8
0
 10
8.8381
 20
1.3061
  0
VERTEX
  8
0
 10
8.9901
 20
1.3061
  0
VERTEX
  8
0
 10
8.9901
 20
0.4061
  0
VERTEX
  8
0
 10
8.8541
 20
0.4061
  0
SEQEND
  0
POLYLINE
  8
0
 66
     1
 10
0
 20
0
  0
VERTEX
  8
0
 10
9.1661
 20
0.6777
  0
VERTEX
  8
0
 10
9.3163
 20
0.7013
  0
VERTEX
  8
0
 10
9.3219
 20
0.6714
  0
VERTEX
  8
0
 10
9.33
 20
0.6441
  0
VERTEX
  8
0
 10
9.3406
 20
0.6194
  0
VERTEX
  8
0
 10
9.3537
 20
0.5973
  0
VERTEX
  8
0
 10
9.3693
 20
0.5778
  0
VERTEX
  8
0
 10
9.3874
 20
0.5609
  0
VERTEX
  8
0
 10
9.4079
 20
0.5466
  0
VERTEX
  8
0
 10
9.431
 20
0.5349
  0
VERTEX
  8
0
 10
9.4566
 20
0.5258
  0
VERTEX
  8
0
 10
9.4847
 20
0.5193
  0
VERTEX
  8
0
 10
9.5152
 20
0.5154
  0
VERTEX
  8
0
 10
9.5483
 20
0.5141
  0
VERTEX
  8
0
 10
9.6229
 20
0.5217
  0
VERTEX
  8
0
 10
9.6849
 20
0.5445
  0
VERTEX
  8
0
 10
9.7234
 20
0.5734
  0
VERTEX
  8
0
 10
9.7464
 20
0.6108
  0
VERTEX
  8
0
 10
9.7541
 20
0.6567
  0
VERTEX
  8
0
 10
9.7429
 20
0.7027
  0
VERTEX
  8
0
 10
9.7093
 20
0.7378
  0
VERTEX
  8
0
 10
9.6882
 20
0.7486
  0
VERTEX
  8
0
 10
9.6552
 20
0.7608
  0
VERTEX
  8
0
 10
9.6104
 20
0.7743
  0
VERTEX
  8
0
 10
9.5537
 20
0.7893
  0
VERTEX
  8
0
 10
9.5007
 20
0.8026
  0
VERTEX
  8
0
 10
9.456
 20
0.8144
  0
VERTEX
  8
0
 10
9.4197
 20
0.8245
  0
VERTEX
  8
0
 10
9.3916
 20
0.833
  0
VERTEX
  8
0
 10
9.3719
 20
0.8399
  0
VERTEX
  8
0
 10
9.3077
 20
0.8698
  0
VERTEX
  8
0
 10
9.2581
 20
0.9055
  0
VERTEX
  8
0
 10
9.2231
 20
0.9471
  0
VERTEX
  8
0
 10
9.1984
 20
1.0038
  0
VERTEX
  8
0
 10
9.1901
 20
1.0678
  0
VERTEX
  8
0
 10
9.1942
 20
1.1145
  0
VERTEX
  8
0
 10
9.2065
 20
1.1575
  0
VERTEX
  8
0
 10
9.227
 20
1.1966
  0
VERTEX
  8
0
 10
9.2556
 20
1.232
  0
VERTEX
  8
0
 10
9.2925
 20
1.2636
  0
VERTEX
  8
0
 10
9.3385
 20
1.2906
  0
VERTEX
  8
0
 10
9.3919
 20
1.31
  0
VERTEX
  8
0
 10
9.4527
 20
1.3219
  0
VERTEX
  8
0
 10
9.5209
 20
1.3261
  0
VERTEX
  8
0
 10
9.6188
 20
1.3189
  0
VERTEX
  8
0
 10
9.7061
 20
1.2958
  0
VERTEX
  8
0
 10
9.7756
 20
1.2596
  0
VERTEX
  8
0
 10
9.8253
 20
1.2116
  0
VERTEX
  8
0
 10
9.8564
 20
1.1531
  0
VERTEX
  8
0
 10
9.8769
 20
1.0753
  0
VERTEX
  8
0
 10
9.7272
 20
1.0551
  0
VERTEX
  8
0
 10
9.7212
 20
1.0829
  0
VERTEX
  8
0
 10
9.7122
 20
1.1077
  0
VERTEX
  8
0
 10
9.7001
 20
1.1297
  0
VERTEX
  8
0
 10
9.685
 20
1.1487
  0
VERTEX
  8
0
 10
9.6668
 20
1.1649
  0
VERTEX
  8
0
 10
9.6455
 20
1.1781
  0
VERTEX
  8
0
 10
9.6212
 20
1.1885
  0
VERTEX
  8
0
 10
9.5938
 20
1.1959
  0
VERTEX
  8
0
 10
9.5633
 20
1.2005
  0
VERTEX
  8
0
 10
9.5298
 20
1.2021
  0
VERTEX
  8
0
 10
9.4961
 20
1.2013
  0
VERTEX
  8
0
 10
9.4656
 20
1.1985
  0
VERTEX
  8
0
 10
9.4383
 20
1.1938
  0
VERTEX
  8
0
 10
9.4141
 20
1.1872
  0
VERTEX
  8
0
 10
9.3932
 20
1.1786
  0
VERTEX
  8
0
 10
9.3754
 20
1.1681
  0
VERTEX
  8
0
 10
9.3608
 20
1.1556
  0
VERTEX
  8
0
 10
9.3493
 20
1.1412
  0
VERTEX
  8
0
 10
9.3411
 20
1.1249
  0
VERTEX
  8
0
 10
9.336
 20
1.1067
  0
VERTEX
  8
0
 10
9.3341
 20
1.0865
  0
VERTEX
  8
0
 10
9.3384
 20
1.0591
  0
VERTEX
  8
0
 10
9.3528
 20
1.0328
  0
VERTEX
  8
0
 10
9.3772
 20
1.0099
  0
VERTEX
  8
0
 10
9.4114
 20
0.9928
  0
VERTEX
  8
0
 10
9.4228
 20
0.9888
  0
VERTEX
  8
0
 10
9.442
 20
0.9829
  0
VERTEX
  8
0
 10
9.469
 20
0.9751
  0
VERTEX
  8
0
 10
9.5038
 20
0.9655
  0
VERTEX
  8
0
 10
9.5465
 20
0.9539
  0
VERTEX
  8
0
 10
9.608
 20
0.9368
  0
VERTEX
  8
0
 10
9.6614
 20
0.9211
  0
VERTEX
  8
0
 10
9.7066
 20
0.9069
  0
VERTEX
  8
0
 10
9.7436
 20
0.8942
  0
VERTEX
  8
0
 10
9.7725
 20
0.883
  0
VERTEX
  8
0
 10
9.8046
 20
0.8672
  0
VERTEX
  8
0
 10
9.8324
 20
0.8484
  0
VERTEX
  8
0
 10
9.8559
 20
0.8267
  0
VERTEX
  8
0
 10
9.8753
 20
0.802
  0
VERTEX
  8
0
 10
9.8903
 20
0.7744
  0
VERTEX
  8
0
 10
9.9012
 20
0.7438
  0
VERTEX
  8
0
 10
9.9078
 20
0.7102
  0
VERTEX
  8
0
 10
9.9101
 20
0.6737
  0
VERTEX
  8
0
 10
9.8994
 20
0.6003
  0
VERTEX
  8
0
 10
9.8654
 20
0.5302
  0
VERTEX
  8
0
 10
9.8434
 20
0.501
  0
VERTEX
  8
0
 10
9.818
 20
0.4752
  0
VERTEX
  8
0
 10
9.7894
 20
0.4527
  0
VERTEX
  8
0
 10
9.7575
 20
0.4338
  0
VERTEX
  8
0
 10
9.7224
 20
0.4182
  0
VERTEX
  8
0
 10
9.684
 20
0.406
  0
VERTEX
  8
0
 10
9.6423
 20
0.3973
  0
VERTEX
  8
0
 10
9.5973
 20
0.392
  0
VERTEX
  8
0
 10
9.5491
 20
0.3901
  0
VERTEX
  8
0
 10
9.5166
 20
0.3906
  0
VERTEX
  8
0
 10
9.4856
 20
0.3927
  0
VERTEX
  8
0
 10
9.4559
 20
0.3961
  0
VERTEX
  8
0
 10
9.4277
 20
0.401
  0
VERTEX
  8
0
 10
9.4008
 20
0.4074
  0
VERTEX
  8
0
 10
9.3754
 20
0.4153
  0
VERTEX
  8
0
 10
9.3513
 20
0.4245
  0
VERTEX
  8
0
 10
9.3287
 20
0.4353
  0
VERTEX
  8
0
 10
9.3074
 20
0.4475
  0
VERTEX
  8
0
 10
9.2876
 20
0.4611
  0
VERTEX
  8
0
 10
9.2691
 20
0.4763
  0
VERTEX
  8
0
 10
9.2521
 20
0.4928
  0
VERTEX
  8
0
 10
9.2364
 20
0.5108
  0
VERTEX
  8
0
 10
9.2222
 20
0.5303
  0
VERTEX
  8
0
 10
9.2093
 20
0.5512
  0
VERTEX
  8
0
 10
9.1979
 20
0.5736
  0
VERTEX
  8
0
 10
9.1878
 20
0.5975
  0
VERTEX
  8
0
 10
9.1792
 20
0.6228
  0
VERTEX
  8
0
 10
9.172
 20
0.6495
  0
VERTEX
  8
0
 10
9.1661
 20
0.6777
  0
VERTEX
  8
0
 10
9.1661
 20
0.6777
  0
SEQEND
  0
POLYLINE
  8
0
 66
     1
 10
0
 20
0
  0
VERTEX
  8
0
 10
10.1381
 20
0.4061
  0
VERTEX
  8
0
 10
10.1381
 20
0.5821
  0
VERTEX
  8
0
 10
10.3101
 20
0.5821
  0
VERTEX
  8
0
 10
10.3101
 20
0.4098
  0
VERTEX
  8
0
 10
10.3084
 20
0.3709
  0
VERTEX
  8
0
 10
10.3031
 20
0.335
  0
VERTEX
  8
0
 10
10.2944
 20
0.302
  0
VERTEX
  8
0
 10
10.2821
 20
0.272
  0
VERTEX
  8
0
 10
10.2664
 20
0.2449
  0
VERTEX
  8
0
 10
10.2472
 20
0.2208
  0
VERTEX
  8
0
 10
10.2244
 20
0.1996
  0
VERTEX
  8
0
 10
10.1982
 20
0.1814
  0
VERTEX
  8
0
 10
10.1685
 20
0.1661
  0
VERTEX
  8
0
 10
10.1261
 20
0.2298
  0
VERTEX
  8
0
 10
10.1543
 20
0.2453
  0
VERTEX
  8
0
 10
10.1777
 20
0.2663
  0
VERTEX
  8
0
 10
10.1962
 20
0.2929
  0
VERTEX
  8
0
 10
10.2098
 20
0.3251
  0
VERTEX
  8
0
 10
10.2185
 20
0.3628
  0
VERTEX
  8
0
 10
10.2224
 20
0.4061
  0
VERTEX
  8
0
 10
10.1381
 20
0.4061
  0
SEQEND
  0
POLYLINE
  8
0
 66
     1
 10
0
 20
0
  0
VERTEX
  8
0
 10
11.3421
 20
1.0216
  0
VERTEX
  8
0
 10
11.3428
 20
1.0722
  0
VERTEX
  8
0
 10
11.3449
 20
1.1207
  0
VERTEX
  8
0
 10
11.3484
 20
1.1671
  0
VERTEX
  8
0
 10
11.3533
 20
1.2115
  0
VERTEX
  8
0
 10
11.3596
 20
1.2537
  0
VERTEX
  8
0
 10
11.3673
 20
1.2939
  0
VERTEX
  8
0
 10
11.3764
 20
1.332
  0
VERTEX
  8
0
 10
11.3869
 20
1.368
  0
VERTEX
  8
0
 10
11.3988
 20
1.402
  0
VERTEX
  8
0
 10
11.4121
 20
1.4339
  0
VERTEX
  8
0
 10
11.4268
 20
1.4637
  0
VERTEX
  8
0
 10
11.4429
 20
1.4914
  0
VERTEX
  8
0
 10
11.4604
 20
1.517
  0
VERTEX
  8
0
 10
11.4793
 20
1.5406
  0
VERTEX
  8
0
 10
11.4996
 20
1.5621
  0
VERTEX
  8
0
 10
11.5213
 20
1.5815
  0
VERTEX
  8
0
 10
11.5683
 20
1.6129
  0
VERTEX
  8
0
 10
11.6214
 20
1.6355
  0
VERTEX
  8
0
 10
11.6807
 20
1.6492
  0
VERTEX
  8
0
 10
11.7461
 20
1.6541
  0
VERTEX
  8
0
 10
11.8384
 20
1.6444
  0
VERTEX
  8
0
 10
11.9211
 20
1.6136
  0
VERTEX
  8
0
 10
11.9553
 20
1.5925
  0
VERTEX
  8
0
 10
11.9869
 20
1.5667
  0
VERTEX
  8
0
 10
12.0159
 20
1.5362
  0
VERTEX
  8
0
 10
12.0423
 20
1.5011
  0
VERTEX
  8
0
 10
12.0662
 20
1.4612
  0
VERTEX
  8
0
 10
12.0875
 20
1.4168
  0
VERTEX
  8
0
 10
12.1061
 20
1.3676
  0
VERTEX
  8
0
 10
12.1222
 20
1.3138
  0
VERTEX
  8
0
 10
12.1344
 20
1.2557
  0
VERTEX
  8
0
 10
12.1431
 20
1.1876
  0
VERTEX
  8
0
 10
12.1484
 20
1.1096
  0
VERTEX
  8
0
 10
12.1501
 20
1.0216
  0
VERTEX
  8
0
 10
12.1493
 20
0.9679
  0
VERTEX
  8
0
 10
12.1469
 20
0.9165
  0
VERTEX
  8
0
 10
12.1429
 20
0.8674
  0
VERTEX
  8
0
 10
12.1374
 20
0.8208
  0
VERTEX
  8
0
 10
12.1302
 20
0.7764
  0
VERTEX
  8
0
 10
12.1214
 20
0.7345
  0
VERTEX
  8
0
 10
12.1111
 20
0.6948
  0
VERTEX
  8
0
 10
12.0991
 20
0.6576
  0
VERTEX
  8
0
 10
12.0856
 20
0.6227
  0
VERTEX
  8
0
 10
12.0705
 20
0.5901
  0
VERTEX
  8
0
 10
12.0538
 20
0.5599
  0
VERTEX
  8
0
 10
12.0354
 20
0.5321
  0
VERTEX
  8
0
 10
12.0155
 20
0.5066
  0
VERTEX
  8
0
 10
11.994
 20
0.4835
  0
VERTEX
  8
0
 10
11.9709
 20
0.4627
  0
VERTEX
  8
0
 10
11.9239
 20
0.4313
  0
VERTEX
  8
0
 10
11.8708
 20
0.4087
  0
VERTEX
  8
0
 10
11.8115
 20
0.3949
  0
VERTEX
  8
0
 10
11.7461
 20
0.3901
  0
VERTEX
  8
0
 10
11.7246
 20
0.3905
  0
VERTEX
  8
0
 10
11.7037
 20
0.3918
  0
VERTEX
  8
0
 10
11.6834
 20
0.394
  0
VERTEX
  8
0
 10
11.6637
 20
0.3971
  0
VERTEX
  8
0
 10
11.6445
 20
0.4012
  0
VERTEX
  8
0
 10
11.6259
 20
0.4062
  0
VERTEX
  8
0
 10
11.608
 20
0.4122
  0
VERTEX
  8
0
 10
11.5906
 20
0.419
  0
VERTEX
  8
0
 10
11.5738
 20
0.4268
  0
VERTEX
  8
0
 10
11.5576
 20
0.4356
  0
VERTEX
  8
0
 10
11.542
 20
0.4452
  0
VERTEX
  8
0
 10
11.5269
 20
0.4558
  0
VERTEX
  8
0
 10
11.5125
 20
0.4673
  0
VERTEX
  8
0
 10
11.4986
 20
0.4797
  0
VERTEX
  8
0
 10
11.4854
 20
0.4931
  0
VERTEX
  8
0
 10
11.4727
 20
0.5074
  0
VERTEX
  8
0
 10
11.4606
 20
0.5226
  0
VERTEX
  8
0
 10
11.4491
 20
0.5387
  0
VERTEX
  8
0
 10
11.4382
 20
0.5558
  0
VERTEX
  8
0
 10
11.4278
 20
0.5738
  0
VERTEX
  8
0
 10
11.4181
 20
0.5927
  0
VERTEX
  8
0
 10
11.4089
 20
0.6126
  0
VERTEX
  8
0
 10
11.4004
 20
0.6333
  0
VERTEX
  8
0
 10
11.3924
 20
0.655
  0
VERTEX
  8
0
 10
11.385
 20
0.6777
  0
VERTEX
  8
0
 10
11.3782
 20
0.7012
  0
VERTEX
  8
0
 10
11.372
 20
0.7257
  0
VERTEX
  8
0
 10
11.3663
 20
0.7511
  0
VERTEX
  8
0
 10
11.3613
 20
0.7775
  0
VERTEX
  8
0
 10
11.3568
 20
0.8048
  0
VERTEX
  8
0
 10
11.353
 20
0.833
  0
VERTEX
  8
0
 10
11.3497
 20
0.8621
  0
VERTEX
  8
0
 10
11.347
 20
0.8921
  0
VERTEX
  8
0
 10
11.3449
 20
0.9231
  0
VERTEX
  8
0
 10
11.3434
 20
0.955
  0
VERTEX
  8
0
 10
11.3425
 20
0.9879
  0
VERTEX
  8
0
 10
11.3421
 20
1.0216
  0
VERTEX
  8
0
 10
11.3421
 20
1.0216
  0
SEQEND
  0
POLYLINE
  8
0
 66
     1
 10
0
 20
0
  0
VERTEX
  8
0
 10
11.4981
 20
1.0221
  0
VERTEX
  8
0
 10
11.4994
 20
0.943
  0
VERTEX
  8
0
 10
11.5034
 20
0.8719
  0
VERTEX
  8
0
 10
11.51
 20
0.8085
  0
VERTEX
  8
0
 10
11.5192
 20
0.7531
  0
VERTEX
  8
0
 10
11.5311
 20
0.7055
  0
VERTEX
  8
0
 10
11.5435
 20
0.6693
  0
VERTEX
  8
0
 10
11.5579
 20
0.6368
  0
VERTEX
  8
0
 10
11.5743
 20
0.6082
  0
VERTEX
  8
0
 10
11.5928
 20
0.5834
  0
VERTEX
  8
0
 10
11.6132
 20
0.5624
  0
VERTEX
  8
0
 10
11.6358
 20
0.5451
  0
VERTEX
  8
0
 10
11.6603
 20
0.5317
  0
VERTEX
  8
0
 10
11.6869
 20
0.522
  0
VERTEX
  8
0
 10
11.7155
 20
0.5162
  0
VERTEX
  8
0
 10
11.7461
 20
0.5141
  0
VERTEX
  8
0
 10
11.7635
 20
0.5146
  0
VERTEX
  8
0
 10
11.7803
 20
0.5165
  0
VERTEX
  8
0
 10
11.7964
 20
0.5196
  0
VERTEX
  8
0
 10
11.8119
 20
0.524
  0
VERTEX
  8
0
 10
11.8268
 20
0.5298
  0
VERTEX
  8
0
 10
11.841
 20
0.5368
  0
VERTEX
  8
0
 10
11.8546
 20
0.5452
  0
VERTEX
  8
0
 10
11.8676
 20
0.5549
  0
VERTEX
  8
0
 10
11.8799
 20
0.5658
  0
VERTEX
  8
0
 10
11.8916
 20
0.5781
  0
VERTEX
  8
0
 10
11.9027
 20
0.5917
  0
VERTEX
  8
0
 10
11.9131
 20
0.6066
  0
VERTEX
  8
0
 10
11.9229
 20
0.6227
  0
VERTEX
  8
0
 10
11.9321
 20
0.6402
  0
VERTEX
  8
0
 10
11.9407
 20
0.659
  0
VERTEX
  8
0
 10
11.9486
 20
0.6791
  0
VERTEX
  8
0
 10
11.9558
 20
0.7005
  0
VERTEX
  8
0
 10
11.9625
 20
0.7232
  0
VERTEX
  8
0
 10
11.9685
 20
0.7473
  0
VERTEX
  8
0
 10
11.9739
 20
0.7726
  0
VERTEX
  8
0
 10
11.9786
 20
0.7992
  0
VERTEX
  8
0
 10
11.9827
 20
0.8271
  0
VERTEX
  8
0
 10
11.9862
 20
0.8564
  0
VERTEX
  8
0
 10
11.9891
 20
0.8869
  0
VERTEX
  8
0
 10
11.9913
 20
0.9187
  0
VERTEX
  8
0
 10
11.9928
 20
0.9519
  0
VERTEX
  8
0
 10
11.9938
 20
0.9863
  0
VERTEX
  8
0
 10
11.9941
 20
1.0221
  0
VERTEX
  8
0
 10
11.9928
 20
1.1011
  0
VERTEX
  8
0
 10
11.9888
 20
1.1723
  0
VERTEX
  8
0
 10
11.9822
 20
1.2356
  0
VERTEX
  8
0
 10
11.973
 20
1.2911
  0
VERTEX
  8
0
 10
11.9611
 20
1.3387
  0
VERTEX
  8
0
 10
11.9486
 20
1.3749
  0
VERTEX
  8
0
 10
11.934
 20
1.4073
  0
VERTEX
  8
0
 10
11.9174
 20
1.4359
  0
VERTEX
  8
0
 10
11.8988
 20
1.4608
  0
VERTEX
  8
0
 10
11.8782
 20
1.4818
  0
VERTEX
  8
0
 10
11.8555
 20
1.499
  0
VERTEX
  8
0
 10
11.8308
 20
1.5125
  0
VERTEX
  8
0
 10
11.804
 20
1.5221
  0
VERTEX
  8
0
 10
11.7752
 20
1.528
  0
VERTEX
  8
0
 10
11.7444
 20
1.5301
  0
VERTEX
  8
0
 10
11.6946
 20
1.5249
  0
VERTEX
  8
0
 10
11.6501
 20
1.5083
  0
VERTEX
  8
0
 10
11.6108
 20
1.4804
  0
VERTEX
  8
0
 10
11.5768
 20
1.4412
  0
VERTEX
  8
0
 10
11.5619
 20
1.4169
  0
VERTEX
  8
0
 10
11.5485
 20
1.3887
  0
VERTEX
  8
0
 10
11.5367
 20
1.3565
  0
VERTEX
  8
0
 10
11.5264
 20
1.3205
  0
VERTEX
  8
0
 10
11.5178
 20
1.2805
  0
VERTEX
  8
0
 10
11.5107
 20
1.2367
  0
VERTEX
  8
0
 10
11.5052
 20
1.1889
  0
VERTEX
  8
0
 10
11.5013
 20
1.1372
  0
VERTEX
  8
0
 10
11.4989
 20
1.0816
  0
VERTEX
  8
0
 10
11.4981
 20
1.0221
  0
VERTEX
  8
0
 10
11.4981
 20
1.0221
  0
SEQEND
  0
POLYLINE
  8
0
 66
     1
 10
0
 20
0
  0
VERTEX
  8
0
 10
12.3821
 20
0.4061
  0
VERTEX
  8
0
 10
12.3821
 20
0.5821
  0
VERTEX
  8
0
 10
12.5541
 20
0.5821
  0
VERTEX
  8
0
 10
12.5541
 20
0.4061
  0
VERTEX
  8
0
 10
12.3821
 20
0.4061
  0
SEQEND
  0
POLYLINE
  8
0
 66
     1
 10
0
 20
0
  0
VERTEX
  8
0
 10
12.7901
 20
1.4821
  0
VERTEX
  8
0
 10
12.7901
 20
1.6301
  0
VERTEX
  8
0
 10
13.5913
 20
1.6301
  0
VERTEX
  8
0
 10
13.5913
 20
1.5116
  0
VERTEX
  8
0
 10
13.5323
 20
1.4435
  0
VERTEX
  8
0
 10
13.4735
 20
1.3649
  0
VERTEX
  8
0
 10
13.415
 20
1.276
  0
VERTEX
  8
0
 10
13.3566
 20
1.1767
  0
VERTEX
  8
0
 10
13.2557
 20
0.969
  0
VERTEX
  8
0
 10
13.1776
 20
0.747
  0
VERTEX
  8
0
 10
13.1403
 20
0.5835
  0
VERTEX
  8
0
 10
13.1194
 20
0.4061
  0
VERTEX
  8
0
 10
12.9632
 20
0.4061
  0
VERTEX
  8
0
 10
12.9721
 20
0.5264
  0
VERTEX
  8
0
 10
12.9943
 20
0.6553
  0
VERTEX
  8
0
 10
13.0299
 20
0.7929
  0
VERTEX
  8
0
 10
13.0955
 20
0.9821
  0
VERTEX
  8
0
 10
13.1776
 20
1.1578
  0
VERTEX
  8
0
 10
13.2477
 20
1.2797
  0
VERTEX
  8
0
 10
13.3206
 20
1.3879
  0
VERTEX
  8
0
 10
13.3963
 20
1.4821
  0
VERTEX
  8
0
 10
12.7901
 20
1.4821
  0
SEQEND
  0
POLYLINE
  8
0
 66
     1
 10
0
 20
0
  0
VERTEX
  8
0
 10
13.7421
 20
0.7343
  0
VERTEX
  8
0
 10
13.9018
 20
0.7478
  0
VERTEX
  8
0
 10
13.9077
 20
0.7156
  0
VERTEX
  8
0
 10
13.9154
 20
0.6858
  0
VERTEX
  8
0
 10
13.9247
 20
0.6583
  0
VERTEX
  8
0
 10
13.9357
 20
0.6333
  0
VERTEX
  8
0
 10
13.9485
 20
0.6107
  0
VERTEX
  8
0
 10
13.963
 20
0.5904
  0
VERTEX
  8
0
 10
13.9791
 20
0.5725
  0
VERTEX
  8
0
 10
13.997
 20
0.557
  0
VERTEX
  8
0
 10
14.0166
 20
0.5439
  0
VERTEX
  8
0
 10
14.0379
 20
0.5332
  0
VERTEX
  8
0
 10
14.0609
 20
0.5248
  0
VERTEX
  8
0
 10
14.0856
 20
0.5189
  0
VERTEX
  8
0
 10
14.112
 20
0.5153
  0
VERTEX
  8
0
 10
14.1401
 20
0.5141
  0
VERTEX
  8
0
 10
14.1868
 20
0.5178
  0
VERTEX
  8
0
 10
14.2296
 20
0.5289
  0
VERTEX
  8
0
 10
14.2685
 20
0.5474
  0
VERTEX
  8
0
 10
14.3035
 20
0.5732
  0
VERTEX
  8
0
 10
14.3345
 20
0.6065
  0
VERTEX
  8
0
 10
14.3721
 20
0.667
  0
VERTEX
  8
0
 10
14.3946
 20
0.7365
  0
VERTEX
  8
0
 10
14.4021
 20
0.815
  0
VERTEX
  8
0
 10
14.3977
 20
0.8742
  0
VERTEX
  8
0
 10
14.3846
 20
0.9275
  0
VERTEX
  8
0
 10
14.3627
 20
0.9749
  0
VERTEX
  8
0
 10
14.332
 20
1.0163
  0
VERTEX
  8
0
 10
14.2935
 20
1.05
  0
VERTEX
  8
0
 10
14.2483
 20
1.0742
  0
VERTEX
  8
0
 10
14.1963
 20
1.0889
  0
VERTEX
  8
0
 10
14.1376
 20
1.0941
  0
VERTEX
  8
0
 10
14.091
 20
1.0911
  0
VERTEX
  8
0
 10
14.0479
 20
1.0814
  0
VERTEX
  8
0
 10
14.0085
 20
1.0651
  0
VERTEX
  8
0
 10
13.9727
 20
1.0422
  0
VERTEX
  8
0
 10
13.9405
 20
1.0127
  0
VERTEX
  8
0
 10
13.9119
 20
0.9765
  0
VERTEX
  8
0
 10
13.7691
 20
0.9951
  0
VERTEX
  8
0
 10
13.889
 20
1.6301
  0
VERTEX
  8
0
 10
14.5044
 20
1.6301
  0
VERTEX
  8
0
 10
14.5044
 20
1.4861
  0
VERTEX
  8
0
 10
14.0125
 20
1.4861
  0
VERTEX
  8
0
 10
13.9454
 20
1.1526
  0
VERTEX
  8
0
 10
14.0207
 20
1.1953
  0
VERTEX
  8
0
 10
14.0984
 20
1.2211
  0
VERTEX
  8
0
 10
14.1785
 20
1.2301
  0
VERTEX
  8
0
 10
14.2329
 20
1.2271
  0
VERTEX
  8
0
 10
14.2841
 20
1.2176
  0
VERTEX
  8
0
 10
14.332
 20
1.2015
  0
VERTEX
  8
0
 10
14.3767
 20
1.1788
  0
VERTEX
  8
0
 10
14.418
 20
1.1496
  0
VERTEX
  8
0
 10
14.4561
 20
1.1138
  0
VERTEX
  8
0
 10
14.4885
 20
1.0743
  0
VERTEX
  8
0
 10
14.515
 20
1.0317
  0
VERTEX
  8
0
 10
14.5356
 20
0.986
  0
VERTEX
  8
0
 10
14.5503
 20
0.9371
  0
VERTEX
  8
0
 10
14.5592
 20
0.8851
  0
VERTEX
  8
0
 10
14.5621
 20
0.8299
  0
VERTEX
  8
0
 10
14.5582
 20
0.7649
  0
VERTEX
  8
0
 10
14.5465
 20
0.7035
  0
VERTEX
  8
0
 10
14.5269
 20
0.6455
  0
VERTEX
  8
0
 10
14.4995
 20
0.591
  0
VERTEX
  8
0
 10
14.4642
 20
0.5401
  0
VERTEX
  8
0
 10
14.4331
 20
0.5051
  0
VERTEX
  8
0
 10
14.3993
 20
0.4748
  0
VERTEX
  8
0
 10
14.3628
 20
0.4491
  0
VERTEX
  8
0
 10
14.3236
 20
0.428
  0
VERTEX
  8
0
 10
14.2816
 20
0.4116
  0
VERTEX
  8
0
 10
14.237
 20
0.3998
  0
VERTEX
  8
0
 10
14.1896
 20
0.3926
  0
VERTEX
  8
0
 10
14.1395
 20
0.3901
  0
VERTEX
  8
0
 10
14.076
 20
0.3937
  0
VERTEX
  8
0
 10
14.017
 20
0.4045
  0
VERTEX
  8
0
 10
13.9627
 20
0.4225
  0
VERTEX
  8
0
 10
13.9129
 20
0.4477
  0
VERTEX
  8
0
 10
13.8678
 20
0.4801
  0
VERTEX
  8
0
 10
13.8277
 20
0.5199
  0
VERTEX
  8
0
 10
13.795
 20
0.5652
  0
VERTEX
  8
0
 10
13.7699
 20
0.6161
  0
VERTEX
  8
0
 10
13.7523
 20
0.6724
  0
VERTEX
  8
0
 10
13.7421
 20
0.7343
  0
VERTEX
  8
0
 10
13.7421
 20
0.7343
  0
SEQEND
  0
POLYLINE
  8
0
 66
     1
 10
0
 20
0
  0
VERTEX
  8
0
 10
14.7561
 20
1.2101
  0
VERTEX
  8
0
 10
14.7141
 20
1.4445
  0
VERTEX
  8
0
 10
14.7141
 20
1.6461
  0
VERTEX
  8
0
 10
14.8861
 20
1.6461
  0
VERTEX
  8
0
 10
14.8861
 20
1.4445
  0
VERTEX
  8
0
 10
14.8484
 20
1.2101
  0
VERTEX
  8
0
 10
14.7561
 20
1.2101
  0
SEQEND
  0
POLYLINE
  8
0
 66
     1
 10
0
 20
0
  0
VERTEX
  8
0
 10
15.0352
 20
1.2101
  0
VERTEX
  8
0
 10
14.9941
 20
1.4445
  0
VERTEX
  8
0
 10
14.9941
 20
1.6461
  0
VERTEX
  8
0
 10
15.1661
 20
1.6461
  0
VERTEX
  8
0
 10
15.1661
 20
1.4445
  0
VERTEX
  8
0
 10
15.1259
 20
1.2101
  0
VERTEX
  8
0
 10
15.0352
 20
1.2101
  0
SEQEND
  0
POLYLINE
  8
0
 66
     1
 10
0
 20
0
  0
VERTEX
  8
0
 10
16.1781
 20
0.4061
  0
VERTEX
  8
0
 10
16.1781
 20
1.6461
  0
VERTEX
  8
0
 10
16.6432
 20
1.6461
  0
VERTEX
  8
0
 10
16.7304
 20
1.6419
  0
VERTEX
  8
0
 10
16.8063
 20
1.6292
  0
VERTEX
  8
0
 10
16.8706
 20
1.608
  0
VERTEX
  8
0
 10
16.9447
 20
1.5622
  0
VERTEX
  8
0
 10
17.003
 20
1.4956
  0
VERTEX
  8
0
 10
17.0409
 20
1.4154
  0
VERTEX
  8
0
 10
17.0541
 20
1.3289
  0
VERTEX
  8
0
 10
17.0523
 20
1.2912
  0
VERTEX
  8
0
 10
17.0461
 20
1.2557
  0
VERTEX
  8
0
 10
17.0355
 20
1.2222
  0
VERTEX
  8
0
 10
17.0205
 20
1.1909
  0
VERTEX
  8
0
 10
17.0011
 20
1.1617
  0
VERTEX
  8
0
 10
16.9773
 20
1.1345
  0
VERTEX
  8
0
 10
16.9492
 20
1.1095
  0
VERTEX
  8
0
 10
16.9166
 20
1.0866
  0
VERTEX
  8
0
 10
16.8797
 20
1.0658
  0
VERTEX
  8
0
 10
16.9473
 20
1.0394
  0
VERTEX
  8
0
 10
17.0043
 20
1.0031
  0
VERTEX
  8
0
 10
17.0504
 20
0.9567
  0
VERTEX
  8
0
 10
17.0858
 20
0.9001
  0
VERTEX
  8
0
 10
17.107
 20
0.8364
  0
VERTEX
  8
0
 10
17.1141
 20
0.7656
  0
VERTEX
  8
0
 10
17.1059
 20
0.6876
  0
VERTEX
  8
0
 10
17.0811
 20
0.6125
  0
VERTEX
  8
0
 10
17.0401
 20
0.5421
  0
VERTEX
  8
0
 10
16.9864
 20
0.4881
  0
VERTEX
  8
0
 10
16.9531
 20
0.4664
  0
VERTEX
  8
0
 10
16.9149
 20
0.448
  0
VERTEX
  8
0
 10
16.8718
 20
0.4329
  0
VERTEX
  8
0
 10
16.8238
 20
0.4212
  0
VERTEX
  8
0
 10
16.771
 20
0.4128
  0
VERTEX
  8
0
 10
16.7133
 20
0.4078
  0
VERTEX
  8
0
 10
16.6507
 20
0.4061
  0
VERTEX
  8
0
 10
16.1781
 20
0.4061
  0
SEQEND
  0
POLYLINE
  8
0
 66
     1
 10
0
 20
0
  0
VERTEX
  8
0
 10
16.3421
 20
1.1261
  0
VERTEX
  8
0
 10
16.6109
 20
1.1261
  0
VERTEX
  8
0
 10
16.6766
 20
1.1277
  0
VERTEX
  8
0
 10
16.7289
 20
1.1324
  0
VERTEX
  8
0
 10
16.7678
 20
1.1403
  0
VERTEX
  8
0
 10
16.8009
 20
1.1528
  0
VERTEX
  8
0
 10
16.829
 20
1.1692
  0
VERTEX
  8
0
 10
16.852
 20
1.1895
  0
VERTEX
  8
0
 10
16.8701
 20
1.2136
  0
VERTEX
  8
0
 10
16.8831
 20
1.2416
  0
VERTEX
  8
0
 10
16.8911
 20
1.2734
  0
VERTEX
  8
0
 10
16.8941
 20
1.3091
  0
VERTEX
  8
0
 10
16.8922
 20
1.3455
  0
VERTEX
  8
0
 10
16.8855
 20
1.378
  0
VERTEX
  8
0
 10
16.8739
 20
1.4064
  0
VERTEX
  8
0
 10
16.8576
 20
1.4309
  0
VERTEX
  8
0
 10
16.8364
 20
1.4514
  0
VERTEX
  8
0
 10
16.8104
 20
1.4679
  0
VERTEX
  8
0
 10
16.7796
 20
1.4805
  0
VERTEX
  8
0
 10
16.7471
 20
1.4882
  0
VERTEX
  8
0
 10
16.7048
 20
1.4937
  0
VERTEX
  8
0
 10
16.6526
 20
1.497
  0
VERTEX
  8
0
 10
16.5906
 20
1.4981
  0
VERTEX
  8
0
 10
16.3421
 20
1.4981
  0
VERTEX
  8
0
 10
16.3421
 20
1.1261
  0
SEQEND
  0
POLYLINE
  8
0
 66
     1
 10
0
 20
0
  0
VERTEX
  8
0
 10
16.3421
 20
0.5541
  0
VERTEX
  8
0
 10
16.6517
 20
0.5541
  0
VERTEX
  8
0
 10
16.7196
 20
0.5556
  0
VERTEX
  8
0
 10
16.7637
 20
0.56
  0
VERTEX
  8
0
 10
16.8162
 20
0.5742
  0
VERTEX
  8
0
 10
16.86
 20
0.5959
  0
VERTEX
  8
0
 10
16.8951
 20
0.6251
  0
VERTEX
  8
0
 10
16.9215
 20
0.6618
  0
VERTEX
  8
0
 10
16.9395
 20
0.7097
  0
VERTEX
  8
0
 10
16.9461
 20
0.7661
  0
VERTEX
  8
0
 10
16.9444
 20
0.8009
  0
VERTEX
  8
0
 10
16.9383
 20
0.8326
  0
VERTEX
  8
0
 10
16.9279
 20
0.8612
  0
VERTEX
  8
0
 10
16.9132
 20
0.8866
  0
VERTEX
  8
0
 10
16.8942
 20
0.9089
  0
VERTEX
  8
0
 10
16.8709
 20
0.9281
  0
VERTEX
  8
0
 10
16.8432
 20
0.9441
  0
VERTEX
  8
0
 10
16.8112
 20
0.957
  0
VERTEX
  8
0
 10
16.734
 20
0.9728
  0
VERTEX
  8
0
 10
16.6297
 20
0.9781
  0
VERTEX
  8
0
 10
16.3421
 20
0.9781
  0
VERTEX
  8
0
 10
16.3421
 20
0.5541
  0
SEQEND
  0
POLYLINE
  8
0
 66
     1
 10
0
 20
0
  0
VERTEX
  8
0
 10
17.2661
 20
0.8581
  0
VERTEX
  8
0
 10
17.2678
 20
0.9118
  0
VERTEX
  8
0
 10
17.2729
 20
0.9623
  0
VERTEX
  8
0
 10
17.2815
 20
1.0096
  0
VERTEX
  8
0
 10
17.2935
 20
1.0537
  0
VERTEX
  8
0
 10
17.3088
 20
1.0947
  0
VERTEX
  8
0
 10
17.3276
 20
1.1324
  0
VERTEX
  8
0
 10
17.3499
 20
1.167
  0
VERTEX
  8
0
 10
17.3755
 20
1.1984
  0
VERTEX
  8
0
 10
17.4046
 20
1.2266
  0
VERTEX
  8
0
 10
17.4526
 20
1.2624
  0
VERTEX
  8
0
 10
17.5048
 20
1.2903
  0
VERTEX
  8
0
 10
17.5612
 20
1.3102
  0
VERTEX
  8
0
 10
17.6218
 20
1.3221
  0
VERTEX
  8
0
 10
17.6866
 20
1.3261
  0
VERTEX
  8
0
 10
17.7413
 20
1.3234
  0
VERTEX
  8
0
 10
17.7926
 20
1.3154
  0
VERTEX
  8
0
 10
17.8405
 20
1.3021
  0
VERTEX
  8
0
 10
17.885
 20
1.2834
  0
VERTEX
  8
0
 10
17.9261
 20
1.2594
  0
VERTEX
  8
0
 10
17.9638
 20
1.2301
  0
VERTEX
  8
0
 10
17.9981
 20
1.1954
  0
VERTEX
  8
0
 10
18.0311
 20
1.1517
  0
VERTEX
  8
0
 10
18.0581
 20
1.1038
  0
VERTEX
  8
0
 10
18.0791
 20
1.0518
  0
VERTEX
  8
0
 10
18.0941
 20
0.9956
  0
VERTEX
  8
0
 10
18.1031
 20
0.9352
  0
VERTEX
  8
0
 10
18.1061
 20
0.8707
  0
VERTEX
  8
0
 10
18.1051
 20
0.8269
  0
VERTEX
  8
0
 10
18.102
 20
0.7852
  0
VERTEX
  8
0
 10
18.0968
 20
0.7455
  0
VERTEX
  8
0
 10
18.0895
 20
0.7079
  0
VERTEX
  8
0
 10
18.0802
 20
0.6724
  0
VERTEX
  8
0
 10
18.0687
 20
0.6389
  0
VERTEX
  8
0
 10
18.0553
 20
0.6074
  0
VERTEX
  8
0
 10
18.0397
 20
0.578
  0
VERTEX
  8
0
 10
18.022
 20
0.5507
  0
VERTEX
  8
0
 10
18.0023
 20
0.5254
  0
VERTEX
  8
0
 10
17.9805
 20
0.5022
  0
VERTEX
  8
0
 10
17.9566
 20
0.481
  0
VERTEX
  8
0
 10
17.9307
 20
0.4619
  0
VERTEX
  8
0
 10
17.9027
 20
0.4449
  0
VERTEX
  8
0
 10
17.7992
 20
0.4042
  0
VERTEX
  8
0
 10
17.6866
 20
0.3901
  0
VERTEX
  8
0
 10
17.6367
 20
0.392
  0
VERTEX
  8
0
 10
17.5898
 20
0.3981
  0
VERTEX
  8
0
 10
17.5458
 20
0.4085
  0
VERTEX
  8
0
 10
17.5048
 20
0.4232
  0
VERTEX
  8
0
 10
17.4667
 20
0.442
  0
VERTEX
  8
0
 10
17.4315
 20
0.4652
  0
VERTEX
  8
0
 10
17.3992
 20
0.4925
  0
VERTEX
  8
0
 10
17.3699
 20
0.5241
  0
VERTEX
  8
0
 10
17.3382
 20
0.5681
  0
VERTEX
  8
0
 10
17.3123
 20
0.6167
  0
VERTEX
  8
0
 10
17.2921
 20
0.67
  0
VERTEX
  8
0
 10
17.2776
 20
0.728
  0
VERTEX
  8
0
 10
17.269
 20
0.7907
  0
VERTEX
  8
0
 10
17.2661
 20
0.8581
  0
VERTEX
  8
0
 10
17.2661
 20
0.8581
  0
SEQEND
  0
POLYLINE
  8
0
 66
     1
 10
0
 20
0
  0
VERTEX
  8
0
 10
17.4221
 20
0.8585
  0
VERTEX
  8
0
 10
17.4258
 20
0.7892
  0
VERTEX
  8
0
 10
17.4367
 20
0.7267
  0
VERTEX
  8
0
 10
17.4549
 20
0.6711
  0
VERTEX
  8
0
 10
17.4804
 20
0.6224
  0
VERTEX
  8
0
 10
17.5054
 20
0.5895
  0
VERTEX
  8
0
 10
17.5341
 20
0.5626
  0
VERTEX
  8
0
 10
17.5666
 20
0.5416
  0
VERTEX
  8
0
 10
17.6028
 20
0.5265
  0
VERTEX
  8
0
 10
17.6428
 20
0.5173
  0
VERTEX
  8
0
 10
17.6866
 20
0.5141
  0
VERTEX
  8
0
 10
17.7303
 20
0.5169
  0
VERTEX
  8
0
 10
17.7703
 20
0.526
  0
VERTEX
  8
0
 10
17.8065
 20
0.5414
  0
VERTEX
  8
0
 10
17.839
 20
0.563
  0
VERTEX
  8
0
 10
17.8677
 20
0.5908
  0
VERTEX
  8
0
 10
17.8927
 20
0.625
  0
VERTEX
  8
0
 10
17.9246
 20
0.6928
  0
VERTEX
  8
0
 10
17.9437
 20
0.7724
  0
VERTEX
  8
0
 10
17.9501
 20
0.8636
  0
VERTEX
  8
0
 10
17.9434
 20
0.9518
  0
VERTEX
  8
0
 10
17.9234
 20
1.0291
  0
VERTEX
  8
0
 10
17.8901
 20
1.0955
  0
VERTEX
  8
0
 10
17.8648
 20
1.128
  0
VERTEX
  8
0
 10
17.836
 20
1.1547
  0
VERTEX
  8
0
 10
17.8038
 20
1.1754
  0
VERTEX
  8
0
 10
17.7681
 20
1.1902
  0
VERTEX
  8
0
 10
17.729
 20
1.1991
  0
VERTEX
  8
0
 10
17.6866
 20
1.2021
  0
VERTEX
  8
0
 10
17.6428
 20
1.1991
  0
VERTEX
  8
0
 10
17.6028
 20
1.19
  0
VERTEX
  8
0
 10
17.5666
 20
1.175
  0
VERTEX
  8
0
 10
17.5341
 20
1.1539
  0
VERTEX
  8
0
 10
17.5054
 20
1.1269
  0
VERTEX
  8
0
 10
17.4804
 20
1.0938
  0
VERTEX
  8
0
 10
17.448
 20
1.027
  0
VERTEX
  8
0
 10
17.4286
 20
0.9486
  0
VERTEX
  8
0
 10
17.4221
 20
0.8585
  0
VERTEX
  8
0
 10
17.4221
 20
0.8585
  0
SEQEND
  0
POLYLINE
  8
0
 66
     1
 10
0
 20
0
  0
VERTEX
  8
0
 10
18.2821
 20
0.4061
  0
VERTEX
  8
0
 10
18.2821
 20
1.3066
  0
VERTEX
  8
0
 10
18.4181
 20
1.3066
  0
VERTEX
  8
0
 10
18.4181
 20
1.1707
  0
VERTEX
  8
0
 10
18.4579
 20
1.235
  0
VERTEX
  8
0
 10
18.4942
 20
1.2782
  0
VERTEX
  8
0
 10
18.5488
 20
1.3141
  0
VERTEX
  8
0
 10
18.6127
 20
1.3261
  0
VERTEX
  8
0
 10
18.6899
 20
1.3139
  0
VERTEX
  8
0
 10
18.7692
 20
1.2773
  0
VERTEX
  8
0
 10
18.7169
 20
1.137
  0
VERTEX
  8
0
 10
18.6612
 20
1.1618
  0
VERTEX
  8
0
 10
18.6055
 20
1.1701
  0
VERTEX
  8
0
 10
18.5565
 20
1.1614
  0
VERTEX
  8
0
 10
18.5109
 20
1.1353
  0
VERTEX
  8
0
 10
18.4803
 20
1.1011
  0
VERTEX
  8
0
 10
18.4594
 20
1.0563
  0
VERTEX
  8
0
 10
18.4404
 20
0.9719
  0
VERTEX
  8
0
 10
18.4341
 20
0.8781
  0
VERTEX
  8
0
 10
18.4341
 20
0.4061
  0
VERTEX
  8
0
 10
18.2821
 20
0.4061
  0
SEQEND
  0
POLYLINE
  8
0
 66
     1
 10
0
 20
0
  0
VERTEX
  8
0
 10
19.4421
 20
0.4061
  0
VERTEX
  8
0
 10
19.4421
 20
0.5232
  0
VERTEX
  8
0
 10
19.4165
 20
0.4881
  0
VERTEX
  8
0
 10
19.3876
 20
0.4583
  0
VERTEX
  8
0
 10
19.3553
 20
0.434
  0
VERTEX
  8
0
 10
19.3198
 20
0.4149
  0
VERTEX
  8
0
 10
19.2809
 20
0.4013
  0
VERTEX
  8
0
 10
19.2387
 20
0.393
  0
VERTEX
  8
0
 10
19.1932
 20
0.3901
  0
VERTEX
  8
0
 10
19.1222
 20
0.3965
  0
VERTEX
  8
0
 10
19.0557
 20
0.4171
  0
VERTEX
  8
0
 10
18.9937
 20
0.4516
  0
VERTEX
  8
0
 10
18.9158
 20
0.5223
  0
VERTEX
  8
0
 10
18.8583
 20
0.6144
  0
VERTEX
  8
0
 10
18.8226
 20
0.7266
  0
VERTEX
  8
0
 10
18.8101
 20
0.8573
  0
VERTEX
  8
0
 10
18.8111
 20
0.9047
  0
VERTEX
  8
0
 10
18.8146
 20
0.9497
  0
VERTEX
  8
0
 10
18.8206
 20
0.9923
  0
VERTEX
  8
0
 10
18.8292
 20
1.0326
  0
VERTEX
  8
0
 10
18.8402
 20
1.0704
  0
VERTEX
  8
0
 10
18.8538
 20
1.1058
  0
VERTEX
  8
0
 10
18.87
 20
1.1388
  0
VERTEX
  8
0
 10
18.8886
 20
1.1694
  0
VERTEX
  8
0
 10
18.9098
 20
1.1977
  0
VERTEX
  8
0
 10
18.9335
 20
1.2235
  0
VERTEX
  8
0
 10
18.9597
 20
1.2469
  0
VERTEX
  8
0
 10
18.9884
 20
1.2679
  0
VERTEX
  8
0
 10
19.0498
 20
1.3002
  0
VERTEX
  8
0
 10
19.1162
 20
1.3196
  0
VERTEX
  8
0
 10
19.1877
 20
1.3261
  0
VERTEX
  8
0
 10
19.2313
 20
1.3236
  0
VERTEX
  8
0
 10
19.272
 20
1.3161
  0
VERTEX
  8
0
 10
19.31
 20
1.3036
  0
VERTEX
  8
0
 10
19.3452
 20
1.2861
  0
VERTEX
  8
0
 10
19.3776
 20
1.2636
  0
VERTEX
  8
0
 10
19.4073
 20
1.2361
  0
VERTEX
  8
0
 10
19.4341
 20
1.2036
  0
VERTEX
  8
0
 10
19.4341
 20
1.6461
  0
VERTEX
  8
0
 10
19.5861
 20
1.6461
  0
VERTEX
  8
0
 10
19.5861
 20
0.4061
  0
VERTEX
  8
0
 10
19.4421
 20
0.4061
  0
SEQEND
  0
POLYLINE
  8
0
 66
     1
 10
0
 20
0
  0
VERTEX
  8
0
 10
18.9661
 20
0.8576
  0
VERTEX
  8
0
 10
18.972
 20
0.7716
  0
VERTEX
  8
0
 10
18.9898
 20
0.6952
  0
VERTEX
  8
0
 10
19.0193
 20
0.6283
  0
VERTEX
  8
0
 10
19.0427
 20
0.5937
  0
VERTEX
  8
0
 10
19.0694
 20
0.5652
  0
VERTEX
  8
0
 10
19.0996
 20
0.5431
  0
VERTEX
  8
0
 10
19.1331
 20
0.5272
  0
VERTEX
  8
0
 10
19.1699
 20
0.5175
  0
VERTEX
  8
0
 10
19.2102
 20
0.5141
  0
VERTEX
  8
0
 10
19.2499
 20
0.5168
  0
VERTEX
  8
0
 10
19.2862
 20
0.5257
  0
VERTEX
  8
0
 10
19.3191
 20
0.5407
  0
VERTEX
  8
0
 10
19.3487
 20
0.5618
  0
VERTEX
  8
0
 10
19.3749
 20
0.5891
  0
VERTEX
  8
0
 10
19.3977
 20
0.6224
  0
VERTEX
  8
0
 10
19.4263
 20
0.687
  0
VERTEX
  8
0
 10
19.4435
 20
0.7612
  0
VERTEX
  8
0
 10
19.4492
 20
0.845
  0
VERTEX
  8
0
 10
19.4436
 20
0.9357
  0
VERTEX
  8
0
 10
19.427
 20
1.015
  0
VERTEX
  8
0
 10
19.3994
 20
1.0828
  0
VERTEX
  8
0
 10
19.3761
 20
1.1192
  0
VERTEX
  8
0
 10
19.3491
 20
1.1491
  0
VERTEX
  8
0
 10
19.3183
 20
1.1723
  0
VERTEX
  8
0
 10
19.2838
 20
1.1888
  0
VERTEX
  8
0
 10
19.2455
 20
1.1988
  0
VERTEX
  8
0
 10
19.2034
 20
1.2021
  0
VERTEX
  8
0
 10
19.1625
 20
1.1989
  0
VERTEX
  8
0
 10
19.1253
 20
1.1894
  0
VERTEX
  8
0
 10
19.0919
 20
1.1735
  0
VERTEX
  8
0
 10
19.0623
 20
1.1513
  0
VERTEX
  8
0
 10
19.0364
 20
1.1227
  0
VERTEX
  8
0
 10
19.0142
 20
1.0878
  0
VERTEX
  8
0
 10
18.9875
 20
1.0224
  0
VERTEX
  8
0
 10
18.9715
 20
0.9457
  0
VERTEX
  8
0
 10
18.9661
 20
0.8576
  0
VERTEX
  8
0
 10
18.9661
 20
0.8576
  0
SEQEND
  0
POLYLINE
  8
0
 66
     1
 10
0
 20
0
  0
VERTEX
  8
0
 10
20.4343
 20
0.6988
  0
VERTEX
  8
0
 10
20.5916
 20
0.6795
  0
VERTEX
  8
0
 10
20.5822
 20
0.6482
  0
VERTEX
  8
0
 10
20.5713
 20
0.6187
  0
VERTEX
  8
0
 10
20.559
 20
0.591
  0
VERTEX
  8
0
 10
20.5452
 20
0.5651
  0
VERTEX
  8
0
 10
20.53
 20
0.541
  0
VERTEX
  8
0
 10
20.5132
 20
0.5187
  0
VERTEX
  8
0
 10
20.495
 20
0.4982
  0
VERTEX
  8
0
 10
20.4753
 20
0.4794
  0
VERTEX
  8
0
 10
20.4541
 20
0.4624
  0
VERTEX
  8
0
 10
20.4315
 20
0.4472
  0
VERTEX
  8
0
 10
20.4074
 20
0.4338
  0
VERTEX
  8
0
 10
20.3818
 20
0.4222
  0
VERTEX
  8
0
 10
20.3547
 20
0.4124
  0
VERTEX
  8
0
 10
20.3262
 20
0.4044
  0
VERTEX
  8
0
 10
20.2962
 20
0.3981
  0
VERTEX
  8
0
 10
20.2647
 20
0.3937
  0
VERTEX
  8
0
 10
20.2317
 20
0.391
  0
VERTEX
  8
0
 10
20.1973
 20
0.3901
  0
VERTEX
  8
0
 10
20.1425
 20
0.3925
  0
VERTEX
  8
0
 10
20.0912
 20
0.3999
  0
VERTEX
  8
0
 10
20.0432
 20
0.4122
  0
VERTEX
  8
0
 10
19.9985
 20
0.4295
  0
VERTEX
  8
0
 10
19.9573
 20
0.4516
  0
VERTEX
  8
0
 10
19.9194
 20
0.4787
  0
VERTEX
  8
0
 10
19.8849
 20
0.5107
  0
VERTEX
  8
0
 10
19.8545
 20
0.5471
  0
VERTEX
  8
0
 10
19.8287
 20
0.5876
  0
VERTEX
  8
0
 10
19.8076
 20
0.6322
  0
VERTEX
  8
0
 10
19.7912
 20
0.6807
  0
VERTEX
  8
0
 10
19.7795
 20
0.7333
  0
VERTEX
  8
0
 10
19.7725
 20
0.7899
  0
VERTEX
  8
0
 10
19.7701
 20
0.8505
  0
VERTEX
  8
0
 10
19.773
 20
0.9177
  0
VERTEX
  8
0
 10
19.7816
 20
0.9805
  0
VERTEX
  8
0
 10
19.7959
 20
1.0388
  0
VERTEX
  8
0
 10
19.8159
 20
1.0926
  0
VERTEX
  8
0
 10
19.8416
 20
1.142
  0
VERTEX
  8
0
 10
19.8731
 20
1.187
  0
VERTEX
  8
0
 10
19.9028
 20
1.2196
  0
VERTEX
  8
0
 10
19.9353
 20
1.2478
  0
VERTEX
  8
0
 10
19.9705
 20
1.2717
  0
VERTEX
  8
0
 10
20.0086
 20
1.2913
  0
VERTEX
  8
0
 10
20.0495
 20
1.3065
  0
VERTEX
  8
0
 10
20.0931
 20
1.3174
  0
VERTEX
  8
0
 10
20.1396
 20
1.3239
  0
VERTEX
  8
0
 10
20.1889
 20
1.3261
  0
VERTEX
  8
0
 10
20.2369
 20
1.3239
  0
VERTEX
  8
0
 10
20.2822
 20
1.3175
  0
VERTEX
  8
0
 10
20.3247
 20
1.3069
  0
VERTEX
  8
0
 10
20.3645
 20
1.2919
  0
VERTEX
  8
0
 10
20.4015
 20
1.2727
  0
VERTEX
  8
0
 10
20.4358
 20
1.2492
  0
VERTEX
  8
0
 10
20.4674
 20
1.2214
  0
VERTEX
  8
0
 10
20.4962
 20
1.1894
  0
VERTEX
  8
0
 10
20.5269
 20
1.1454
  0
VERTEX
  8
0
 10
20.552
 20
1.0971
  0
VERTEX
  8
0
 10
20.5715
 20
1.0447
  0
VERTEX
  8
0
 10
20.5855
 20
0.9881
  0
VERTEX
  8
0
 10
20.5938
 20
0.9273
  0
VERTEX
  8
0
 10
20.5966
 20
0.8623
  0
VERTEX
  8
0
 10
20.5964
 20
0.8414
  0
VERTEX
  8
0
 10
20.5957
 20
0.8221
  0
VERTEX
  8
0
 10
19.9261
 20
0.8221
  0
VERTEX
  8
0
 10
19.9371
 20
0.7394
  0
VERTEX
  8
0
 10
19.9611
 20
0.6677
  0
VERTEX
  8
0
 10
19.998
 20
0.6071
  0
VERTEX
  8
0
 10
20.0295
 20
0.5736
  0
VERTEX
  8
0
 10
20.0652
 20
0.5476
  0
VERTEX
  8
0
 10
20.1051
 20
0.529
  0
VERTEX
  8
0
 10
20.1492
 20
0.5178
  0
VERTEX
  8
0
 10
20.1976
 20
0.5141
  0
VERTEX
  8
0
 10
20.2305
 20
0.5159
  0
VERTEX
  8
0
 10
20.2614
 20
0.5215
  0
VERTEX
  8
0
 10
20.2902
 20
0.5307
  0
VERTEX
  8
0
 10
20.317
 20
0.5436
  0
VERTEX
  8
0
 10
20.3417
 20
0.5603
  0
VERTEX
  8
0
 10
20.3644
 20
0.5806
  0
VERTEX
  8
0
 10
20.3849
 20
0.6046
  0
VERTEX
  8
0
 10
20.4035
 20
0.6323
  0
VERTEX
  8
0
 10
20.4199
 20
0.6637
  0
VERTEX
  8
0
 10
20.4343
 20
0.6988
  0
VERTEX
  8
0
 10
20.4343
 20
0.6988
  0
SEQEND
  0
POLYLINE
  8
0
 66
     1
 10
0
 20
0
  0
VERTEX
  8
0
 10
19.9356
 20
0.9461
  0
VERTEX
  8
0
 10
20.4362
 20
0.9461
  0
VERTEX
  8
0
 10
20.4253
 20
1.0148
  0
VERTEX
  8
0
 10
20.4061
 20
1.0711
  0
VERTEX
  8
0
 10
20.3787
 20
1.1148
  0
VERTEX
  8
0
 10
20.3398
 20
1.1527
  0
VERTEX
  8
0
 10
20.2954
 20
1.1798
  0
VERTEX
  8
0
 10
20.2456
 20
1.1963
  0
VERTEX
  8
0
 10
20.1905
 20
1.2021
  0
VERTEX
  8
0
 10
20.1377
 20
1.1978
  0
VERTEX
  8
0
 10
20.0901
 20
1.184
  0
VERTEX
  8
0
 10
20.0474
 20
1.1608
  0
VERTEX
  8
0
 10
20.0099
 20
1.1282
  0
VERTEX
  8
0
 10
19.972
 20
1.0766
  0
VERTEX
  8
0
 10
19.9472
 20
1.0159
  0
VERTEX
  8
0
 10
19.9356
 20
0.9461
  0
VERTEX
  8
0
 10
19.9356
 20
0.9461
  0
SEQEND
  0
POLYLINE
  8
0
 66
     1
 10
0
 20
0
  0
VERTEX
  8
0
 10
20.7821
 20
0.4061
  0
VERTEX
  8
0
 10
20.7821
 20
1.3066
  0
VERTEX
  8
0
 10
20.9181
 20
1.3066
  0
VERTEX
  8
0
 10
20.9181
 20
1.1707
  0
VERTEX
  8
0
 10
20.9579
 20
1.235
  0
VERTEX
  8
0
 10
20.9942
 20
1.2782
  0
VERTEX
  8
0
 10
21.0488
 20
1.3141
  0
VERTEX
  8
0
 10
21.1127
 20
1.3261
  0
VERTEX
  8
0
 10
21.1899
 20
1.3139
  0
VERTEX
  8
0
 10
21.2692
 20
1.2773
  0
VERTEX
  8
0
 10
21.2169
 20
1.137
  0
VERTEX
  8
0
 10
21.1612
 20
1.1618
  0
VERTEX
  8
0
 10
21.1055
 20
1.1701
  0
VERTEX
  8
0
 10
21.0565
 20
1.1614
  0
VERTEX
  8
0
 10
21.0109
 20
1.1353
  0
VERTEX
  8
0
 10
20.9803
 20
1.1011
  0
VERTEX
  8
0
 10
20.9594
 20
1.0563
  0
VERTEX
  8
0
 10
20.9404
 20
0.9719
  0
VERTEX
  8
0
 10
20.9341
 20
0.8781
  0
VERTEX
  8
0
 10
20.9341
 20
0.4061
  0
VERTEX
  8
0
 10
20.7821
 20
0.4061
  0
SEQEND
  0
POLYLINE
  8
0
 66
     1
 10
0
 20
0
  0
VERTEX
  8
0
 10
21.4101
 20
0.4061
  0
VERTEX
  8
0
 10
21.4101
 20
0.5821
  0
VERTEX
  8
0
 10
21.5821
 20
0.5821
  0
VERTEX
  8
0
 10
21.5821
 20
0.4098
  0
VERTEX
  8
0
 10
21.5804
 20
0.3709
  0
VERTEX
  8
0
 10
21.5751
 20
0.335
  0
VERTEX
  8
0
 10
21.5664
 20
0.302
  0
VERTEX
  8
0
 10
21.5541
 20
0.272
  0
VERTEX
  8
0
 10
21.5384
 20
0.2449
  0
VERTEX
  8
0
 10
21.5192
 20
0.2208
  0
VERTEX
  8
0
 10
21.4964
 20
0.1996
  0
VERTEX
  8
0
 10
21.4702
 20
0.1814
  0
VERTEX
  8
0
 10
21.4405
 20
0.1661
  0
VERTEX
  8
0
 10
21.3981
 20
0.2298
  0
VERTEX
  8
0
 10
21.4263
 20
0.2453
  0
VERTEX
  8
0
 10
21.4497
 20
0.2663
  0
VERTEX
  8
0
 10
21.4682
 20
0.2929
  0
VERTEX
  8
0
 10
21.4818
 20
0.3251
  0
VERTEX
  8
0
 10
21.4905
 20
0.3628
  0
VERTEX
  8
0
 10
21.4944
 20
0.4061
  0
VERTEX
  8
0
 10
21.4101
 20
0.4061
  0
SEQEND
  0
POLYLINE
  8
0
 66
     1
 10
0
 20
0
  0
VERTEX
  8
0
 10
22.8823
 20
0.4061
  0
VERTEX
  8
0
 10
22.5541
 20
1.6461
  0
VERTEX
  8
0
 10
22.7221
 20
1.6461
  0
VERTEX
  8
0
 10
22.9104
 20
0.836
  0
VERTEX
  8
0
 10
22.9386
 20
0.7079
  0
VERTEX
  8
0
 10
22.9627
 20
0.5831
  0
VERTEX
  8
0
 10
22.9738
 20
0.6296
  0
VERTEX
  8
0
 10
22.9836
 20
0.6709
  0
VERTEX
  8
0
 10
22.9923
 20
0.7071
  0
VERTEX
  8
0
 10
22.9998
 20
0.7383
  0
VERTEX
  8
0
 10
23.0062
 20
0.7643
  0
VERTEX
  8
0
 10
23.0115
 20
0.7853
  0
VERTEX
  8
0
 10
23.0155
 20
0.8012
  0
VERTEX
  8
0
 10
23.0184
 20
0.812
  0
VERTEX
  8
0
 10
23.2539
 20
1.6461
  0
VERTEX
  8
0
 10
23.4515
 20
1.6461
  0
VERTEX
  8
0
 10
23.6288
 20
1.0213
  0
VERTEX
  8
0
 10
23.686
 20
0.7957
  0
VERTEX
  8
0
 10
23.7254
 20
0.5831
  0
VERTEX
  8
0
 10
23.7333
 20
0.6212
  0
VERTEX
  8
0
 10
23.7434
 20
0.6671
  0
VERTEX
  8
0
 10
23.7558
 20
0.7209
  0
VERTEX
  8
0
 10
23.7704
 20
0.7826
  0
VERTEX
  8
0
 10
23.7872
 20
0.8523
  0
VERTEX
  8
0
 10
23.9796
 20
1.6461
  0
VERTEX
  8
0
 10
24.1454
 20
1.6461
  0
VERTEX
  8
0
 10
23.8061
 20
0.4061
  0
VERTEX
  8
0
 10
23.6495
 20
0.4061
  0
VERTEX
  8
0
 10
23.3851
 20
1.3525
  0
VERTEX
  8
0
 10
23.371
 20
1.406
  0
VERTEX
  8
0
 10
23.3601
 20
1.4482
  0
VERTEX
  8
0
 10
23.3524
 20
1.4789
  0
VERTEX
  8
0
 10
23.3479
 20
1.4981
  0
VERTEX
  8
0
 10
23.3308
 20
1.4239
  0
VERTEX
  8
0
 10
23.3125
 20
1.353
  0
VERTEX
  8
0
 10
23.0493
 20
0.4061
  0
VERTEX
  8
0
 10
22.8823
 20
0.4061
  0
SEQEND
  0
POLYLINE
  8
0
 66
     1
 10
0
 20
0
  0
VERTEX
  8
0
 10
24.2821
 20
0.4061
  0
VERTEX
  8
0
 10
24.2821
 20
1.6461
  0
VERTEX
  8
0
 10
24.4341
 20
1.6461
  0
VERTEX
  8
0
 10
24.4341
 20
1.2036
  0
VERTEX
  8
0
 10
24.4712
 20
1.2408
  0
VERTEX
  8
0
 10
24.5114
 20
1.2713
  0
VERTEX
  8
0
 10
24.5548
 20
1.2951
  0
VERTEX
  8
0
 10
24.6012
 20
1.3121
  0
VERTEX
  8
0
 10
24.6507
 20
1.3225
  0
VERTEX
  8
0
 10
24.7034
 20
1.3261
  0
VERTEX
  8
0
 10
24.7954
 20
1.3166
  0
VERTEX
  8
0
 10
24.8769
 20
1.2863
  0
VERTEX
  8
0
 10
24.9265
 20
1.252
  0
VERTEX
  8
0
 10
24.9646
 20
1.2079
  0
VERTEX
  8
0
 10
24.9912
 20
1.1541
  0
VERTEX
  8
0
 10
25.0084
 20
1.0774
  0
VERTEX
  8
0
 10
25.0141
 20
0.9762
  0
VERTEX
  8
0
 10
25.0141
 20
0.4061
  0
VERTEX
  8
0
 10
24.8621
 20
0.4061
  0
VERTEX
  8
0
 10
24.8621
 20
0.9757
  0
VERTEX
  8
0
 10
24.8611
 20
1.0056
  0
VERTEX
  8
0
 10
24.8582
 20
1.0332
  0
VERTEX
  8
0
 10
24.8534
 20
1.0587
  0
VERTEX
  8
0
 10
24.8466
 20
1.082
  0
VERTEX
  8
0
 10
24.8379
 20
1.1031
  0
VERTEX
  8
0
 10
24.8272
 20
1.122
  0
VERTEX
  8
0
 10
24.8146
 20
1.1386
  0
VERTEX
  8
0
 10
24.8001
 20
1.1531
  0
VERTEX
  8
0
 10
24.7836
 20
1.1655
  0
VERTEX
  8
0
 10
24.7652
 20
1.1756
  0
VERTEX
  8
0
 10
24.7449
 20
1.1835
  0
VERTEX
  8
0
 10
24.7226
 20
1.1892
  0
VERTEX
  8
0
 10
24.6984
 20
1.1927
  0
VERTEX
  8
0
 10
24.6722
 20
1.1941
  0
VERTEX
  8
0
 10
24.6066
 20
1.1858
  0
VERTEX
  8
0
 10
24.5451
 20
1.1594
  0
VERTEX
  8
0
 10
24.4942
 20
1.1178
  0
VERTEX
  8
0
 10
24.46
 20
1.0641
  0
VERTEX
  8
0
 10
24.4406
 20
0.9927
  0
VERTEX
  8
0
 10
24.4341
 20
0.8978
  0
VERTEX
  8
0
 10
24.4341
 20
0.4061
  0
VERTEX
  8
0
 10
24.2821
 20
0.4061
  0
SEQEND
  0
POLYLINE
  8
0
 66
     1
 10
0
 20
0
  0
VERTEX
  8
0
 10
25.2421
 20
1.4701
  0
VERTEX
  8
0
 10
25.2421
 20
1.6461
  0
VERTEX
  8
0
 10
25.3941
 20
1.6461
  0
VERTEX
  8
0
 10
25.3941
 20
1.4701
  0
VERTEX
  8
0
 10
25.2421
 20
1.4701
  0
SEQEND
  0
POLYLINE
  8
0
 66
     1
 10
0
 20
0
  0
VERTEX
  8
0
 10
25.2421
 20
0.4061
  0
VERTEX
  8
0
 10
25.2421
 20
1.3066
  0
VERTEX
  8
0
 10
25.3941
 20
1.3066
  0
VERTEX
  8
0
 10
25.3941
 20
0.4061
  0
VERTEX
  8
0
 10
25.2421
 20
0.4061
  0
SEQEND
  0
POLYLINE
  8
0
 66
     1
 10
0
 20
0
  0
VERTEX
  8
0
 10
25.9617
 20
0.546
  0
VERTEX
  8
0
 10
25.9834
 20
0.4116
  0
VERTEX
  8
0
 10
25.9223
 20
0.4019
  0
VERTEX
  8
0
 10
25.8688
 20
0.3981
  0
VERTEX
  8
0
 10
25.8277
 20
0.3996
  0
VERTEX
  8
0
 10
25.7912
 20
0.4051
  0
VERTEX
  8
0
 10
25.7592
 20
0.4146
  0
VERTEX
  8
0
 10
25.7318
 20
0.4281
  0
VERTEX
  8
0
 10
25.7089
 20
0.4455
  0
VERTEX
  8
0
 10
25.6905
 20
0.467
  0
VERTEX
  8
0
 10
25.6767
 20
0.4924
  0
VERTEX
  8
0
 10
25.6686
 20
0.52
  0
VERTEX
  8
0
 10
25.6628
 20
0.5591
  0
VERTEX
  8
0
 10
25.6593
 20
0.6097
  0
VERTEX
  8
0
 10
25.6581
 20
0.6717
  0
VERTEX
  8
0
 10
25.6581
 20
1.1861
  0
VERTEX
  8
0
 10
25.5461
 20
1.1861
  0
VERTEX
  8
0
 10
25.5461
 20
1.3061
  0
VERTEX
  8
0
 10
25.6581
 20
1.3061
  0
VERTEX
  8
0
 10
25.6581
 20
1.5273
  0
VERTEX
  8
0
 10
25.8101
 20
1.6181
  0
VERTEX
  8
0
 10
25.8101
 20
1.3061
  0
VERTEX
  8
0
 10
25.9621
 20
1.3061
  0
VERTEX
  8
0
 10
25.9621
 20
1.1861
  0
VERTEX
  8
0
 10
25.8101
 20
1.1861
  0
VERTEX
  8
0
 10
25.8101
 20
0.6621
  0
VERTEX
  8
0
 10
25.8107
 20
0.6216
  0
VERTEX
  8
0
 10
25.8126
 20
0.5997
  0
VERTEX
  8
0
 10
25.8233
 20
0.5697
  0
VERTEX
  8
0
 10
25.8436
 20
0.5491
  0
VERTEX
  8
0
 10
25.865
 20
0.5413
  0
VERTEX
  8
0
 10
25.8955
 20
0.5381
  0
VERTEX
  8
0
 10
25.9242
 20
0.5397
  0
VERTEX
  8
0
 10
25.9617
 20
0.546
  0
VERTEX
  8
0
 10
25.9617
 20
0.546
  0
SEQEND
  0
POLYLINE
  8
0
 66
     1
 10
0
 20
0
  0
VERTEX
  8
0
 10
26.7263
 20
0.6988
  0
VERTEX
  8
0
 10
26.8836
 20
0.6795
  0
VERTEX
  8
0
 10
26.8742
 20
0.6482
  0
VERTEX
  8
0
 10
26.8633
 20
0.6187
  0
VERTEX
  8
0
 10
26.851
 20
0.591
  0
VERTEX
  8
0
 10
26.8372
 20
0.5651
  0
VERTEX
  8
0
 10
26.822
 20
0.541
  0
VERTEX
  8
0
 10
26.8052
 20
0.5187
  0
VERTEX
  8
0
 10
26.787
 20
0.4982
  0
VERTEX
  8
0
 10
26.7673
 20
0.4794
  0
VERTEX
  8
0
 10
26.7461
 20
0.4624
  0
VERTEX
  8
0
 10
26.7235
 20
0.4472
  0
VERTEX
  8
0
 10
26.6994
 20
0.4338
  0
VERTEX
  8
0
 10
26.6738
 20
0.4222
  0
VERTEX
  8
0
 10
26.6467
 20
0.4124
  0
VERTEX
  8
0
 10
26.6182
 20
0.4044
  0
VERTEX
  8
0
 10
26.5882
 20
0.3981
  0
VERTEX
  8
0
 10
26.5567
 20
0.3937
  0
VERTEX
  8
0
 10
26.5237
 20
0.391
  0
VERTEX
  8
0
 10
26.4893
 20
0.3901
  0
VERTEX
  8
0
 10
26.4345
 20
0.3925
  0
VERTEX
  8
0
 10
26.3832
 20
0.3999
  0
VERTEX
  8
0
 10
26.3352
 20
0.4122
  0
VERTEX
  8
0
 10
26.2905
 20
0.4295
  0
VERTEX
  8
0
 10
26.2493
 20
0.4516
  0
VERTEX
  8
0
 10
26.2114
 20
0.4787
  0
VERTEX
  8
0
 10
26.1769
 20
0.5107
  0
VERTEX
  8
0
 10
26.1465
 20
0.5471
  0
VERTEX
  8
0
 10
26.1207
 20
0.5876
  0
VERTEX
  8
0
 10
26.0996
 20
0.6322
  0
VERTEX
  8
0
 10
26.0832
 20
0.6807
  0
VERTEX
  8
0
 10
26.0715
 20
0.7333
  0
VERTEX
  8
0
 10
26.0645
 20
0.7899
  0
VERTEX
  8
0
 10
26.0621
 20
0.8505
  0
VERTEX
  8
0
 10
26.065
 20
0.9177
  0
VERTEX
  8
0
 10
26.0736
 20
0.9805
  0
VERTEX
  8
0
 10
26.0879
 20
1.0388
  0
VERTEX
  8
0
 10
26.1079
 20
1.0926
  0
VERTEX
  8
0
 10
26.1336
 20
1.142
  0
VERTEX
  8
0
 10
26.1651
 20
1.187
  0
VERTEX
  8
0
 10
26.1948
 20
1.2196
  0
VERTEX
  8
0
 10
26.2273
 20
1.2478
  0
VERTEX
  8
0
 10
26.2625
 20
1.2717
  0
VERTEX
  8
0
 10
26.3006
 20
1.2913
  0
VERTEX
  8
0
 10
26.3415
 20
1.3065
  0
VERTEX
  8
0
 10
26.3851
 20
1.3174
  0
VERTEX
  8
0
 10
26.4316
 20
1.3239
  0
VERTEX
  8
0
 10
26.4809
 20
1.3261
  0
VERTEX
  8
0
 10
26.5289
 20
1.3239
  0
VERTEX
  8
0
 10
26.5742
 20
1.3175
  0
VERTEX
  8
0
 10
26.6167
 20
1.3069
  0
VERTEX
  8
0
 10
26.6565
 20
1.2919
  0
VERTEX
  8
0
 10
26.6935
 20
1.2727
  0
VERTEX
  8
0
 10
26.7278
 20
1.2492
  0
VERTEX
  8
0
 10
26.7594
 20
1.2214
  0
VERTEX
  8
0
 10
26.7882
 20
1.1894
  0
VERTEX
  8
0
 10
26.8189
 20
1.1454
  0
VERTEX
  8
0
 10
26.844
 20
1.0971
  0
VERTEX
  8
0
 10
26.8635
 20
1.0447
  0
VERTEX
  8
0
 10
26.8775
 20
0.9881
  0
VERTEX
  8
0
 10
26.8858
 20
0.9273
  0
VERTEX
  8
0
 10
26.8886
 20
0.8623
  0
VERTEX
  8
0
 10
26.8884
 20
0.8414
  0
VERTEX
  8
0
 10
26.8877
 20
0.8221
  0
VERTEX
  8
0
 10
26.2181
 20
0.8221
  0
VERTEX
  8
0
 10
26.2291
 20
0.7394
  0
VERTEX
  8
0
 10
26.2531
 20
0.6677
  0
VERTEX
  8
0
 10
26.29
 20
0.6071
  0
VERTEX
  8
0
 10
26.3215
 20
0.5736
  0
VERTEX
  8
0
 10
26.3572
 20
0.5476
  0
VERTEX
  8
0
 10
26.3971
 20
0.529
  0
VERTEX
  8
0
 10
26.4412
 20
0.5178
  0
VERTEX
  8
0
 10
26.4896
 20
0.5141
  0
VERTEX
  8
0
 10
26.5225
 20
0.5159
  0
VERTEX
  8
0
 10
26.5534
 20
0.5215
  0
VERTEX
  8
0
 10
26.5822
 20
0.5307
  0
VERTEX
  8
0
 10
26.609
 20
0.5436
  0
VERTEX
  8
0
 10
26.6337
 20
0.5603
  0
VERTEX
  8
0
 10
26.6564
 20
0.5806
  0
VERTEX
  8
0
 10
26.6769
 20
0.6046
  0
VERTEX
  8
0
 10
26.6955
 20
0.6323
  0
VERTEX
  8
0
 10
26.7119
 20
0.6637
  0
VERTEX
  8
0
 10
26.7263
 20
0.6988
  0
VERTEX
  8
0
 10
26.7263
 20
0.6988
  0
SEQEND
  0
POLYLINE
  8
0
 66
     1
 10
0
 20
0
  0
VERTEX
  8
0
 10
26.2276
 20
0.9461
  0
VERTEX
  8
0
 10
26.7282
 20
0.9461
  0
VERTEX
  8
0
 10
26.7173
 20
1.0148
  0
VERTEX
  8
0
 10
26.6981
 20
1.0711
  0
VERTEX
  8
0
 10
26.6707
 20
1.1148
  0
VERTEX
  8
0
 10
26.6318
 20
1.1527
  0
VERTEX
  8
0
 10
26.5874
 20
1.1798
  0
VERTEX
  8
0
 10
26.5376
 20
1.1963
  0
VERTEX
  8
0
 10
26.4825
 20
1.2021
  0
VERTEX
  8
0
 10
26.4297
 20
1.1978
  0
VERTEX
  8
0
 10
26.3821
 20
1.184
  0
VERTEX
  8
0
 10
26.3394
 20
1.1608
  0
VERTEX
  8
0
 10
26.3019
 20
1.1282
  0
VERTEX
  8
0
 10
26.264
 20
1.0766
  0
VERTEX
  8
0
 10
26.2392
 20
1.0159
  0
VERTEX
  8
0
 10
26.2276
 20
0.9461
  0
VERTEX
  8
0
 10
26.2276
 20
0.9461
  0
SEQEND
  0
POLYLINE
  8
0
 66
     1
 10
0
 20
0
  0
VERTEX
  8
0
 10
27.8181
 20
0.8581
  0
VERTEX
  8
0
 10
27.8198
 20
0.9118
  0
VERTEX
  8
0
 10
27.8249
 20
0.9623
  0
VERTEX
  8
0
 10
27.8335
 20
1.0096
  0
VERTEX
  8
0
 10
27.8455
 20
1.0537
  0
VERTEX
  8
0
 10
27.8608
 20
1.0947
  0
VERTEX
  8
0
 10
27.8796
 20
1.1324
  0
VERTEX
  8
0
 10
27.9019
 20
1.167
  0
VERTEX
  8
0
 10
27.9275
 20
1.1984
  0
VERTEX
  8
0
 10
27.9566
 20
1.2266
  0
VERTEX
  8
0
 10
28.0046
 20
1.2624
  0
VERTEX
  8
0
 10
28.0568
 20
1.2903
  0
VERTEX
  8
0
 10
28.1132
 20
1.3102
  0
VERTEX
  8
0
 10
28.1738
 20
1.3221
  0
VERTEX
  8
0
 10
28.2386
 20
1.3261
  0
VERTEX
  8
0
 10
28.2933
 20
1.3234
  0
VERTEX
  8
0
 10
28.3446
 20
1.3154
  0
VERTEX
  8
0
 10
28.3925
 20
1.3021
  0
VERTEX
  8
0
 10
28.437
 20
1.2834
  0
VERTEX
  8
0
 10
28.4781
 20
1.2594
  0
VERTEX
  8
0
 10
28.5158
 20
1.2301
  0
VERTEX
  8
0
 10
28.5501
 20
1.1954
  0
VERTEX
  8
0
 10
28.5831
 20
1.1517
  0
VERTEX
  8
0
 10
28.6101
 20
1.1038
  0
VERTEX
  8
0
 10
28.6311
 20
1.0518
  0
VERTEX
  8
0
 10
28.6461
 20
0.9956
  0
VERTEX
  8
0
 10
28.6551
 20
0.9352
  0
VERTEX
  8
0
 10
28.6581
 20
0.8707
  0
VERTEX
  8
0
 10
28.6571
 20
0.8269
  0
VERTEX
  8
0
 10
28.654
 20
0.7852
  0
VERTEX
  8
0
 10
28.6488
 20
0.7455
  0
VERTEX
  8
0
 10
28.6415
 20
0.7079
  0
VERTEX
  8
0
 10
28.6322
 20
0.6724
  0
VERTEX
  8
0
 10
28.6207
 20
0.6389
  0
VERTEX
  8
0
 10
28.6073
 20
0.6074
  0
VERTEX
  8
0
 10
28.5917
 20
0.578
  0
VERTEX
  8
0
 10
28.574
 20
0.5507
  0
VERTEX
  8
0
 10
28.5543
 20
0.5254
  0
VERTEX
  8
0
 10
28.5325
 20
0.5022
  0
VERTEX
  8
0
 10
28.5086
 20
0.481
  0
VERTEX
  8
0
 10
28.4827
 20
0.4619
  0
VERTEX
  8
0
 10
28.4547
 20
0.4449
  0
VERTEX
  8
0
 10
28.3512
 20
0.4042
  0
VERTEX
  8
0
 10
28.2386
 20
0.3901
  0
VERTEX
  8
0
 10
28.1887
 20
0.392
  0
VERTEX
  8
0
 10
28.1418
 20
0.3981
  0
VERTEX
  8
0
 10
28.0978
 20
0.4085
  0
VERTEX
  8
0
 10
28.0568
 20
0.4232
  0
VERTEX
  8
0
 10
28.0187
 20
0.442
  0
VERTEX
  8
0
 10
27.9835
 20
0.4652
  0
VERTEX
  8
0
 10
27.9512
 20
0.4925
  0
VERTEX
  8
0
 10
27.9219
 20
0.5241
  0
VERTEX
  8
0
 10
27.8902
 20
0.5681
  0
VERTEX
  8
0
 10
27.8643
 20
0.6167
  0
VERTEX
  8
0
 10
27.8441
 20
0.67
  0
VERTEX
  8
0
 10
27.8296
 20
0.728
  0
VERTEX
  8
0
 10
27.821
 20
0.7907
  0
VERTEX
  8
0
 10
27.8181
 20
0.8581
  0
VERTEX
  8
0
 10
27.8181
 20
0.8581
  0
SEQEND
  0
POLYLINE
  8
0
 66
     1
 10
0
 20
0
  0
VERTEX
  8
0
 10
27.9741
 20
0.8585
  0
VERTEX
  8
0
 10
27.9778
 20
0.7892
  0
VERTEX
  8
0
 10
27.9887
 20
0.7267
  0
VERTEX
  8
0
 10
28.0069
 20
0.6711
  0
VERTEX
  8
0
 10
28.0324
 20
0.6224
  0
VERTEX
  8
0
 10
28.0574
 20
0.5895
  0
VERTEX
  8
0
 10
28.0861
 20
0.5626
  0
VERTEX
  8
0
 10
28.1186
 20
0.5416
  0
VERTEX
  8
0
 10
28.1548
 20
0.5265
  0
VERTEX
  8
0
 10
28.1948
 20
0.5173
  0
VERTEX
  8
0
 10
28.2386
 20
0.5141
  0
VERTEX
  8
0
 10
28.2823
 20
0.5169
  0
VERTEX
  8
0
 10
28.3223
 20
0.526
  0
VERTEX
  8
0
 10
28.3585
 20
0.5414
  0
VERTEX
  8
0
 10
28.391
 20
0.563
  0
VERTEX
  8
0
 10
28.4197
 20
0.5908
  0
VERTEX
  8
0
 10
28.4447
 20
0.625
  0
VERTEX
  8
0
 10
28.4766
 20
0.6928
  0
VERTEX
  8
0
 10
28.4957
 20
0.7724
  0
VERTEX
  8
0
 10
28.5021
 20
0.8636
  0
VERTEX
  8
0
 10
28.4954
 20
0.9518
  0
VERTEX
  8
0
 10
28.4754
 20
1.0291
  0
VERTEX
  8
0
 10
28.4421
 20
1.0955
  0
VERTEX
  8
0
 10
28.4168
 20
1.128
  0
VERTEX
  8
0
 10
28.388
 20
1.1547
  0
VERTEX
  8
0
 10
28.3558
 20
1.1754
  0
VERTEX
  8
0
 10
28.3201
 20
1.1902
  0
VERTEX
  8
0
 10
28.281
 20
1.1991
  0
VERTEX
  8
0
 10
28.2386
 20
1.2021
  0
VERTEX
  8
0
 10
28.1948
 20
1.1991
  0
VERTEX
  8
0
 10
28.1548
 20
1.19
  0
VERTEX
  8
0
 10
28.1186
 20
1.175
  0
VERTEX
  8
0
 10
28.0861
 20
1.1539
  0
VERTEX
  8
0
 10
28.0574
 20
1.1269
  0
VERTEX
  8
0
 10
28.0324
 20
1.0938
  0
VERTEX
  8
0
 10
28
 20
1.027
  0
VERTEX
  8
0
 10
27.9806
 20
0.9486
  0
VERTEX
  8
0
 10
27.9741
 20
0.8585
  0
VERTEX
  8
0
 10
27.9741
 20
0.8585
  0
SEQEND
  0
POLYLINE
  8
0
 66
     1
 10
0
 20
0
  0
VERTEX
  8
0
 10
28.8381
 20
0.4061
  0
VERTEX
  8
0
 10
28.8381
 20
1.3066
  0
VERTEX
  8
0
 10
28.9741
 20
1.3066
  0
VERTEX
  8
0
 10
28.9741
 20
1.1791
  0
VERTEX
  8
0
 10
29.0002
 20
1.2134
  0
VERTEX
  8
0
 10
29.029
 20
1.2431
  0
VERTEX
  8
0
 10
29.0606
 20
1.2683
  0
VERTEX
  8
0
 10
29.0949
 20
1.2889
  0
VERTEX
  8
0
 10
29.1319
 20
1.305
  0
VERTEX
  8
0
 10
29.1717
 20
1.3166
  0
VERTEX
  8
0
 10
29.2143
 20
1.3236
  0
VERTEX
  8
0
 10
29.2596
 20
1.3261
  0
VERTEX
  8
0
 10
29.336
 20
1.3187
  0
VERTEX
  8
0
 10
29.4082
 20
1.2965
  0
VERTEX
  8
0
 10
29.4459
 20
1.2769
  0
VERTEX
  8
0
 10
29.4785
 20
1.2525
  0
VERTEX
  8
0
 10
29.5059
 20
1.2234
  0
VERTEX
  8
0
 10
29.5283
 20
1.1895
  0
VERTEX
  8
0
 10
29.5455
 20
1.1509
  0
VERTEX
  8
0
 10
29.5577
 20
1.1075
  0
VERTEX
  8
0
 10
29.5624
 20
1.0734
  0
VERTEX
  8
0
 10
29.5652
 20
1.0239
  0
VERTEX
  8
0
 10
29.5661
 20
0.9593
  0
VERTEX
  8
0
 10
29.5661
 20
0.4061
  0
VERTEX
  8
0
 10
29.4141
 20
0.4061
  0
VERTEX
  8
0
 10
29.4141
 20
0.9535
  0
VERTEX
  8
0
 10
29.4112
 20
1.0231
  0
VERTEX
  8
0
 10
29.4023
 20
1.0729
  0
VERTEX
  8
0
 10
29.3766
 20
1.1267
  0
VERTEX
  8
0
 10
29.3332
 20
1.1661
  0
VERTEX
  8
0
 10
29.2845
 20
1.1871
  0
VERTEX
  8
0
 10
29.2278
 20
1.1941
  0
VERTEX
  8
0
 10
29.2034
 20
1.1933
  0
VERTEX
  8
0
 10
29.1804
 20
1.1908
  0
VERTEX
  8
0
 10
29.1587
 20
1.1867
  0
VERTEX
  8
0
 10
29.1383
 20
1.1809
  0
VERTEX
  8
0
 10
29.1192
 20
1.1735
  0
VERTEX
  8
0
 10
29.1014
 20
1.1645
  0
VERTEX
  8
0
 10
29.0849
 20
1.1538
  0
VERTEX
  8
0
 10
29.0698
 20
1.1415
  0
VERTEX
  8
0
 10
29.056
 20
1.1275
  0
VERTEX
  8
0
 10
29.0434
 20
1.1119
  0
VERTEX
  8
0
 10
29.0323
 20
1.0947
  0
VERTEX
  8
0
 10
29.0224
 20
1.0758
  0
VERTEX
  8
0
 10
29.0138
 20
1.0552
  0
VERTEX
  8
0
 10
29.0066
 20
1.0331
  0
VERTEX
  8
0
 10
29.0006
 20
1.0092
  0
VERTEX
  8
0
 10
28.996
 20
0.9838
  0
VERTEX
  8
0
 10
28.9927
 20
0.9567
  0
VERTEX
  8
0
 10
28.9908
 20
0.9279
  0
VERTEX
  8
0
 10
28.9901
 20
0.8975
  0
VERTEX
  8
0
 10
28.9901
 20
0.4061
  0
VERTEX
  8
0
 10
28.8381
 20
0.4061
  0
SEQEND
  0
POLYLINE
  8
0
 66
     1
 10
0
 20
0
  0
VERTEX
  8
0
 10
31.2061
 20
0.8941
  0
VERTEX
  8
0
 10
31.2061
 20
1.0421
  0
VERTEX
  8
0
 10
31.7301
 20
1.0421
  0
VERTEX
  8
0
 10
31.7301
 20
0.5832
  0
VERTEX
  8
0
 10
31.6761
 20
0.5427
  0
VERTEX
  8
0
 10
31.6214
 20
0.5069
  0
VERTEX
  8
0
 10
31.566
 20
0.4759
  0
VERTEX
  8
0
 10
31.5098
 20
0.4497
  0
VERTEX
  8
0
 10
31.4529
 20
0.4282
  0
VERTEX
  8
0
 10
31.3953
 20
0.4115
  0
VERTEX
  8
0
 10
31.3369
 20
0.3996
  0
VERTEX
  8
0
 10
31.2778
 20
0.3925
  0
VERTEX
  8
0
 10
31.218
 20
0.3901
  0
VERTEX
  8
0
 10
31.1301
 20
0.3946
  0
VERTEX
  8
0
 10
31.047
 20
0.4082
  0
VERTEX
  8
0
 10
30.9685
 20
0.4309
  0
VERTEX
  8
0
 10
30.8949
 20
0.4627
  0
VERTEX
  8
0
 10
30.8362
 20
0.4974
  0
VERTEX
  8
0
 10
30.7835
 20
0.5378
  0
VERTEX
  8
0
 10
30.737
 20
0.5841
  0
VERTEX
  8
0
 10
30.6965
 20
0.6361
  0
VERTEX
  8
0
 10
30.6621
 20
0.694
  0
VERTEX
  8
0
 10
30.6288
 20
0.7694
  0
VERTEX
  8
0
 10
30.6051
 20
0.8496
  0
VERTEX
  8
0
 10
30.5909
 20
0.9345
  0
VERTEX
  8
0
 10
30.5861
 20
1.0241
  0
VERTEX
  8
0
 10
30.5939
 20
1.1397
  0
VERTEX
  8
0
 10
30.6173
 20
1.2486
  0
VERTEX
  8
0
 10
30.6562
 20
1.351
  0
VERTEX
  8
0
 10
30.69
 20
1.4136
  0
VERTEX
  8
0
 10
30.7291
 20
1.4693
  0
VERTEX
  8
0
 10
30.7737
 20
1.5179
  0
VERTEX
  8
0
 10
30.8237
 20
1.5595
  0
VERTEX
  8
0
 10
30.8791
 20
1.5941
  0
VERTEX
  8
0
 10
30.9527
 20
1.6273
  0
VERTEX
  8
0
 10
31.0316
 20
1.6511
  0
VERTEX
  8
0
 10
31.116
 20
1.6653
  0
VERTEX
  8
0
 10
31.2058
 20
1.6701
  0
VERTEX
  8
0
 10
31.3328
 20
1.659
  0
VERTEX
  8
0
 10
31.4489
 20
1.6256
  0
VERTEX
  8
0
 10
31.5477
 20
1.5719
  0
VERTEX
  8
0
 10
31.6228
 20
1.4998
  0
VERTEX
  8
0
 10
31.6735
 20
1.4134
  0
VERTEX
  8
0
 10
31.7123
 20
1.3016
  0
VERTEX
  8
0
 10
31.5644
 20
1.261
  0
VERTEX
  8
0
 10
31.5346
 20
1.3429
  0
VERTEX
  8
0
 10
31.4994
 20
1.4036
  0
VERTEX
  8
0
 10
31.4469
 20
1.4566
  0
VERTEX
  8
0
 10
31.3773
 20
1.4966
  0
VERTEX
  8
0
 10
31.2954
 20
1.5217
  0
VERTEX
  8
0
 10
31.2062
 20
1.5301
  0
VERTEX
  8
0
 10
31.1022
 20
1.5215
  0
VERTEX
  8
0
 10
31.0118
 20
1.4956
  0
VERTEX
  8
0
 10
30.9651
 20
1.4729
  0
VERTEX
  8
0
 10
30.9231
 20
1.4452
  0
VERTEX
  8
0
 10
30.8857
 20
1.4126
  0
VERTEX
  8
0
 10
30.853
 20
1.3749
  0
VERTEX
  8
0
 10
30.8249
 20
1.3322
  0
VERTEX
  8
0
 10
30.8014
 20
1.2846
  0
VERTEX
  8
0
 10
30.7664
 20
1.1671
  0
VERTEX
  8
0
 10
30.7541
 20
1.0365
  0
VERTEX
  8
0
 10
30.7549
 20
0.9934
  0
VERTEX
  8
0
 10
30.7577
 20
0.9523
  0
VERTEX
  8
0
 10
30.7625
 20
0.9131
  0
VERTEX
  8
0
 10
30.7693
 20
0.8759
  0
VERTEX
  8
0
 10
30.7781
 20
0.8407
  0
VERTEX
  8
0
 10
30.789
 20
0.8074
  0
VERTEX
  8
0
 10
30.8018
 20
0.776
  0
VERTEX
  8
0
 10
30.8167
 20
0.7467
  0
VERTEX
  8
0
 10
30.8336
 20
0.7193
  0
VERTEX
  8
0
 10
30.8525
 20
0.6938
  0
VERTEX
  8
0
 10
30.8734
 20
0.6703
  0
VERTEX
  8
0
 10
30.8963
 20
0.6488
  0
VERTEX
  8
0
 10
30.9212
 20
0.6292
  0
VERTEX
  8
0
 10
30.9482
 20
0.6116
  0
VERTEX
  8
0
 10
30.9771
 20
0.5959
  0
VERTEX
  8
0
 10
31.0895
 20
0.5559
  0
VERTEX
  8
0
 10
31.2086
 20
0.5421
  0
VERTEX
  8
0
 10
31.3017
 20
0.5502
  0
VERTEX
  8
0
 10
31.4003
 20
0.576
  0
VERTEX
  8
0
 10
31.4956
 20
0.6168
  0
VERTEX
  8
0
 10
31.5701
 20
0.668
  0
VERTEX
  8
0
 10
31.5701
 20
0.8941
  0
VERTEX
  8
0
 10
31.2061
 20
0.8941
  0
SEQEND
  0
POLYLINE
  8
0
 66
     1
 10
0
 20
0
  0
VERTEX
  8
0
 10
31.9541
 20
0.4061
  0
VERTEX
  8
0
 10
31.9541
 20
1.3066
  0
VERTEX
  8
0
 10
32.0901
 20
1.3066
  0
VERTEX
  8
0
 10
32.0901
 20
1.1707
  0
VERTEX
  8
0
 10
32.1299
 20
1.235
  0
VERTEX
  8
0
 10
32.1662
 20
1.2782
  0
VERTEX
  8
0
 10
32.2208
 20
1.3141
  0
VERTEX
  8
0
 10
32.2847
 20
1.3261
  0
VERTEX
  8
0
 10
32.3619
 20
1.3139
  0
VERTEX
  8
0
 10
32.4412
 20
1.2773
  0
VERTEX
  8
0
 10
32.3889
 20
1.137
  0
VERTEX
  8
0
 10
32.3332
 20
1.1618
  0
VERTEX
  8
0
 10
32.2775
 20
1.1701
  0
VERTEX
  8
0
 10
32.2285
 20
1.1614
  0
VERTEX
  8
0
 10
32.1829
 20
1.1353
  0
VERTEX
  8
0
 10
32.1523
 20
1.1011
  0
VERTEX
  8
0
 10
32.1314
 20
1.0563
  0
VERTEX
  8
0
 10
32.1124
 20
0.9719
  0
VERTEX
  8
0
 10
32.1061
 20
0.8781
  0
VERTEX
  8
0
 10
32.1061
 20
0.4061
  0
VERTEX
  8
0
 10
31.9541
 20
0.4061
  0
SEQEND
  0
POLYLINE
  8
0
 66
     1
 10
0
 20
0
  0
VERTEX
  8
0
 10
33.1463
 20
0.6988
  0
VERTEX
  8
0
 10
33.3036
 20
0.6795
  0
VERTEX
  8
0
 10
33.2942
 20
0.6482
  0
VERTEX
  8
0
 10
33.2833
 20
0.6187
  0
VERTEX
  8
0
 10
33.271
 20
0.591
  0
VERTEX
  8
0
 10
33.2572
 20
0.5651
  0
VERTEX
  8
0
 10
33.242
 20
0.541
  0
VERTEX
  8
0
 10
33.2252
 20
0.5187
  0
VERTEX
  8
0
 10
33.207
 20
0.4982
  0
VERTEX
  8
0
 10
33.1873
 20
0.4794
  0
VERTEX
  8
0
 10
33.1661
 20
0.4624
  0
VERTEX
  8
0
 10
33.1435
 20
0.4472
  0
VERTEX
  8
0
 10
33.1194
 20
0.4338
  0
VERTEX
  8
0
 10
33.0938
 20
0.4222
  0
VERTEX
  8
0
 10
33.0667
 20
0.4124
  0
VERTEX
  8
0
 10
33.0382
 20
0.4044
  0
VERTEX
  8
0
 10
33.0082
 20
0.3981
  0
VERTEX
  8
0
 10
32.9767
 20
0.3937
  0
VERTEX
  8
0
 10
32.9437
 20
0.391
  0
VERTEX
  8
0
 10
32.9093
 20
0.3901
  0
VERTEX
  8
0
 10
32.8545
 20
0.3925
  0
VERTEX
  8
0
 10
32.8032
 20
0.3999
  0
VERTEX
  8
0
 10
32.7552
 20
0.4122
  0
VERTEX
  8
0
 10
32.7105
 20
0.4295
  0
VERTEX
  8
0
 10
32.6693
 20
0.4516
  0
VERTEX
  8
0
 10
32.6314
 20
0.4787
  0
VERTEX
  8
0
 10
32.5969
 20
0.5107
  0
VERTEX
  8
0
 10
32.5665
 20
0.5471
  0
VERTEX
  8
0
 10
32.5407
 20
0.5876
  0
VERTEX
  8
0
 10
32.5196
 20
0.6322
  0
VERTEX
  8
0
 10
32.5032
 20
0.6807
  0
VERTEX
  8
0
 10
32.4915
 20
0.7333
  0
VERTEX
  8
0
 10
32.4845
 20
0.7899
  0
VERTEX
  8
0
 10
32.4821
 20
0.8505
  0
VERTEX
  8
0
 10
32.485
 20
0.9177
  0
VERTEX
  8
0
 10
32.4936
 20
0.9805
  0
VERTEX
  8
0
 10
32.5079
 20
1.0388
  0
VERTEX
  8
0
 10
32.5279
 20
1.0926
  0
VERTEX
  8
0
 10
32.5536
 20
1.142
  0
VERTEX
  8
0
 10
32.5851
 20
1.187
  0
VERTEX
  8
0
 10
32.6148
 20
1.2196
  0
VERTEX
  8
0
 10
32.6473
 20
1.2478
  0
VERTEX
  8
0
 10
32.6825
 20
1.2717
  0
VERTEX
  8
0
 10
32.7206
 20
1.2913
  0
VERTEX
  8
0
 10
32.7615
 20
1.3065
  0
VERTEX
  8
0
 10
32.8051
 20
1.3174
  0
VERTEX
  8
0
 10
32.8516
 20
1.3239
  0
VERTEX
  8
0
 10
32.9009
 20
1.3261
  0
VERTEX
  8
0
 10
32.9489
 20
1.3239
  0
VERTEX
  8
0
 10
32.9942
 20
1.3175
  0
VERTEX
  8
0
 10
33.0367
 20
1.3069
  0
VERTEX
  8
0
 10
33.0765
 20
1.2919
  0
VERTEX
  8
0
 10
33.1135
 20
1.2727
  0
VERTEX
  8
0
 10
33.1478
 20
1.2492
  0
VERTEX
  8
0
 10
33.1794
 20
1.2214
  0
VERTEX
  8
0
 10
33.2082
 20
1.1894
  0
VERTEX
  8
0
 10
33.2389
 20
1.1454
  0
VERTEX
  8
0
 10
33.264
 20
1.0971
  0
VERTEX
  8
0
 10
33.2835
 20
1.0447
  0
VERTEX
  8
0
 10
33.2975
 20
0.9881
  0
VERTEX
  8
0
 10
33.3058
 20
0.9273
  0
VERTEX
  8
0
 10
33.3086
 20
0.8623
  0
VERTEX
  8
0
 10
33.3084
 20
0.8414
  0
VERTEX
  8
0
 10
33.3077
 20
0.8221
  0
VERTEX
  8
0
 10
32.6381
 20
0.8221
  0
VERTEX
  8
0
 10
32.6491
 20
0.7394
  0
VERTEX
  8
0
 10
32.6731
 20
0.6677
  0
VERTEX
  8
0
 10
32.71
 20
0.6071
  0
VERTEX
  8
0
 10
32.7415
 20
0.5736
  0
VERTEX
  8
0
 10
32.7772
 20
0.5476
  0
VERTEX
  8
0
 10
32.8171
 20
0.529
  0
VERTEX
  8
0
 10
32.8612
 20
0.5178
  0
VERTEX
  8
0
 10
32.9096
 20
0.5141
  0
VERTEX
  8
0
 10
32.9425
 20
0.5159
  0
VERTEX
  8
0
 10
32.9734
 20
0.5215
  0
VERTEX
  8
0
 10
33.0022
 20
0.5307
  0
VERTEX
  8
0
 10
33.029
 20
0.5436
  0
VERTEX
  8
0
 10
33.0537
 20
0.5603
  0
VERTEX
  8
0
 10
33.0764
 20
0.5806
  0
VERTEX
  8
0
 10
33.0969
 20
0.6046
  0
VERTEX
  8
0
 10
33.1155
 20
0.6323
  0
VERTEX
  8
0
 10
33.1319
 20
0.6637
  0
VERTEX
  8
0
 10
33.1463
 20
0.6988
  0
VERTEX
  8
0
 10
33.1463
 20
0.6988
  0
SEQEND
  0
POLYLINE
  8
0
 66
     1
 10
0
 20
0
  0
VERTEX
  8
0
 10
32.6476
 20
0.9461
  0
VERTEX
  8
0
 10
33.1482
 20
0.9461
  0
VERTEX
  8
0
 10
33.1373
 20
1.0148
  0
VERTEX
  8
0
 10
33.1181
 20
1.0711
  0
VERTEX
  8
0
 10
33.0907
 20
1.1148
  0
VERTEX
  8
0
 10
33.0518
 20
1.1527
  0
VERTEX
  8
0
 10
33.0074
 20
1.1798
  0
VERTEX
  8
0
 10
32.9576
 20
1.1963
  0
VERTEX
  8
0
 10
32.9025
 20
1.2021
  0
VERTEX
  8
0
 10
32.8497
 20
1.1978
  0
VERTEX
  8
0
 10
32.8021
 20
1.184
  0
VERTEX
  8
0
 10
32.7594
 20
1.1608
  0
VERTEX
  8
0
 10
32.7219
 20
1.1282
  0
VERTEX
  8
0
 10
32.684
 20
1.0766
  0
VERTEX
  8
0
 10
32.6592
 20
1.0159
  0
VERTEX
  8
0
 10
32.6476
 20
0.9461
  0
VERTEX
  8
0
 10
32.6476
 20
0.9461
  0
SEQEND
  0
POLYLINE
  8
0
 66
     1
 10
0
 20
0
  0
VERTEX
  8
0
 10
34.1063
 20
0.6988
  0
VERTEX
  8
0
 10
34.2636
 20
0.6795
  0
VERTEX
  8
0
 10
34.2542
 20
0.6482
  0
VERTEX
  8
0
 10
34.2433
 20
0.6187
  0
VERTEX
  8
0
 10
34.231
 20
0.591
  0
VERTEX
  8
0
 10
34.2172
 20
0.5651
  0
VERTEX
  8
0
 10
34.202
 20
0.541
  0
VERTEX
  8
0
 10
34.1852
 20
0.5187
  0
VERTEX
  8
0
 10
34.167
 20
0.4982
  0
VERTEX
  8
0
 10
34.1473
 20
0.4794
  0
VERTEX
  8
0
 10
34.1261
 20
0.4624
  0
VERTEX
  8
0
 10
34.1035
 20
0.4472
  0
VERTEX
  8
0
 10
34.0794
 20
0.4338
  0
VERTEX
  8
0
 10
34.0538
 20
0.4222
  0
VERTEX
  8
0
 10
34.0267
 20
0.4124
  0
VERTEX
  8
0
 10
33.9982
 20
0.4044
  0
VERTEX
  8
0
 10
33.9682
 20
0.3981
  0
VERTEX
  8
0
 10
33.9367
 20
0.3937
  0
VERTEX
  8
0
 10
33.9037
 20
0.391
  0
VERTEX
  8
0
 10
33.8693
 20
0.3901
  0
VERTEX
  8
0
 10
33.8145
 20
0.3925
  0
VERTEX
  8
0
 10
33.7632
 20
0.3999
  0
VERTEX
  8
0
 10
33.7152
 20
0.4122
  0
VERTEX
  8
0
 10
33.6705
 20
0.4295
  0
VERTEX
  8
0
 10
33.6293
 20
0.4516
  0
VERTEX
  8
0
 10
33.5914
 20
0.4787
  0
VERTEX
  8
0
 10
33.5569
 20
0.5107
  0
VERTEX
  8
0
 10
33.5265
 20
0.5471
  0
VERTEX
  8
0
 10
33.5007
 20
0.5876
  0
VERTEX
  8
0
 10
33.4796
 20
0.6322
  0
VERTEX
  8
0
 10
33.4632
 20
0.6807
  0
VERTEX
  8
0
 10
33.4515
 20
0.7333
  0
VERTEX
  8
0
 10
33.4445
 20
0.7899
  0
VERTEX
  8
0
 10
33.4421
 20
0.8505
  0
VERTEX
  8
0
 10
33.445
 20
0.9177
  0
VERTEX
  8
0
 10
33.4536
 20
0.9805
  0
VERTEX
  8
0
 10
33.4679
 20
1.0388
  0
VERTEX
  8
0
 10
33.4879
 20
1.0926
  0
VERTEX
  8
0
 10
33.5136
 20
1.142
  0
VERTEX
  8
0
 10
33.5451
 20
1.187
  0
VERTEX
  8
0
 10
33.5748
 20
1.2196
  0
VERTEX
  8
0
 10
33.6073
 20
1.2478
  0
VERTEX
  8
0
 10
33.6425
 20
1.2717
  0
VERTEX
  8
0
 10
33.6806
 20
1.2913
  0
VERTEX
  8
0
 10
33.7215
 20
1.3065
  0
VERTEX
  8
0
 10
33.7651
 20
1.3174
  0
VERTEX
  8
0
 10
33.8116
 20
1.3239
  0
VERTEX
  8
0
 10
33.8609
 20
1.3261
  0
VERTEX
  8
0
 10
33.9089
 20
1.3239
  0
VERTEX
  8
0
 10
33.9542
 20
1.3175
  0
VERTEX
  8
0
 10
33.9967
 20
1.3069
  0
VERTEX
  8
0
 10
34.0365
 20
1.2919
  0
VERTEX
  8
0
 10
34.0735
 20
1.2727
  0
VERTEX
  8
0
 10
34.1078
 20
1.2492
  0
VERTEX
  8
0
 10
34.1394
 20
1.2214
  0
VERTEX
  8
0
 10
34.1682
 20
1.1894
  0
VERTEX
  8
0
 10
34.1989
 20
1.1454
  0
VERTEX
  8
0
 10
34.224
 20
1.0971
  0
VERTEX
  8
0
 10
34.2435
 20
1.0447
  0
VERTEX
  8
0
 10
34.2575
 20
0.9881
  0
VERTEX
  8
0
 10
34.2658
 20
0.9273
  0
VERTEX
  8
0
 10
34.2686
 20
0.8623
  0
VERTEX
  8
0
 10
34.2684
 20
0.8414
  0
VERTEX
  8
0
 10
34.2677
 20
0.8221
  0
VERTEX
  8
0
 10
33.5981
 20
0.8221
  0
VERTEX
  8
0
 10
33.6091
 20
0.7394
  0
VERTEX
  8
0
 10
33.6331
 20
0.6677
  0
VERTEX
  8
0
 10
33.67
 20
0.6071
  0
VERTEX
  8
0
 10
33.7015
 20
0.5736
  0
VERTEX
  8
0
 10
33.7372
 20
0.5476
  0
VERTEX
  8
0
 10
33.7771
 20
0.529
  0
VERTEX
  8
0
 10
33.8212
 20
0.5178
  0
VERTEX
  8
0
 10
33.8696
 20
0.5141
  0
VERTEX
  8
0
 10
33.9025
 20
0.5159
  0
VERTEX
  8
0
 10
33.9334
 20
0.5215
  0
VERTEX
  8
0
 10
33.9622
 20
0.5307
  0
VERTEX
  8
0
 10
33.989
 20
0.5436
  0
VERTEX
  8
0
 10
34.0137
 20
0.5603
  0
VERTEX
  8
0
 10
34.0364
 20
0.5806
  0
VERTEX
  8
0
 10
34.0569
 20
0.6046
  0
VERTEX
  8
0
 10
34.0755
 20
0.6323
  0
VERTEX
  8
0
 10
34.0919
 20
0.6637
  0
VERTEX
  8
0
 10
34.1063
 20
0.6988
  0
VERTEX
  8
0
 10
34.1063
 20
0.6988
  0
SEQEND
  0
POLYLINE
  8
0
 66
     1
 10
0
 20
0
  0
VERTEX
  8
0
 10
33.6076
 20
0.9461
  0
VERTEX
  8
0
 10
34.1082
 20
0.9461
  0
VERTEX
  8
0
 10
34.0973
 20
1.0148
  0
VERTEX
  8
0
 10
34.0781
 20
1.0711
  0
VERTEX
  8
0
 10
34.0507
 20
1.1148
  0
VERTEX
  8
0
 10
34.0118
 20
1.1527
  0
VERTEX
  8
0
 10
33.9674
 20
1.1798
  0
VERTEX
  8
0
 10
33.9176
 20
1.1963
  0
VERTEX
  8
0
 10
33.8625
 20
1.2021
  0
VERTEX
  8
0
 10
33.8097
 20
1.1978
  0
VERTEX
  8
0
 10
33.7621
 20
1.184
  0
VERTEX
  8
0
 10
33.7194
 20
1.1608
  0
VERTEX
  8
0
 10
33.6819
 20
1.1282
  0
VERTEX
  8
0
 10
33.644
 20
1.0766
  0
VERTEX
  8
0
 10
33.6192
 20
1.0159
  0
VERTEX
  8
0
 10
33.6076
 20
0.9461
  0
VERTEX
  8
0
 10
33.6076
 20
0.9461
  0
SEQEND
  0
POLYLINE
  8
0
 66
     1
 10
0
 20
0
  0
VERTEX
  8
0
 10
34.4541
 20
0.4061
  0
VERTEX
  8
0
 10
34.4541
 20
1.3066
  0
VERTEX
  8
0
 10
34.5901
 20
1.3066
  0
VERTEX
  8
0
 10
34.5901
 20
1.1791
  0
VERTEX
  8
0
 10
34.6162
 20
1.2134
  0
VERTEX
  8
0
 10
34.645
 20
1.2431
  0
VERTEX
  8
0
 10
34.6766
 20
1.2683
  0
VERTEX
  8
0
 10
34.7109
 20
1.2889
  0
VERTEX
  8
0
 10
34.7479
 20
1.305
  0
VERTEX
  8
0
 10
34.7877
 20
1.3166
  0
VERTEX
  8
0
 10
34.8303
 20
1.3236
  0
VERTEX
  8
0
 10
34.8755
 20
1.3261
  0
VERTEX
  8
0
 10
34.952
 20
1.3187
  0
VERTEX
  8
0
 10
35.0242
 20
1.2965
  0
VERTEX
  8
0
 10
35.0619
 20
1.2769
  0
VERTEX
  8
0
 10
35.0945
 20
1.2525
  0
VERTEX
  8
0
 10
35.1219
 20
1.2234
  0
VERTEX
  8
0
 10
35.1443
 20
1.1895
  0
VERTEX
  8
0
 10
35.1615
 20
1.1509
  0
VERTEX
  8
0
 10
35.1737
 20
1.1075
  0
VERTEX
  8
0
 10
35.1784
 20
1.0734
  0
VERTEX
  8
0
 10
35.1812
 20
1.0239
  0
VERTEX
  8
0
 10
35.1821
 20
0.9593
  0
VERTEX
  8
0
 10
35.1821
 20
0.4061
  0
VERTEX
  8
0
 10
35.0301
 20
0.4061
  0
VERTEX
  8
0
 10
35.0301
 20
0.9535
  0
VERTEX
  8
0
 10
35.0272
 20
1.0231
  0
VERTEX
  8
0
 10
35.0183
 20
1.0729
  0
VERTEX
  8
0
 10
34.9926
 20
1.1267
  0
VERTEX
  8
0
 10
34.9492
 20
1.1661
  0
VERTEX
  8
0
 10
34.9005
 20
1.1871
  0
VERTEX
  8
0
 10
34.8438
 20
1.1941
  0
VERTEX
  8
0
 10
34.8194
 20
1.1933
  0
VERTEX
  8
0
 10
34.7964
 20
1.1908
  0
VERTEX
  8
0
 10
34.7747
 20
1.1867
  0
VERTEX
  8
0
 10
34.7543
 20
1.1809
  0
VERTEX
  8
0
 10
34.7352
 20
1.1735
  0
VERTEX
  8
0
 10
34.7174
 20
1.1645
  0
VERTEX
  8
0
 10
34.7009
 20
1.1538
  0
VERTEX
  8
0
 10
34.6858
 20
1.1415
  0
VERTEX
  8
0
 10
34.672
 20
1.1275
  0
VERTEX
  8
0
 10
34.6594
 20
1.1119
  0
VERTEX
  8
0
 10
34.6483
 20
1.0947
  0
VERTEX
  8
0
 10
34.6384
 20
1.0758
  0
VERTEX
  8
0
 10
34.6298
 20
1.0552
  0
VERTEX
  8
0
 10
34.6226
 20
1.0331
  0
VERTEX
  8
0
 10
34.6166
 20
1.0092
  0
VERTEX
  8
0
 10
34.612
 20
0.9838
  0
VERTEX
  8
0
 10
34.6087
 20
0.9567
  0
VERTEX
  8
0
 10
34.6068
 20
0.9279
  0
VERTEX
  8
0
 10
34.6061
 20
0.8975
  0
VERTEX
  8
0
 10
34.6061
 20
0.4061
  0
VERTEX
  8
0
 10
34.4541
 20
0.4061
  0
SEQEND
  0
POLYLINE
  8
0
 66
     1
 10
0
 20
0
  0
VERTEX
  8
0
 10
35.4661
 20
1.1341
  0
VERTEX
  8
0
 10
35.4661
 20
1.3061
  0
VERTEX
  8
0
 10
35.6381
 20
1.3061
  0
VERTEX
  8
0
 10
35.6381
 20
1.1341
  0
VERTEX
  8
0
 10
35.4661
 20
1.1341
  0
SEQEND
  0
POLYLINE
  8
0
 66
     1
 10
0
 20
0
  0
VERTEX
  8
0
 10
35.4661
 20
0.4061
  0
VERTEX
  8
0
 10
35.4661
 20
0.5781
  0
VERTEX
  8
0
 10
35.6381
 20
0.5781
  0
VERTEX
  8
0
 10
35.6381
 20
0.4075
  0
VERTEX
  8
0
 10
35.6364
 20
0.369
  0
VERTEX
  8
0
 10
35.6311
 20
0.3334
  0
VERTEX
  8
0
 10
35.6224
 20
0.3007
  0
VERTEX
  8
0
 10
35.6101
 20
0.271
  0
VERTEX
  8
0
 10
35.5944
 20
0.2442
  0
VERTEX
  8
0
 10
35.5752
 20
0.2203
  0
VERTEX
  8
0
 10
35.5524
 20
0.1993
  0
VERTEX
  8
0
 10
35.5262
 20
0.1812
  0
VERTEX
  8
0
 10
35.4965
 20
0.1661
  0
VERTEX
  8
0
 10
35.4541
 20
0.2298
  0
VERTEX
  8
0
 10
35.4823
 20
0.2453
  0
VERTEX
  8
0
 10
35.5057
 20
0.2663
  0
VERTEX
  8
0
 10
35.5242
 20
0.2929
  0
VERTEX
  8
0
 10
35.5378
 20
0.3251
  0
VERTEX
  8
0
 10
35.5465
 20
0.3628
  0
VERTEX
  8
0
 10
35.5504
 20
0.4061
  0
VERTEX
  8
0
 10
35.4661
 20
0.4061
  0
SEQEND
  0
POLYLINE
  8
0
 66
     1
 10
0
 20
0
  0
VERTEX
  8
0
 10
8.2793
 20
28.0394
  0
VERTEX
  8
0
 10
8.2793
 20
31.3754
  0
VERTEX
  8
0
 10
10.2993
 20
31.3754
  0
VERTEX
  8
0
 10
10.2993
 20
33.1779
  0
VERTEX
  8
0
 10
13.2977
 20
33.1779
  0
VERTEX
  8
0
 10
13.2977
 20
35.3237
  0
VERTEX
  8
0
 10
15.7582
 20
35.3237
  0
VERTEX
  8
0
 10
16.7138
 20
35.3237
  0
VERTEX
  8
0
 10
16.7138
 20
33.1779
  0
VERTEX
  8
0
 10
19.7122
 20
33.1779
  0
VERTEX
  8
0
 10
19.7122
 20
31.3754
  0
VERTEX
  8
0
 10
21.7206
 20
31.3754
  0
VERTEX
  8
0
 10
21.7206
 20
28.0681
  0
VERTEX
  8
0
 10
22.9166
 20
27.6103
  0
VERTEX
  8
0
 10
23.1226
 20
27.513
  0
VERTEX
  8
0
 10
23.2885
 20
27.3699
  0
VERTEX
  8
0
 10
23.4201
 20
27.2097
  0
VERTEX
  8
0
 10
23.5231
 20
27.0152
  0
VERTEX
  8
0
 10
23.5804
 20
26.8149
  0
VERTEX
  8
0
 10
23.5975
 20
26.5975
  0
VERTEX
  8
0
 10
23.5746
 20
26.3857
  0
VERTEX
  8
0
 10
23.5002
 20
26.1683
  0
VERTEX
  8
0
 10
23.5002
 20
26.174
  0
VERTEX
  8
0
 10
21.6806
 20
22.2544
  0
VERTEX
  8
0
 10
20.5018
 20
16.6295
  0
VERTEX
  8
0
 10
20.7593
 20
16.6009
  0
VERTEX
  8
0
 10
21.0111
 20
16.6009
  0
VERTEX
  8
0
 10
21.2572
 20
16.6181
  0
VERTEX
  8
0
 10
21.5089
 20
16.6581
  0
VERTEX
  8
0
 10
21.7435
 20
16.7211
  0
VERTEX
  8
0
 10
21.9781
 20
16.8012
  0
VERTEX
  8
0
 10
22.2128
 20
16.8984
  0
VERTEX
  8
0
 10
22.4416
 20
17.0243
  0
VERTEX
  8
0
 10
22.8078
 20
17.2074
  0
VERTEX
  8
0
 10
23.1912
 20
17.3448
  0
VERTEX
  8
0
 10
23.5804
 20
17.4249
  0
VERTEX
  8
0
 10
23.9809
 20
17.4535
  0
VERTEX
  8
0
 10
24.3815
 20
17.4249
  0
VERTEX
  8
0
 10
24.7706
 20
17.3448
  0
VERTEX
  8
0
 10
25.1539
 20
17.2074
  0
VERTEX
  8
0
 10
25.5202
 20
17.0243
  0
VERTEX
  8
0
 10
25.749
 20
16.8984
  0
VERTEX
  8
0
 10
25.9779
 20
16.7954
  0
VERTEX
  8
0
 10
26.224
 20
16.7153
  0
VERTEX
  8
0
 10
26.4757
 20
16.6581
  0
VERTEX
  8
0
 10
26.7275
 20
16.6181
  0
VERTEX
  8
0
 10
26.9793
 20
16.6009
  0
VERTEX
  8
0
 10
27.2368
 20
16.6066
  0
VERTEX
  8
0
 10
27.5
 20
16.6295
  0
VERTEX
  8
0
 10
27.5
 20
14.5638
  0
VERTEX
  8
0
 10
27.2368
 20
14.5352
  0
VERTEX
  8
0
 10
26.9793
 20
14.5352
  0
VERTEX
  8
0
 10
26.7275
 20
14.5524
  0
VERTEX
  8
0
 10
26.4757
 20
14.5924
  0
VERTEX
  8
0
 10
26.224
 20
14.6496
  0
VERTEX
  8
0
 10
25.9779
 20
14.7298
  0
VERTEX
  8
0
 10
25.749
 20
14.8385
  0
VERTEX
  8
0
 10
25.5202
 20
14.9586
  0
VERTEX
  8
0
 10
25.1539
 20
15.1475
  0
VERTEX
  8
0
 10
24.7706
 20
15.2791
  0
VERTEX
  8
0
 10
24.3815
 20
15.3592
  0
VERTEX
  8
0
 10
23.9809
 20
15.3878
  0
VERTEX
  8
0
 10
23.5804
 20
15.3592
  0
VERTEX
  8
0
 10
23.1912
 20
15.2791
  0
VERTEX
  8
0
 10
22.8078
 20
15.1475
  0
VERTEX
  8
0
 10
22.4416
 20
14.9586
  0
VERTEX
  8
0
 10
22.0754
 20
14.7755
  0
VERTEX
  8
0
 10
21.692
 20
14.6382
  0
VERTEX
  8
0
 10
21.3144
 20
14.5581
  0
VERTEX
  8
0
 10
20.9081
 20
14.5352
  0
VERTEX
  8
0
 10
20.5076
 20
14.5581
  0
VERTEX
  8
0
 10
20.1185
 20
14.6382
  0
VERTEX
  8
0
 10
19.7351
 20
14.7755
  0
VERTEX
  8
0
 10
19.3688
 20
14.9586
  0
VERTEX
  8
0
 10
19.0026
 20
15.1475
  0
VERTEX
  8
0
 10
18.6192
 20
15.2791
  0
VERTEX
  8
0
 10
18.2301
 20
15.3592
  0
VERTEX
  8
0
 10
17.8296
 20
15.3878
  0
VERTEX
  8
0
 10
17.429
 20
15.3592
  0
VERTEX
  8
0
 10
17.0399
 20
15.2791
  0
VERTEX
  8
0
 10
16.6566
 20
15.1475
  0
VERTEX
  8
0
 10
16.2903
 20
14.9586
  0
VERTEX
  8
0
 10
15.9241
 20
14.7755
  0
VERTEX
  8
0
 10
15.5407
 20
14.6382
  0
VERTEX
  8
0
 10
15.1516
 20
14.5581
  0
VERTEX
  8
0
 10
14.7511
 20
14.5352
  0
VERTEX
  8
0
 10
14.3448
 20
14.5581
  0
VERTEX
  8
0
 10
13.9557
 20
14.6382
  0
VERTEX
  8
0
 10
13.5723
 20
14.7755
  0
VERTEX
  8
0
 10
13.2061
 20
14.9586
  0
VERTEX
  8
0
 10
12.8399
 20
15.1475
  0
VERTEX
  8
0
 10
12.4622
 20
15.2791
  0
VERTEX
  8
0
 10
12.0674
 20
15.3592
  0
VERTEX
  8
0
 10
11.6669
 20
15.3878
  0
VERTEX
  8
0
 10
11.272
 20
15.3592
  0
VERTEX
  8
0
 10
10.8772
 20
15.2791
  0
VERTEX
  8
0
 10
10.4938
 20
15.1475
  0
VERTEX
  8
0
 10
10.1276
 20
14.9586
  0
VERTEX
  8
0
 10
9.7614
 20
14.7755
  0
VERTEX
  8
0
 10
9.378
 20
14.6382
  0
VERTEX
  8
0
 10
8.9889
 20
14.5581
  0
VERTEX
  8
0
 10
8.5883
 20
14.5352
  0
VERTEX
  8
0
 10
8.1821
 20
14.5581
  0
VERTEX
  8
0
 10
7.793
 20
14.6382
  0
VERTEX
  8
0
 10
7.4096
 20
14.7755
  0
VERTEX
  8
0
 10
7.0434
 20
14.9586
  0
VERTEX
  8
0
 10
6.6772
 20
15.1475
  0
VERTEX
  8
0
 10
6.2995
 20
15.2791
  0
VERTEX
  8
0
 10
5.9047
 20
15.3592
  0
VERTEX
  8
0
 10
5.5041
 20
15.3878
  0
VERTEX
  8
0
 10
5.1093
 20
15.3592
  0
VERTEX
  8
0
 10
4.7145
 20
15.2791
  0
VERTEX
  8
0
 10
4.3311
 20
15.1475
  0
VERTEX
  8
0
 10
3.9649
 20
14.9586
  0
VERTEX
  8
0
 10
3.6215
 20
14.7812
  0
VERTEX
  8
0
 10
3.261
 20
14.6496
  0
VERTEX
  8
0
 10
2.8834
 20
14.5695
  0
VERTEX
  8
0
 10
2.5
 20
14.5352
  0
VERTEX
  8
0
 10
2.5
 20
16.6009
  0
VERTEX
  8
0
 10
2.8834
 20
16.6352
  0
VERTEX
  8
0
 10
3.261
 20
16.7153
  0
VERTEX
  8
0
 10
3.6215
 20
16.8469
  0
VERTEX
  8
0
 10
3.9649
 20
17.0243
  0
VERTEX
  8
0
 10
4.3311
 20
17.2074
  0
VERTEX
  8
0
 10
4.7145
 20
17.3448
  0
VERTEX
  8
0
 10
5.1093
 20
17.4249
  0
VERTEX
  8
0
 10
5.5041
 20
17.4535
  0
VERTEX
  8
0
 10
5.9047
 20
17.4249
  0
VERTEX
  8
0
 10
6.2995
 20
17.3448
  0
VERTEX
  8
0
 10
6.6772
 20
17.2074
  0
VERTEX
  8
0
 10
7.0434
 20
17.0243
  0
VERTEX
  8
0
 10
7.3295
 20
16.8756
  0
VERTEX
  8
0
 10
7.6213
 20
16.7554
  0
VERTEX
  8
0
 10
7.9246
 20
16.6753
  0
VERTEX
  8
0
 10
8.2336
 20
16.6181
  0
VERTEX
  8
0
 10
8.5426
 20
16.6009
  0
VERTEX
  8
0
 10
8.8573
 20
16.6123
  0
VERTEX
  8
0
 10
9.172
 20
16.6581
  0
VERTEX
  8
0
 10
9.481
 20
16.7325
  0
VERTEX
  8
0
 10
8.3251
 20
22.2544
  0
VERTEX
  8
0
 10
6.4998
 20
26.174
  0
VERTEX
  8
0
 10
6.4254
 20
26.3857
  0
VERTEX
  8
0
 10
6.4025
 20
26.6032
  0
VERTEX
  8
0
 10
6.4197
 20
26.8149
  0
VERTEX
  8
0
 10
6.4769
 20
27.0152
  0
VERTEX
  8
0
 10
6.5742
 20
27.2097
  0
VERTEX
  8
0
 10
6.7115
 20
27.3699
  0
VERTEX
  8
0
 10
6.8832
 20
27.513
  0
VERTEX
  8
0
 10
7.0777
 20
27.6103
  0
VERTEX
  8
0
 10
8.2793
 20
28.0681
  0
VERTEX
  8
0
 10
8.2793
 20
28.0394
  0
SEQEND
  0
POLYLINE
  8
0
 66
     1
 10
0
 20
0
  0
VERTEX
  8
0
 10
27.5
 20
11.2049
  0
VERTEX
  8
0
 10
27.2368
 20
11.182
  0
VERTEX
  8
0
 10
26.9793
 20
11.1763
  0
VERTEX
  8
0
 10
26.7275
 20
11.1935
  0
VERTEX
  8
0
 10
26.4757
 20
11.2335
  0
VERTEX
  8
0
 10
26.224
 20
11.2965
  0
VERTEX
  8
0
 10
25.9779
 20
11.3766
  0
VERTEX
  8
0
 10
25.749
 20
11.4739
  0
VERTEX
  8
0
 10
25.5202
 20
11.594
  0
VERTEX
  8
0
 10
25.5202
 20
11.5883
  0
VERTEX
  8
0
 10
25.1539
 20
11.7771
  0
VERTEX
  8
0
 10
24.7706
 20
11.9145
  0
VERTEX
  8
0
 10
24.3815
 20
11.9888
  0
VERTEX
  8
0
 10
23.9809
 20
12.0175
  0
VERTEX
  8
0
 10
23.5804
 20
11.9888
  0
VERTEX
  8
0
 10
23.1912
 20
11.9145
  0
VERTEX
  8
0
 10
22.8078
 20
11.7771
  0
VERTEX
  8
0
 10
22.4416
 20
11.5883
  0
VERTEX
  8
0
 10
22.0754
 20
11.4109
  0
VERTEX
  8
0
 10
21.692
 20
11.2793
  0
VERTEX
  8
0
 10
21.3144
 20
11.2049
  0
VERTEX
  8
0
 10
20.9081
 20
11.1763
  0
VERTEX
  8
0
 10
20.5076
 20
11.2049
  0
VERTEX
  8
0
 10
20.1185
 20
11.2793
  0
VERTEX
  8
0
 10
19.7351
 20
11.4109
  0
VERTEX
  8
0
 10
19.3688
 20
11.594
  0
VERTEX
  8
0
 10
19.3688
 20
11.5883
  0
VERTEX
  8
0
 10
19.0026
 20
11.7771
  0
VERTEX
  8
0
 10
18.6192
 20
11.9145
  0
VERTEX
  8
0
 10
18.2301
 20
11.9888
  0
VERTEX
  8
0
 10
17.8296
 20
12.0175
  0
VERTEX
  8
0
 10
17.429
 20
11.9888
  0
VERTEX
  8
0
 10
17.0399
 20
11.9145
  0
VERTEX
  8
0
 10
16.6566
 20
11.7771
  0
VERTEX
  8
0
 10
16.2903
 20
11.5883
  0
VERTEX
  8
0
 10
15.9241
 20
11.4109
  0
VERTEX
  8
0
 10
15.5407
 20
11.2793
  0
VERTEX
  8
0
 10
15.1516
 20
11.2049
  0
VERTEX
  8
0
 10
14.7511
 20
11.1763
  0
VERTEX
  8
0
 10
14.3448
 20
11.2049
  0
VERTEX
  8
0
 10
13.9557
 20
11.2793
  0
VERTEX
  8
0
 10
13.5723
 20
11.4109
  0
VERTEX
  8
0
 10
13.2061
 20
11.594
  0
VERTEX
  8
0
 10
13.2061
 20
11.5883
  0
VERTEX
  8
0
 10
12.8399
 20
11.7771
  0
VERTEX
  8
0
 10
12.4622
 20
11.9145
  0
VERTEX
  8
0
 10
12.0674
 20
11.9888
  0
VERTEX
  8
0
 10
11.6669
 20
12.0175
  0
VERTEX
  8
0
 10
11.272
 20
11.9888
  0
VERTEX
  8
0
 10
10.8772
 20
11.9145
  0
VERTEX
  8
0
 10
10.4938
 20
11.7771
  0
VERTEX
  8
0
 10
10.1276
 20
11.5883
  0
VERTEX
  8
0
 10
9.7614
 20
11.4109
  0
VERTEX
  8
0
 10
9.378
 20
11.2793
  0
VERTEX
  8
0
 10
8.9889
 20
11.2049
  0
VERTEX
  8
0
 10
8.5883
 20
11.1763
  0
VERTEX
  8
0
 10
8.1821
 20
11.2049
  0
VERTEX
  8
0
 10
7.793
 20
11.2793
  0
VERTEX
  8
0
 10
7.4096
 20
11.4109
  0
VERTEX
  8
0
 10
7.0434
 20
11.594
  0
VERTEX
  8
0
 10
7.0434
 20
11.5883
  0
VERTEX
  8
0
 10
6.6772
 20
11.7771
  0
VERTEX
  8
0
 10
6.2995
 20
11.9145
  0
VERTEX
  8
0
 10
5.9047
 20
11.9888
  0
VERTEX
  8
0
 10
5.5041
 20
12.0175
  0
VERTEX
  8
0
 10
5.1093
 20
11.9888
  0
VERTEX
  8
0
 10
4.7145
 20
11.9145
  0
VERTEX
  8
0
 10
4.3311
 20
11.7771
  0
VERTEX
  8
0
 10
3.9649
 20
11.5883
  0
VERTEX
  8
0
 10
3.6215
 20
11.4224
  0
VERTEX
  8
0
 10
3.261
 20
11.2965
  0
VERTEX
  8
0
 10
2.8834
 20
11.2106
  0
VERTEX
  8
0
 10
2.5
 20
11.1763
  0
VERTEX
  8
0
 10
2.5
 20
13.2306
  0
VERTEX
  8
0
 10
2.8834
 20
13.2592
  0
VERTEX
  8
0
 10
3.261
 20
13.3507
  0
VERTEX
  8
0
 10
3.6215
 20
13.4766
  0
VERTEX
  8
0
 10
3.9649
 20
13.6597
  0
VERTEX
  8
0
 10
4.3311
 20
13.8428
  0
VERTEX
  8
0
 10
4.7145
 20
13.9744
  0
VERTEX
  8
0
 10
5.1093
 20
14.0603
  0
VERTEX
  8
0
 10
5.5041
 20
14.0831
  0
VERTEX
  8
0
 10
5.9047
 20
14.0603
  0
VERTEX
  8
0
 10
6.2995
 20
13.9744
  0
VERTEX
  8
0
 10
6.6772
 20
13.8428
  0
VERTEX
  8
0
 10
7.0434
 20
13.6597
  0
VERTEX
  8
0
 10
7.4096
 20
13.4709
  0
VERTEX
  8
0
 10
7.793
 20
13.3393
  0
VERTEX
  8
0
 10
8.1821
 20
13.2534
  0
VERTEX
  8
0
 10
8.5883
 20
13.2248
  0
VERTEX
  8
0
 10
8.9889
 20
13.2534
  0
VERTEX
  8
0
 10
9.378
 20
13.3393
  0
VERTEX
  8
0
 10
9.7614
 20
13.4709
  0
VERTEX
  8
0
 10
10.1276
 20
13.6597
  0
VERTEX
  8
0
 10
10.4938
 20
13.8428
  0
VERTEX
  8
0
 10
10.8772
 20
13.9744
  0
VERTEX
  8
0
 10
11.272
 20
14.0603
  0
VERTEX
  8
0
 10
11.6669
 20
14.0831
  0
VERTEX
  8
0
 10
12.0674
 20
14.0603
  0
VERTEX
  8
0
 10
12.4565
 20
13.9744
  0
VERTEX
  8
0
 10
12.8399
 20
13.8428
  0
VERTEX
  8
0
 10
13.2061
 20
13.6597
  0
VERTEX
  8
0
 10
13.5723
 20
13.4709
  0
VERTEX
  8
0
 10
13.9557
 20
13.3393
  0
VERTEX
  8
0
 10
14.3448
 20
13.2534
  0
VERTEX
  8
0
 10
14.7511
 20
13.2248
  0
VERTEX
  8
0
 10
15.1516
 20
13.2534
  0
VERTEX
  8
0
 10
15.5407
 20
13.3393
  0
VERTEX
  8
0
 10
15.9241
 20
13.4709
  0
VERTEX
  8
0
 10
16.2903
 20
13.6597
  0
VERTEX
  8
0
 10
16.6566
 20
13.8428
  0
VERTEX
  8
0
 10
17.0399
 20
13.9744
  0
VERTEX
  8
0
 10
17.429
 20
14.0603
  0
VERTEX
  8
0
 10
17.8296
 20
14.0831
  0
VERTEX
  8
0
 10
18.2301
 20
14.0603
  0
VERTEX
  8
0
 10
18.6192
 20
13.9744
  0
VERTEX
  8
0
 10
19.0026
 20
13.8428
  0
VERTEX
  8
0
 10
19.3688
 20
13.6597
  0
VERTEX
  8
0
 10
19.7351
 20
13.4709
  0
VERTEX
  8
0
 10
20.1185
 20
13.3393
  0
VERTEX
  8
0
 10
20.5076
 20
13.2534
  0
VERTEX
  8
0
 10
20.9081
 20
13.2248
  0
VERTEX
  8
0
 10
21.3144
 20
13.2534
  0
VERTEX
  8
0
 10
21.692
 20
13.3393
  0
VERTEX
  8
0
 10
22.0754
 20
13.4709
  0
VERTEX
  8
0
 10
22.4416
 20
13.6597
  0
VERTEX
  8
0
 10
22.8078
 20
13.8428
  0
VERTEX
  8
0
 10
23.1912
 20
13.9744
  0
VERTEX
  8
0
 10
23.5804
 20
14.0603
  0
VERTEX
  8
0
 10
23.9809
 20
14.0831
  0
VERTEX
  8
0
 10
24.3815
 20
14.0603
  0
VERTEX
  8
0
 10
24.7706
 20
13.9744
  0
VERTEX
  8
0
 10
25.1539
 20
13.8428
  0
VERTEX
  8
0
 10
25.5202
 20
13.6597
  0
VERTEX
  8
0
 10
25.749
 20
13.5338
  0
VERTEX
  8
0
 10
25.9779
 20
13.4308
  0
VERTEX
  8
0
 10
26.224
 20
13.3507
  0
VERTEX
  8
0
 10
26.4757
 20
13.2821
  0
VERTEX
  8
0
 10
26.7275
 20
13.2477
  0
VERTEX
  8
0
 10
26.9793
 20
13.2248
  0
VERTEX
  8
0
 10
27.2368
 20
13.2306
  0
VERTEX
  8
0
 10
27.5
 20
13.2592
  0
VERTEX
  8
0
 10
27.5
 20
11.2049
  0
SEQEND
  0
POLYLINE
  8
0
 66
     1
 10
0
 20
0
  0
VERTEX
  8
0
 10
15.0028
 20
30.6487
  0
VERTEX
  8
0
 10
20.3302
 20
28.6116
  0
VERTEX
  8
0
 10
20.3302
 20
29.9735
  0
VERTEX
  8
0
 10
18.3045
 20
29.9735
  0
VERTEX
  8
0
 10
18.3045
 20
31.776
  0
VERTEX
  8
0
 10
11.7012
 20
31.776
  0
VERTEX
  8
0
 10
11.7012
 20
29.9735
  0
VERTEX
  8
0
 10
9.6813
 20
29.9735
  0
VERTEX
  8
0
 10
9.6813
 20
28.6116
  0
VERTEX
  8
0
 10
15.0028
 20
30.6487
  0
SEQEND
  0
ENDSEC
  0
EOF