  0
SECTION
  2
HEADER
  9
$ACADVER
  1
AC1009
  0
ENDSEC
  0
SECTION
  2
TABLES
  0
TABLE
  2
STYLE
 70
   1
  0
STYLE
  2
STANDARD
 70
    64
 40
0.0
 41
1.0
 50
0.0
 71
     0
 42
1.0
  3
txt
  4

  0
ENDTAB
  0
ENDSEC
  0
SECTION
  2
ENTITIES
  0
ARC
  8
0
 10
7.8
 20
6.4
 40
1.5
 50
180
 51
270
  0
ARC
  8
0
 10
28.8
 20
6.4
 40
1.5
 50
270
 51
360
  0
ARC
  8
0
 10
28.8
 20
27.4
 40
1.5
 50
0
 51
90
  0
ARC
  8
0
 10
7.8
 20
27.4
 40
1.5
 50
90
 51
180
  0
POLYLINE
  8
0
 66
     1
 10
0
 20
0
  0
VERTEX
  8
0
 10
7.8
 20
4.9
  0
VERTEX
  8
0
 10
28.8
 20
4.9
  0
SEQEND
  0
POLYLINE
  8
0
 66
     1
 10
0
 20
0
  0
VERTEX
  8
0
 10
30.3
 20
6.4
  0
VERTEX
  8
0
 10
30.3
 20
27.4
  0
SEQEND
  0
POLYLINE
  8
0
 66
     1
 10
0
 20
0
  0
VERTEX
  8
0
 10
28.8
 20
28.9
  0
VERTEX
  8
0
 10
7.8
 20
28.9
  0
SEQEND
  0
POLYLINE
  8
0
 66
     1
 10
0
 20
0
  0
VERTEX
  8
0
 10
6.3
 20
27.4
  0
VERTEX
  8
0
 10
6.3
 20
6.4
  0
SEQEND
  0
ARC
  8
0
 10
7.8
 20
6.4
 40
1.5
 50
180
 51
270
  0
ARC
  8
0
 10
7.8
 20
6.4
 40
1
 50
180
 51
270
  0
ARC
  8
0
 10
28.8
 20
6.4
 40
1.5
 50
270
 51
360
  0
ARC
  8
0
 10
28.8
 20
6.4
 40
1
 50
270
 51
360
  0
ARC
  8
0
 10
28.8
 20
27.4
 40
1.5
 50
0
 51
90
  0
ARC
  8
0
 10
28.8
 20
27.4
 40
1
 50
0
 51
90
  0
ARC
  8
0
 10
7.8
 20
27.4
 40
1.5
 50
90
 51
180
  0
ARC
  8
0
 10
7.8
 20
27.4
 40
1
 50
90
 51
180
  0
POLYLINE
  8
0
 66
     1
 10
0
 20
0
  0
VERTEX
  8
0
 10
7.8
 20
5.4
  0
VERTEX
  8
0
 10
28.8
 20
5.4
  0
SEQEND
  0
POLYLINE
  8
0
 66
     1
 10
0
 20
0
  0
VERTEX
  8
0
 10
28.8
 20
4.9
  0
VERTEX
  8
0
 10
7.8
 20
4.9
  0
SEQEND
  0
POLYLINE
  8
0
 66
     1
 10
0
 20
0
  0
VERTEX
  8
0
 10
29.8
 20
6.4
  0
VERTEX
  8
0
 10
29.8
 20
27.4
  0
SEQEND
  0
POLYLINE
  8
0
 66
     1
 10
0
 20
0
  0
VERTEX
  8
0
 10
30.3
 20
27.4
  0
VERTEX
  8
0
 10
30.3
 20
6.4
  0
SEQEND
  0
POLYLINE
  8
0
 66
     1
 10
0
 20
0
  0
VERTEX
  8
0
 10
28.8
 20
28.4
  0
VERTEX
  8
0
 10
7.8
 20
28.4
  0
SEQEND
  0
POLYLINE
  8
0
 66
     1
 10
0
 20
0
  0
VERTEX
  8
0
 10
7.8
 20
28.9
  0
VERTEX
  8
0
 10
28.8
 20
28.9
  0
SEQEND
  0
POLYLINE
  8
0
 66
     1
 10
0
 20
0
  0
VERTEX
  8
0
 10
6.8
 20
27.4
  0
VERTEX
  8
0
 10
6.8
 20
6.4
  0
SEQEND
  0
POLYLINE
  8
0
 66
     1
 10
0
 20
0
  0
VERTEX
  8
0
 10
6.3
 20
6.4
  0
VERTEX
  8
0
 10
6.3
 20
27.4
  0
SEQEND
  0
POLYLINE
  8
0
 66
     1
 10
0
 20
0
  0
VERTEX
  8
0
 10
31.2484
 20
26.4477
  0
VERTEX
  8
0
 10
31.1484
 20
26.4477
  0
VERTEX
  8
0
 10
31.1484
 20
26.2677
  0
VERTEX
  8
0
 10
31.1004
 20
26.2677
  0
VERTEX
  8
0
 10
30.8364
 20
26.4551
  0
VERTEX
  8
0
 10
30.8364
 20
26.4957
  0
VERTEX
  8
0
 10
31.1004
 20
26.4957
  0
VERTEX
  8
0
 10
31.1004
 20
26.5517
  0
VERTEX
  8
0
 10
31.1484
 20
26.5517
  0
VERTEX
  8
0
 10
31.1484
 20
26.4957
  0
VERTEX
  8
0
 10
31.2484
 20
26.4957
  0
VERTEX
  8
0
 10
31.2484
 20
26.4477
  0
SEQEND
  0
POLYLINE
  8
0
 66
     1
 10
0
 20
0
  0
VERTEX
  8
0
 10
31.1004
 20
26.4477
  0
VERTEX
  8
0
 10
30.9159
 20
26.4477
  0
VERTEX
  8
0
 10
31.1039
 20
26.3142
  0
VERTEX
  8
0
 10
31.1004
 20
26.4477
  0
SEQEND
  0
POLYLINE
  8
0
 66
     1
 10
0
 20
0
  0
VERTEX
  8
0
 10
31.2484
 20
26.6317
  0
VERTEX
  8
0
 10
31.1924
 20
26.6317
  0
VERTEX
  8
0
 10
31.1924
 20
26.6877
  0
VERTEX
  8
0
 10
31.2484
 20
26.6877
  0
VERTEX
  8
0
 10
31.2484
 20
26.6317
  0
SEQEND
  0
POLYLINE
  8
0
 66
     1
 10
0
 20
0
  0
VERTEX
  8
0
 10
31.1409
 20
26.7637
  0
VERTEX
  8
0
 10
31.1364
 20
26.8169
  0
VERTEX
  8
0
 10
31.1714
 20
26.8263
  0
VERTEX
  8
0
 10
31.1964
 20
26.8427
  0
VERTEX
  8
0
 10
31.2114
 20
26.866
  0
VERTEX
  8
0
 10
31.2164
 20
26.8964
  0
VERTEX
  8
0
 10
31.2086
 20
26.9328
  0
VERTEX
  8
0
 10
31.1851
 20
26.9611
  0
VERTEX
  8
0
 10
31.1533
 20
26.978
  0
VERTEX
  8
0
 10
31.1147
 20
26.9837
  0
VERTEX
  8
0
 10
31.0767
 20
26.9778
  0
VERTEX
  8
0
 10
31.0467
 20
26.9603
  0
VERTEX
  8
0
 10
31.0271
 20
26.9324
  0
VERTEX
  8
0
 10
31.0204
 20
26.8955
  0
VERTEX
  8
0
 10
31.0303
 20
26.8524
  0
VERTEX
  8
0
 10
31.0605
 20
26.8202
  0
VERTEX
  8
0
 10
31.0544
 20
26.7726
  0
VERTEX
  8
0
 10
30.8444
 20
26.8124
  0
VERTEX
  8
0
 10
30.8444
 20
27.0166
  0
VERTEX
  8
0
 10
30.8964
 20
27.0166
  0
VERTEX
  8
0
 10
30.8964
 20
26.8514
  0
VERTEX
  8
0
 10
31.0021
 20
26.8314
  0
VERTEX
  8
0
 10
30.9829
 20
26.8691
  0
VERTEX
  8
0
 10
30.9764
 20
26.9086
  0
VERTEX
  8
0
 10
30.9859
 20
26.9594
  0
VERTEX
  8
0
 10
31.0151
 20
27.0006
  0
VERTEX
  8
0
 10
31.0578
 20
27.0269
  0
VERTEX
  8
0
 10
31.1098
 20
27.0357
  0
VERTEX
  8
0
 10
31.1617
 20
27.0276
  0
VERTEX
  8
0
 10
31.2064
 20
27.0032
  0
VERTEX
  8
0
 10
31.2438
 20
26.9566
  0
VERTEX
  8
0
 10
31.2564
 20
26.8955
  0
VERTEX
  8
0
 10
31.2488
 20
26.8457
  0
VERTEX
  8
0
 10
31.2262
 20
26.8054
  0
VERTEX
  8
0
 10
31.1893
 20
26.7768
  0
VERTEX
  8
0
 10
31.1409
 20
26.7637
  0
VERTEX
  8
0
 10
31.1409
 20
26.7637
  0
SEQEND
  0
LINE
  8
0
 10
31.05
 20
27.1353
 11
31.05
 21
28.9
  0
LINE
  8
0
 10
31.1394
 20
28.7211
 11
31.05
 21
28.9
  0
LINE
  8
0
 10
30.9606
 20
28.7211
 11
31.05
 21
28.9
  0
LINE
  8
0
 10
31.15
 20
28.9
 11
30.55
 21
28.9
  0
LINE
  8
0
 10
31.05
 20
26.1647
 11
31.05
 21
24.4
  0
LINE
  8
0
 10
30.9606
 20
24.5789
 11
31.05
 21
24.4
  0
LINE
  8
0
 10
31.1394
 20
24.5789
 11
31.05
 21
24.4
  0
LINE
  8
0
 10
31.15
 20
24.4
 11
30.55
 21
24.4
  0
POLYLINE
  8
0
 66
     1
 10
0
 20
0
  0
VERTEX
  8
0
 10
31.2484
 20
16.7797
  0
VERTEX
  8
0
 10
31.2484
 20
16.7317
  0
VERTEX
  8
0
 10
30.9272
 20
16.7317
  0
VERTEX
  8
0
 10
30.9613
 20
16.6852
  0
VERTEX
  8
0
 10
30.9879
 20
16.6277
  0
VERTEX
  8
0
 10
30.9393
 20
16.6277
  0
VERTEX
  8
0
 10
30.9096
 20
16.6802
  0
VERTEX
  8
0
 10
30.8753
 20
16.72
  0
VERTEX
  8
0
 10
30.8364
 20
16.7471
  0
VERTEX
  8
0
 10
30.8364
 20
16.7797
  0
VERTEX
  8
0
 10
31.2484
 20
16.7797
  0
SEQEND
  0
POLYLINE
  8
0
 66
     1
 10
0
 20
0
  0
VERTEX
  8
0
 10
31.1409
 20
16.9077
  0
VERTEX
  8
0
 10
31.1364
 20
16.9609
  0
VERTEX
  8
0
 10
31.1714
 20
16.9703
  0
VERTEX
  8
0
 10
31.1964
 20
16.9867
  0
VERTEX
  8
0
 10
31.2114
 20
17.01
  0
VERTEX
  8
0
 10
31.2164
 20
17.0404
  0
VERTEX
  8
0
 10
31.2086
 20
17.0768
  0
VERTEX
  8
0
 10
31.1851
 20
17.1051
  0
VERTEX
  8
0
 10
31.1533
 20
17.122
  0
VERTEX
  8
0
 10
31.1147
 20
17.1277
  0
VERTEX
  8
0
 10
31.0767
 20
17.1218
  0
VERTEX
  8
0
 10
31.0467
 20
17.1043
  0
VERTEX
  8
0
 10
31.0271
 20
17.0764
  0
VERTEX
  8
0
 10
31.0204
 20
17.0395
  0
VERTEX
  8
0
 10
31.0303
 20
16.9964
  0
VERTEX
  8
0
 10
31.0605
 20
16.9642
  0
VERTEX
  8
0
 10
31.0544
 20
16.9166
  0
VERTEX
  8
0
 10
30.8444
 20
16.9564
  0
VERTEX
  8
0
 10
30.8444
 20
17.1606
  0
VERTEX
  8
0
 10
30.8964
 20
17.1606
  0
VERTEX
  8
0
 10
30.8964
 20
16.9954
  0
VERTEX
  8
0
 10
31.0021
 20
16.9754
  0
VERTEX
  8
0
 10
30.9829
 20
17.0131
  0
VERTEX
  8
0
 10
30.9764
 20
17.0526
  0
VERTEX
  8
0
 10
30.9859
 20
17.1034
  0
VERTEX
  8
0
 10
31.0151
 20
17.1446
  0
VERTEX
  8
0
 10
31.0578
 20
17.1709
  0
VERTEX
  8
0
 10
31.1098
 20
17.1797
  0
VERTEX
  8
0
 10
31.1617
 20
17.1716
  0
VERTEX
  8
0
 10
31.2064
 20
17.1472
  0
VERTEX
  8
0
 10
31.2438
 20
17.1006
  0
VERTEX
  8
0
 10
31.2564
 20
17.0395
  0
VERTEX
  8
0
 10
31.2488
 20
16.9897
  0
VERTEX
  8
0
 10
31.2262
 20
16.9494
  0
VERTEX
  8
0
 10
31.1893
 20
16.9208
  0
VERTEX
  8
0
 10
31.1409
 20
16.9077
  0
VERTEX
  8
0
 10
31.1409
 20
16.9077
  0
SEQEND
  0
LINE
  8
0
 10
31.05
 20
17.2764
 11
31.05
 21
24.4
  0
LINE
  8
0
 10
31.1394
 20
24.2211
 11
31.05
 21
24.4
  0
LINE
  8
0
 10
30.9606
 20
24.2211
 11
31.05
 21
24.4
  0
LINE
  8
0
 10
31.05
 20
16.5236
 11
31.05
 21
9.4
  0
LINE
  8
0
 10
30.9606
 20
9.5789
 11
31.05
 21
9.4
  0
LINE
  8
0
 10
31.1394
 20
9.5789
 11
31.05
 21
9.4
  0
LINE
  8
0
 10
31.15
 20
9.4
 11
30.55
 21
9.4
  0
POLYLINE
  8
0
 66
     1
 10
0
 20
0
  0
VERTEX
  8
0
 10
7.3444
 20
4.0077
  0
VERTEX
  8
0
 10
7.3444
 20
3.9557
  0
VERTEX
  8
0
 10
7.0724
 20
3.9557
  0
VERTEX
  8
0
 10
7.0818
 20
3.9997
  0
VERTEX
  8
0
 10
7.1122
 20
4.0457
  0
VERTEX
  8
0
 10
7.141
 20
4.0751
  0
VERTEX
  8
0
 10
7.1798
 20
4.1081
  0
VERTEX
  8
0
 10
7.2238
 20
4.1448
  0
VERTEX
  8
0
 10
7.2531
 20
4.1727
  0
VERTEX
  8
0
 10
7.2856
 20
4.2167
  0
VERTEX
  8
0
 10
7.2964
 20
4.2562
  0
VERTEX
  8
0
 10
7.2905
 20
4.2853
  0
VERTEX
  8
0
 10
7.2729
 20
4.3083
  0
VERTEX
  8
0
 10
7.2478
 20
4.3227
  0
VERTEX
  8
0
 10
7.2173
 20
4.3277
  0
VERTEX
  8
0
 10
7.183
 20
4.3222
  0
VERTEX
  8
0
 10
7.157
 20
4.3051
  0
VERTEX
  8
0
 10
7.1406
 20
4.2784
  0
VERTEX
  8
0
 10
7.1349
 20
4.2438
  0
VERTEX
  8
0
 10
7.0819
 20
4.2491
  0
VERTEX
  8
0
 10
7.0945
 20
4.3
  0
VERTEX
  8
0
 10
7.1221
 20
4.3372
  0
VERTEX
  8
0
 10
7.1631
 20
4.3601
  0
VERTEX
  8
0
 10
7.2158
 20
4.3677
  0
VERTEX
  8
0
 10
7.2657
 20
4.3604
  0
VERTEX
  8
0
 10
7.3061
 20
4.3386
  0
VERTEX
  8
0
 10
7.3348
 20
4.3021
  0
VERTEX
  8
0
 10
7.3444
 20
4.2549
  0
VERTEX
  8
0
 10
7.3334
 20
4.2062
  0
VERTEX
  8
0
 10
7.3004
 20
4.1573
  0
VERTEX
  8
0
 10
7.2688
 20
4.126
  0
VERTEX
  8
0
 10
7.2224
 20
4.0858
  0
VERTEX
  8
0
 10
7.1933
 20
4.0616
  0
VERTEX
  8
0
 10
7.1793
 20
4.0496
  0
VERTEX
  8
0
 10
7.1582
 20
4.0283
  0
VERTEX
  8
0
 10
7.1424
 20
4.0077
  0
VERTEX
  8
0
 10
7.3444
 20
4.0077
  0
SEQEND
  0
POLYLINE
  8
0
 66
     1
 10
0
 20
0
  0
VERTEX
  8
0
 10
7.4284
 20
3.9557
  0
VERTEX
  8
0
 10
7.4284
 20
4.0117
  0
VERTEX
  8
0
 10
7.4844
 20
4.0117
  0
VERTEX
  8
0
 10
7.4844
 20
3.9557
  0
VERTEX
  8
0
 10
7.4284
 20
3.9557
  0
SEQEND
  0
POLYLINE
  8
0
 66
     1
 10
0
 20
0
  0
VERTEX
  8
0
 10
7.8373
 20
4.2791
  0
VERTEX
  8
0
 10
7.7872
 20
4.2752
  0
VERTEX
  8
0
 10
7.7801
 20
4.2946
  0
VERTEX
  8
0
 10
7.767
 20
4.3099
  0
VERTEX
  8
0
 10
7.7429
 20
4.3231
  0
VERTEX
  8
0
 10
7.7124
 20
4.3277
  0
VERTEX
  8
0
 10
7.6842
 20
4.3244
  0
VERTEX
  8
0
 10
7.6623
 20
4.3141
  0
VERTEX
  8
0
 10
7.6402
 20
4.2911
  0
VERTEX
  8
0
 10
7.6241
 20
4.259
  0
VERTEX
  8
0
 10
7.6143
 20
4.2177
  0
VERTEX
  8
0
 10
7.6105
 20
4.1674
  0
VERTEX
  8
0
 10
7.6375
 20
4.1987
  0
VERTEX
  8
0
 10
7.6709
 20
4.2174
  0
VERTEX
  8
0
 10
7.7106
 20
4.2237
  0
VERTEX
  8
0
 10
7.76
 20
4.2136
  0
VERTEX
  8
0
 10
7.7995
 20
4.1832
  0
VERTEX
  8
0
 10
7.824
 20
4.1406
  0
VERTEX
  8
0
 10
7.8324
 20
4.0894
  0
VERTEX
  8
0
 10
7.8286
 20
4.0529
  0
VERTEX
  8
0
 10
7.8166
 20
4.0189
  0
VERTEX
  8
0
 10
7.7966
 20
3.9882
  0
VERTEX
  8
0
 10
7.7697
 20
3.9655
  0
VERTEX
  8
0
 10
7.7386
 20
3.9521
  0
VERTEX
  8
0
 10
7.7034
 20
3.9477
  0
VERTEX
  8
0
 10
7.6806
 20
3.9491
  0
VERTEX
  8
0
 10
7.6598
 20
3.9532
  0
VERTEX
  8
0
 10
7.6409
 20
3.9601
  0
VERTEX
  8
0
 10
7.6241
 20
3.9698
  0
VERTEX
  8
0
 10
7.6092
 20
3.9823
  0
VERTEX
  8
0
 10
7.5963
 20
3.9976
  0
VERTEX
  8
0
 10
7.5853
 20
4.0156
  0
VERTEX
  8
0
 10
7.5764
 20
4.0363
  0
VERTEX
  8
0
 10
7.5694
 20
4.0599
  0
VERTEX
  8
0
 10
7.5644
 20
4.0862
  0
VERTEX
  8
0
 10
7.5614
 20
4.1153
  0
VERTEX
  8
0
 10
7.5604
 20
4.1472
  0
VERTEX
  8
0
 10
7.5653
 20
4.2194
  0
VERTEX
  8
0
 10
7.5799
 20
4.2772
  0
VERTEX
  8
0
 10
7.6043
 20
4.3206
  0
VERTEX
  8
0
 10
7.6513
 20
4.3559
  0
VERTEX
  8
0
 10
7.7155
 20
4.3677
  0
VERTEX
  8
0
 10
7.7589
 20
4.3619
  0
VERTEX
  8
0
 10
7.7956
 20
4.3447
  0
VERTEX
  8
0
 10
7.8244
 20
4.3156
  0
VERTEX
  8
0
 10
7.8373
 20
4.2791
  0
VERTEX
  8
0
 10
7.8373
 20
4.2791
  0
SEQEND
  0
POLYLINE
  8
0
 66
     1
 10
0
 20
0
  0
VERTEX
  8
0
 10
7.6164
 20
4.0887
  0
VERTEX
  8
0
 10
7.6189
 20
4.063
  0
VERTEX
  8
0
 10
7.6271
 20
4.0387
  0
VERTEX
  8
0
 10
7.6412
 20
4.0165
  0
VERTEX
  8
0
 10
7.6601
 20
4.0003
  0
VERTEX
  8
0
 10
7.6809
 20
3.991
  0
VERTEX
  8
0
 10
7.7034
 20
3.9877
  0
VERTEX
  8
0
 10
7.7379
 20
3.9953
  0
VERTEX
  8
0
 10
7.7643
 20
4.0187
  0
VERTEX
  8
0
 10
7.7792
 20
4.0494
  0
VERTEX
  8
0
 10
7.7844
 20
4.0858
  0
VERTEX
  8
0
 10
7.7793
 20
4.1221
  0
VERTEX
  8
0
 10
7.7634
 20
4.1516
  0
VERTEX
  8
0
 10
7.7366
 20
4.1725
  0
VERTEX
  8
0
 10
7.7014
 20
4.1797
  0
VERTEX
  8
0
 10
7.6668
 20
4.1731
  0
VERTEX
  8
0
 10
7.6394
 20
4.1527
  0
VERTEX
  8
0
 10
7.6223
 20
4.1238
  0
VERTEX
  8
0
 10
7.6164
 20
4.0887
  0
VERTEX
  8
0
 10
7.6164
 20
4.0887
  0
SEQEND
  0
POLYLINE
  8
0
 66
     1
 10
0
 20
0
  0
VERTEX
  8
0
 10
7.8844
 20
4.064
  0
VERTEX
  8
0
 10
7.9349
 20
4.0707
  0
VERTEX
  8
0
 10
7.9459
 20
4.0345
  0
VERTEX
  8
0
 10
7.963
 20
4.0086
  0
VERTEX
  8
0
 10
7.9862
 20
3.993
  0
VERTEX
  8
0
 10
8.0156
 20
3.9877
  0
VERTEX
  8
0
 10
8.0488
 20
3.9938
  0
VERTEX
  8
0
 10
8.076
 20
4.0127
  0
VERTEX
  8
0
 10
8.0942
 20
4.0408
  0
VERTEX
  8
0
 10
8.1004
 20
4.0747
  0
VERTEX
  8
0
 10
8.0948
 20
4.1068
  0
VERTEX
  8
0
 10
8.0776
 20
4.1328
  0
VERTEX
  8
0
 10
8.0515
 20
4.15
  0
VERTEX
  8
0
 10
8.0196
 20
4.1557
  0
VERTEX
  8
0
 10
8.003
 20
4.1543
  0
VERTEX
  8
0
 10
7.9838
 20
4.15
  0
VERTEX
  8
0
 10
7.9896
 20
4.1957
  0
VERTEX
  8
0
 10
7.9931
 20
4.1957
  0
VERTEX
  8
0
 10
7.998
 20
4.1957
  0
VERTEX
  8
0
 10
8.0309
 20
4.1998
  0
VERTEX
  8
0
 10
8.0575
 20
4.2121
  0
VERTEX
  8
0
 10
8.0775
 20
4.2343
  0
VERTEX
  8
0
 10
8.0844
 20
4.2639
  0
VERTEX
  8
0
 10
8.0797
 20
4.2896
  0
VERTEX
  8
0
 10
8.0652
 20
4.3099
  0
VERTEX
  8
0
 10
8.0432
 20
4.3231
  0
VERTEX
  8
0
 10
8.0161
 20
4.3277
  0
VERTEX
  8
0
 10
7.9876
 20
4.3232
  0
VERTEX
  8
0
 10
7.9655
 20
4.3091
  0
VERTEX
  8
0
 10
7.9499
 20
4.2856
  0
VERTEX
  8
0
 10
7.9407
 20
4.2525
  0
VERTEX
  8
0
 10
7.8894
 20
4.2614
  0
VERTEX
  8
0
 10
7.9042
 20
4.3056
  0
VERTEX
  8
0
 10
7.9306
 20
4.3392
  0
VERTEX
  8
0
 10
7.9672
 20
4.3604
  0
VERTEX
  8
0
 10
8.0126
 20
4.3677
  0
VERTEX
  8
0
 10
8.0434
 20
4.3644
  0
VERTEX
  8
0
 10
8.0721
 20
4.3542
  0
VERTEX
  8
0
 10
8.0982
 20
4.337
  0
VERTEX
  8
0
 10
8.1173
 20
4.3139
  0
VERTEX
  8
0
 10
8.1286
 20
4.2881
  0
VERTEX
  8
0
 10
8.1324
 20
4.2609
  0
VERTEX
  8
0
 10
8.1262
 20
4.2262
  0
VERTEX
  8
0
 10
8.1076
 20
4.1985
  0
VERTEX
  8
0
 10
8.0765
 20
4.1776
  0
VERTEX
  8
0
 10
8.1091
 20
4.1643
  0
VERTEX
  8
0
 10
8.1333
 20
4.1417
  0
VERTEX
  8
0
 10
8.1476
 20
4.1122
  0
VERTEX
  8
0
 10
8.1524
 20
4.0764
  0
VERTEX
  8
0
 10
8.1426
 20
4.0265
  0
VERTEX
  8
0
 10
8.1134
 20
3.9851
  0
VERTEX
  8
0
 10
8.0692
 20
3.9572
  0
VERTEX
  8
0
 10
8.0144
 20
3.9477
  0
VERTEX
  8
0
 10
7.9656
 20
3.9556
  0
VERTEX
  8
0
 10
7.9255
 20
3.9792
  0
VERTEX
  8
0
 10
7.8975
 20
4.0162
  0
VERTEX
  8
0
 10
7.8844
 20
4.064
  0
VERTEX
  8
0
 10
7.8844
 20
4.064
  0
SEQEND
  0
LINE
  8
0
 10
8.2533
 20
4.15
 11
8.926
 21
4.15
  0
LINE
  8
0
 10
8.7471
 20
4.0606
 11
8.926
 21
4.15
  0
LINE
  8
0
 10
8.7471
 20
4.2394
 11
8.926
 21
4.15
  0
LINE
  8
0
 10
8.926
 20
4.05
 11
8.926
 21
4.65
  0
LINE
  8
0
 10
6.9727
 20
4.15
 11
6.3
 21
4.15
  0
LINE
  8
0
 10
6.4789
 20
4.2394
 11
6.3
 21
4.15
  0
LINE
  8
0
 10
6.4789
 20
4.0606
 11
6.3
 21
4.15
  0
LINE
  8
0
 10
6.3
 20
4.05
 11
6.3
 21
4.65
  0
POLYLINE
  8
0
 66
     1
 10
0
 20
0
  0
VERTEX
  8
0
 10
17.7764
 20
3.9557
  0
VERTEX
  8
0
 10
17.7284
 20
3.9557
  0
VERTEX
  8
0
 10
17.7284
 20
4.2769
  0
VERTEX
  8
0
 10
17.6819
 20
4.2428
  0
VERTEX
  8
0
 10
17.6244
 20
4.2161
  0
VERTEX
  8
0
 10
17.6244
 20
4.2647
  0
VERTEX
  8
0
 10
17.6769
 20
4.2945
  0
VERTEX
  8
0
 10
17.7167
 20
4.3288
  0
VERTEX
  8
0
 10
17.7438
 20
4.3677
  0
VERTEX
  8
0
 10
17.7764
 20
4.3677
  0
VERTEX
  8
0
 10
17.7764
 20
3.9557
  0
SEQEND
  0
POLYLINE
  8
0
 66
     1
 10
0
 20
0
  0
VERTEX
  8
0
 10
17.9785
 20
4.1777
  0
VERTEX
  8
0
 10
17.944
 20
4.197
  0
VERTEX
  8
0
 10
17.9233
 20
4.225
  0
VERTEX
  8
0
 10
17.9164
 20
4.2616
  0
VERTEX
  8
0
 10
17.9252
 20
4.3056
  0
VERTEX
  8
0
 10
17.9515
 20
4.3399
  0
VERTEX
  8
0
 10
17.9883
 20
4.3606
  0
VERTEX
  8
0
 10
18.0337
 20
4.3677
  0
VERTEX
  8
0
 10
18.0792
 20
4.3606
  0
VERTEX
  8
0
 10
18.1167
 20
4.3394
  0
VERTEX
  8
0
 10
18.1435
 20
4.3044
  0
VERTEX
  8
0
 10
18.1524
 20
4.2602
  0
VERTEX
  8
0
 10
18.1458
 20
4.2248
  0
VERTEX
  8
0
 10
18.1262
 20
4.1973
  0
VERTEX
  8
0
 10
18.0936
 20
4.1777
  0
VERTEX
  8
0
 10
18.1279
 20
4.1618
  0
VERTEX
  8
0
 10
18.1525
 20
4.1389
  0
VERTEX
  8
0
 10
18.1673
 20
4.109
  0
VERTEX
  8
0
 10
18.1724
 20
4.0722
  0
VERTEX
  8
0
 10
18.1624
 20
4.0213
  0
VERTEX
  8
0
 10
18.1321
 20
3.9811
  0
VERTEX
  8
0
 10
18.089
 20
3.956
  0
VERTEX
  8
0
 10
18.0364
 20
3.9477
  0
VERTEX
  8
0
 10
17.983
 20
3.9561
  0
VERTEX
  8
0
 10
17.9401
 20
3.9814
  0
VERTEX
  8
0
 10
17.9105
 20
4.022
  0
VERTEX
  8
0
 10
17.9004
 20
4.0737
  0
VERTEX
  8
0
 10
17.9034
 20
4.1044
  0
VERTEX
  8
0
 10
17.9127
 20
4.1302
  0
VERTEX
  8
0
 10
17.9284
 20
4.151
  0
VERTEX
  8
0
 10
17.9503
 20
4.1668
  0
VERTEX
  8
0
 10
17.9785
 20
4.1777
  0
VERTEX
  8
0
 10
17.9785
 20
4.1777
  0
SEQEND
  0
POLYLINE
  8
0
 66
     1
 10
0
 20
0
  0
VERTEX
  8
0
 10
17.9644
 20
4.2634
  0
VERTEX
  8
0
 10
17.9691
 20
4.2366
  0
VERTEX
  8
0
 10
17.9837
 20
4.2149
  0
VERTEX
  8
0
 10
18.0063
 20
4.2005
  0
VERTEX
  8
0
 10
18.0349
 20
4.1957
  0
VERTEX
  8
0
 10
18.0621
 20
4.2002
  0
VERTEX
  8
0
 10
18.0843
 20
4.2138
  0
VERTEX
  8
0
 10
18.0992
 20
4.2345
  0
VERTEX
  8
0
 10
18.1044
 20
4.2606
  0
VERTEX
  8
0
 10
18.0995
 20
4.2863
  0
VERTEX
  8
0
 10
18.0844
 20
4.3079
  0
VERTEX
  8
0
 10
18.0618
 20
4.3226
  0
VERTEX
  8
0
 10
18.0344
 20
4.3277
  0
VERTEX
  8
0
 10
18.0065
 20
4.3228
  0
VERTEX
  8
0
 10
17.9831
 20
4.3076
  0
VERTEX
  8
0
 10
17.9692
 20
4.2874
  0
VERTEX
  8
0
 10
17.9644
 20
4.2634
  0
VERTEX
  8
0
 10
17.9644
 20
4.2634
  0
SEQEND
  0
POLYLINE
  8
0
 66
     1
 10
0
 20
0
  0
VERTEX
  8
0
 10
17.9484
 20
4.0726
  0
VERTEX
  8
0
 10
17.9589
 20
4.0285
  0
VERTEX
  8
0
 10
17.9911
 20
3.9987
  0
VERTEX
  8
0
 10
18.013
 20
3.9904
  0
VERTEX
  8
0
 10
18.0368
 20
3.9877
  0
VERTEX
  8
0
 10
18.0716
 20
3.9935
  0
VERTEX
  8
0
 10
18.0996
 20
4.011
  0
VERTEX
  8
0
 10
18.1182
 20
4.0376
  0
VERTEX
  8
0
 10
18.1244
 20
4.0708
  0
VERTEX
  8
0
 10
18.118
 20
4.1044
  0
VERTEX
  8
0
 10
18.099
 20
4.1315
  0
VERTEX
  8
0
 10
18.0704
 20
4.1495
  0
VERTEX
  8
0
 10
18.0351
 20
4.1557
  0
VERTEX
  8
0
 10
18.0007
 20
4.15
  0
VERTEX
  8
0
 10
17.973
 20
4.1324
  0
VERTEX
  8
0
 10
17.9547
 20
4.1056
  0
VERTEX
  8
0
 10
17.9484
 20
4.0726
  0
VERTEX
  8
0
 10
17.9484
 20
4.0726
  0
SEQEND
  0
POLYLINE
  8
0
 66
     1
 10
0
 20
0
  0
VERTEX
  8
0
 10
18.2524
 20
3.9557
  0
VERTEX
  8
0
 10
18.2524
 20
4.0117
  0
VERTEX
  8
0
 10
18.3084
 20
4.0117
  0
VERTEX
  8
0
 10
18.3084
 20
3.9557
  0
VERTEX
  8
0
 10
18.2524
 20
3.9557
  0
SEQEND
  0
POLYLINE
  8
0
 66
     1
 10
0
 20
0
  0
VERTEX
  8
0
 10
18.3884
 20
4.3077
  0
VERTEX
  8
0
 10
18.3884
 20
4.3597
  0
VERTEX
  8
0
 10
18.6541
 20
4.3597
  0
VERTEX
  8
0
 10
18.6541
 20
4.3206
  0
VERTEX
  8
0
 10
18.615
 20
4.2722
  0
VERTEX
  8
0
 10
18.5763
 20
4.2101
  0
VERTEX
  8
0
 10
18.5428
 20
4.1415
  0
VERTEX
  8
0
 10
18.5169
 20
4.0682
  0
VERTEX
  8
0
 10
18.5045
 20
4.0142
  0
VERTEX
  8
0
 10
18.4976
 20
3.9557
  0
VERTEX
  8
0
 10
18.4458
 20
3.9557
  0
VERTEX
  8
0
 10
18.4519
 20
4.0158
  0
VERTEX
  8
0
 10
18.4679
 20
4.0822
  0
VERTEX
  8
0
 10
18.4896
 20
4.1441
  0
VERTEX
  8
0
 10
18.5169
 20
4.2016
  0
VERTEX
  8
0
 10
18.5521
 20
4.2597
  0
VERTEX
  8
0
 10
18.5894
 20
4.3077
  0
VERTEX
  8
0
 10
18.3884
 20
4.3077
  0
SEQEND
  0
POLYLINE
  8
0
 66
     1
 10
0
 20
0
  0
VERTEX
  8
0
 10
18.8684
 20
3.9557
  0
VERTEX
  8
0
 10
18.8684
 20
4.0557
  0
VERTEX
  8
0
 10
18.6884
 20
4.0557
  0
VERTEX
  8
0
 10
18.6884
 20
4.1037
  0
VERTEX
  8
0
 10
18.8758
 20
4.3677
  0
VERTEX
  8
0
 10
18.9164
 20
4.3677
  0
VERTEX
  8
0
 10
18.9164
 20
4.1037
  0
VERTEX
  8
0
 10
18.9723
 20
4.1037
  0
VERTEX
  8
0
 10
18.9723
 20
4.0557
  0
VERTEX
  8
0
 10
18.9164
 20
4.0557
  0
VERTEX
  8
0
 10
18.9164
 20
3.9557
  0
VERTEX
  8
0
 10
18.8684
 20
3.9557
  0
SEQEND
  0
POLYLINE
  8
0
 66
     1
 10
0
 20
0
  0
VERTEX
  8
0
 10
18.8684
 20
4.1037
  0
VERTEX
  8
0
 10
18.8684
 20
4.2882
  0
VERTEX
  8
0
 10
18.7349
 20
4.1001
  0
VERTEX
  8
0
 10
18.8684
 20
4.1037
  0
SEQEND
  0
LINE
  8
0
 10
19.0764
 20
4.15
 11
27.674
 21
4.15
  0
LINE
  8
0
 10
27.4951
 20
4.0606
 11
27.674
 21
4.15
  0
LINE
  8
0
 10
27.4951
 20
4.2394
 11
27.674
 21
4.15
  0
LINE
  8
0
 10
27.674
 20
4.05
 11
27.674
 21
4.65
  0
LINE
  8
0
 10
17.5236
 20
4.15
 11
8.926
 21
4.15
  0
LINE
  8
0
 10
9.1049
 20
4.2394
 11
8.926
 21
4.15
  0
LINE
  8
0
 10
9.1049
 20
4.0606
 11
8.926
 21
4.15
  0
POLYLINE
  8
0
 66
     1
 10
0
 20
0
  0
VERTEX
  8
0
 10
28.7204
 20
4.0077
  0
VERTEX
  8
0
 10
28.7204
 20
3.9557
  0
VERTEX
  8
0
 10
28.4484
 20
3.9557
  0
VERTEX
  8
0
 10
28.4578
 20
3.9997
  0
VERTEX
  8
0
 10
28.4882
 20
4.0457
  0
VERTEX
  8
0
 10
28.517
 20
4.0751
  0
VERTEX
  8
0
 10
28.5558
 20
4.1081
  0
VERTEX
  8
0
 10
28.5998
 20
4.1448
  0
VERTEX
  8
0
 10
28.6291
 20
4.1727
  0
VERTEX
  8
0
 10
28.6616
 20
4.2167
  0
VERTEX
  8
0
 10
28.6724
 20
4.2562
  0
VERTEX
  8
0
 10
28.6665
 20
4.2853
  0
VERTEX
  8
0
 10
28.6489
 20
4.3083
  0
VERTEX
  8
0
 10
28.6238
 20
4.3227
  0
VERTEX
  8
0
 10
28.5933
 20
4.3277
  0
VERTEX
  8
0
 10
28.559
 20
4.3222
  0
VERTEX
  8
0
 10
28.533
 20
4.3051
  0
VERTEX
  8
0
 10
28.5166
 20
4.2784
  0
VERTEX
  8
0
 10
28.5109
 20
4.2438
  0
VERTEX
  8
0
 10
28.4579
 20
4.2491
  0
VERTEX
  8
0
 10
28.4705
 20
4.3
  0
VERTEX
  8
0
 10
28.4981
 20
4.3372
  0
VERTEX
  8
0
 10
28.5391
 20
4.3601
  0
VERTEX
  8
0
 10
28.5918
 20
4.3677
  0
VERTEX
  8
0
 10
28.6417
 20
4.3604
  0
VERTEX
  8
0
 10
28.6821
 20
4.3386
  0
VERTEX
  8
0
 10
28.7108
 20
4.3021
  0
VERTEX
  8
0
 10
28.7204
 20
4.2549
  0
VERTEX
  8
0
 10
28.7094
 20
4.2062
  0
VERTEX
  8
0
 10
28.6764
 20
4.1573
  0
VERTEX
  8
0
 10
28.6448
 20
4.126
  0
VERTEX
  8
0
 10
28.5984
 20
4.0858
  0
VERTEX
  8
0
 10
28.5693
 20
4.0616
  0
VERTEX
  8
0
 10
28.5553
 20
4.0496
  0
VERTEX
  8
0
 10
28.5342
 20
4.0283
  0
VERTEX
  8
0
 10
28.5184
 20
4.0077
  0
VERTEX
  8
0
 10
28.7204
 20
4.0077
  0
SEQEND
  0
POLYLINE
  8
0
 66
     1
 10
0
 20
0
  0
VERTEX
  8
0
 10
28.8044
 20
3.9557
  0
VERTEX
  8
0
 10
28.8044
 20
4.0117
  0
VERTEX
  8
0
 10
28.8604
 20
4.0117
  0
VERTEX
  8
0
 10
28.8604
 20
3.9557
  0
VERTEX
  8
0
 10
28.8044
 20
3.9557
  0
SEQEND
  0
POLYLINE
  8
0
 66
     1
 10
0
 20
0
  0
VERTEX
  8
0
 10
29.2093
 20
4.2791
  0
VERTEX
  8
0
 10
29.1592
 20
4.2752
  0
VERTEX
  8
0
 10
29.1521
 20
4.2946
  0
VERTEX
  8
0
 10
29.139
 20
4.3099
  0
VERTEX
  8
0
 10
29.1149
 20
4.3231
  0
VERTEX
  8
0
 10
29.0844
 20
4.3277
  0
VERTEX
  8
0
 10
29.0562
 20
4.3244
  0
VERTEX
  8
0
 10
29.0343
 20
4.3141
  0
VERTEX
  8
0
 10
29.0122
 20
4.2911
  0
VERTEX
  8
0
 10
28.9962
 20
4.259
  0
VERTEX
  8
0
 10
28.9863
 20
4.2177
  0
VERTEX
  8
0
 10
28.9825
 20
4.1674
  0
VERTEX
  8
0
 10
29.0095
 20
4.1987
  0
VERTEX
  8
0
 10
29.0429
 20
4.2174
  0
VERTEX
  8
0
 10
29.0826
 20
4.2237
  0
VERTEX
  8
0
 10
29.132
 20
4.2136
  0
VERTEX
  8
0
 10
29.1715
 20
4.1832
  0
VERTEX
  8
0
 10
29.196
 20
4.1406
  0
VERTEX
  8
0
 10
29.2044
 20
4.0894
  0
VERTEX
  8
0
 10
29.2006
 20
4.0529
  0
VERTEX
  8
0
 10
29.1886
 20
4.0189
  0
VERTEX
  8
0
 10
29.1686
 20
3.9882
  0
VERTEX
  8
0
 10
29.1417
 20
3.9655
  0
VERTEX
  8
0
 10
29.1107
 20
3.9521
  0
VERTEX
  8
0
 10
29.0754
 20
3.9477
  0
VERTEX
  8
0
 10
29.0526
 20
3.9491
  0
VERTEX
  8
0
 10
29.0318
 20
3.9532
  0
VERTEX
  8
0
 10
29.0129
 20
3.9601
  0
VERTEX
  8
0
 10
28.9961
 20
3.9698
  0
VERTEX
  8
0
 10
28.9812
 20
3.9823
  0
VERTEX
  8
0
 10
28.9683
 20
3.9976
  0
VERTEX
  8
0
 10
28.9573
 20
4.0156
  0
VERTEX
  8
0
 10
28.9484
 20
4.0363
  0
VERTEX
  8
0
 10
28.9414
 20
4.0599
  0
VERTEX
  8
0
 10
28.9364
 20
4.0862
  0
VERTEX
  8
0
 10
28.9334
 20
4.1153
  0
VERTEX
  8
0
 10
28.9324
 20
4.1472
  0
VERTEX
  8
0
 10
28.9373
 20
4.2194
  0
VERTEX
  8
0
 10
28.9519
 20
4.2772
  0
VERTEX
  8
0
 10
28.9763
 20
4.3206
  0
VERTEX
  8
0
 10
29.0233
 20
4.3559
  0
VERTEX
  8
0
 10
29.0875
 20
4.3677
  0
VERTEX
  8
0
 10
29.1309
 20
4.3619
  0
VERTEX
  8
0
 10
29.1676
 20
4.3447
  0
VERTEX
  8
0
 10
29.1964
 20
4.3156
  0
VERTEX
  8
0
 10
29.2093
 20
4.2791
  0
VERTEX
  8
0
 10
29.2093
 20
4.2791
  0
SEQEND
  0
POLYLINE
  8
0
 66
     1
 10
0
 20
0
  0
VERTEX
  8
0
 10
28.9884
 20
4.0887
  0
VERTEX
  8
0
 10
28.9909
 20
4.063
  0
VERTEX
  8
0
 10
28.9991
 20
4.0387
  0
VERTEX
  8
0
 10
29.0132
 20
4.0165
  0
VERTEX
  8
0
 10
29.0321
 20
4.0003
  0
VERTEX
  8
0
 10
29.0529
 20
3.991
  0
VERTEX
  8
0
 10
29.0754
 20
3.9877
  0
VERTEX
  8
0
 10
29.1099
 20
3.9953
  0
VERTEX
  8
0
 10
29.1363
 20
4.0187
  0
VERTEX
  8
0
 10
29.1512
 20
4.0494
  0
VERTEX
  8
0
 10
29.1564
 20
4.0858
  0
VERTEX
  8
0
 10
29.1513
 20
4.1221
  0
VERTEX
  8
0
 10
29.1354
 20
4.1516
  0
VERTEX
  8
0
 10
29.1086
 20
4.1725
  0
VERTEX
  8
0
 10
29.0734
 20
4.1797
  0
VERTEX
  8
0
 10
29.0388
 20
4.1731
  0
VERTEX
  8
0
 10
29.0114
 20
4.1527
  0
VERTEX
  8
0
 10
28.9943
 20
4.1238
  0
VERTEX
  8
0
 10
28.9884
 20
4.0887
  0
VERTEX
  8
0
 10
28.9884
 20
4.0887
  0
SEQEND
  0
POLYLINE
  8
0
 66
     1
 10
0
 20
0
  0
VERTEX
  8
0
 10
29.2564
 20
4.064
  0
VERTEX
  8
0
 10
29.3069
 20
4.0707
  0
VERTEX
  8
0
 10
29.3179
 20
4.0345
  0
VERTEX
  8
0
 10
29.335
 20
4.0086
  0
VERTEX
  8
0
 10
29.3582
 20
3.993
  0
VERTEX
  8
0
 10
29.3876
 20
3.9877
  0
VERTEX
  8
0
 10
29.4208
 20
3.9938
  0
VERTEX
  8
0
 10
29.448
 20
4.0127
  0
VERTEX
  8
0
 10
29.4662
 20
4.0408
  0
VERTEX
  8
0
 10
29.4724
 20
4.0747
  0
VERTEX
  8
0
 10
29.4668
 20
4.1068
  0
VERTEX
  8
0
 10
29.4496
 20
4.1328
  0
VERTEX
  8
0
 10
29.4235
 20
4.15
  0
VERTEX
  8
0
 10
29.3916
 20
4.1557
  0
VERTEX
  8
0
 10
29.375
 20
4.1543
  0
VERTEX
  8
0
 10
29.3558
 20
4.15
  0
VERTEX
  8
0
 10
29.3616
 20
4.1957
  0
VERTEX
  8
0
 10
29.3652
 20
4.1957
  0
VERTEX
  8
0
 10
29.37
 20
4.1957
  0
VERTEX
  8
0
 10
29.4029
 20
4.1998
  0
VERTEX
  8
0
 10
29.4295
 20
4.2121
  0
VERTEX
  8
0
 10
29.4495
 20
4.2343
  0
VERTEX
  8
0
 10
29.4564
 20
4.2639
  0
VERTEX
  8
0
 10
29.4517
 20
4.2896
  0
VERTEX
  8
0
 10
29.4372
 20
4.3099
  0
VERTEX
  8
0
 10
29.4152
 20
4.3231
  0
VERTEX
  8
0
 10
29.3881
 20
4.3277
  0
VERTEX
  8
0
 10
29.3596
 20
4.3232
  0
VERTEX
  8
0
 10
29.3375
 20
4.3091
  0
VERTEX
  8
0
 10
29.3219
 20
4.2856
  0
VERTEX
  8
0
 10
29.3127
 20
4.2525
  0
VERTEX
  8
0
 10
29.2614
 20
4.2614
  0
VERTEX
  8
0
 10
29.2762
 20
4.3056
  0
VERTEX
  8
0
 10
29.3026
 20
4.3392
  0
VERTEX
  8
0
 10
29.3392
 20
4.3604
  0
VERTEX
  8
0
 10
29.3846
 20
4.3677
  0
VERTEX
  8
0
 10
29.4154
 20
4.3644
  0
VERTEX
  8
0
 10
29.4441
 20
4.3542
  0
VERTEX
  8
0
 10
29.4702
 20
4.337
  0
VERTEX
  8
0
 10
29.4893
 20
4.3139
  0
VERTEX
  8
0
 10
29.5006
 20
4.2881
  0
VERTEX
  8
0
 10
29.5044
 20
4.2609
  0
VERTEX
  8
0
 10
29.4982
 20
4.2262
  0
VERTEX
  8
0
 10
29.4796
 20
4.1985
  0
VERTEX
  8
0
 10
29.4485
 20
4.1776
  0
VERTEX
  8
0
 10
29.4811
 20
4.1643
  0
VERTEX
  8
0
 10
29.5053
 20
4.1417
  0
VERTEX
  8
0
 10
29.5196
 20
4.1122
  0
VERTEX
  8
0
 10
29.5244
 20
4.0764
  0
VERTEX
  8
0
 10
29.5147
 20
4.0265
  0
VERTEX
  8
0
 10
29.4854
 20
3.9851
  0
VERTEX
  8
0
 10
29.4412
 20
3.9572
  0
VERTEX
  8
0
 10
29.3864
 20
3.9477
  0
VERTEX
  8
0
 10
29.3376
 20
3.9556
  0
VERTEX
  8
0
 10
29.2975
 20
3.9792
  0
VERTEX
  8
0
 10
29.2695
 20
4.0162
  0
VERTEX
  8
0
 10
29.2564
 20
4.064
  0
VERTEX
  8
0
 10
29.2564
 20
4.064
  0
SEQEND
  0
LINE
  8
0
 10
29.6273
 20
4.15
 11
30.3
 21
4.15
  0
LINE
  8
0
 10
30.1211
 20
4.0606
 11
30.3
 21
4.15
  0
LINE
  8
0
 10
30.1211
 20
4.2394
 11
30.3
 21
4.15
  0
LINE
  8
0
 10
30.3
 20
4.05
 11
30.3
 21
4.65
  0
LINE
  8
0
 10
28.3467
 20
4.15
 11
27.674
 21
4.15
  0
LINE
  8
0
 10
27.8529
 20
4.2394
 11
27.674
 21
4.15
  0
LINE
  8
0
 10
27.8529
 20
4.0606
 11
27.674
 21
4.15
  0
LINE
  8
0
 10
27.674
 20
4.05
 11
27.674
 21
4.65
  0
POLYLINE
  8
0
 66
     1
 10
0
 20
0
  0
VERTEX
  8
0
 10
31.2484
 20
6.9477
  0
VERTEX
  8
0
 10
31.1484
 20
6.9477
  0
VERTEX
  8
0
 10
31.1484
 20
6.7677
  0
VERTEX
  8
0
 10
31.1004
 20
6.7677
  0
VERTEX
  8
0
 10
30.8364
 20
6.9551
  0
VERTEX
  8
0
 10
30.8364
 20
6.9957
  0
VERTEX
  8
0
 10
31.1004
 20
6.9957
  0
VERTEX
  8
0
 10
31.1004
 20
7.0517
  0
VERTEX
  8
0
 10
31.1484
 20
7.0517
  0
VERTEX
  8
0
 10
31.1484
 20
6.9957
  0
VERTEX
  8
0
 10
31.2484
 20
6.9957
  0
VERTEX
  8
0
 10
31.2484
 20
6.9477
  0
SEQEND
  0
POLYLINE
  8
0
 66
     1
 10
0
 20
0
  0
VERTEX
  8
0
 10
31.1004
 20
6.9477
  0
VERTEX
  8
0
 10
30.9159
 20
6.9477
  0
VERTEX
  8
0
 10
31.1039
 20
6.8142
  0
VERTEX
  8
0
 10
31.1004
 20
6.9477
  0
SEQEND
  0
POLYLINE
  8
0
 66
     1
 10
0
 20
0
  0
VERTEX
  8
0
 10
31.2484
 20
7.1317
  0
VERTEX
  8
0
 10
31.1924
 20
7.1317
  0
VERTEX
  8
0
 10
31.1924
 20
7.1877
  0
VERTEX
  8
0
 10
31.2484
 20
7.1877
  0
VERTEX
  8
0
 10
31.2484
 20
7.1317
  0
SEQEND
  0
POLYLINE
  8
0
 66
     1
 10
0
 20
0
  0
VERTEX
  8
0
 10
31.1409
 20
7.2637
  0
VERTEX
  8
0
 10
31.1364
 20
7.3169
  0
VERTEX
  8
0
 10
31.1714
 20
7.3263
  0
VERTEX
  8
0
 10
31.1964
 20
7.3427
  0
VERTEX
  8
0
 10
31.2114
 20
7.366
  0
VERTEX
  8
0
 10
31.2164
 20
7.3964
  0
VERTEX
  8
0
 10
31.2086
 20
7.4328
  0
VERTEX
  8
0
 10
31.1851
 20
7.4611
  0
VERTEX
  8
0
 10
31.1533
 20
7.478
  0
VERTEX
  8
0
 10
31.1147
 20
7.4837
  0
VERTEX
  8
0
 10
31.0767
 20
7.4778
  0
VERTEX
  8
0
 10
31.0467
 20
7.4603
  0
VERTEX
  8
0
 10
31.0271
 20
7.4324
  0
VERTEX
  8
0
 10
31.0204
 20
7.3955
  0
VERTEX
  8
0
 10
31.0303
 20
7.3524
  0
VERTEX
  8
0
 10
31.0605
 20
7.3202
  0
VERTEX
  8
0
 10
31.0544
 20
7.2726
  0
VERTEX
  8
0
 10
30.8444
 20
7.3124
  0
VERTEX
  8
0
 10
30.8444
 20
7.5166
  0
VERTEX
  8
0
 10
30.8964
 20
7.5166
  0
VERTEX
  8
0
 10
30.8964
 20
7.3514
  0
VERTEX
  8
0
 10
31.0021
 20
7.3314
  0
VERTEX
  8
0
 10
30.9829
 20
7.3691
  0
VERTEX
  8
0
 10
30.9764
 20
7.4086
  0
VERTEX
  8
0
 10
30.9859
 20
7.4594
  0
VERTEX
  8
0
 10
31.0151
 20
7.5006
  0
VERTEX
  8
0
 10
31.0578
 20
7.5269
  0
VERTEX
  8
0
 10
31.1098
 20
7.5357
  0
VERTEX
  8
0
 10
31.1617
 20
7.5276
  0
VERTEX
  8
0
 10
31.2064
 20
7.5032
  0
VERTEX
  8
0
 10
31.2438
 20
7.4566
  0
VERTEX
  8
0
 10
31.2564
 20
7.3955
  0
VERTEX
  8
0
 10
31.2488
 20
7.3457
  0
VERTEX
  8
0
 10
31.2262
 20
7.3054
  0
VERTEX
  8
0
 10
31.1893
 20
7.2768
  0
VERTEX
  8
0
 10
31.1409
 20
7.2637
  0
VERTEX
  8
0
 10
31.1409
 20
7.2637
  0
SEQEND
  0
LINE
  8
0
 10
31.05
 20
7.6353
 11
31.05
 21
9.4
  0
LINE
  8
0
 10
31.1394
 20
9.2211
 11
31.05
 21
9.4
  0
LINE
  8
0
 10
30.9606
 20
9.2211
 11
31.05
 21
9.4
  0
LINE
  8
0
 10
31.15
 20
9.4
 11
30.55
 21
9.4
  0
LINE
  8
0
 10
31.05
 20
6.6647
 11
31.05
 21
4.9
  0
LINE
  8
0
 10
30.9606
 20
5.0789
 11
31.05
 21
4.9
  0
LINE
  8
0
 10
31.1394
 20
5.0789
 11
31.05
 21
4.9
  0
LINE
  8
0
 10
31.15
 20
4.9
 11
30.55
 21
4.9
  0
POLYLINE
  8
0
 66
     1
 10
0
 20
0
  0
VERTEX
  8
0
 10
32.1964
 20
16.8757
  0
VERTEX
  8
0
 10
32.2484
 20
16.8757
  0
VERTEX
  8
0
 10
32.2484
 20
16.6037
  0
VERTEX
  8
0
 10
32.2044
 20
16.6131
  0
VERTEX
  8
0
 10
32.1584
 20
16.6435
  0
VERTEX
  8
0
 10
32.129
 20
16.6723
  0
VERTEX
  8
0
 10
32.096
 20
16.7111
  0
VERTEX
  8
0
 10
32.0593
 20
16.7551
  0
VERTEX
  8
0
 10
32.0313
 20
16.7844
  0
VERTEX
  8
0
 10
31.9874
 20
16.8169
  0
VERTEX
  8
0
 10
31.9478
 20
16.8277
  0
VERTEX
  8
0
 10
31.9188
 20
16.8218
  0
VERTEX
  8
0
 10
31.8958
 20
16.8042
  0
VERTEX
  8
0
 10
31.8814
 20
16.7791
  0
VERTEX
  8
0
 10
31.8764
 20
16.7486
  0
VERTEX
  8
0
 10
31.8819
 20
16.7143
  0
VERTEX
  8
0
 10
31.8989
 20
16.6883
  0
VERTEX
  8
0
 10
31.9257
 20
16.6719
  0
VERTEX
  8
0
 10
31.9603
 20
16.6662
  0
VERTEX
  8
0
 10
31.9549
 20
16.6132
  0
VERTEX
  8
0
 10
31.9041
 20
16.6258
  0
VERTEX
  8
0
 10
31.8669
 20
16.6534
  0
VERTEX
  8
0
 10
31.844
 20
16.6944
  0
VERTEX
  8
0
 10
31.8364
 20
16.7471
  0
VERTEX
  8
0
 10
31.8437
 20
16.797
  0
VERTEX
  8
0
 10
31.8655
 20
16.8374
  0
VERTEX
  8
0
 10
31.9019
 20
16.8661
  0
VERTEX
  8
0
 10
31.9492
 20
16.8757
  0
VERTEX
  8
0
 10
31.9978
 20
16.8647
  0
VERTEX
  8
0
 10
32.0468
 20
16.8317
  0
VERTEX
  8
0
 10
32.0781
 20
16.8001
  0
VERTEX
  8
0
 10
32.1183
 20
16.7537
  0
VERTEX
  8
0
 10
32.1424
 20
16.7246
  0
VERTEX
  8
0
 10
32.1545
 20
16.7106
  0
VERTEX
  8
0
 10
32.1758
 20
16.6895
  0
VERTEX
  8
0
 10
32.1964
 20
16.6737
  0
VERTEX
  8
0
 10
32.1964
 20
16.8757
  0
SEQEND
  0
POLYLINE
  8
0
 66
     1
 10
0
 20
0
  0
VERTEX
  8
0
 10
32.2484
 20
17.0957
  0
VERTEX
  8
0
 10
32.1484
 20
17.0957
  0
VERTEX
  8
0
 10
32.1484
 20
16.9157
  0
VERTEX
  8
0
 10
32.1004
 20
16.9157
  0
VERTEX
  8
0
 10
31.8364
 20
17.1031
  0
VERTEX
  8
0
 10
31.8364
 20
17.1437
  0
VERTEX
  8
0
 10
32.1004
 20
17.1437
  0
VERTEX
  8
0
 10
32.1004
 20
17.1997
  0
VERTEX
  8
0
 10
32.1484
 20
17.1997
  0
VERTEX
  8
0
 10
32.1484
 20
17.1437
  0
VERTEX
  8
0
 10
32.2484
 20
17.1437
  0
VERTEX
  8
0
 10
32.2484
 20
17.0957
  0
SEQEND
  0
POLYLINE
  8
0
 66
     1
 10
0
 20
0
  0
VERTEX
  8
0
 10
32.1004
 20
17.0957
  0
VERTEX
  8
0
 10
31.9159
 20
17.0957
  0
VERTEX
  8
0
 10
32.1039
 20
16.9622
  0
VERTEX
  8
0
 10
32.1004
 20
17.0957
  0
SEQEND
  0
LINE
  8
0
 10
32.05
 20
17.2995
 11
32.05
 21
28.9
  0
LINE
  8
0
 10
32.1394
 20
28.7211
 11
32.05
 21
28.9
  0
LINE
  8
0
 10
31.9606
 20
28.7211
 11
32.05
 21
28.9
  0
LINE
  8
0
 10
32.15
 20
28.9
 11
30.4
 21
28.9
  0
LINE
  8
0
 10
32.05
 20
16.5005
 11
32.05
 21
4.9
  0
LINE
  8
0
 10
31.9606
 20
5.0789
 11
32.05
 21
4.9
  0
LINE
  8
0
 10
32.1394
 20
5.0789
 11
32.05
 21
4.9
  0
LINE
  8
0
 10
32.15
 20
4.9
 11
30.4
 21
4.9
  0
POLYLINE
  8
0
 66
     1
 10
0
 20
0
  0
VERTEX
  8
0
 10
18.2724
 20
3.0077
  0
VERTEX
  8
0
 10
18.2724
 20
2.9557
  0
VERTEX
  8
0
 10
18.0004
 20
2.9557
  0
VERTEX
  8
0
 10
18.0098
 20
2.9997
  0
VERTEX
  8
0
 10
18.0402
 20
3.0457
  0
VERTEX
  8
0
 10
18.069
 20
3.0751
  0
VERTEX
  8
0
 10
18.1078
 20
3.1081
  0
VERTEX
  8
0
 10
18.1518
 20
3.1448
  0
VERTEX
  8
0
 10
18.1811
 20
3.1727
  0
VERTEX
  8
0
 10
18.2136
 20
3.2167
  0
VERTEX
  8
0
 10
18.2244
 20
3.2562
  0
VERTEX
  8
0
 10
18.2185
 20
3.2853
  0
VERTEX
  8
0
 10
18.2009
 20
3.3083
  0
VERTEX
  8
0
 10
18.1758
 20
3.3227
  0
VERTEX
  8
0
 10
18.1453
 20
3.3277
  0
VERTEX
  8
0
 10
18.111
 20
3.3222
  0
VERTEX
  8
0
 10
18.085
 20
3.3051
  0
VERTEX
  8
0
 10
18.0686
 20
3.2784
  0
VERTEX
  8
0
 10
18.0629
 20
3.2438
  0
VERTEX
  8
0
 10
18.0099
 20
3.2491
  0
VERTEX
  8
0
 10
18.0225
 20
3.3
  0
VERTEX
  8
0
 10
18.0501
 20
3.3372
  0
VERTEX
  8
0
 10
18.0911
 20
3.3601
  0
VERTEX
  8
0
 10
18.1438
 20
3.3677
  0
VERTEX
  8
0
 10
18.1937
 20
3.3604
  0
VERTEX
  8
0
 10
18.2341
 20
3.3386
  0
VERTEX
  8
0
 10
18.2628
 20
3.3021
  0
VERTEX
  8
0
 10
18.2724
 20
3.2549
  0
VERTEX
  8
0
 10
18.2614
 20
3.2062
  0
VERTEX
  8
0
 10
18.2284
 20
3.1573
  0
VERTEX
  8
0
 10
18.1968
 20
3.126
  0
VERTEX
  8
0
 10
18.1504
 20
3.0858
  0
VERTEX
  8
0
 10
18.1213
 20
3.0616
  0
VERTEX
  8
0
 10
18.1073
 20
3.0496
  0
VERTEX
  8
0
 10
18.0862
 20
3.0283
  0
VERTEX
  8
0
 10
18.0704
 20
3.0077
  0
VERTEX
  8
0
 10
18.2724
 20
3.0077
  0
SEQEND
  0
POLYLINE
  8
0
 66
     1
 10
0
 20
0
  0
VERTEX
  8
0
 10
18.4924
 20
2.9557
  0
VERTEX
  8
0
 10
18.4924
 20
3.0557
  0
VERTEX
  8
0
 10
18.3124
 20
3.0557
  0
VERTEX
  8
0
 10
18.3124
 20
3.1037
  0
VERTEX
  8
0
 10
18.4998
 20
3.3677
  0
VERTEX
  8
0
 10
18.5404
 20
3.3677
  0
VERTEX
  8
0
 10
18.5404
 20
3.1037
  0
VERTEX
  8
0
 10
18.5963
 20
3.1037
  0
VERTEX
  8
0
 10
18.5963
 20
3.0557
  0
VERTEX
  8
0
 10
18.5404
 20
3.0557
  0
VERTEX
  8
0
 10
18.5404
 20
2.9557
  0
VERTEX
  8
0
 10
18.4924
 20
2.9557
  0
SEQEND
  0
POLYLINE
  8
0
 66
     1
 10
0
 20
0
  0
VERTEX
  8
0
 10
18.4924
 20
3.1037
  0
VERTEX
  8
0
 10
18.4924
 20
3.2882
  0
VERTEX
  8
0
 10
18.3589
 20
3.1001
  0
VERTEX
  8
0
 10
18.4924
 20
3.1037
  0
SEQEND
  0
LINE
  8
0
 10
18.6995
 20
3.15
 11
30.3
 21
3.15
  0
LINE
  8
0
 10
30.1211
 20
3.0606
 11
30.3
 21
3.15
  0
LINE
  8
0
 10
30.1211
 20
3.2394
 11
30.3
 21
3.15
  0
LINE
  8
0
 10
30.3
 20
3.05
 11
30.3
 21
4.8
  0
LINE
  8
0
 10
17.9005
 20
3.15
 11
6.3
 21
3.15
  0
LINE
  8
0
 10
6.4789
 20
3.2394
 11
6.3
 21
3.15
  0
LINE
  8
0
 10
6.4789
 20
3.0606
 11
6.3
 21
3.15
  0
LINE
  8
0
 10
6.3
 20
3.05
 11
6.3
 21
4.8
  0
POLYLINE
  8
0
 66
     1
 10
0
 20
0
  0
VERTEX
  8
0
 10
6.4524
 20
2.2917
  0
VERTEX
  8
0
 10
6.4044
 20
2.2917
  0
VERTEX
  8
0
 10
6.4044
 20
2.6129
  0
VERTEX
  8
0
 10
6.3579
 20
2.5788
  0
VERTEX
  8
0
 10
6.3004
 20
2.5521
  0
VERTEX
  8
0
 10
6.3004
 20
2.6007
  0
VERTEX
  8
0
 10
6.3529
 20
2.6305
  0
VERTEX
  8
0
 10
6.3927
 20
2.6648
  0
VERTEX
  8
0
 10
6.4198
 20
2.7037
  0
VERTEX
  8
0
 10
6.4524
 20
2.7037
  0
VERTEX
  8
0
 10
6.4524
 20
2.2917
  0
SEQEND
  0
POLYLINE
  8
0
 66
     1
 10
0
 20
0
  0
VERTEX
  8
0
 10
6.6084
 20
2.2917
  0
VERTEX
  8
0
 10
6.6084
 20
2.3477
  0
VERTEX
  8
0
 10
6.6644
 20
2.3477
  0
VERTEX
  8
0
 10
6.6644
 20
2.2917
  0
VERTEX
  8
0
 10
6.6084
 20
2.2917
  0
SEQEND
  0
POLYLINE
  8
0
 66
     1
 10
0
 20
0
  0
VERTEX
  8
0
 10
6.7404
 20
2.3992
  0
VERTEX
  8
0
 10
6.7936
 20
2.4037
  0
VERTEX
  8
0
 10
6.803
 20
2.3687
  0
VERTEX
  8
0
 10
6.8194
 20
2.3437
  0
VERTEX
  8
0
 10
6.8427
 20
2.3287
  0
VERTEX
  8
0
 10
6.8731
 20
2.3237
  0
VERTEX
  8
0
 10
6.9095
 20
2.3315
  0
VERTEX
  8
0
 10
6.9378
 20
2.3549
  0
VERTEX
  8
0
 10
6.9547
 20
2.3867
  0
VERTEX
  8
0
 10
6.9604
 20
2.4254
  0
VERTEX
  8
0
 10
6.9545
 20
2.4634
  0
VERTEX
  8
0
 10
6.937
 20
2.4934
  0
VERTEX
  8
0
 10
6.9091
 20
2.513
  0
VERTEX
  8
0
 10
6.8722
 20
2.5197
  0
VERTEX
  8
0
 10
6.8291
 20
2.5098
  0
VERTEX
  8
0
 10
6.7969
 20
2.4796
  0
VERTEX
  8
0
 10
6.7493
 20
2.4857
  0
VERTEX
  8
0
 10
6.7891
 20
2.6957
  0
VERTEX
  8
0
 10
6.9932
 20
2.6957
  0
VERTEX
  8
0
 10
6.9932
 20
2.6437
  0
VERTEX
  8
0
 10
6.8281
 20
2.6437
  0
VERTEX
  8
0
 10
6.8081
 20
2.5379
  0
VERTEX
  8
0
 10
6.8458
 20
2.5571
  0
VERTEX
  8
0
 10
6.8853
 20
2.5637
  0
VERTEX
  8
0
 10
6.9361
 20
2.5541
  0
VERTEX
  8
0
 10
6.9773
 20
2.5249
  0
VERTEX
  8
0
 10
7.0036
 20
2.4823
  0
VERTEX
  8
0
 10
7.0124
 20
2.4303
  0
VERTEX
  8
0
 10
7.0043
 20
2.3783
  0
VERTEX
  8
0
 10
6.9799
 20
2.3337
  0
VERTEX
  8
0
 10
6.9333
 20
2.2963
  0
VERTEX
  8
0
 10
6.8722
 20
2.2837
  0
VERTEX
  8
0
 10
6.8224
 20
2.2912
  0
VERTEX
  8
0
 10
6.7821
 20
2.3139
  0
VERTEX
  8
0
 10
6.7535
 20
2.3507
  0
VERTEX
  8
0
 10
6.7404
 20
2.3992
  0
VERTEX
  8
0
 10
6.7404
 20
2.3992
  0
SEQEND
  0
POLYLINE
  8
0
 66
     1
 10
0
 20
0
  0
VERTEX
  8
0
 10
7.0604
 20
2.4936
  0
VERTEX
  8
0
 10
7.0628
 20
2.5449
  0
VERTEX
  8
0
 10
7.0699
 20
2.5892
  0
VERTEX
  8
0
 10
7.0818
 20
2.6264
  0
VERTEX
  8
0
 10
7.0984
 20
2.6565
  0
VERTEX
  8
0
 10
7.1198
 20
2.6796
  0
VERTEX
  8
0
 10
7.153
 20
2.6975
  0
VERTEX
  8
0
 10
7.1944
 20
2.7037
  0
VERTEX
  8
0
 10
7.225
 20
2.7004
  0
VERTEX
  8
0
 10
7.2524
 20
2.6902
  0
VERTEX
  8
0
 10
7.2926
 20
2.6528
  0
VERTEX
  8
0
 10
7.3191
 20
2.5906
  0
VERTEX
  8
0
 10
7.3261
 20
2.5487
  0
VERTEX
  8
0
 10
7.3284
 20
2.4936
  0
VERTEX
  8
0
 10
7.326
 20
2.4423
  0
VERTEX
  8
0
 10
7.3189
 20
2.3981
  0
VERTEX
  8
0
 10
7.307
 20
2.361
  0
VERTEX
  8
0
 10
7.2903
 20
2.3309
  0
VERTEX
  8
0
 10
7.2689
 20
2.3078
  0
VERTEX
  8
0
 10
7.2357
 20
2.2898
  0
VERTEX
  8
0
 10
7.1944
 20
2.2837
  0
VERTEX
  8
0
 10
7.173
 20
2.2851
  0
VERTEX
  8
0
 10
7.1535
 20
2.2894
  0
VERTEX
  8
0
 10
7.1359
 20
2.2966
  0
VERTEX
  8
0
 10
7.1201
 20
2.3067
  0
VERTEX
  8
0
 10
7.1061
 20
2.3198
  0
VERTEX
  8
0
 10
7.094
 20
2.3359
  0
VERTEX
  8
0
 10
7.0838
 20
2.3548
  0
VERTEX
  8
0
 10
7.0754
 20
2.3767
  0
VERTEX
  8
0
 10
7.0689
 20
2.4015
  0
VERTEX
  8
0
 10
7.0642
 20
2.4293
  0
VERTEX
  8
0
 10
7.0614
 20
2.4599
  0
VERTEX
  8
0
 10
7.0604
 20
2.4936
  0
VERTEX
  8
0
 10
7.0604
 20
2.4936
  0
SEQEND
  0
POLYLINE
  8
0
 66
     1
 10
0
 20
0
  0
VERTEX
  8
0
 10
7.1084
 20
2.4937
  0
VERTEX
  8
0
 10
7.1112
 20
2.4325
  0
VERTEX
  8
0
 10
7.1198
 20
2.3877
  0
VERTEX
  8
0
 10
7.1369
 20
2.3523
  0
VERTEX
  8
0
 10
7.1617
 20
2.3309
  0
VERTEX
  8
0
 10
7.1944
 20
2.3237
  0
VERTEX
  8
0
 10
7.2124
 20
2.3257
  0
VERTEX
  8
0
 10
7.2284
 20
2.3319
  0
VERTEX
  8
0
 10
7.2422
 20
2.3423
  0
VERTEX
  8
0
 10
7.2538
 20
2.357
  0
VERTEX
  8
0
 10
7.2634
 20
2.3759
  0
VERTEX
  8
0
 10
7.2708
 20
2.399
  0
VERTEX
  8
0
 10
7.2761
 20
2.4263
  0
VERTEX
  8
0
 10
7.2793
 20
2.4579
  0
VERTEX
  8
0
 10
7.2804
 20
2.4937
  0
VERTEX
  8
0
 10
7.2775
 20
2.5549
  0
VERTEX
  8
0
 10
7.2689
 20
2.5996
  0
VERTEX
  8
0
 10
7.2517
 20
2.6351
  0
VERTEX
  8
0
 10
7.2267
 20
2.6564
  0
VERTEX
  8
0
 10
7.1938
 20
2.6637
  0
VERTEX
  8
0
 10
7.1611
 20
2.6564
  0
VERTEX
  8
0
 10
7.1357
 20
2.6339
  0
VERTEX
  8
0
 10
7.1205
 20
2.6017
  0
VERTEX
  8
0
 10
7.1114
 20
2.555
  0
VERTEX
  8
0
 10
7.1084
 20
2.4937
  0
VERTEX
  8
0
 10
7.1084
 20
2.4937
  0
SEQEND
  0
POLYLINE
  8
0
 66
     1
 10
0
 20
0
  0
VERTEX
  8
0
 10
7.3981
 20
2.5557
  0
VERTEX
  8
0
 10
7.3844
 20
2.6352
  0
VERTEX
  8
0
 10
7.3844
 20
2.7037
  0
VERTEX
  8
0
 10
7.4404
 20
2.7037
  0
VERTEX
  8
0
 10
7.4404
 20
2.6352
  0
VERTEX
  8
0
 10
7.4281
 20
2.5557
  0
VERTEX
  8
0
 10
7.3981
 20
2.5557
  0
SEQEND
  0
POLYLINE
  8
0
 66
     1
 10
0
 20
0
  0
VERTEX
  8
0
 10
7.4938
 20
2.5557
  0
VERTEX
  8
0
 10
7.4804
 20
2.6352
  0
VERTEX
  8
0
 10
7.4804
 20
2.7037
  0
VERTEX
  8
0
 10
7.5364
 20
2.7037
  0
VERTEX
  8
0
 10
7.5364
 20
2.6352
  0
VERTEX
  8
0
 10
7.5233
 20
2.5557
  0
VERTEX
  8
0
 10
7.4938
 20
2.5557
  0
SEQEND
  0
POLYLINE
  8
0
 66
     1
 10
0
 20
0
  0
VERTEX
  8
0
 10
7.8764
 20
2.2917
  0
VERTEX
  8
0
 10
7.8764
 20
2.7037
  0
VERTEX
  8
0
 10
8.0583
 20
2.7037
  0
VERTEX
  8
0
 10
8.0999
 20
2.7018
  0
VERTEX
  8
0
 10
8.1308
 20
2.6961
  0
VERTEX
  8
0
 10
8.1636
 20
2.6798
  0
VERTEX
  8
0
 10
8.1873
 20
2.6534
  0
VERTEX
  8
0
 10
8.2
 20
2.6239
  0
VERTEX
  8
0
 10
8.2044
 20
2.5912
  0
VERTEX
  8
0
 10
8.2022
 20
2.5656
  0
VERTEX
  8
0
 10
8.1952
 20
2.5431
  0
VERTEX
  8
0
 10
8.1835
 20
2.5239
  0
VERTEX
  8
0
 10
8.167
 20
2.5079
  0
VERTEX
  8
0
 10
8.1457
 20
2.4951
  0
VERTEX
  8
0
 10
8.1197
 20
2.4855
  0
VERTEX
  8
0
 10
8.0889
 20
2.4791
  0
VERTEX
  8
0
 10
8.108
 20
2.4688
  0
VERTEX
  8
0
 10
8.1217
 20
2.4586
  0
VERTEX
  8
0
 10
8.1454
 20
2.4333
  0
VERTEX
  8
0
 10
8.1668
 20
2.4038
  0
VERTEX
  8
0
 10
8.2381
 20
2.2917
  0
VERTEX
  8
0
 10
8.1718
 20
2.2917
  0
VERTEX
  8
0
 10
8.1167
 20
2.3778
  0
VERTEX
  8
0
 10
8.0998
 20
2.403
  0
VERTEX
  8
0
 10
8.0865
 20
2.4215
  0
VERTEX
  8
0
 10
8.0668
 20
2.4449
  0
VERTEX
  8
0
 10
8.0499
 20
2.4592
  0
VERTEX
  8
0
 10
8.0377
 20
2.4658
  0
VERTEX
  8
0
 10
8.0254
 20
2.4698
  0
VERTEX
  8
0
 10
8.0135
 20
2.4712
  0
VERTEX
  8
0
 10
7.9952
 20
2.4717
  0
VERTEX
  8
0
 10
7.9324
 20
2.4717
  0
VERTEX
  8
0
 10
7.9324
 20
2.2917
  0
VERTEX
  8
0
 10
7.8764
 20
2.2917
  0
SEQEND
  0
POLYLINE
  8
0
 66
     1
 10
0
 20
0
  0
VERTEX
  8
0
 10
7.9324
 20
2.5197
  0
VERTEX
  8
0
 10
8.0481
 20
2.5197
  0
VERTEX
  8
0
 10
8.1049
 20
2.528
  0
VERTEX
  8
0
 10
8.1376
 20
2.5529
  0
VERTEX
  8
0
 10
8.1457
 20
2.5712
  0
VERTEX
  8
0
 10
8.1484
 20
2.591
  0
VERTEX
  8
0
 10
8.1415
 20
2.6227
  0
VERTEX
  8
0
 10
8.1209
 20
2.6449
  0
VERTEX
  8
0
 10
8.0947
 20
2.656
  0
VERTEX
  8
0
 10
8.0612
 20
2.6597
  0
VERTEX
  8
0
 10
7.9324
 20
2.6597
  0
VERTEX
  8
0
 10
7.9324
 20
2.5197
  0
SEQEND
  0
POLYLINE
  8
0
 66
     1
 10
0
 20
0
  0
VERTEX
  8
0
 10
8.4795
 20
2.3284
  0
VERTEX
  8
0
 10
8.4268
 20
2.295
  0
VERTEX
  8
0
 10
8.37
 20
2.2837
  0
VERTEX
  8
0
 10
8.3304
 20
2.2886
  0
VERTEX
  8
0
 10
8.2989
 20
2.3041
  0
VERTEX
  8
0
 10
8.2761
 20
2.3319
  0
VERTEX
  8
0
 10
8.2684
 20
2.3697
  0
VERTEX
  8
0
 10
8.2772
 20
2.4092
  0
VERTEX
  8
0
 10
8.3044
 20
2.4394
  0
VERTEX
  8
0
 10
8.3212
 20
2.449
  0
VERTEX
  8
0
 10
8.3409
 20
2.4561
  0
VERTEX
  8
0
 10
8.3593
 20
2.4599
  0
VERTEX
  8
0
 10
8.3859
 20
2.4637
  0
VERTEX
  8
0
 10
8.4399
 20
2.4719
  0
VERTEX
  8
0
 10
8.4761
 20
2.4812
  0
VERTEX
  8
0
 10
8.4762
 20
2.4901
  0
VERTEX
  8
0
 10
8.4764
 20
2.4946
  0
VERTEX
  8
0
 10
8.4728
 20
2.5211
  0
VERTEX
  8
0
 10
8.4621
 20
2.5384
  0
VERTEX
  8
0
 10
8.4381
 20
2.5512
  0
VERTEX
  8
0
 10
8.4044
 20
2.5557
  0
VERTEX
  8
0
 10
8.3744
 20
2.5528
  0
VERTEX
  8
0
 10
8.3529
 20
2.5436
  0
VERTEX
  8
0
 10
8.3373
 20
2.5256
  0
VERTEX
  8
0
 10
8.3265
 20
2.4975
  0
VERTEX
  8
0
 10
8.277
 20
2.5042
  0
VERTEX
  8
0
 10
8.3001
 20
2.5551
  0
VERTEX
  8
0
 10
8.3431
 20
2.5851
  0
VERTEX
  8
0
 10
8.3739
 20
2.5929
  0
VERTEX
  8
0
 10
8.4101
 20
2.5957
  0
VERTEX
  8
0
 10
8.4691
 20
2.5879
  0
VERTEX
  8
0
 10
8.5063
 20
2.5641
  0
VERTEX
  8
0
 10
8.5156
 20
2.5489
  0
VERTEX
  8
0
 10
8.5219
 20
2.5299
  0
VERTEX
  8
0
 10
8.5238
 20
2.5127
  0
VERTEX
  8
0
 10
8.5244
 20
2.4834
  0
VERTEX
  8
0
 10
8.5244
 20
2.4162
  0
VERTEX
  8
0
 10
8.5245
 20
2.3701
  0
VERTEX
  8
0
 10
8.5247
 20
2.3524
  0
VERTEX
  8
0
 10
8.5303
 20
2.3188
  0
VERTEX
  8
0
 10
8.5422
 20
2.2917
  0
VERTEX
  8
0
 10
8.4896
 20
2.2917
  0
VERTEX
  8
0
 10
8.4833
 20
2.3087
  0
VERTEX
  8
0
 10
8.4795
 20
2.3284
  0
VERTEX
  8
0
 10
8.4795
 20
2.3284
  0
SEQEND
  0
POLYLINE
  8
0
 66
     1
 10
0
 20
0
  0
VERTEX
  8
0
 10
8.4764
 20
2.4409
  0
VERTEX
  8
0
 10
8.4414
 20
2.4306
  0
VERTEX
  8
0
 10
8.3925
 20
2.4217
  0
VERTEX
  8
0
 10
8.3706
 20
2.4182
  0
VERTEX
  8
0
 10
8.3566
 20
2.415
  0
VERTEX
  8
0
 10
8.3392
 20
2.4067
  0
VERTEX
  8
0
 10
8.3275
 20
2.395
  0
VERTEX
  8
0
 10
8.3223
 20
2.3838
  0
VERTEX
  8
0
 10
8.3204
 20
2.3711
  0
VERTEX
  8
0
 10
8.325
 20
2.3499
  0
VERTEX
  8
0
 10
8.3395
 20
2.3344
  0
VERTEX
  8
0
 10
8.3582
 20
2.3264
  0
VERTEX
  8
0
 10
8.3814
 20
2.3237
  0
VERTEX
  8
0
 10
8.4193
 20
2.329
  0
VERTEX
  8
0
 10
8.4482
 20
2.345
  0
VERTEX
  8
0
 10
8.4681
 20
2.3716
  0
VERTEX
  8
0
 10
8.4743
 20
2.3929
  0
VERTEX
  8
0
 10
8.4764
 20
2.4223
  0
VERTEX
  8
0
 10
8.4764
 20
2.4409
  0
SEQEND
  0
POLYLINE
  8
0
 66
     1
 10
0
 20
0
  0
VERTEX
  8
0
 10
8.7964
 20
2.2917
  0
VERTEX
  8
0
 10
8.7964
 20
2.3292
  0
VERTEX
  8
0
 10
8.7621
 20
2.2952
  0
VERTEX
  8
0
 10
8.7144
 20
2.2837
  0
VERTEX
  8
0
 10
8.68
 20
2.2887
  0
VERTEX
  8
0
 10
8.6488
 20
2.3042
  0
VERTEX
  8
0
 10
8.6232
 20
2.3278
  0
VERTEX
  8
0
 10
8.6042
 20
2.3585
  0
VERTEX
  8
0
 10
8.5925
 20
2.3958
  0
VERTEX
  8
0
 10
8.5884
 20
2.4394
  0
VERTEX
  8
0
 10
8.5919
 20
2.4845
  0
VERTEX
  8
0
 10
8.603
 20
2.5223
  0
VERTEX
  8
0
 10
8.6216
 20
2.5529
  0
VERTEX
  8
0
 10
8.6478
 20
2.5763
  0
VERTEX
  8
0
 10
8.6791
 20
2.5908
  0
VERTEX
  8
0
 10
8.7143
 20
2.5957
  0
VERTEX
  8
0
 10
8.761
 20
2.5855
  0
VERTEX
  8
0
 10
8.7964
 20
2.5549
  0
VERTEX
  8
0
 10
8.7964
 20
2.7037
  0
VERTEX
  8
0
 10
8.8444
 20
2.7037
  0
VERTEX
  8
0
 10
8.8444
 20
2.2917
  0
VERTEX
  8
0
 10
8.7964
 20
2.2917
  0
SEQEND
  0
POLYLINE
  8
0
 66
     1
 10
0
 20
0
  0
VERTEX
  8
0
 10
8.6364
 20
2.4396
  0
VERTEX
  8
0
 10
8.6409
 20
2.3972
  0
VERTEX
  8
0
 10
8.6544
 20
2.3622
  0
VERTEX
  8
0
 10
8.6817
 20
2.3335
  0
VERTEX
  8
0
 10
8.7192
 20
2.3237
  0
VERTEX
  8
0
 10
8.7562
 20
2.3326
  0
VERTEX
  8
0
 10
8.7828
 20
2.3602
  0
VERTEX
  8
0
 10
8.7959
 20
2.3941
  0
VERTEX
  8
0
 10
8.8003
 20
2.4352
  0
VERTEX
  8
0
 10
8.7961
 20
2.4797
  0
VERTEX
  8
0
 10
8.7834
 20
2.5154
  0
VERTEX
  8
0
 10
8.7559
 20
2.5456
  0
VERTEX
  8
0
 10
8.7169
 20
2.5557
  0
VERTEX
  8
0
 10
8.6791
 20
2.5461
  0
VERTEX
  8
0
 10
8.6527
 20
2.5172
  0
VERTEX
  8
0
 10
8.6405
 20
2.4826
  0
VERTEX
  8
0
 10
8.6364
 20
2.4396
  0
VERTEX
  8
0
 10
8.6364
 20
2.4396
  0
SEQEND
  0
POLYLINE
  8
0
 66
     1
 10
0
 20
0
  0
VERTEX
  8
0
 10
8.9244
 20
2.6437
  0
VERTEX
  8
0
 10
8.9244
 20
2.7037
  0
VERTEX
  8
0
 10
8.9724
 20
2.7037
  0
VERTEX
  8
0
 10
8.9724
 20
2.6437
  0
VERTEX
  8
0
 10
8.9244
 20
2.6437
  0
SEQEND
  0
POLYLINE
  8
0
 66
     1
 10
0
 20
0
  0
VERTEX
  8
0
 10
8.9244
 20
2.2917
  0
VERTEX
  8
0
 10
8.9244
 20
2.5891
  0
VERTEX
  8
0
 10
8.9724
 20
2.5891
  0
VERTEX
  8
0
 10
8.9724
 20
2.2917
  0
VERTEX
  8
0
 10
8.9244
 20
2.2917
  0
SEQEND
  0
POLYLINE
  8
0
 66
     1
 10
0
 20
0
  0
VERTEX
  8
0
 10
9.2484
 20
2.2917
  0
VERTEX
  8
0
 10
9.2484
 20
2.3354
  0
VERTEX
  8
0
 10
9.2076
 20
2.2966
  0
VERTEX
  8
0
 10
9.154
 20
2.2837
  0
VERTEX
  8
0
 10
9.1309
 20
2.2859
  0
VERTEX
  8
0
 10
9.1084
 20
2.2924
  0
VERTEX
  8
0
 10
9.0865
 20
2.3038
  0
VERTEX
  8
0
 10
9.0709
 20
2.3189
  0
VERTEX
  8
0
 10
9.0617
 20
2.3356
  0
VERTEX
  8
0
 10
9.0554
 20
2.3564
  0
VERTEX
  8
0
 10
9.0531
 20
2.3758
  0
VERTEX
  8
0
 10
9.0524
 20
2.4035
  0
VERTEX
  8
0
 10
9.0524
 20
2.5877
  0
VERTEX
  8
0
 10
9.1004
 20
2.5877
  0
VERTEX
  8
0
 10
9.1004
 20
2.4232
  0
VERTEX
  8
0
 10
9.1012
 20
2.3898
  0
VERTEX
  8
0
 10
9.1036
 20
2.3701
  0
VERTEX
  8
0
 10
9.1237
 20
2.3386
  0
VERTEX
  8
0
 10
9.1633
 20
2.3277
  0
VERTEX
  8
0
 10
9.1859
 20
2.3303
  0
VERTEX
  8
0
 10
9.2069
 20
2.339
  0
VERTEX
  8
0
 10
9.2242
 20
2.3527
  0
VERTEX
  8
0
 10
9.2358
 20
2.3707
  0
VERTEX
  8
0
 10
9.2422
 20
2.3953
  0
VERTEX
  8
0
 10
9.2444
 20
2.4288
  0
VERTEX
  8
0
 10
9.2444
 20
2.5877
  0
VERTEX
  8
0
 10
9.2924
 20
2.5877
  0
VERTEX
  8
0
 10
9.2924
 20
2.2917
  0
VERTEX
  8
0
 10
9.2484
 20
2.2917
  0
SEQEND
  0
POLYLINE
  8
0
 66
     1
 10
0
 20
0
  0
VERTEX
  8
0
 10
9.3564
 20
2.3804
  0
VERTEX
  8
0
 10
9.4074
 20
2.3883
  0
VERTEX
  8
0
 10
9.4157
 20
2.36
  0
VERTEX
  8
0
 10
9.4316
 20
2.3398
  0
VERTEX
  8
0
 10
9.4552
 20
2.3277
  0
VERTEX
  8
0
 10
9.4864
 20
2.3237
  0
VERTEX
  8
0
 10
9.5118
 20
2.3262
  0
VERTEX
  8
0
 10
9.5329
 20
2.3339
  0
VERTEX
  8
0
 10
9.5505
 20
2.3495
  0
VERTEX
  8
0
 10
9.5564
 20
2.3715
  0
VERTEX
  8
0
 10
9.5526
 20
2.3869
  0
VERTEX
  8
0
 10
9.5411
 20
2.3986
  0
VERTEX
  8
0
 10
9.5227
 20
2.4063
  0
VERTEX
  8
0
 10
9.4881
 20
2.4159
  0
VERTEX
  8
0
 10
9.4484
 20
2.426
  0
VERTEX
  8
0
 10
9.4263
 20
2.4328
  0
VERTEX
  8
0
 10
9.3953
 20
2.4486
  0
VERTEX
  8
0
 10
9.3756
 20
2.4687
  0
VERTEX
  8
0
 10
9.3672
 20
2.4878
  0
VERTEX
  8
0
 10
9.3644
 20
2.5092
  0
VERTEX
  8
0
 10
9.3729
 20
2.5459
  0
VERTEX
  8
0
 10
9.3983
 20
2.5747
  0
VERTEX
  8
0
 10
9.4313
 20
2.5903
  0
VERTEX
  8
0
 10
9.4741
 20
2.5957
  0
VERTEX
  8
0
 10
9.5065
 20
2.5933
  0
VERTEX
  8
0
 10
9.5354
 20
2.5856
  0
VERTEX
  8
0
 10
9.5585
 20
2.5736
  0
VERTEX
  8
0
 10
9.575
 20
2.5576
  0
VERTEX
  8
0
 10
9.5853
 20
2.5382
  0
VERTEX
  8
0
 10
9.5921
 20
2.5123
  0
VERTEX
  8
0
 10
9.5426
 20
2.5056
  0
VERTEX
  8
0
 10
9.532
 20
2.5333
  0
VERTEX
  8
0
 10
9.5102
 20
2.55
  0
VERTEX
  8
0
 10
9.4772
 20
2.5557
  0
VERTEX
  8
0
 10
9.4414
 20
2.5515
  0
VERTEX
  8
0
 10
9.4198
 20
2.5386
  0
VERTEX
  8
0
 10
9.4124
 20
2.5169
  0
VERTEX
  8
0
 10
9.4138
 20
2.5078
  0
VERTEX
  8
0
 10
9.4186
 20
2.499
  0
VERTEX
  8
0
 10
9.4268
 20
2.4913
  0
VERTEX
  8
0
 10
9.4381
 20
2.4856
  0
VERTEX
  8
0
 10
9.4525
 20
2.481
  0
VERTEX
  8
0
 10
9.4832
 20
2.4726
  0
VERTEX
  8
0
 10
9.5293
 20
2.4591
  0
VERTEX
  8
0
 10
9.5585
 20
2.4488
  0
VERTEX
  8
0
 10
9.5928
 20
2.4216
  0
VERTEX
  8
0
 10
9.6044
 20
2.3787
  0
VERTEX
  8
0
 10
9.6008
 20
2.3541
  0
VERTEX
  8
0
 10
9.5895
 20
2.3306
  0
VERTEX
  8
0
 10
9.5641
 20
2.3047
  0
VERTEX
  8
0
 10
9.529
 20
2.289
  0
VERTEX
  8
0
 10
9.484
 20
2.2837
  0
VERTEX
  8
0
 10
9.4498
 20
2.2862
  0
VERTEX
  8
0
 10
9.4207
 20
2.2942
  0
VERTEX
  8
0
 10
9.3969
 20
2.3076
  0
VERTEX
  8
0
 10
9.3782
 20
2.3264
  0
VERTEX
  8
0
 10
9.3647
 20
2.3507
  0
VERTEX
  8
0
 10
9.3564
 20
2.3804
  0
VERTEX
  8
0
 10
9.3564
 20
2.3804
  0
SEQEND
  0
POLYLINE
  8
0
 66
     1
 10
0
 20
0
  0
VERTEX
  8
0
 10
9.6804
 20
2.2917
  0
VERTEX
  8
0
 10
9.6804
 20
2.3477
  0
VERTEX
  8
0
 10
9.7364
 20
2.3477
  0
VERTEX
  8
0
 10
9.7364
 20
2.2914
  0
VERTEX
  8
0
 10
9.7313
 20
2.2561
  0
VERTEX
  8
0
 10
9.7159
 20
2.2296
  0
VERTEX
  8
0
 10
9.6902
 20
2.2117
  0
VERTEX
  8
0
 10
9.6764
 20
2.2329
  0
VERTEX
  8
0
 10
9.6996
 20
2.254
  0
VERTEX
  8
0
 10
9.7083
 20
2.2917
  0
VERTEX
  8
0
 10
9.6804
 20
2.2917
  0
SEQEND
  0
POLYLINE
  8
0
 66
     1
 10
0
 20
0
  0
VERTEX
  8
0
 10
10.0804
 20
2.4936
  0
VERTEX
  8
0
 10
10.0828
 20
2.5449
  0
VERTEX
  8
0
 10
10.0899
 20
2.5892
  0
VERTEX
  8
0
 10
10.1018
 20
2.6264
  0
VERTEX
  8
0
 10
10.1184
 20
2.6565
  0
VERTEX
  8
0
 10
10.1398
 20
2.6796
  0
VERTEX
  8
0
 10
10.173
 20
2.6975
  0
VERTEX
  8
0
 10
10.2144
 20
2.7037
  0
VERTEX
  8
0
 10
10.245
 20
2.7004
  0
VERTEX
  8
0
 10
10.2724
 20
2.6902
  0
VERTEX
  8
0
 10
10.3126
 20
2.6528
  0
VERTEX
  8
0
 10
10.3391
 20
2.5906
  0
VERTEX
  8
0
 10
10.3461
 20
2.5487
  0
VERTEX
  8
0
 10
10.3484
 20
2.4936
  0
VERTEX
  8
0
 10
10.346
 20
2.4423
  0
VERTEX
  8
0
 10
10.3389
 20
2.3981
  0
VERTEX
  8
0
 10
10.327
 20
2.361
  0
VERTEX
  8
0
 10
10.3103
 20
2.3309
  0
VERTEX
  8
0
 10
10.2889
 20
2.3078
  0
VERTEX
  8
0
 10
10.2557
 20
2.2898
  0
VERTEX
  8
0
 10
10.2144
 20
2.2837
  0
VERTEX
  8
0
 10
10.193
 20
2.2851
  0
VERTEX
  8
0
 10
10.1735
 20
2.2894
  0
VERTEX
  8
0
 10
10.1559
 20
2.2966
  0
VERTEX
  8
0
 10
10.1401
 20
2.3067
  0
VERTEX
  8
0
 10
10.1261
 20
2.3198
  0
VERTEX
  8
0
 10
10.114
 20
2.3359
  0
VERTEX
  8
0
 10
10.1038
 20
2.3548
  0
VERTEX
  8
0
 10
10.0954
 20
2.3767
  0
VERTEX
  8
0
 10
10.0889
 20
2.4015
  0
VERTEX
  8
0
 10
10.0842
 20
2.4293
  0
VERTEX
  8
0
 10
10.0814
 20
2.4599
  0
VERTEX
  8
0
 10
10.0804
 20
2.4936
  0
VERTEX
  8
0
 10
10.0804
 20
2.4936
  0
SEQEND
  0
POLYLINE
  8
0
 66
     1
 10
0
 20
0
  0
VERTEX
  8
0
 10
10.1284
 20
2.4937
  0
VERTEX
  8
0
 10
10.1312
 20
2.4325
  0
VERTEX
  8
0
 10
10.1398
 20
2.3877
  0
VERTEX
  8
0
 10
10.1569
 20
2.3523
  0
VERTEX
  8
0
 10
10.1817
 20
2.3309
  0
VERTEX
  8
0
 10
10.2144
 20
2.3237
  0
VERTEX
  8
0
 10
10.2324
 20
2.3257
  0
VERTEX
  8
0
 10
10.2484
 20
2.3319
  0
VERTEX
  8
0
 10
10.2622
 20
2.3423
  0
VERTEX
  8
0
 10
10.2738
 20
2.357
  0
VERTEX
  8
0
 10
10.2834
 20
2.3759
  0
VERTEX
  8
0
 10
10.2908
 20
2.399
  0
VERTEX
  8
0
 10
10.2961
 20
2.4263
  0
VERTEX
  8
0
 10
10.2993
 20
2.4579
  0
VERTEX
  8
0
 10
10.3004
 20
2.4937
  0
VERTEX
  8
0
 10
10.2975
 20
2.5549
  0
VERTEX
  8
0
 10
10.2889
 20
2.5996
  0
VERTEX
  8
0
 10
10.2717
 20
2.6351
  0
VERTEX
  8
0
 10
10.2467
 20
2.6564
  0
VERTEX
  8
0
 10
10.2138
 20
2.6637
  0
VERTEX
  8
0
 10
10.1811
 20
2.6564
  0
VERTEX
  8
0
 10
10.1557
 20
2.6339
  0
VERTEX
  8
0
 10
10.1405
 20
2.6017
  0
VERTEX
  8
0
 10
10.1314
 20
2.555
  0
VERTEX
  8
0
 10
10.1284
 20
2.4937
  0
VERTEX
  8
0
 10
10.1284
 20
2.4937
  0
SEQEND
  0
POLYLINE
  8
0
 66
     1
 10
0
 20
0
  0
VERTEX
  8
0
 10
10.4284
 20
2.2917
  0
VERTEX
  8
0
 10
10.4284
 20
2.3477
  0
VERTEX
  8
0
 10
10.4844
 20
2.3477
  0
VERTEX
  8
0
 10
10.4844
 20
2.2917
  0
VERTEX
  8
0
 10
10.4284
 20
2.2917
  0
SEQEND
  0
POLYLINE
  8
0
 66
     1
 10
0
 20
0
  0
VERTEX
  8
0
 10
10.5604
 20
2.3992
  0
VERTEX
  8
0
 10
10.6136
 20
2.4037
  0
VERTEX
  8
0
 10
10.623
 20
2.3687
  0
VERTEX
  8
0
 10
10.6394
 20
2.3437
  0
VERTEX
  8
0
 10
10.6627
 20
2.3287
  0
VERTEX
  8
0
 10
10.6931
 20
2.3237
  0
VERTEX
  8
0
 10
10.7295
 20
2.3315
  0
VERTEX
  8
0
 10
10.7578
 20
2.3549
  0
VERTEX
  8
0
 10
10.7747
 20
2.3867
  0
VERTEX
  8
0
 10
10.7804
 20
2.4254
  0
VERTEX
  8
0
 10
10.7745
 20
2.4634
  0
VERTEX
  8
0
 10
10.757
 20
2.4934
  0
VERTEX
  8
0
 10
10.7291
 20
2.513
  0
VERTEX
  8
0
 10
10.6922
 20
2.5197
  0
VERTEX
  8
0
 10
10.6491
 20
2.5098
  0
VERTEX
  8
0
 10
10.6169
 20
2.4796
  0
VERTEX
  8
0
 10
10.5693
 20
2.4857
  0
VERTEX
  8
0
 10
10.6091
 20
2.6957
  0
VERTEX
  8
0
 10
10.8132
 20
2.6957
  0
VERTEX
  8
0
 10
10.8132
 20
2.6437
  0
VERTEX
  8
0
 10
10.6481
 20
2.6437
  0
VERTEX
  8
0
 10
10.6281
 20
2.5379
  0
VERTEX
  8
0
 10
10.6658
 20
2.5571
  0
VERTEX
  8
0
 10
10.7053
 20
2.5637
  0
VERTEX
  8
0
 10
10.7561
 20
2.5541
  0
VERTEX
  8
0
 10
10.7973
 20
2.5249
  0
VERTEX
  8
0
 10
10.8236
 20
2.4823
  0
VERTEX
  8
0
 10
10.8324
 20
2.4303
  0
VERTEX
  8
0
 10
10.8243
 20
2.3783
  0
VERTEX
  8
0
 10
10.7999
 20
2.3337
  0
VERTEX
  8
0
 10
10.7533
 20
2.2963
  0
VERTEX
  8
0
 10
10.6922
 20
2.2837
  0
VERTEX
  8
0
 10
10.6424
 20
2.2912
  0
VERTEX
  8
0
 10
10.6021
 20
2.3139
  0
VERTEX
  8
0
 10
10.5735
 20
2.3507
  0
VERTEX
  8
0
 10
10.5604
 20
2.3992
  0
VERTEX
  8
0
 10
10.5604
 20
2.3992
  0
SEQEND
  0
POLYLINE
  8
0
 66
     1
 10
0
 20
0
  0
VERTEX
  8
0
 10
10.8804
 20
2.4936
  0
VERTEX
  8
0
 10
10.8828
 20
2.5449
  0
VERTEX
  8
0
 10
10.8899
 20
2.5892
  0
VERTEX
  8
0
 10
10.9018
 20
2.6264
  0
VERTEX
  8
0
 10
10.9184
 20
2.6565
  0
VERTEX
  8
0
 10
10.9398
 20
2.6796
  0
VERTEX
  8
0
 10
10.973
 20
2.6975
  0
VERTEX
  8
0
 10
11.0144
 20
2.7037
  0
VERTEX
  8
0
 10
11.045
 20
2.7004
  0
VERTEX
  8
0
 10
11.0724
 20
2.6902
  0
VERTEX
  8
0
 10
11.1126
 20
2.6528
  0
VERTEX
  8
0
 10
11.1391
 20
2.5906
  0
VERTEX
  8
0
 10
11.1461
 20
2.5487
  0
VERTEX
  8
0
 10
11.1484
 20
2.4936
  0
VERTEX
  8
0
 10
11.146
 20
2.4423
  0
VERTEX
  8
0
 10
11.1389
 20
2.3981
  0
VERTEX
  8
0
 10
11.127
 20
2.361
  0
VERTEX
  8
0
 10
11.1103
 20
2.3309
  0
VERTEX
  8
0
 10
11.0889
 20
2.3078
  0
VERTEX
  8
0
 10
11.0557
 20
2.2898
  0
VERTEX
  8
0
 10
11.0144
 20
2.2837
  0
VERTEX
  8
0
 10
10.993
 20
2.2851
  0
VERTEX
  8
0
 10
10.9735
 20
2.2894
  0
VERTEX
  8
0
 10
10.9559
 20
2.2966
  0
VERTEX
  8
0
 10
10.9401
 20
2.3067
  0
VERTEX
  8
0
 10
10.9261
 20
2.3198
  0
VERTEX
  8
0
 10
10.914
 20
2.3359
  0
VERTEX
  8
0
 10
10.9038
 20
2.3548
  0
VERTEX
  8
0
 10
10.8954
 20
2.3767
  0
VERTEX
  8
0
 10
10.8889
 20
2.4015
  0
VERTEX
  8
0
 10
10.8842
 20
2.4293
  0
VERTEX
  8
0
 10
10.8814
 20
2.4599
  0
VERTEX
  8
0
 10
10.8804
 20
2.4936
  0
VERTEX
  8
0
 10
10.8804
 20
2.4936
  0
SEQEND
  0
POLYLINE
  8
0
 66
     1
 10
0
 20
0
  0
VERTEX
  8
0
 10
10.9284
 20
2.4937
  0
VERTEX
  8
0
 10
10.9312
 20
2.4325
  0
VERTEX
  8
0
 10
10.9398
 20
2.3877
  0
VERTEX
  8
0
 10
10.9569
 20
2.3523
  0
VERTEX
  8
0
 10
10.9817
 20
2.3309
  0
VERTEX
  8
0
 10
11.0144
 20
2.3237
  0
VERTEX
  8
0
 10
11.0324
 20
2.3257
  0
VERTEX
  8
0
 10
11.0484
 20
2.3319
  0
VERTEX
  8
0
 10
11.0622
 20
2.3423
  0
VERTEX
  8
0
 10
11.0738
 20
2.357
  0
VERTEX
  8
0
 10
11.0834
 20
2.3759
  0
VERTEX
  8
0
 10
11.0908
 20
2.399
  0
VERTEX
  8
0
 10
11.0961
 20
2.4263
  0
VERTEX
  8
0
 10
11.0993
 20
2.4579
  0
VERTEX
  8
0
 10
11.1004
 20
2.4937
  0
VERTEX
  8
0
 10
11.0975
 20
2.5549
  0
VERTEX
  8
0
 10
11.0889
 20
2.5996
  0
VERTEX
  8
0
 10
11.0717
 20
2.6351
  0
VERTEX
  8
0
 10
11.0467
 20
2.6564
  0
VERTEX
  8
0
 10
11.0138
 20
2.6637
  0
VERTEX
  8
0
 10
10.9811
 20
2.6564
  0
VERTEX
  8
0
 10
10.9557
 20
2.6339
  0
VERTEX
  8
0
 10
10.9405
 20
2.6017
  0
VERTEX
  8
0
 10
10.9314
 20
2.555
  0
VERTEX
  8
0
 10
10.9284
 20
2.4937
  0
VERTEX
  8
0
 10
10.9284
 20
2.4937
  0
SEQEND
  0
POLYLINE
  8
0
 66
     1
 10
0
 20
0
  0
VERTEX
  8
0
 10
11.2181
 20
2.5557
  0
VERTEX
  8
0
 10
11.2044
 20
2.6352
  0
VERTEX
  8
0
 10
11.2044
 20
2.7037
  0
VERTEX
  8
0
 10
11.2604
 20
2.7037
  0
VERTEX
  8
0
 10
11.2604
 20
2.6352
  0
VERTEX
  8
0
 10
11.2481
 20
2.5557
  0
VERTEX
  8
0
 10
11.2181
 20
2.5557
  0
SEQEND
  0
POLYLINE
  8
0
 66
     1
 10
0
 20
0
  0
VERTEX
  8
0
 10
11.3138
 20
2.5557
  0
VERTEX
  8
0
 10
11.3004
 20
2.6352
  0
VERTEX
  8
0
 10
11.3004
 20
2.7037
  0
VERTEX
  8
0
 10
11.3564
 20
2.7037
  0
VERTEX
  8
0
 10
11.3564
 20
2.6352
  0
VERTEX
  8
0
 10
11.3433
 20
2.5557
  0
VERTEX
  8
0
 10
11.3138
 20
2.5557
  0
SEQEND
  0
POLYLINE
  8
0
 66
     1
 10
0
 20
0
  0
VERTEX
  8
0
 10
11.6924
 20
2.2917
  0
VERTEX
  8
0
 10
11.6924
 20
2.7037
  0
VERTEX
  8
0
 10
11.8474
 20
2.7037
  0
VERTEX
  8
0
 10
11.8896
 20
2.7005
  0
VERTEX
  8
0
 10
11.9232
 20
2.6911
  0
VERTEX
  8
0
 10
11.9479
 20
2.6758
  0
VERTEX
  8
0
 10
11.9673
 20
2.6536
  0
VERTEX
  8
0
 10
11.98
 20
2.627
  0
VERTEX
  8
0
 10
11.9844
 20
2.5983
  0
VERTEX
  8
0
 10
11.978
 20
2.5628
  0
VERTEX
  8
0
 10
11.9583
 20
2.5337
  0
VERTEX
  8
0
 10
11.9251
 20
2.5109
  0
VERTEX
  8
0
 10
11.9564
 20
2.4965
  0
VERTEX
  8
0
 10
11.9799
 20
2.4746
  0
VERTEX
  8
0
 10
11.9953
 20
2.4456
  0
VERTEX
  8
0
 10
12.0004
 20
2.4111
  0
VERTEX
  8
0
 10
11.9977
 20
2.3852
  0
VERTEX
  8
0
 10
11.9895
 20
2.3602
  0
VERTEX
  8
0
 10
11.976
 20
2.3369
  0
VERTEX
  8
0
 10
11.9584
 20
2.3189
  0
VERTEX
  8
0
 10
11.9129
 20
2.2985
  0
VERTEX
  8
0
 10
11.8479
 20
2.2917
  0
VERTEX
  8
0
 10
11.6924
 20
2.2917
  0
SEQEND
  0
POLYLINE
  8
0
 66
     1
 10
0
 20
0
  0
VERTEX
  8
0
 10
11.7484
 20
2.5317
  0
VERTEX
  8
0
 10
11.838
 20
2.5317
  0
VERTEX
  8
0
 10
11.8691
 20
2.5328
  0
VERTEX
  8
0
 10
11.8903
 20
2.5363
  0
VERTEX
  8
0
 10
11.9216
 20
2.5559
  0
VERTEX
  8
0
 10
11.9324
 20
2.5907
  0
VERTEX
  8
0
 10
11.9231
 20
2.6262
  0
VERTEX
  8
0
 10
11.8942
 20
2.646
  0
VERTEX
  8
0
 10
11.8693
 20
2.6503
  0
VERTEX
  8
0
 10
11.8312
 20
2.6517
  0
VERTEX
  8
0
 10
11.7484
 20
2.6517
  0
VERTEX
  8
0
 10
11.7484
 20
2.5317
  0
SEQEND
  0
POLYLINE
  8
0
 66
     1
 10
0
 20
0
  0
VERTEX
  8
0
 10
11.7484
 20
2.3437
  0
VERTEX
  8
0
 10
11.8489
 20
2.3437
  0
VERTEX
  8
0
 10
11.8709
 20
2.3441
  0
VERTEX
  8
0
 10
11.8852
 20
2.3456
  0
VERTEX
  8
0
 10
11.9164
 20
2.3571
  0
VERTEX
  8
0
 10
11.9364
 20
2.3782
  0
VERTEX
  8
0
 10
11.9423
 20
2.3936
  0
VERTEX
  8
0
 10
11.9444
 20
2.4117
  0
VERTEX
  8
0
 10
11.9337
 20
2.4503
  0
VERTEX
  8
0
 10
11.9006
 20
2.4729
  0
VERTEX
  8
0
 10
11.8756
 20
2.478
  0
VERTEX
  8
0
 10
11.8417
 20
2.4797
  0
VERTEX
  8
0
 10
11.7484
 20
2.4797
  0
VERTEX
  8
0
 10
11.7484
 20
2.3437
  0
SEQEND
  0
POLYLINE
  8
0
 66
     1
 10
0
 20
0
  0
VERTEX
  8
0
 10
12.0564
 20
2.4397
  0
VERTEX
  8
0
 10
12.0615
 20
2.4902
  0
VERTEX
  8
0
 10
12.0769
 20
2.5311
  0
VERTEX
  8
0
 10
12.1025
 20
2.5625
  0
VERTEX
  8
0
 10
12.1452
 20
2.5874
  0
VERTEX
  8
0
 10
12.1965
 20
2.5957
  0
VERTEX
  8
0
 10
12.2554
 20
2.5848
  0
VERTEX
  8
0
 10
12.3004
 20
2.5521
  0
VERTEX
  8
0
 10
12.3274
 20
2.5042
  0
VERTEX
  8
0
 10
12.3364
 20
2.4439
  0
VERTEX
  8
0
 10
12.3321
 20
2.3958
  0
VERTEX
  8
0
 10
12.3194
 20
2.3561
  0
VERTEX
  8
0
 10
12.2982
 20
2.3248
  0
VERTEX
  8
0
 10
12.2686
 20
2.3019
  0
VERTEX
  8
0
 10
12.2341
 20
2.2884
  0
VERTEX
  8
0
 10
12.1965
 20
2.2837
  0
VERTEX
  8
0
 10
12.1359
 20
2.2947
  0
VERTEX
  8
0
 10
12.091
 20
2.3284
  0
VERTEX
  8
0
 10
12.065
 20
2.377
  0
VERTEX
  8
0
 10
12.0564
 20
2.4397
  0
VERTEX
  8
0
 10
12.0564
 20
2.4397
  0
SEQEND
  0
POLYLINE
  8
0
 66
     1
 10
0
 20
0
  0
VERTEX
  8
0
 10
12.1044
 20
2.4398
  0
VERTEX
  8
0
 10
12.1095
 20
2.3954
  0
VERTEX
  8
0
 10
12.1247
 20
2.3602
  0
VERTEX
  8
0
 10
12.1547
 20
2.333
  0
VERTEX
  8
0
 10
12.1965
 20
2.3237
  0
VERTEX
  8
0
 10
12.2383
 20
2.3329
  0
VERTEX
  8
0
 10
12.2684
 20
2.3611
  0
VERTEX
  8
0
 10
12.2834
 20
2.3969
  0
VERTEX
  8
0
 10
12.2884
 20
2.4416
  0
VERTEX
  8
0
 10
12.2832
 20
2.4848
  0
VERTEX
  8
0
 10
12.2675
 20
2.5197
  0
VERTEX
  8
0
 10
12.2374
 20
2.5467
  0
VERTEX
  8
0
 10
12.1965
 20
2.5557
  0
VERTEX
  8
0
 10
12.1547
 20
2.5466
  0
VERTEX
  8
0
 10
12.1247
 20
2.5192
  0
VERTEX
  8
0
 10
12.1095
 20
2.4839
  0
VERTEX
  8
0
 10
12.1044
 20
2.4398
  0
VERTEX
  8
0
 10
12.1044
 20
2.4398
  0
SEQEND
  0
POLYLINE
  8
0
 66
     1
 10
0
 20
0
  0
VERTEX
  8
0
 10
12.3924
 20
2.2917
  0
VERTEX
  8
0
 10
12.3924
 20
2.5891
  0
VERTEX
  8
0
 10
12.4364
 20
2.5891
  0
VERTEX
  8
0
 10
12.4364
 20
2.5439
  0
VERTEX
  8
0
 10
12.4497
 20
2.5653
  0
VERTEX
  8
0
 10
12.4619
 20
2.5797
  0
VERTEX
  8
0
 10
12.4801
 20
2.5917
  0
VERTEX
  8
0
 10
12.5015
 20
2.5957
  0
VERTEX
  8
0
 10
12.5274
 20
2.5916
  0
VERTEX
  8
0
 10
12.5539
 20
2.5794
  0
VERTEX
  8
0
 10
12.5362
 20
2.5327
  0
VERTEX
  8
0
 10
12.5173
 20
2.5409
  0
VERTEX
  8
0
 10
12.4984
 20
2.5437
  0
VERTEX
  8
0
 10
12.4818
 20
2.5408
  0
VERTEX
  8
0
 10
12.4664
 20
2.5322
  0
VERTEX
  8
0
 10
12.456
 20
2.5209
  0
VERTEX
  8
0
 10
12.4489
 20
2.5062
  0
VERTEX
  8
0
 10
12.4425
 20
2.4783
  0
VERTEX
  8
0
 10
12.4404
 20
2.4474
  0
VERTEX
  8
0
 10
12.4404
 20
2.2917
  0
VERTEX
  8
0
 10
12.3924
 20
2.2917
  0
SEQEND
  0
POLYLINE
  8
0
 66
     1
 10
0
 20
0
  0
VERTEX
  8
0
 10
12.7764
 20
2.2917
  0
VERTEX
  8
0
 10
12.7764
 20
2.3292
  0
VERTEX
  8
0
 10
12.7421
 20
2.2952
  0
VERTEX
  8
0
 10
12.6944
 20
2.2837
  0
VERTEX
  8
0
 10
12.66
 20
2.2887
  0
VERTEX
  8
0
 10
12.6288
 20
2.3042
  0
VERTEX
  8
0
 10
12.6032
 20
2.3278
  0
VERTEX
  8
0
 10
12.5842
 20
2.3585
  0
VERTEX
  8
0
 10
12.5725
 20
2.3958
  0
VERTEX
  8
0
 10
12.5684
 20
2.4394
  0
VERTEX
  8
0
 10
12.5719
 20
2.4845
  0
VERTEX
  8
0
 10
12.583
 20
2.5223
  0
VERTEX
  8
0
 10
12.6016
 20
2.5529
  0
VERTEX
  8
0
 10
12.6278
 20
2.5763
  0
VERTEX
  8
0
 10
12.6591
 20
2.5908
  0
VERTEX
  8
0
 10
12.6943
 20
2.5957
  0
VERTEX
  8
0
 10
12.741
 20
2.5855
  0
VERTEX
  8
0
 10
12.7764
 20
2.5549
  0
VERTEX
  8
0
 10
12.7764
 20
2.7037
  0
VERTEX
  8
0
 10
12.8244
 20
2.7037
  0
VERTEX
  8
0
 10
12.8244
 20
2.2917
  0
VERTEX
  8
0
 10
12.7764
 20
2.2917
  0
SEQEND
  0
POLYLINE
  8
0
 66
     1
 10
0
 20
0
  0
VERTEX
  8
0
 10
12.6164
 20
2.4396
  0
VERTEX
  8
0
 10
12.6209
 20
2.3972
  0
VERTEX
  8
0
 10
12.6344
 20
2.3622
  0
VERTEX
  8
0
 10
12.6617
 20
2.3335
  0
VERTEX
  8
0
 10
12.6992
 20
2.3237
  0
VERTEX
  8
0
 10
12.7362
 20
2.3326
  0
VERTEX
  8
0
 10
12.7628
 20
2.3602
  0
VERTEX
  8
0
 10
12.7759
 20
2.3941
  0
VERTEX
  8
0
 10
12.7803
 20
2.4352
  0
VERTEX
  8
0
 10
12.7761
 20
2.4797
  0
VERTEX
  8
0
 10
12.7634
 20
2.5154
  0
VERTEX
  8
0
 10
12.7359
 20
2.5456
  0
VERTEX
  8
0
 10
12.6969
 20
2.5557
  0
VERTEX
  8
0
 10
12.6591
 20
2.5461
  0
VERTEX
  8
0
 10
12.6327
 20
2.5172
  0
VERTEX
  8
0
 10
12.6205
 20
2.4826
  0
VERTEX
  8
0
 10
12.6164
 20
2.4396
  0
VERTEX
  8
0
 10
12.6164
 20
2.4396
  0
SEQEND
  0
POLYLINE
  8
0
 66
     1
 10
0
 20
0
  0
VERTEX
  8
0
 10
13.1118
 20
2.3874
  0
VERTEX
  8
0
 10
13.1648
 20
2.3809
  0
VERTEX
  8
0
 10
13.154
 20
2.3512
  0
VERTEX
  8
0
 10
13.1388
 20
2.3269
  0
VERTEX
  8
0
 10
13.1193
 20
2.308
  0
VERTEX
  8
0
 10
13.0953
 20
2.2945
  0
VERTEX
  8
0
 10
13.0669
 20
2.2864
  0
VERTEX
  8
0
 10
13.0341
 20
2.2837
  0
VERTEX
  8
0
 10
12.9754
 20
2.2937
  0
VERTEX
  8
0
 10
12.9305
 20
2.3239
  0
VERTEX
  8
0
 10
12.9019
 20
2.3723
  0
VERTEX
  8
0
 10
12.8924
 20
2.4372
  0
VERTEX
  8
0
 10
12.9009
 20
2.4999
  0
VERTEX
  8
0
 10
12.9266
 20
2.5493
  0
VERTEX
  8
0
 10
12.9715
 20
2.5841
  0
VERTEX
  8
0
 10
13.0313
 20
2.5957
  0
VERTEX
  8
0
 10
13.0895
 20
2.5843
  0
VERTEX
  8
0
 10
13.1332
 20
2.5501
  0
VERTEX
  8
0
 10
13.1582
 20
2.5019
  0
VERTEX
  8
0
 10
13.1665
 20
2.4411
  0
VERTEX
  8
0
 10
13.1664
 20
2.4341
  0
VERTEX
  8
0
 10
13.1662
 20
2.4277
  0
VERTEX
  8
0
 10
12.9404
 20
2.4277
  0
VERTEX
  8
0
 10
12.9476
 20
2.3872
  0
VERTEX
  8
0
 10
12.9646
 20
2.3551
  0
VERTEX
  8
0
 10
12.9939
 20
2.3315
  0
VERTEX
  8
0
 10
13.0319
 20
2.3237
  0
VERTEX
  8
0
 10
13.0663
 20
2.3308
  0
VERTEX
  8
0
 10
13.0929
 20
2.352
  0
VERTEX
  8
0
 10
13.1118
 20
2.3874
  0
VERTEX
  8
0
 10
13.1118
 20
2.3874
  0
SEQEND
  0
POLYLINE
  8
0
 66
     1
 10
0
 20
0
  0
VERTEX
  8
0
 10
12.9473
 20
2.4677
  0
VERTEX
  8
0
 10
13.1133
 20
2.4677
  0
VERTEX
  8
0
 10
13.1069
 20
2.5015
  0
VERTEX
  8
0
 10
13.0943
 20
2.5257
  0
VERTEX
  8
0
 10
13.0666
 20
2.548
  0
VERTEX
  8
0
 10
13.0318
 20
2.5557
  0
VERTEX
  8
0
 10
12.9985
 20
2.5495
  0
VERTEX
  8
0
 10
12.9719
 20
2.5303
  0
VERTEX
  8
0
 10
12.9547
 20
2.5025
  0
VERTEX
  8
0
 10
12.9473
 20
2.4677
  0
VERTEX
  8
0
 10
12.9473
 20
2.4677
  0
SEQEND
  0
POLYLINE
  8
0
 66
     1
 10
0
 20
0
  0
VERTEX
  8
0
 10
13.2284
 20
2.2917
  0
VERTEX
  8
0
 10
13.2284
 20
2.5891
  0
VERTEX
  8
0
 10
13.2724
 20
2.5891
  0
VERTEX
  8
0
 10
13.2724
 20
2.5439
  0
VERTEX
  8
0
 10
13.2857
 20
2.5653
  0
VERTEX
  8
0
 10
13.2979
 20
2.5797
  0
VERTEX
  8
0
 10
13.3161
 20
2.5917
  0
VERTEX
  8
0
 10
13.3375
 20
2.5957
  0
VERTEX
  8
0
 10
13.3634
 20
2.5916
  0
VERTEX
  8
0
 10
13.3899
 20
2.5794
  0
VERTEX
  8
0
 10
13.3722
 20
2.5327
  0
VERTEX
  8
0
 10
13.3533
 20
2.5409
  0
VERTEX
  8
0
 10
13.3344
 20
2.5437
  0
VERTEX
  8
0
 10
13.3178
 20
2.5408
  0
VERTEX
  8
0
 10
13.3024
 20
2.5322
  0
VERTEX
  8
0
 10
13.292
 20
2.5209
  0
VERTEX
  8
0
 10
13.2849
 20
2.5062
  0
VERTEX
  8
0
 10
13.2785
 20
2.4783
  0
VERTEX
  8
0
 10
13.2764
 20
2.4474
  0
VERTEX
  8
0
 10
13.2764
 20
2.2917
  0
VERTEX
  8
0
 10
13.2284
 20
2.2917
  0
SEQEND
  0
POLYLINE
  8
0
 66
     1
 10
0
 20
0
  0
VERTEX
  8
0
 10
13.4364
 20
2.2917
  0
VERTEX
  8
0
 10
13.4364
 20
2.3477
  0
VERTEX
  8
0
 10
13.4924
 20
2.3477
  0
VERTEX
  8
0
 10
13.4924
 20
2.2914
  0
VERTEX
  8
0
 10
13.4873
 20
2.2561
  0
VERTEX
  8
0
 10
13.4719
 20
2.2296
  0
VERTEX
  8
0
 10
13.4462
 20
2.2117
  0
VERTEX
  8
0
 10
13.4324
 20
2.2329
  0
VERTEX
  8
0
 10
13.4556
 20
2.254
  0
VERTEX
  8
0
 10
13.4643
 20
2.2917
  0
VERTEX
  8
0
 10
13.4364
 20
2.2917
  0
SEQEND
  0
POLYLINE
  8
0
 66
     1
 10
0
 20
0
  0
VERTEX
  8
0
 10
13.9267
 20
2.2917
  0
VERTEX
  8
0
 10
13.8164
 20
2.7037
  0
VERTEX
  8
0
 10
13.8721
 20
2.7037
  0
VERTEX
  8
0
 10
13.9346
 20
2.4334
  0
VERTEX
  8
0
 10
13.9439
 20
2.3907
  0
VERTEX
  8
0
 10
13.9519
 20
2.3491
  0
VERTEX
  8
0
 10
13.9642
 20
2.4005
  0
VERTEX
  8
0
 10
13.9704
 20
2.4249
  0
VERTEX
  8
0
 10
14.0485
 20
2.7037
  0
VERTEX
  8
0
 10
14.114
 20
2.7037
  0
VERTEX
  8
0
 10
14.1728
 20
2.4944
  0
VERTEX
  8
0
 10
14.192
 20
2.4196
  0
VERTEX
  8
0
 10
14.2053
 20
2.3491
  0
VERTEX
  8
0
 10
14.2133
 20
2.3855
  0
VERTEX
  8
0
 10
14.226
 20
2.4382
  0
VERTEX
  8
0
 10
14.2903
 20
2.7037
  0
VERTEX
  8
0
 10
14.3442
 20
2.7037
  0
VERTEX
  8
0
 10
14.2316
 20
2.2917
  0
VERTEX
  8
0
 10
14.1758
 20
2.2917
  0
VERTEX
  8
0
 10
14.0921
 20
2.6042
  0
VERTEX
  8
0
 10
14.083
 20
2.6358
  0
VERTEX
  8
0
 10
14.0786
 20
2.6522
  0
VERTEX
  8
0
 10
14.0746
 20
2.6274
  0
VERTEX
  8
0
 10
14.0703
 20
2.6037
  0
VERTEX
  8
0
 10
13.9829
 20
2.2917
  0
VERTEX
  8
0
 10
13.9267
 20
2.2917
  0
SEQEND
  0
POLYLINE
  8
0
 66
     1
 10
0
 20
0
  0
VERTEX
  8
0
 10
14.3924
 20
2.2917
  0
VERTEX
  8
0
 10
14.3924
 20
2.7037
  0
VERTEX
  8
0
 10
14.4404
 20
2.7037
  0
VERTEX
  8
0
 10
14.4404
 20
2.5549
  0
VERTEX
  8
0
 10
14.4812
 20
2.5854
  0
VERTEX
  8
0
 10
14.5314
 20
2.5957
  0
VERTEX
  8
0
 10
14.5625
 20
2.5925
  0
VERTEX
  8
0
 10
14.59
 20
2.5825
  0
VERTEX
  8
0
 10
14.6137
 20
2.5643
  0
VERTEX
  8
0
 10
14.6286
 20
2.5389
  0
VERTEX
  8
0
 10
14.6344
 20
2.5135
  0
VERTEX
  8
0
 10
14.6364
 20
2.4801
  0
VERTEX
  8
0
 10
14.6364
 20
2.2917
  0
VERTEX
  8
0
 10
14.5884
 20
2.2917
  0
VERTEX
  8
0
 10
14.5884
 20
2.4796
  0
VERTEX
  8
0
 10
14.5843
 20
2.5109
  0
VERTEX
  8
0
 10
14.572
 20
2.5334
  0
VERTEX
  8
0
 10
14.5515
 20
2.547
  0
VERTEX
  8
0
 10
14.5228
 20
2.5517
  0
VERTEX
  8
0
 10
14.5
 20
2.5489
  0
VERTEX
  8
0
 10
14.4788
 20
2.5402
  0
VERTEX
  8
0
 10
14.4612
 20
2.5265
  0
VERTEX
  8
0
 10
14.4493
 20
2.5088
  0
VERTEX
  8
0
 10
14.4426
 20
2.4852
  0
VERTEX
  8
0
 10
14.4404
 20
2.4539
  0
VERTEX
  8
0
 10
14.4404
 20
2.2917
  0
VERTEX
  8
0
 10
14.3924
 20
2.2917
  0
SEQEND
  0
POLYLINE
  8
0
 66
     1
 10
0
 20
0
  0
VERTEX
  8
0
 10
14.7164
 20
2.6437
  0
VERTEX
  8
0
 10
14.7164
 20
2.7037
  0
VERTEX
  8
0
 10
14.7644
 20
2.7037
  0
VERTEX
  8
0
 10
14.7644
 20
2.6437
  0
VERTEX
  8
0
 10
14.7164
 20
2.6437
  0
SEQEND
  0
POLYLINE
  8
0
 66
     1
 10
0
 20
0
  0
VERTEX
  8
0
 10
14.7164
 20
2.2917
  0
VERTEX
  8
0
 10
14.7164
 20
2.5891
  0
VERTEX
  8
0
 10
14.7644
 20
2.5891
  0
VERTEX
  8
0
 10
14.7644
 20
2.2917
  0
VERTEX
  8
0
 10
14.7164
 20
2.2917
  0
SEQEND
  0
POLYLINE
  8
0
 66
     1
 10
0
 20
0
  0
VERTEX
  8
0
 10
14.9538
 20
2.3367
  0
VERTEX
  8
0
 10
14.9614
 20
2.2922
  0
VERTEX
  8
0
 10
14.941
 20
2.2889
  0
VERTEX
  8
0
 10
14.923
 20
2.2877
  0
VERTEX
  8
0
 10
14.8815
 20
2.2952
  0
VERTEX
  8
0
 10
14.8586
 20
2.3188
  0
VERTEX
  8
0
 10
14.8539
 20
2.3408
  0
VERTEX
  8
0
 10
14.8524
 20
2.3779
  0
VERTEX
  8
0
 10
14.8524
 20
2.5477
  0
VERTEX
  8
0
 10
14.8164
 20
2.5477
  0
VERTEX
  8
0
 10
14.8164
 20
2.5877
  0
VERTEX
  8
0
 10
14.8524
 20
2.5877
  0
VERTEX
  8
0
 10
14.8524
 20
2.6614
  0
VERTEX
  8
0
 10
14.9004
 20
2.6917
  0
VERTEX
  8
0
 10
14.9004
 20
2.5877
  0
VERTEX
  8
0
 10
14.9524
 20
2.5877
  0
VERTEX
  8
0
 10
14.9524
 20
2.5477
  0
VERTEX
  8
0
 10
14.9004
 20
2.5477
  0
VERTEX
  8
0
 10
14.9004
 20
2.3762
  0
VERTEX
  8
0
 10
14.9006
 20
2.363
  0
VERTEX
  8
0
 10
14.9013
 20
2.3558
  0
VERTEX
  8
0
 10
14.905
 20
2.346
  0
VERTEX
  8
0
 10
14.9122
 20
2.3392
  0
VERTEX
  8
0
 10
14.9197
 20
2.3367
  0
VERTEX
  8
0
 10
14.9304
 20
2.3357
  0
VERTEX
  8
0
 10
14.9406
 20
2.3358
  0
VERTEX
  8
0
 10
14.9538
 20
2.3367
  0
VERTEX
  8
0
 10
14.9538
 20
2.3367
  0
SEQEND
  0
POLYLINE
  8
0
 66
     1
 10
0
 20
0
  0
VERTEX
  8
0
 10
15.2078
 20
2.3874
  0
VERTEX
  8
0
 10
15.2608
 20
2.3809
  0
VERTEX
  8
0
 10
15.25
 20
2.3512
  0
VERTEX
  8
0
 10
15.2348
 20
2.3269
  0
VERTEX
  8
0
 10
15.2153
 20
2.308
  0
VERTEX
  8
0
 10
15.1913
 20
2.2945
  0
VERTEX
  8
0
 10
15.1629
 20
2.2864
  0
VERTEX
  8
0
 10
15.1301
 20
2.2837
  0
VERTEX
  8
0
 10
15.0714
 20
2.2937
  0
VERTEX
  8
0
 10
15.0265
 20
2.3239
  0
VERTEX
  8
0
 10
14.9979
 20
2.3723
  0
VERTEX
  8
0
 10
14.9884
 20
2.4372
  0
VERTEX
  8
0
 10
14.9969
 20
2.4999
  0
VERTEX
  8
0
 10
15.0226
 20
2.5493
  0
VERTEX
  8
0
 10
15.0675
 20
2.5841
  0
VERTEX
  8
0
 10
15.1273
 20
2.5957
  0
VERTEX
  8
0
 10
15.1855
 20
2.5843
  0
VERTEX
  8
0
 10
15.2292
 20
2.5501
  0
VERTEX
  8
0
 10
15.2542
 20
2.5019
  0
VERTEX
  8
0
 10
15.2625
 20
2.4411
  0
VERTEX
  8
0
 10
15.2624
 20
2.4341
  0
VERTEX
  8
0
 10
15.2622
 20
2.4277
  0
VERTEX
  8
0
 10
15.0364
 20
2.4277
  0
VERTEX
  8
0
 10
15.0436
 20
2.3872
  0
VERTEX
  8
0
 10
15.0606
 20
2.3551
  0
VERTEX
  8
0
 10
15.0899
 20
2.3315
  0
VERTEX
  8
0
 10
15.1279
 20
2.3237
  0
VERTEX
  8
0
 10
15.1623
 20
2.3308
  0
VERTEX
  8
0
 10
15.1889
 20
2.352
  0
VERTEX
  8
0
 10
15.2078
 20
2.3874
  0
VERTEX
  8
0
 10
15.2078
 20
2.3874
  0
SEQEND
  0
POLYLINE
  8
0
 66
     1
 10
0
 20
0
  0
VERTEX
  8
0
 10
15.0433
 20
2.4677
  0
VERTEX
  8
0
 10
15.2093
 20
2.4677
  0
VERTEX
  8
0
 10
15.2029
 20
2.5015
  0
VERTEX
  8
0
 10
15.1903
 20
2.5257
  0
VERTEX
  8
0
 10
15.1626
 20
2.548
  0
VERTEX
  8
0
 10
15.1278
 20
2.5557
  0
VERTEX
  8
0
 10
15.0945
 20
2.5495
  0
VERTEX
  8
0
 10
15.0679
 20
2.5303
  0
VERTEX
  8
0
 10
15.0507
 20
2.5025
  0
VERTEX
  8
0
 10
15.0433
 20
2.4677
  0
VERTEX
  8
0
 10
15.0433
 20
2.4677
  0
SEQEND
  0
POLYLINE
  8
0
 66
     1
 10
0
 20
0
  0
VERTEX
  8
0
 10
15.5724
 20
2.4397
  0
VERTEX
  8
0
 10
15.5775
 20
2.4902
  0
VERTEX
  8
0
 10
15.5929
 20
2.5311
  0
VERTEX
  8
0
 10
15.6185
 20
2.5625
  0
VERTEX
  8
0
 10
15.6612
 20
2.5874
  0
VERTEX
  8
0
 10
15.7125
 20
2.5957
  0
VERTEX
  8
0
 10
15.7714
 20
2.5848
  0
VERTEX
  8
0
 10
15.8164
 20
2.5521
  0
VERTEX
  8
0
 10
15.8434
 20
2.5042
  0
VERTEX
  8
0
 10
15.8524
 20
2.4439
  0
VERTEX
  8
0
 10
15.8481
 20
2.3958
  0
VERTEX
  8
0
 10
15.8354
 20
2.3561
  0
VERTEX
  8
0
 10
15.8142
 20
2.3248
  0
VERTEX
  8
0
 10
15.7846
 20
2.3019
  0
VERTEX
  8
0
 10
15.7501
 20
2.2884
  0
VERTEX
  8
0
 10
15.7125
 20
2.2837
  0
VERTEX
  8
0
 10
15.6519
 20
2.2947
  0
VERTEX
  8
0
 10
15.607
 20
2.3284
  0
VERTEX
  8
0
 10
15.581
 20
2.377
  0
VERTEX
  8
0
 10
15.5724
 20
2.4397
  0
VERTEX
  8
0
 10
15.5724
 20
2.4397
  0
SEQEND
  0
POLYLINE
  8
0
 66
     1
 10
0
 20
0
  0
VERTEX
  8
0
 10
15.6204
 20
2.4398
  0
VERTEX
  8
0
 10
15.6255
 20
2.3954
  0
VERTEX
  8
0
 10
15.6407
 20
2.3602
  0
VERTEX
  8
0
 10
15.6707
 20
2.333
  0
VERTEX
  8
0
 10
15.7125
 20
2.3237
  0
VERTEX
  8
0
 10
15.7543
 20
2.3329
  0
VERTEX
  8
0
 10
15.7844
 20
2.3611
  0
VERTEX
  8
0
 10
15.7994
 20
2.3969
  0
VERTEX
  8
0
 10
15.8044
 20
2.4416
  0
VERTEX
  8
0
 10
15.7992
 20
2.4848
  0
VERTEX
  8
0
 10
15.7835
 20
2.5197
  0
VERTEX
  8
0
 10
15.7534
 20
2.5467
  0
VERTEX
  8
0
 10
15.7125
 20
2.5557
  0
VERTEX
  8
0
 10
15.6707
 20
2.5466
  0
VERTEX
  8
0
 10
15.6407
 20
2.5192
  0
VERTEX
  8
0
 10
15.6255
 20
2.4839
  0
VERTEX
  8
0
 10
15.6204
 20
2.4398
  0
VERTEX
  8
0
 10
15.6204
 20
2.4398
  0
SEQEND
  0
POLYLINE
  8
0
 66
     1
 10
0
 20
0
  0
VERTEX
  8
0
 10
15.9124
 20
2.2917
  0
VERTEX
  8
0
 10
15.9124
 20
2.5891
  0
VERTEX
  8
0
 10
15.9564
 20
2.5891
  0
VERTEX
  8
0
 10
15.9564
 20
2.5467
  0
VERTEX
  8
0
 10
15.9964
 20
2.5833
  0
VERTEX
  8
0
 10
16.0509
 20
2.5957
  0
VERTEX
  8
0
 10
16.0762
 20
2.5932
  0
VERTEX
  8
0
 10
16.1001
 20
2.5859
  0
VERTEX
  8
0
 10
16.1324
 20
2.5617
  0
VERTEX
  8
0
 10
16.1496
 20
2.5234
  0
VERTEX
  8
0
 10
16.1517
 20
2.5046
  0
VERTEX
  8
0
 10
16.1524
 20
2.4745
  0
VERTEX
  8
0
 10
16.1524
 20
2.2917
  0
VERTEX
  8
0
 10
16.1044
 20
2.2917
  0
VERTEX
  8
0
 10
16.1044
 20
2.4723
  0
VERTEX
  8
0
 10
16.1034
 20
2.4953
  0
VERTEX
  8
0
 10
16.1004
 20
2.5117
  0
VERTEX
  8
0
 10
16.0916
 20
2.5294
  0
VERTEX
  8
0
 10
16.0769
 20
2.5424
  0
VERTEX
  8
0
 10
16.0604
 20
2.5494
  0
VERTEX
  8
0
 10
16.0411
 20
2.5517
  0
VERTEX
  8
0
 10
16.0165
 20
2.549
  0
VERTEX
  8
0
 10
15.9963
 20
2.5408
  0
VERTEX
  8
0
 10
15.9806
 20
2.5272
  0
VERTEX
  8
0
 10
15.9694
 20
2.5082
  0
VERTEX
  8
0
 10
15.9626
 20
2.4837
  0
VERTEX
  8
0
 10
15.9604
 20
2.4538
  0
VERTEX
  8
0
 10
15.9604
 20
2.2917
  0
VERTEX
  8
0
 10
15.9124
 20
2.2917
  0
SEQEND
  0
POLYLINE
  8
0
 66
     1
 10
0
 20
0
  0
VERTEX
  8
0
 10
16.7044
 20
2.4517
  0
VERTEX
  8
0
 10
16.7044
 20
2.5037
  0
VERTEX
  8
0
 10
16.8764
 20
2.5037
  0
VERTEX
  8
0
 10
16.8764
 20
2.3489
  0
VERTEX
  8
0
 10
16.8219
 20
2.3127
  0
VERTEX
  8
0
 10
16.7652
 20
2.2909
  0
VERTEX
  8
0
 10
16.7063
 20
2.2837
  0
VERTEX
  8
0
 10
16.6495
 20
2.2897
  0
VERTEX
  8
0
 10
16.5989
 20
2.3077
  0
VERTEX
  8
0
 10
16.554
 20
2.34
  0
VERTEX
  8
0
 10
16.5216
 20
2.3844
  0
VERTEX
  8
0
 10
16.5027
 20
2.4359
  0
VERTEX
  8
0
 10
16.4964
 20
2.4937
  0
VERTEX
  8
0
 10
16.5022
 20
2.5503
  0
VERTEX
  8
0
 10
16.5196
 20
2.6019
  0
VERTEX
  8
0
 10
16.551
 20
2.6495
  0
VERTEX
  8
0
 10
16.5936
 20
2.6825
  0
VERTEX
  8
0
 10
16.6442
 20
2.7014
  0
VERTEX
  8
0
 10
16.7019
 20
2.7077
  0
VERTEX
  8
0
 10
16.7441
 20
2.704
  0
VERTEX
  8
0
 10
16.7826
 20
2.6931
  0
VERTEX
  8
0
 10
16.8153
 20
2.6756
  0
VERTEX
  8
0
 10
16.8403
 20
2.652
  0
VERTEX
  8
0
 10
16.8571
 20
2.6238
  0
VERTEX
  8
0
 10
16.8699
 20
2.5872
  0
VERTEX
  8
0
 10
16.8209
 20
2.5739
  0
VERTEX
  8
0
 10
16.8111
 20
2.6
  0
VERTEX
  8
0
 10
16.7994
 20
2.6194
  0
VERTEX
  8
0
 10
16.782
 20
2.6362
  0
VERTEX
  8
0
 10
16.7589
 20
2.649
  0
VERTEX
  8
0
 10
16.7318
 20
2.657
  0
VERTEX
  8
0
 10
16.7022
 20
2.6597
  0
VERTEX
  8
0
 10
16.6678
 20
2.6569
  0
VERTEX
  8
0
 10
16.6378
 20
2.6484
  0
VERTEX
  8
0
 10
16.596
 20
2.6211
  0
VERTEX
  8
0
 10
16.5681
 20
2.5792
  0
VERTEX
  8
0
 10
16.5564
 20
2.5406
  0
VERTEX
  8
0
 10
16.5524
 20
2.4978
  0
VERTEX
  8
0
 10
16.5552
 20
2.4573
  0
VERTEX
  8
0
 10
16.564
 20
2.4227
  0
VERTEX
  8
0
 10
16.5789
 20
2.3938
  0
VERTEX
  8
0
 10
16.5998
 20
2.3706
  0
VERTEX
  8
0
 10
16.6267
 20
2.3533
  0
VERTEX
  8
0
 10
16.6642
 20
2.3402
  0
VERTEX
  8
0
 10
16.7039
 20
2.3357
  0
VERTEX
  8
0
 10
16.7349
 20
2.3384
  0
VERTEX
  8
0
 10
16.7678
 20
2.3469
  0
VERTEX
  8
0
 10
16.7995
 20
2.3603
  0
VERTEX
  8
0
 10
16.8244
 20
2.3772
  0
VERTEX
  8
0
 10
16.8244
 20
2.4517
  0
VERTEX
  8
0
 10
16.7044
 20
2.4517
  0
SEQEND
  0
POLYLINE
  8
0
 66
     1
 10
0
 20
0
  0
VERTEX
  8
0
 10
16.9524
 20
2.2917
  0
VERTEX
  8
0
 10
16.9524
 20
2.5891
  0
VERTEX
  8
0
 10
16.9964
 20
2.5891
  0
VERTEX
  8
0
 10
16.9964
 20
2.5439
  0
VERTEX
  8
0
 10
17.0097
 20
2.5653
  0
VERTEX
  8
0
 10
17.0219
 20
2.5797
  0
VERTEX
  8
0
 10
17.0401
 20
2.5917
  0
VERTEX
  8
0
 10
17.0615
 20
2.5957
  0
VERTEX
  8
0
 10
17.0874
 20
2.5916
  0
VERTEX
  8
0
 10
17.1139
 20
2.5794
  0
VERTEX
  8
0
 10
17.0962
 20
2.5327
  0
VERTEX
  8
0
 10
17.0773
 20
2.5409
  0
VERTEX
  8
0
 10
17.0584
 20
2.5437
  0
VERTEX
  8
0
 10
17.0418
 20
2.5408
  0
VERTEX
  8
0
 10
17.0264
 20
2.5322
  0
VERTEX
  8
0
 10
17.016
 20
2.5209
  0
VERTEX
  8
0
 10
17.0089
 20
2.5062
  0
VERTEX
  8
0
 10
17.0025
 20
2.4783
  0
VERTEX
  8
0
 10
17.0004
 20
2.4474
  0
VERTEX
  8
0
 10
17.0004
 20
2.2917
  0
VERTEX
  8
0
 10
16.9524
 20
2.2917
  0
SEQEND
  0
POLYLINE
  8
0
 66
     1
 10
0
 20
0
  0
VERTEX
  8
0
 10
17.3478
 20
2.3874
  0
VERTEX
  8
0
 10
17.4008
 20
2.3809
  0
VERTEX
  8
0
 10
17.39
 20
2.3512
  0
VERTEX
  8
0
 10
17.3748
 20
2.3269
  0
VERTEX
  8
0
 10
17.3553
 20
2.308
  0
VERTEX
  8
0
 10
17.3313
 20
2.2945
  0
VERTEX
  8
0
 10
17.3029
 20
2.2864
  0
VERTEX
  8
0
 10
17.2701
 20
2.2837
  0
VERTEX
  8
0
 10
17.2114
 20
2.2937
  0
VERTEX
  8
0
 10
17.1665
 20
2.3239
  0
VERTEX
  8
0
 10
17.1379
 20
2.3723
  0
VERTEX
  8
0
 10
17.1284
 20
2.4372
  0
VERTEX
  8
0
 10
17.1369
 20
2.4999
  0
VERTEX
  8
0
 10
17.1626
 20
2.5493
  0
VERTEX
  8
0
 10
17.2075
 20
2.5841
  0
VERTEX
  8
0
 10
17.2673
 20
2.5957
  0
VERTEX
  8
0
 10
17.3255
 20
2.5843
  0
VERTEX
  8
0
 10
17.3692
 20
2.5501
  0
VERTEX
  8
0
 10
17.3942
 20
2.5019
  0
VERTEX
  8
0
 10
17.4025
 20
2.4411
  0
VERTEX
  8
0
 10
17.4024
 20
2.4341
  0
VERTEX
  8
0
 10
17.4022
 20
2.4277
  0
VERTEX
  8
0
 10
17.1764
 20
2.4277
  0
VERTEX
  8
0
 10
17.1836
 20
2.3872
  0
VERTEX
  8
0
 10
17.2006
 20
2.3551
  0
VERTEX
  8
0
 10
17.2299
 20
2.3315
  0
VERTEX
  8
0
 10
17.2679
 20
2.3237
  0
VERTEX
  8
0
 10
17.3023
 20
2.3308
  0
VERTEX
  8
0
 10
17.3289
 20
2.352
  0
VERTEX
  8
0
 10
17.3478
 20
2.3874
  0
VERTEX
  8
0
 10
17.3478
 20
2.3874
  0
SEQEND
  0
POLYLINE
  8
0
 66
     1
 10
0
 20
0
  0
VERTEX
  8
0
 10
17.1833
 20
2.4677
  0
VERTEX
  8
0
 10
17.3493
 20
2.4677
  0
VERTEX
  8
0
 10
17.3429
 20
2.5015
  0
VERTEX
  8
0
 10
17.3303
 20
2.5257
  0
VERTEX
  8
0
 10
17.3026
 20
2.548
  0
VERTEX
  8
0
 10
17.2678
 20
2.5557
  0
VERTEX
  8
0
 10
17.2345
 20
2.5495
  0
VERTEX
  8
0
 10
17.2079
 20
2.5303
  0
VERTEX
  8
0
 10
17.1907
 20
2.5025
  0
VERTEX
  8
0
 10
17.1833
 20
2.4677
  0
VERTEX
  8
0
 10
17.1833
 20
2.4677
  0
SEQEND
  0
POLYLINE
  8
0
 66
     1
 10
0
 20
0
  0
VERTEX
  8
0
 10
17.6678
 20
2.3874
  0
VERTEX
  8
0
 10
17.7208
 20
2.3809
  0
VERTEX
  8
0
 10
17.71
 20
2.3512
  0
VERTEX
  8
0
 10
17.6948
 20
2.3269
  0
VERTEX
  8
0
 10
17.6753
 20
2.308
  0
VERTEX
  8
0
 10
17.6513
 20
2.2945
  0
VERTEX
  8
0
 10
17.6229
 20
2.2864
  0
VERTEX
  8
0
 10
17.5901
 20
2.2837
  0
VERTEX
  8
0
 10
17.5314
 20
2.2937
  0
VERTEX
  8
0
 10
17.4865
 20
2.3239
  0
VERTEX
  8
0
 10
17.4579
 20
2.3723
  0
VERTEX
  8
0
 10
17.4484
 20
2.4372
  0
VERTEX
  8
0
 10
17.4569
 20
2.4999
  0
VERTEX
  8
0
 10
17.4826
 20
2.5493
  0
VERTEX
  8
0
 10
17.5275
 20
2.5841
  0
VERTEX
  8
0
 10
17.5873
 20
2.5957
  0
VERTEX
  8
0
 10
17.6455
 20
2.5843
  0
VERTEX
  8
0
 10
17.6892
 20
2.5501
  0
VERTEX
  8
0
 10
17.7142
 20
2.5019
  0
VERTEX
  8
0
 10
17.7225
 20
2.4411
  0
VERTEX
  8
0
 10
17.7224
 20
2.4341
  0
VERTEX
  8
0
 10
17.7222
 20
2.4277
  0
VERTEX
  8
0
 10
17.4964
 20
2.4277
  0
VERTEX
  8
0
 10
17.5036
 20
2.3872
  0
VERTEX
  8
0
 10
17.5206
 20
2.3551
  0
VERTEX
  8
0
 10
17.5499
 20
2.3315
  0
VERTEX
  8
0
 10
17.5879
 20
2.3237
  0
VERTEX
  8
0
 10
17.6223
 20
2.3308
  0
VERTEX
  8
0
 10
17.6489
 20
2.352
  0
VERTEX
  8
0
 10
17.6678
 20
2.3874
  0
VERTEX
  8
0
 10
17.6678
 20
2.3874
  0
SEQEND
  0
POLYLINE
  8
0
 66
     1
 10
0
 20
0
  0
VERTEX
  8
0
 10
17.5033
 20
2.4677
  0
VERTEX
  8
0
 10
17.6693
 20
2.4677
  0
VERTEX
  8
0
 10
17.6629
 20
2.5015
  0
VERTEX
  8
0
 10
17.6503
 20
2.5257
  0
VERTEX
  8
0
 10
17.6226
 20
2.548
  0
VERTEX
  8
0
 10
17.5878
 20
2.5557
  0
VERTEX
  8
0
 10
17.5545
 20
2.5495
  0
VERTEX
  8
0
 10
17.5279
 20
2.5303
  0
VERTEX
  8
0
 10
17.5107
 20
2.5025
  0
VERTEX
  8
0
 10
17.5033
 20
2.4677
  0
VERTEX
  8
0
 10
17.5033
 20
2.4677
  0
SEQEND
  0
POLYLINE
  8
0
 66
     1
 10
0
 20
0
  0
VERTEX
  8
0
 10
17.7844
 20
2.2917
  0
VERTEX
  8
0
 10
17.7844
 20
2.5891
  0
VERTEX
  8
0
 10
17.8284
 20
2.5891
  0
VERTEX
  8
0
 10
17.8284
 20
2.5467
  0
VERTEX
  8
0
 10
17.8684
 20
2.5833
  0
VERTEX
  8
0
 10
17.9229
 20
2.5957
  0
VERTEX
  8
0
 10
17.9482
 20
2.5932
  0
VERTEX
  8
0
 10
17.9721
 20
2.5859
  0
VERTEX
  8
0
 10
18.0044
 20
2.5617
  0
VERTEX
  8
0
 10
18.0216
 20
2.5234
  0
VERTEX
  8
0
 10
18.0237
 20
2.5046
  0
VERTEX
  8
0
 10
18.0244
 20
2.4745
  0
VERTEX
  8
0
 10
18.0244
 20
2.2917
  0
VERTEX
  8
0
 10
17.9764
 20
2.2917
  0
VERTEX
  8
0
 10
17.9764
 20
2.4723
  0
VERTEX
  8
0
 10
17.9754
 20
2.4953
  0
VERTEX
  8
0
 10
17.9724
 20
2.5117
  0
VERTEX
  8
0
 10
17.9636
 20
2.5294
  0
VERTEX
  8
0
 10
17.9489
 20
2.5424
  0
VERTEX
  8
0
 10
17.9324
 20
2.5494
  0
VERTEX
  8
0
 10
17.9131
 20
2.5517
  0
VERTEX
  8
0
 10
17.8885
 20
2.549
  0
VERTEX
  8
0
 10
17.8683
 20
2.5408
  0
VERTEX
  8
0
 10
17.8526
 20
2.5272
  0
VERTEX
  8
0
 10
17.8414
 20
2.5082
  0
VERTEX
  8
0
 10
17.8346
 20
2.4837
  0
VERTEX
  8
0
 10
17.8324
 20
2.4538
  0
VERTEX
  8
0
 10
17.8324
 20
2.2917
  0
VERTEX
  8
0
 10
17.7844
 20
2.2917
  0
SEQEND
  0
POLYLINE
  8
0
 66
     1
 10
0
 20
0
  0
VERTEX
  8
0
 10
18.1204
 20
2.5317
  0
VERTEX
  8
0
 10
18.1204
 20
2.5877
  0
VERTEX
  8
0
 10
18.1764
 20
2.5877
  0
VERTEX
  8
0
 10
18.1764
 20
2.5317
  0
VERTEX
  8
0
 10
18.1204
 20
2.5317
  0
SEQEND
  0
POLYLINE
  8
0
 66
     1
 10
0
 20
0
  0
VERTEX
  8
0
 10
18.1204
 20
2.2917
  0
VERTEX
  8
0
 10
18.1204
 20
2.3477
  0
VERTEX
  8
0
 10
18.1764
 20
2.3477
  0
VERTEX
  8
0
 10
18.1764
 20
2.2914
  0
VERTEX
  8
0
 10
18.1713
 20
2.2561
  0
VERTEX
  8
0
 10
18.1559
 20
2.2296
  0
VERTEX
  8
0
 10
18.1302
 20
2.2117
  0
VERTEX
  8
0
 10
18.1164
 20
2.2329
  0
VERTEX
  8
0
 10
18.1396
 20
2.254
  0
VERTEX
  8
0
 10
18.1483
 20
2.2917
  0
VERTEX
  8
0
 10
18.1204
 20
2.2917
  0
SEQEND
  0
POLYLINE
  8
0
 66
     1
 10
0
 20
0
  0
VERTEX
  8
0
 10
20.2066
 20
23.4238
  0
VERTEX
  8
0
 10
20.2615
 20
23.4056
  0
VERTEX
  8
0
 10
20.3006
 20
23.3769
  0
VERTEX
  8
0
 10
20.3319
 20
23.3403
  0
VERTEX
  8
0
 10
20.3502
 20
23.2959
  0
VERTEX
  8
0
 10
20.358
 20
23.2464
  0
VERTEX
  8
0
 10
20.3528
 20
23.1915
  0
VERTEX
  8
0
 10
20.3398
 20
23.1341
  0
VERTEX
  8
0
 10
20.3137
 20
23.0741
  0
VERTEX
  8
0
 10
20.2797
 20
23.0114
  0
VERTEX
  8
0
 10
20.2327
 20
22.9488
  0
VERTEX
  8
0
 10
20.1858
 20
22.9775
  0
VERTEX
  8
0
 10
20.1544
 20
22.9827
  0
VERTEX
  8
0
 10
20.1414
 20
22.9619
  0
VERTEX
  8
0
 10
20.1388
 20
22.9279
  0
VERTEX
  8
0
 10
20.1336
 20
22.5991
  0
VERTEX
  8
0
 10
20.1518
 20
22.5469
  0
VERTEX
  8
0
 10
20.1727
 20
22.4999
  0
VERTEX
  8
0
 10
20.1936
 20
22.4581
  0
VERTEX
  8
0
 10
20.2171
 20
22.4164
  0
VERTEX
  8
0
 10
20.2406
 20
22.3824
  0
VERTEX
  8
0
 10
20.2667
 20
22.3485
  0
VERTEX
  8
0
 10
20.2954
 20
22.3224
  0
VERTEX
  8
0
 10
20.3267
 20
22.2963
  0
VERTEX
  8
0
 10
20.3606
 20
22.2754
  0
VERTEX
  8
0
 10
20.3972
 20
22.2571
  0
VERTEX
  8
0
 10
20.6008
 20
22.1867
  0
VERTEX
  8
0
 10
20.8043
 20
22.1501
  0
VERTEX
  8
0
 10
21.0105
 20
22.1423
  0
VERTEX
  8
0
 10
21.2167
 20
22.1554
  0
VERTEX
  8
0
 10
21.4229
 20
22.1841
  0
VERTEX
  8
0
 10
21.6317
 20
22.2206
  0
VERTEX
  8
0
 10
21.8379
 20
22.2598
  0
VERTEX
  8
0
 10
22.0467
 20
22.2963
  0
VERTEX
  8
0
 10
22.2555
 20
22.3224
  0
VERTEX
  8
0
 10
22.4643
 20
22.3302
  0
VERTEX
  8
0
 10
22.5609
 20
22.2989
  0
VERTEX
  8
0
 10
22.6627
 20
22.2624
  0
VERTEX
  8
0
 10
22.7671
 20
22.2284
  0
VERTEX
  8
0
 10
22.8715
 20
22.1971
  0
VERTEX
  8
0
 10
22.9759
 20
22.1736
  0
VERTEX
  8
0
 10
23.0803
 20
22.1606
  0
VERTEX
  8
0
 10
23.1847
 20
22.1632
  0
VERTEX
  8
0
 10
23.2839
 20
22.1841
  0
VERTEX
  8
0
 10
23.3831
 20
22.2258
  0
VERTEX
  8
0
 10
23.4796
 20
22.2937
  0
VERTEX
  8
0
 10
23.6206
 20
22.3563
  0
VERTEX
  8
0
 10
23.7668
 20
22.4059
  0
VERTEX
  8
0
 10
23.9155
 20
22.4425
  0
VERTEX
  8
0
 10
24.0695
 20
22.4712
  0
VERTEX
  8
0
 10
24.2209
 20
22.4947
  0
VERTEX
  8
0
 10
24.3749
 20
22.5155
  0
VERTEX
  8
0
 10
24.5263
 20
22.539
  0
VERTEX
  8
0
 10
24.6777
 20
22.5703
  0
VERTEX
  8
0
 10
24.8238
 20
22.6069
  0
VERTEX
  8
0
 10
24.9648
 20
22.6565
  0
VERTEX
  8
0
 10
25.1188
 20
22.6643
  0
VERTEX
  8
0
 10
25.2649
 20
22.6878
  0
VERTEX
  8
0
 10
25.4059
 20
22.727
  0
VERTEX
  8
0
 10
25.5416
 20
22.7739
  0
VERTEX
  8
0
 10
25.6721
 20
22.8314
  0
VERTEX
  8
0
 10
25.8
 20
22.8966
  0
VERTEX
  8
0
 10
25.9279
 20
22.9619
  0
VERTEX
  8
0
 10
26.0532
 20
23.0323
  0
VERTEX
  8
0
 10
26.1784
 20
23.1002
  0
VERTEX
  8
0
 10
26.3063
 20
23.1654
  0
VERTEX
  8
0
 10
26.4055
 20
23.2411
  0
VERTEX
  8
0
 10
26.5099
 20
23.3142
  0
VERTEX
  8
0
 10
26.6169
 20
23.3821
  0
VERTEX
  8
0
 10
26.7292
 20
23.4447
  0
VERTEX
  8
0
 10
26.8466
 20
23.4995
  0
VERTEX
  8
0
 10
26.9719
 20
23.5413
  0
VERTEX
  8
0
 10
27.1024
 20
23.57
  0
VERTEX
  8
0
 10
27.2381
 20
23.5857
  0
VERTEX
  8
0
 10
27.3843
 20
23.5857
  0
VERTEX
  8
0
 10
27.5383
 20
23.5622
  0
VERTEX
  8
0
 10
27.5774
 20
23.5387
  0
VERTEX
  8
0
 10
27.6114
 20
23.4995
  0
VERTEX
  8
0
 10
27.6375
 20
23.4499
  0
VERTEX
  8
0
 10
27.6583
 20
23.3925
  0
VERTEX
  8
0
 10
27.6688
 20
23.3247
  0
VERTEX
  8
0
 10
27.674
 20
23.2542
  0
VERTEX
  8
0
 10
27.6714
 20
23.1785
  0
VERTEX
  8
0
 10
27.6583
 20
23.1002
  0
VERTEX
  8
0
 10
27.6401
 20
23.0219
  0
VERTEX
  8
0
 10
27.6114
 20
22.9462
  0
VERTEX
  8
0
 10
27.5226
 20
22.9149
  0
VERTEX
  8
0
 10
27.4313
 20
22.8914
  0
VERTEX
  8
0
 10
27.3399
 20
22.8679
  0
VERTEX
  8
0
 10
27.2486
 20
22.8496
  0
VERTEX
  8
0
 10
27.1546
 20
22.8314
  0
VERTEX
  8
0
 10
27.0606
 20
22.8131
  0
VERTEX
  8
0
 10
26.9641
 20
22.7948
  0
VERTEX
  8
0
 10
26.8675
 20
22.7765
  0
VERTEX
  8
0
 10
26.7683
 20
22.7531
  0
VERTEX
  8
0
 10
26.6691
 20
22.7296
  0
VERTEX
  8
0
 10
26.4969
 20
22.6826
  0
VERTEX
  8
0
 10
26.322
 20
22.6356
  0
VERTEX
  8
0
 10
26.1497
 20
22.586
  0
VERTEX
  8
0
 10
25.9775
 20
22.5338
  0
VERTEX
  8
0
 10
25.8078
 20
22.479
  0
VERTEX
  8
0
 10
25.6408
 20
22.419
  0
VERTEX
  8
0
 10
25.4737
 20
22.3537
  0
VERTEX
  8
0
 10
25.3119
 20
22.2806
  0
VERTEX
  8
0
 10
25.1527
 20
22.2023
  0
VERTEX
  8
0
 10
25.0013
 20
22.1136
  0
VERTEX
  8
0
 10
24.7455
 20
21.9883
  0
VERTEX
  8
0
 10
24.4897
 20
21.8604
  0
VERTEX
  8
0
 10
24.2313
 20
21.7351
  0
VERTEX
  8
0
 10
23.9703
 20
21.6177
  0
VERTEX
  8
0
 10
23.7067
 20
21.5054
  0
VERTEX
  8
0
 10
23.4405
 20
21.4037
  0
VERTEX
  8
0
 10
23.1664
 20
21.3175
  0
VERTEX
  8
0
 10
22.8898
 20
21.2471
  0
VERTEX
  8
0
 10
22.6079
 20
21.1975
  0
VERTEX
  8
0
 10
22.3182
 20
21.1714
  0
VERTEX
  8
0
 10
22.279
 20
20.9652
  0
VERTEX
  8
0
 10
22.2059
 20
20.7746
  0
VERTEX
  8
0
 10
22.112
 20
20.5945
  0
VERTEX
  8
0
 10
21.9997
 20
20.4197
  0
VERTEX
  8
0
 10
21.8823
 20
20.25
  0
VERTEX
  8
0
 10
21.7648
 20
20.0804
  0
VERTEX
  8
0
 10
21.6578
 20
19.9055
  0
VERTEX
  8
0
 10
21.5717
 20
19.7228
  0
VERTEX
  8
0
 10
21.5117
 20
19.5296
  0
VERTEX
  8
0
 10
21.4856
 20
19.3208
  0
VERTEX
  8
0
 10
21.4856
 20
19.0885
  0
VERTEX
  8
0
 10
21.4673
 20
18.8536
  0
VERTEX
  8
0
 10
21.4386
 20
18.6213
  0
VERTEX
  8
0
 10
21.4073
 20
18.3864
  0
VERTEX
  8
0
 10
21.3733
 20
18.1515
  0
VERTEX
  8
0
 10
21.3498
 20
17.9192
  0
VERTEX
  8
0
 10
21.3368
 20
17.6869
  0
VERTEX
  8
0
 10
21.3472
 20
17.4572
  0
VERTEX
  8
0
 10
21.3812
 20
17.2276
  0
VERTEX
  8
0
 10
21.449
 20
17.0005
  0
VERTEX
  8
0
 10
21.4751
 20
16.8622
  0
VERTEX
  8
0
 10
21.4803
 20
16.7238
  0
VERTEX
  8
0
 10
21.4725
 20
16.5829
  0
VERTEX
  8
0
 10
21.4516
 20
16.4445
  0
VERTEX
  8
0
 10
21.4203
 20
16.3062
  0
VERTEX
  8
0
 10
21.3838
 20
16.1705
  0
VERTEX
  8
0
 10
21.3446
 20
16.0374
  0
VERTEX
  8
0
 10
21.3029
 20
15.9069
  0
VERTEX
  8
0
 10
21.2637
 20
15.7816
  0
VERTEX
  8
0
 10
21.2298
 20
15.6615
  0
VERTEX
  8
0
 10
21.1724
 20
15.3614
  0
VERTEX
  8
0
 10
21.1384
 20
15.0612
  0
VERTEX
  8
0
 10
21.1254
 20
14.7611
  0
VERTEX
  8
0
 10
21.1254
 20
14.4609
  0
VERTEX
  8
0
 10
21.1332
 20
14.1581
  0
VERTEX
  8
0
 10
21.1463
 20
13.858
  0
VERTEX
  8
0
 10
21.1593
 20
13.5552
  0
VERTEX
  8
0
 10
21.1593
 20
13.2551
  0
VERTEX
  8
0
 10
21.1515
 20
12.9523
  0
VERTEX
  8
0
 10
21.1228
 20
12.6521
  0
VERTEX
  8
0
 10
21.0888
 20
12.5973
  0
VERTEX
  8
0
 10
21.0497
 20
12.5451
  0
VERTEX
  8
0
 10
21.0105
 20
12.4929
  0
VERTEX
  8
0
 10
20.9688
 20
12.4407
  0
VERTEX
  8
0
 10
20.9296
 20
12.3911
  0
VERTEX
  8
0
 10
20.8931
 20
12.3389
  0
VERTEX
  8
0
 10
20.8592
 20
12.2841
  0
VERTEX
  8
0
 10
20.8304
 20
12.2293
  0
VERTEX
  8
0
 10
20.807
 20
12.1693
  0
VERTEX
  8
0
 10
20.7965
 20
12.1066
  0
VERTEX
  8
0
 10
20.7626
 20
12.0022
  0
VERTEX
  8
0
 10
20.7417
 20
11.8926
  0
VERTEX
  8
0
 10
20.726
 20
11.7804
  0
VERTEX
  8
0
 10
20.713
 20
11.6681
  0
VERTEX
  8
0
 10
20.6999
 20
11.5559
  0
VERTEX
  8
0
 10
20.6843
 20
11.4437
  0
VERTEX
  8
0
 10
20.6608
 20
11.3367
  0
VERTEX
  8
0
 10
20.6243
 20
11.2349
  0
VERTEX
  8
0
 10
20.5747
 20
11.1409
  0
VERTEX
  8
0
 10
20.5068
 20
11.0574
  0
VERTEX
  8
0
 10
20.4833
 20
11.0417
  0
VERTEX
  8
0
 10
20.4624
 20
11.0261
  0
VERTEX
  8
0
 10
20.4442
 20
11.0052
  0
VERTEX
  8
0
 10
20.4259
 20
10.9843
  0
VERTEX
  8
0
 10
20.4076
 20
10.9608
  0
VERTEX
  8
0
 10
20.392
 20
10.9373
  0
VERTEX
  8
0
 10
20.3763
 20
10.9112
  0
VERTEX
  8
0
 10
20.358
 20
10.8877
  0
VERTEX
  8
0
 10
20.3424
 20
10.8616
  0
VERTEX
  8
0
 10
20.3241
 20
10.8381
  0
VERTEX
  8
0
 10
20.3241
 20
9.8959
  0
VERTEX
  8
0
 10
20.298
 20
9.8489
  0
VERTEX
  8
0
 10
20.2745
 20
9.8019
  0
VERTEX
  8
0
 10
20.2562
 20
9.7602
  0
VERTEX
  8
0
 10
20.238
 20
9.7158
  0
VERTEX
  8
0
 10
20.2249
 20
9.6714
  0
VERTEX
  8
0
 10
20.2093
 20
9.6297
  0
VERTEX
  8
0
 10
20.1962
 20
9.5827
  0
VERTEX
  8
0
 10
20.1805
 20
9.5331
  0
VERTEX
  8
0
 10
20.1623
 20
9.4809
  0
VERTEX
  8
0
 10
20.144
 20
9.4261
  0
VERTEX
  8
0
 10
20.0605
 20
9.4026
  0
VERTEX
  8
0
 10
19.9926
 20
9.4
  0
VERTEX
  8
0
 10
19.9352
 20
9.4183
  0
VERTEX
  8
0
 10
19.8856
 20
9.4444
  0
VERTEX
  8
0
 10
19.8438
 20
9.4835
  0
VERTEX
  8
0
 10
19.8047
 20
9.5253
  0
VERTEX
  8
0
 10
19.7682
 20
9.5723
  0
VERTEX
  8
0
 10
19.729
 20
9.614
  0
VERTEX
  8
0
 10
19.6846
 20
9.6506
  0
VERTEX
  8
0
 10
19.635
 20
9.6793
  0
VERTEX
  8
0
 10
19.5907
 20
9.8568
  0
VERTEX
  8
0
 10
19.5411
 20
10.0369
  0
VERTEX
  8
0
 10
19.4863
 20
10.2248
  0
VERTEX
  8
0
 10
19.4393
 20
10.4127
  0
VERTEX
  8
0
 10
19.4027
 20
10.6006
  0
VERTEX
  8
0
 10
19.3819
 20
10.7886
  0
VERTEX
  8
0
 10
19.3871
 20
10.9739
  0
VERTEX
  8
0
 10
19.4184
 20
11.154
  0
VERTEX
  8
0
 10
19.4889
 20
11.3262
  0
VERTEX
  8
0
 10
19.5985
 20
11.4907
  0
VERTEX
  8
0
 10
19.6716
 20
11.6316
  0
VERTEX
  8
0
 10
19.7264
 20
11.796
  0
VERTEX
  8
0
 10
19.7629
 20
11.9787
  0
VERTEX
  8
0
 10
19.7812
 20
12.1771
  0
VERTEX
  8
0
 10
19.7838
 20
12.3833
  0
VERTEX
  8
0
 10
19.7655
 20
12.5921
  0
VERTEX
  8
0
 10
19.7316
 20
12.7957
  0
VERTEX
  8
0
 10
19.6794
 20
12.994
  0
VERTEX
  8
0
 10
19.6116
 20
13.1768
  0
VERTEX
  8
0
 10
19.528
 20
13.3412
  0
VERTEX
  8
0
 10
19.4889
 20
13.4456
  0
VERTEX
  8
0
 10
19.4523
 20
13.5526
  0
VERTEX
  8
0
 10
19.421
 20
13.6622
  0
VERTEX
  8
0
 10
19.3923
 20
13.7718
  0
VERTEX
  8
0
 10
19.3636
 20
13.8815
  0
VERTEX
  8
0
 10
19.3375
 20
13.9911
  0
VERTEX
  8
0
 10
19.3114
 20
14.1007
  0
VERTEX
  8
0
 10
19.2879
 20
14.2103
  0
VERTEX
  8
0
 10
19.2618
 20
14.32
  0
VERTEX
  8
0
 10
19.2383
 20
14.427
  0
VERTEX
  8
0
 10
18.9277
 20
14.0668
  0
VERTEX
  8
0
 10
18.6197
 20
13.7066
  0
VERTEX
  8
0
 10
18.3144
 20
13.3412
  0
VERTEX
  8
0
 10
18.0064
 20
12.9784
  0
VERTEX
  8
0
 10
17.701
 20
12.6104
  0
VERTEX
  8
0
 10
17.4008
 20
12.2424
  0
VERTEX
  8
0
 10
17.1007
 20
11.8691
  0
VERTEX
  8
0
 10
16.8057
 20
11.4933
  0
VERTEX
  8
0
 10
16.516
 20
11.1122
  0
VERTEX
  8
0
 10
16.2289
 20
10.7311
  0
VERTEX
  8
0
 10
16.2498
 20
10.6502
  0
VERTEX
  8
0
 10
16.2498
 20
10.5824
  0
VERTEX
  8
0
 10
16.2315
 20
10.5275
  0
VERTEX
  8
0
 10
16.195
 20
10.4832
  0
VERTEX
  8
0
 10
16.1506
 20
10.444
  0
VERTEX
  8
0
 10
16.101
 20
10.4101
  0
VERTEX
  8
0
 10
16.0514
 20
10.3762
  0
VERTEX
  8
0
 10
16.0045
 20
10.3422
  0
VERTEX
  8
0
 10
15.9653
 20
10.3031
  0
VERTEX
  8
0
 10
15.9392
 20
10.2587
  0
VERTEX
  8
0
 10
15.8844
 20
10.2352
  0
VERTEX
  8
0
 10
15.84
 20
10.2091
  0
VERTEX
  8
0
 10
15.8035
 20
10.1778
  0
VERTEX
  8
0
 10
15.7748
 20
10.1439
  0
VERTEX
  8
0
 10
15.7513
 20
10.1047
  0
VERTEX
  8
0
 10
15.7304
 20
10.0656
  0
VERTEX
  8
0
 10
15.7174
 20
10.0186
  0
VERTEX
  8
0
 10
15.7043
 20
9.969
  0
VERTEX
  8
0
 10
15.6939
 20
9.9168
  0
VERTEX
  8
0
 10
15.6834
 20
9.8594
  0
VERTEX
  8
0
 10
15.6156
 20
9.7889
  0
VERTEX
  8
0
 10
15.5425
 20
9.7263
  0
VERTEX
  8
0
 10
15.4694
 20
9.6714
  0
VERTEX
  8
0
 10
15.3911
 20
9.6245
  0
VERTEX
  8
0
 10
15.3102
 20
9.5853
  0
VERTEX
  8
0
 10
15.2267
 20
9.554
  0
VERTEX
  8
0
 10
15.1379
 20
9.5253
  0
VERTEX
  8
0
 10
15.0466
 20
9.5018
  0
VERTEX
  8
0
 10
14.95
 20
9.4809
  0
VERTEX
  8
0
 10
14.8508
 20
9.4626
  0
VERTEX
  8
0
 10
14.8143
 20
9.4809
  0
VERTEX
  8
0
 10
14.7882
 20
9.5018
  0
VERTEX
  8
0
 10
14.7647
 20
9.5253
  0
VERTEX
  8
0
 10
14.7464
 20
9.5514
  0
VERTEX
  8
0
 10
14.7308
 20
9.5775
  0
VERTEX
  8
0
 10
14.7151
 20
9.6062
  0
VERTEX
  8
0
 10
14.6994
 20
9.6323
  0
VERTEX
  8
0
 10
14.6812
 20
9.661
  0
VERTEX
  8
0
 10
14.6603
 20
9.6871
  0
VERTEX
  8
0
 10
14.6342
 20
9.7158
  0
VERTEX
  8
0
 10
14.6603
 20
9.7628
  0
VERTEX
  8
0
 10
14.6786
 20
9.815
  0
VERTEX
  8
0
 10
14.6916
 20
9.8724
  0
VERTEX
  8
0
 10
14.702
 20
9.9298
  0
VERTEX
  8
0
 10
14.7099
 20
9.9899
  0
VERTEX
  8
0
 10
14.7229
 20
10.0447
  0
VERTEX
  8
0
 10
14.7386
 20
10.0995
  0
VERTEX
  8
0
 10
14.7647
 20
10.1491
  0
VERTEX
  8
0
 10
14.8012
 20
10.1908
  0
VERTEX
  8
0
 10
14.8508
 20
10.2222
  0
VERTEX
  8
0
 10
14.8586
 20
10.2926
  0
VERTEX
  8
0
 10
14.8874
 20
10.3501
  0
VERTEX
  8
0
 10
14.9291
 20
10.3997
  0
VERTEX
  8
0
 10
14.9787
 20
10.444
  0
VERTEX
  8
0
 10
15.0335
 20
10.4858
  0
VERTEX
  8
0
 10
15.0857
 20
10.5275
  0
VERTEX
  8
0
 10
15.1327
 20
10.5745
  0
VERTEX
  8
0
 10
15.1666
 20
10.6267
  0
VERTEX
  8
0
 10
15.1823
 20
10.6894
  0
VERTEX
  8
0
 10
15.1771
 20
10.7677
  0
VERTEX
  8
0
 10
15.2058
 20
10.7938
  0
VERTEX
  8
0
 10
15.2293
 20
10.8277
  0
VERTEX
  8
0
 10
15.2475
 20
10.8669
  0
VERTEX
  8
0
 10
15.2632
 20
10.9086
  0
VERTEX
  8
0
 10
15.2736
 20
10.9556
  0
VERTEX
  8
0
 10
15.2815
 20
11.0026
  0
VERTEX
  8
0
 10
15.2867
 20
11.0496
  0
VERTEX
  8
0
 10
15.2867
 20
11.1018
  0
VERTEX
  8
0
 10
15.2867
 20
11.1513
  0
VERTEX
  8
0
 10
15.2867
 20
11.2009
  0
VERTEX
  8
0
 10
15.4407
 20
11.4463
  0
VERTEX
  8
0
 10
15.5921
 20
11.6969
  0
VERTEX
  8
0
 10
15.7408
 20
11.95
  0
VERTEX
  8
0
 10
15.887
 20
12.2058
  0
VERTEX
  8
0
 10
16.0332
 20
12.4616
  0
VERTEX
  8
0
 10
16.1767
 20
12.7148
  0
VERTEX
  8
0
 10
16.3229
 20
12.9653
  0
VERTEX
  8
0
 10
16.469
 20
13.2081
  0
VERTEX
  8
0
 10
16.7718
 20
13.6674
  0
VERTEX
  8
0
 10
16.7823
 20
13.704
  0
VERTEX
  8
0
 10
16.7927
 20
13.7457
  0
VERTEX
  8
0
 10
16.8057
 20
13.7927
  0
VERTEX
  8
0
 10
16.8188
 20
13.8423
  0
VERTEX
  8
0
 10
16.8371
 20
13.8893
  0
VERTEX
  8
0
 10
16.8606
 20
13.9311
  0
VERTEX
  8
0
 10
16.921
 20
14.0603
  0
VERTEX
  8
0
 10
16.9823
 20
14.1297
  0
VERTEX
  8
0
 10
17.0643
 20
14.1684
  0
VERTEX
  8
0
 10
17.2964
 20
14.3121
  0
VERTEX
  8
0
 10
17.346
 20
14.44
  0
VERTEX
  8
0
 10
17.7584
 20
16.1627
  0
VERTEX
  8
0
 10
17.7871
 20
16.2984
  0
VERTEX
  8
0
 10
18.7137
 20
18.269
  0
VERTEX
  8
0
 10
18.7267
 20
18.2977
  0
VERTEX
  8
0
 10
18.732
 20
18.3316
  0
VERTEX
  8
0
 10
18.7346
 20
18.3682
  0
VERTEX
  8
0
 10
18.732
 20
18.4073
  0
VERTEX
  8
0
 10
18.7294
 20
18.4491
  0
VERTEX
  8
0
 10
18.7267
 20
18.4882
  0
VERTEX
  8
0
 10
18.7241
 20
18.5248
  0
VERTEX
  8
0
 10
18.7294
 20
18.5613
  0
VERTEX
  8
0
 10
18.6354
 20
18.6318
  0
VERTEX
  8
0
 10
18.5388
 20
18.6996
  0
VERTEX
  8
0
 10
18.4396
 20
18.7623
  0
VERTEX
  8
0
 10
18.3431
 20
18.8275
  0
VERTEX
  8
0
 10
18.2413
 20
18.8876
  0
VERTEX
  8
0
 10
18.1395
 20
18.945
  0
VERTEX
  8
0
 10
18.0351
 20
18.9998
  0
VERTEX
  8
0
 10
17.9307
 20
19.0494
  0
VERTEX
  8
0
 10
17.8237
 20
19.0964
  0
VERTEX
  8
0
 10
17.714
 20
19.1407
  0
VERTEX
  8
0
 10
17.6305
 20
19.1042
  0
VERTEX
  8
0
 10
17.5444
 20
19.065
  0
VERTEX
  8
0
 10
17.4583
 20
19.0285
  0
VERTEX
  8
0
 10
17.3695
 20
18.992
  0
VERTEX
  8
0
 10
17.2834
 20
18.958
  0
VERTEX
  8
0
 10
17.1946
 20
18.9241
  0
VERTEX
  8
0
 10
17.1085
 20
18.8928
  0
VERTEX
  8
0
 10
17.0198
 20
18.8641
  0
VERTEX
  8
0
 10
16.931
 20
18.838
  0
VERTEX
  8
0
 10
16.8449
 20
18.8145
  0
VERTEX
  8
0
 10
16.5186
 20
18.7101
  0
VERTEX
  8
0
 10
16.195
 20
18.6057
  0
VERTEX
  8
0
 10
15.8687
 20
18.4987
  0
VERTEX
  8
0
 10
15.5425
 20
18.3969
  0
VERTEX
  8
0
 10
15.2136
 20
18.2951
  0
VERTEX
  8
0
 10
14.8847
 20
18.2011
  0
VERTEX
  8
0
 10
14.5559
 20
18.115
  0
VERTEX
  8
0
 10
14.2218
 20
18.0341
  0
VERTEX
  8
0
 10
13.8851
 20
17.9662
  0
VERTEX
  8
0
 10
13.5458
 20
17.9088
  0
VERTEX
  8
0
 10
13.4179
 20
17.9584
  0
VERTEX
  8
0
 10
13.2952
 20
18.0184
  0
VERTEX
  8
0
 10
13.1752
 20
18.0811
  0
VERTEX
  8
0
 10
13.0551
 20
18.1515
  0
VERTEX
  8
0
 10
12.9403
 20
18.2246
  0
VERTEX
  8
0
 10
12.8254
 20
18.3003
  0
VERTEX
  8
0
 10
12.7132
 20
18.376
  0
VERTEX
  8
0
 10
12.6036
 20
18.4517
  0
VERTEX
  8
0
 10
12.4939
 20
18.5274
  0
VERTEX
  8
0
 10
11.8414
 20
18.8275
  0
VERTEX
  8
0
 10
11.7631
 20
18.8458
  0
VERTEX
  8
0
 10
11.6848
 20
18.8615
  0
VERTEX
  8
0
 10
11.6091
 20
18.8719
  0
VERTEX
  8
0
 10
11.5308
 20
18.8823
  0
VERTEX
  8
0
 10
11.4578
 20
18.8928
  0
VERTEX
  8
0
 10
11.3873
 20
18.9006
  0
VERTEX
  8
0
 10
11.322
 20
18.911
  0
VERTEX
  8
0
 10
11.262
 20
18.9241
  0
VERTEX
  8
0
 10
11.1654
 20
18.9398
  0
VERTEX
  8
0
 10
11.0662
 20
18.9502
  0
VERTEX
  8
0
 10
10.9671
 20
18.958
  0
VERTEX
  8
0
 10
10.8653
 20
18.9606
  0
VERTEX
  8
0
 10
10.7635
 20
18.9606
  0
VERTEX
  8
0
 10
10.6591
 20
18.9606
  0
VERTEX
  8
0
 10
10.5573
 20
18.958
  0
VERTEX
  8
0
 10
10.4529
 20
18.958
  0
VERTEX
  8
0
 10
10.3485
 20
18.958
  0
VERTEX
  8
0
 10
10.2467
 20
18.958
  0
VERTEX
  8
0
 10
9.9361
 20
19.0546
  0
VERTEX
  8
0
 10
9.6568
 20
19.2138
  0
VERTEX
  8
0
 10
9.4141
 20
19.4305
  0
VERTEX
  8
0
 10
9.2131
 20
19.6862
  0
VERTEX
  8
0
 10
9.0617
 20
19.9786
  0
VERTEX
  8
0
 10
8.9625
 20
20.2892
  0
VERTEX
  8
0
 10
8.926
 20
20.6128
  0
VERTEX
  8
0
 10
8.9521
 20
20.9338
  0
VERTEX
  8
0
 10
9.0539
 20
21.2444
  0
VERTEX
  8
0
 10
9.2314
 20
21.5342
  0
VERTEX
  8
0
 10
9.3749
 20
21.7299
  0
VERTEX
  8
0
 10
9.5237
 20
21.9283
  0
VERTEX
  8
0
 10
9.6777
 20
22.124
  0
VERTEX
  8
0
 10
9.8343
 20
22.3172
  0
VERTEX
  8
0
 10
9.9935
 20
22.5051
  0
VERTEX
  8
0
 10
10.1553
 20
22.693
  0
VERTEX
  8
0
 10
10.3172
 20
22.8731
  0
VERTEX
  8
0
 10
10.4764
 20
23.0506
  0
VERTEX
  8
0
 10
10.6356
 20
23.2203
  0
VERTEX
  8
0
 10
10.7896
 20
23.3821
  0
VERTEX
  8
0
 10
10.8052
 20
23.3012
  0
VERTEX
  8
0
 10
10.8157
 20
23.215
  0
VERTEX
  8
0
 10
10.8235
 20
23.1263
  0
VERTEX
  8
0
 10
10.8313
 20
23.0376
  0
VERTEX
  8
0
 10
10.8313
 20
22.9462
  0
VERTEX
  8
0
 10
10.8313
 20
22.8548
  0
VERTEX
  8
0
 10
10.8235
 20
22.7661
  0
VERTEX
  8
0
 10
10.8157
 20
22.68
  0
VERTEX
  8
0
 10
10.8052
 20
22.5938
  0
VERTEX
  8
0
 10
10.7896
 20
22.5129
  0
VERTEX
  8
0
 10
10.7034
 20
22.4059
  0
VERTEX
  8
0
 10
10.6304
 20
22.2911
  0
VERTEX
  8
0
 10
10.5756
 20
22.1684
  0
VERTEX
  8
0
 10
10.5312
 20
22.0405
  0
VERTEX
  8
0
 10
10.4973
 20
21.9074
  0
VERTEX
  8
0
 10
10.4685
 20
21.7743
  0
VERTEX
  8
0
 10
10.4424
 20
21.6438
  0
VERTEX
  8
0
 10
10.4163
 20
21.5159
  0
VERTEX
  8
0
 10
10.3876
 20
21.3932
  0
VERTEX
  8
0
 10
10.3563
 20
21.2784
  0
VERTEX
  8
0
 10
10.3511
 20
21.187
  0
VERTEX
  8
0
 10
10.372
 20
21.0983
  0
VERTEX
  8
0
 10
10.4111
 20
21.0148
  0
VERTEX
  8
0
 10
10.4633
 20
20.9338
  0
VERTEX
  8
0
 10
10.5286
 20
20.8555
  0
VERTEX
  8
0
 10
10.6017
 20
20.7799
  0
VERTEX
  8
0
 10
10.68
 20
20.7068
  0
VERTEX
  8
0
 10
10.7583
 20
20.6311
  0
VERTEX
  8
0
 10
10.8313
 20
20.5554
  0
VERTEX
  8
0
 10
10.8992
 20
20.4823
  0
VERTEX
  8
0
 10
10.954
 20
20.4458
  0
VERTEX
  8
0
 10
11.0088
 20
20.4092
  0
VERTEX
  8
0
 10
11.0636
 20
20.3727
  0
VERTEX
  8
0
 10
11.1158
 20
20.3361
  0
VERTEX
  8
0
 10
11.1654
 20
20.297
  0
VERTEX
  8
0
 10
11.2176
 20
20.2552
  0
VERTEX
  8
0
 10
11.2672
 20
20.2135
  0
VERTEX
  8
0
 10
11.3142
 20
20.1717
  0
VERTEX
  8
0
 10
11.3612
 20
20.1273
  0
VERTEX
  8
0
 10
11.4082
 20
20.083
  0
VERTEX
  8
0
 10
11.5334
 20
20.0047
  0
VERTEX
  8
0
 10
11.6613
 20
19.929
  0
VERTEX
  8
0
 10
11.7892
 20
19.8533
  0
VERTEX
  8
0
 10
11.9197
 20
19.7802
  0
VERTEX
  8
0
 10
12.0502
 20
19.7045
  0
VERTEX
  8
0
 10
12.1781
 20
19.6288
  0
VERTEX
  8
0
 10
12.306
 20
19.5531
  0
VERTEX
  8
0
 10
12.4313
 20
19.4774
  0
VERTEX
  8
0
 10
12.5566
 20
19.3991
  0
VERTEX
  8
0
 10
12.6766
 20
19.3208
  0
VERTEX
  8
0
 10
12.7628
 20
19.2791
  0
VERTEX
  8
0
 10
12.8515
 20
19.2347
  0
VERTEX
  8
0
 10
12.9403
 20
19.1903
  0
VERTEX
  8
0
 10
13.029
 20
19.146
  0
VERTEX
  8
0
 10
13.1177
 20
19.1042
  0
VERTEX
  8
0
 10
13.2065
 20
19.065
  0
VERTEX
  8
0
 10
13.2978
 20
19.0311
  0
VERTEX
  8
0
 10
13.3918
 20
18.9998
  0
VERTEX
  8
0
 10
13.4858
 20
18.9763
  0
VERTEX
  8
0
 10
13.7885
 20
18.7962
  0
VERTEX
  8
0
 10
14.0104
 20
18.7127
  0
VERTEX
  8
0
 10
14.2453
 20
18.6918
  0
VERTEX
  8
0
 10
14.488
 20
18.7257
  0
VERTEX
  8
0
 10
14.736
 20
18.7962
  0
VERTEX
  8
0
 10
14.9891
 20
18.8928
  0
VERTEX
  8
0
 10
15.2423
 20
19.005
  0
VERTEX
  8
0
 10
15.4929
 20
19.1146
  0
VERTEX
  8
0
 10
15.7382
 20
19.2138
  0
VERTEX
  8
0
 10
15.9757
 20
19.2843
  0
VERTEX
  8
0
 10
16.1689
 20
19.4879
  0
VERTEX
  8
0
 10
16.3751
 20
19.6758
  0
VERTEX
  8
0
 10
16.5917
 20
19.8533
  0
VERTEX
  8
0
 10
16.8136
 20
20.0229
  0
VERTEX
  8
0
 10
17.0433
 20
20.1848
  0
VERTEX
  8
0
 10
17.2782
 20
20.3414
  0
VERTEX
  8
0
 10
17.5131
 20
20.4954
  0
VERTEX
  8
0
 10
17.7506
 20
20.6467
  0
VERTEX
  8
0
 10
17.9881
 20
20.7981
  0
VERTEX
  8
0
 10
18.223
 20
20.9521
  0
VERTEX
  8
0
 10
18.3117
 20
21.0252
  0
VERTEX
  8
0
 10
18.4083
 20
21.0957
  0
VERTEX
  8
0
 10
18.5075
 20
21.1714
  0
VERTEX
  8
0
 10
18.6067
 20
21.2497
  0
VERTEX
  8
0
 10
18.698
 20
21.3384
  0
VERTEX
  8
0
 10
18.7816
 20
21.4376
  0
VERTEX
  8
0
 10
18.8494
 20
21.5498
  0
VERTEX
  8
0
 10
18.9016
 20
21.6803
  0
VERTEX
  8
0
 10
18.9303
 20
21.8291
  0
VERTEX
  8
0
 10
18.9303
 20
21.9987
  0
VERTEX
  8
0
 10
18.9434
 20
22.0275
  0
VERTEX
  8
0
 10
18.9538
 20
22.0614
  0
VERTEX
  8
0
 10
18.9616
 20
22.0979
  0
VERTEX
  8
0
 10
18.9695
 20
22.1397
  0
VERTEX
  8
0
 10
18.9721
 20
22.1867
  0
VERTEX
  8
0
 10
18.9721
 20
22.2337
  0
VERTEX
  8
0
 10
18.9721
 20
22.2859
  0
VERTEX
  8
0
 10
18.9616
 20
22.3381
  0
VERTEX
  8
0
 10
18.9512
 20
22.3929
  0
VERTEX
  8
0
 10
18.9303
 20
22.4477
  0
VERTEX
  8
0
 10
18.9121
 20
22.4712
  0
VERTEX
  8
0
 10
18.8938
 20
22.5025
  0
VERTEX
  8
0
 10
18.8755
 20
22.5416
  0
VERTEX
  8
0
 10
18.8546
 20
22.5834
  0
VERTEX
  8
0
 10
18.8338
 20
22.6304
  0
VERTEX
  8
0
 10
18.8103
 20
22.6774
  0
VERTEX
  8
0
 10
18.7816
 20
22.7243
  0
VERTEX
  8
0
 10
18.7476
 20
22.7687
  0
VERTEX
  8
0
 10
18.7059
 20
22.8131
  0
VERTEX
  8
0
 10
18.6563
 20
22.8496
  0
VERTEX
  8
0
 10
18.6119
 20
22.894
  0
VERTEX
  8
0
 10
18.5806
 20
22.9436
  0
VERTEX
  8
0
 10
18.5623
 20
22.9932
  0
VERTEX
  8
0
 10
18.5519
 20
23.0454
  0
VERTEX
  8
0
 10
18.5571
 20
23.1002
  0
VERTEX
  8
0
 10
18.5701
 20
23.1498
  0
VERTEX
  8
0
 10
18.5936
 20
23.1994
  0
VERTEX
  8
0
 10
18.6276
 20
23.2411
  0
VERTEX
  8
0
 10
18.6745
 20
23.2777
  0
VERTEX
  8
0
 10
18.7294
 20
23.309
  0
VERTEX
  8
0
 10
18.7398
 20
23.3638
  0
VERTEX
  8
0
 10
18.7424
 20
23.4186
  0
VERTEX
  8
0
 10
18.7424
 20
23.4734
  0
VERTEX
  8
0
 10
18.7398
 20
23.5256
  0
VERTEX
  8
0
 10
18.7372
 20
23.5804
  0
VERTEX
  8
0
 10
18.732
 20
23.6353
  0
VERTEX
  8
0
 10
18.7267
 20
23.6901
  0
VERTEX
  8
0
 10
18.7241
 20
23.7449
  0
VERTEX
  8
0
 10
18.7241
 20
23.7997
  0
VERTEX
  8
0
 10
18.7294
 20
23.8519
  0
VERTEX
  8
0
 10
18.7763
 20
24.0294
  0
VERTEX
  8
0
 10
18.8703
 20
24.1729
  0
VERTEX
  8
0
 10
19.0008
 20
24.2852
  0
VERTEX
  8
0
 10
19.16
 20
24.3608
  0
VERTEX
  8
0
 10
19.3323
 20
24.4
  0
VERTEX
  8
0
 10
19.5098
 20
24.4
  0
VERTEX
  8
0
 10
19.682
 20
24.3635
  0
VERTEX
  8
0
 10
19.8386
 20
24.2852
  0
VERTEX
  8
0
 10
19.9665
 20
24.1651
  0
VERTEX
  8
0
 10
20.0579
 20
24.0007
  0
VERTEX
  8
0
 10
20.1075
 20
23.9563
  0
VERTEX
  8
0
 10
20.1362
 20
23.8989
  0
VERTEX
  8
0
 10
20.1466
 20
23.8336
  0
VERTEX
  8
0
 10
20.1518
 20
23.7605
  0
VERTEX
  8
0
 10
20.1466
 20
23.6875
  0
VERTEX
  8
0
 10
20.144
 20
23.617
  0
VERTEX
  8
0
 10
20.1414
 20
23.5517
  0
VERTEX
  8
0
 10
20.1492
 20
23.4943
  0
VERTEX
  8
0
 10
20.1701
 20
23.4499
  0
VERTEX
  8
0
 10
20.2066
 20
23.4238
  0
SEQEND
  0
ENDSEC
  0
EOF