  0
SECTION
  2
HEADER
  9
$ACADVER
  1
AC1009
  0
ENDSEC
  0
SECTION
  2
TABLES
  0
TABLE
  2
STYLE
 70
   1
  0
STYLE
  2
STANDARD
 70
    64
 40
0.0
 41
1.0
 50
0.0
 71
     0
 42
1.0
  3
txt
  4

  0
ENDTAB
  0
ENDSEC
  0
SECTION
  2
ENTITIES
  0
ARC
  8
0
 10
7.8
 20
6.4
 40
1.5
 50
180
 51
270
  0
ARC
  8
0
 10
34.8
 20
6.4
 40
1.5
 50
270
 51
360
  0
ARC
  8
0
 10
34.8
 20
33.4
 40
1.5
 50
0
 51
90
  0
ARC
  8
0
 10
7.8
 20
33.4
 40
1.5
 50
90
 51
180
  0
POLYLINE
  8
0
 66
     1
 10
0
 20
0
  0
VERTEX
  8
0
 10
7.8
 20
4.9
  0
VERTEX
  8
0
 10
34.8
 20
4.9
  0
SEQEND
  0
POLYLINE
  8
0
 66
     1
 10
0
 20
0
  0
VERTEX
  8
0
 10
36.3
 20
6.4
  0
VERTEX
  8
0
 10
36.3
 20
33.4
  0
SEQEND
  0
POLYLINE
  8
0
 66
     1
 10
0
 20
0
  0
VERTEX
  8
0
 10
34.8
 20
34.9
  0
VERTEX
  8
0
 10
7.8
 20
34.9
  0
SEQEND
  0
POLYLINE
  8
0
 66
     1
 10
0
 20
0
  0
VERTEX
  8
0
 10
6.3
 20
33.4
  0
VERTEX
  8
0
 10
6.3
 20
6.4
  0
SEQEND
  0
ARC
  8
0
 10
7.8
 20
6.4
 40
1.5
 50
180
 51
270
  0
ARC
  8
0
 10
7.8
 20
6.4
 40
1
 50
180
 51
270
  0
ARC
  8
0
 10
34.8
 20
6.4
 40
1.5
 50
270
 51
360
  0
ARC
  8
0
 10
34.8
 20
6.4
 40
1
 50
270
 51
360
  0
ARC
  8
0
 10
34.8
 20
33.4
 40
1.5
 50
0
 51
90
  0
ARC
  8
0
 10
34.8
 20
33.4
 40
1
 50
0
 51
90
  0
ARC
  8
0
 10
7.8
 20
33.4
 40
1.5
 50
90
 51
180
  0
ARC
  8
0
 10
7.8
 20
33.4
 40
1
 50
90
 51
180
  0
POLYLINE
  8
0
 66
     1
 10
0
 20
0
  0
VERTEX
  8
0
 10
7.8
 20
5.4
  0
VERTEX
  8
0
 10
34.8
 20
5.4
  0
SEQEND
  0
POLYLINE
  8
0
 66
     1
 10
0
 20
0
  0
VERTEX
  8
0
 10
34.8
 20
4.9
  0
VERTEX
  8
0
 10
7.8
 20
4.9
  0
SEQEND
  0
POLYLINE
  8
0
 66
     1
 10
0
 20
0
  0
VERTEX
  8
0
 10
35.8
 20
6.4
  0
VERTEX
  8
0
 10
35.8
 20
33.4
  0
SEQEND
  0
POLYLINE
  8
0
 66
     1
 10
0
 20
0
  0
VERTEX
  8
0
 10
36.3
 20
33.4
  0
VERTEX
  8
0
 10
36.3
 20
6.4
  0
SEQEND
  0
POLYLINE
  8
0
 66
     1
 10
0
 20
0
  0
VERTEX
  8
0
 10
34.8
 20
34.4
  0
VERTEX
  8
0
 10
7.8
 20
34.4
  0
SEQEND
  0
POLYLINE
  8
0
 66
     1
 10
0
 20
0
  0
VERTEX
  8
0
 10
7.8
 20
34.9
  0
VERTEX
  8
0
 10
34.8
 20
34.9
  0
SEQEND
  0
POLYLINE
  8
0
 66
     1
 10
0
 20
0
  0
VERTEX
  8
0
 10
6.8
 20
33.4
  0
VERTEX
  8
0
 10
6.8
 20
6.4
  0
SEQEND
  0
POLYLINE
  8
0
 66
     1
 10
0
 20
0
  0
VERTEX
  8
0
 10
6.3
 20
6.4
  0
VERTEX
  8
0
 10
6.3
 20
33.4
  0
SEQEND
  0
POLYLINE
  8
0
 66
     1
 10
0
 20
0
  0
VERTEX
  8
0
 10
37.1406
 20
32.2674
  0
VERTEX
  8
0
 10
37.1361
 20
32.3207
  0
VERTEX
  8
0
 10
37.1711
 20
32.3301
  0
VERTEX
  8
0
 10
37.1961
 20
32.3464
  0
VERTEX
  8
0
 10
37.2111
 20
32.3698
  0
VERTEX
  8
0
 10
37.2161
 20
32.4001
  0
VERTEX
  8
0
 10
37.2083
 20
32.4366
  0
VERTEX
  8
0
 10
37.1849
 20
32.4649
  0
VERTEX
  8
0
 10
37.1531
 20
32.4818
  0
VERTEX
  8
0
 10
37.1144
 20
32.4874
  0
VERTEX
  8
0
 10
37.0764
 20
32.4816
  0
VERTEX
  8
0
 10
37.0464
 20
32.464
  0
VERTEX
  8
0
 10
37.0268
 20
32.4362
  0
VERTEX
  8
0
 10
37.0201
 20
32.3992
  0
VERTEX
  8
0
 10
37.03
 20
32.3562
  0
VERTEX
  8
0
 10
37.0602
 20
32.324
  0
VERTEX
  8
0
 10
37.0541
 20
32.2764
  0
VERTEX
  8
0
 10
36.8441
 20
32.3161
  0
VERTEX
  8
0
 10
36.8441
 20
32.5203
  0
VERTEX
  8
0
 10
36.8961
 20
32.5203
  0
VERTEX
  8
0
 10
36.8961
 20
32.3552
  0
VERTEX
  8
0
 10
37.0018
 20
32.3351
  0
VERTEX
  8
0
 10
36.9826
 20
32.3728
  0
VERTEX
  8
0
 10
36.9761
 20
32.4123
  0
VERTEX
  8
0
 10
36.9857
 20
32.4632
  0
VERTEX
  8
0
 10
37.0149
 20
32.5043
  0
VERTEX
  8
0
 10
37.0575
 20
32.5306
  0
VERTEX
  8
0
 10
37.1095
 20
32.5394
  0
VERTEX
  8
0
 10
37.1614
 20
32.5313
  0
VERTEX
  8
0
 10
37.2061
 20
32.507
  0
VERTEX
  8
0
 10
37.2435
 20
32.4603
  0
VERTEX
  8
0
 10
37.2561
 20
32.3992
  0
VERTEX
  8
0
 10
37.2486
 20
32.3494
  0
VERTEX
  8
0
 10
37.2259
 20
32.3091
  0
VERTEX
  8
0
 10
37.1891
 20
32.2805
  0
VERTEX
  8
0
 10
37.1406
 20
32.2674
  0
VERTEX
  8
0
 10
37.1406
 20
32.2674
  0
SEQEND
  0
LINE
  8
0
 10
37.05
 20
32.6377
 11
37.05
 21
34.9
  0
LINE
  8
0
 10
37.1394
 20
34.7211
 11
37.05
 21
34.9
  0
LINE
  8
0
 10
36.9606
 20
34.7211
 11
37.05
 21
34.9
  0
LINE
  8
0
 10
37.15
 20
34.9
 11
36.55
 21
34.9
  0
LINE
  8
0
 10
37.05
 20
32.1634
 11
37.05
 21
29.9011
  0
LINE
  8
0
 10
36.9606
 20
30.0799
 11
37.05
 21
29.9011
  0
LINE
  8
0
 10
37.1394
 20
30.0799
 11
37.05
 21
29.9011
  0
LINE
  8
0
 10
37.15
 20
29.9011
 11
36.55
 21
29.9011
  0
POLYLINE
  8
0
 66
     1
 10
0
 20
0
  0
VERTEX
  8
0
 10
37.1961
 20
19.8754
  0
VERTEX
  8
0
 10
37.2481
 20
19.8754
  0
VERTEX
  8
0
 10
37.2481
 20
19.6034
  0
VERTEX
  8
0
 10
37.2041
 20
19.6128
  0
VERTEX
  8
0
 10
37.1581
 20
19.6432
  0
VERTEX
  8
0
 10
37.1287
 20
19.672
  0
VERTEX
  8
0
 10
37.0957
 20
19.7109
  0
VERTEX
  8
0
 10
37.059
 20
19.7548
  0
VERTEX
  8
0
 10
37.031
 20
19.7842
  0
VERTEX
  8
0
 10
36.9871
 20
19.8166
  0
VERTEX
  8
0
 10
36.9475
 20
19.8274
  0
VERTEX
  8
0
 10
36.9185
 20
19.8215
  0
VERTEX
  8
0
 10
36.8955
 20
19.8039
  0
VERTEX
  8
0
 10
36.8811
 20
19.7788
  0
VERTEX
  8
0
 10
36.8761
 20
19.7483
  0
VERTEX
  8
0
 10
36.8816
 20
19.714
  0
VERTEX
  8
0
 10
36.8987
 20
19.688
  0
VERTEX
  8
0
 10
36.9254
 20
19.6716
  0
VERTEX
  8
0
 10
36.96
 20
19.666
  0
VERTEX
  8
0
 10
36.9547
 20
19.6129
  0
VERTEX
  8
0
 10
36.9038
 20
19.6255
  0
VERTEX
  8
0
 10
36.8666
 20
19.6531
  0
VERTEX
  8
0
 10
36.8437
 20
19.6941
  0
VERTEX
  8
0
 10
36.8361
 20
19.7469
  0
VERTEX
  8
0
 10
36.8434
 20
19.7967
  0
VERTEX
  8
0
 10
36.8652
 20
19.8372
  0
VERTEX
  8
0
 10
36.9016
 20
19.8659
  0
VERTEX
  8
0
 10
36.9489
 20
19.8754
  0
VERTEX
  8
0
 10
36.9976
 20
19.8644
  0
VERTEX
  8
0
 10
37.0465
 20
19.8315
  0
VERTEX
  8
0
 10
37.0778
 20
19.7998
  0
VERTEX
  8
0
 10
37.118
 20
19.7534
  0
VERTEX
  8
0
 10
37.1421
 20
19.7243
  0
VERTEX
  8
0
 10
37.1542
 20
19.7104
  0
VERTEX
  8
0
 10
37.1755
 20
19.6893
  0
VERTEX
  8
0
 10
37.1961
 20
19.6734
  0
VERTEX
  8
0
 10
37.1961
 20
19.8754
  0
SEQEND
  0
POLYLINE
  8
0
 66
     1
 10
0
 20
0
  0
VERTEX
  8
0
 10
37.0462
 20
19.9314
  0
VERTEX
  8
0
 10
36.9949
 20
19.9338
  0
VERTEX
  8
0
 10
36.9506
 20
19.9409
  0
VERTEX
  8
0
 10
36.9134
 20
19.9528
  0
VERTEX
  8
0
 10
36.8833
 20
19.9695
  0
VERTEX
  8
0
 10
36.8602
 20
19.9909
  0
VERTEX
  8
0
 10
36.8423
 20
20.0241
  0
VERTEX
  8
0
 10
36.8361
 20
20.0654
  0
VERTEX
  8
0
 10
36.8393
 20
20.096
  0
VERTEX
  8
0
 10
36.8495
 20
20.1234
  0
VERTEX
  8
0
 10
36.8869
 20
20.1637
  0
VERTEX
  8
0
 10
36.9492
 20
20.1902
  0
VERTEX
  8
0
 10
36.9911
 20
20.1971
  0
VERTEX
  8
0
 10
37.0462
 20
20.1994
  0
VERTEX
  8
0
 10
37.0975
 20
20.197
  0
VERTEX
  8
0
 10
37.1417
 20
20.1899
  0
VERTEX
  8
0
 10
37.1788
 20
20.178
  0
VERTEX
  8
0
 10
37.2089
 20
20.1614
  0
VERTEX
  8
0
 10
37.232
 20
20.14
  0
VERTEX
  8
0
 10
37.2499
 20
20.1068
  0
VERTEX
  8
0
 10
37.2561
 20
20.0654
  0
VERTEX
  8
0
 10
37.2547
 20
20.0441
  0
VERTEX
  8
0
 10
37.2504
 20
20.0245
  0
VERTEX
  8
0
 10
37.2432
 20
20.0069
  0
VERTEX
  8
0
 10
37.233
 20
19.9911
  0
VERTEX
  8
0
 10
37.2199
 20
19.9771
  0
VERTEX
  8
0
 10
37.2039
 20
19.965
  0
VERTEX
  8
0
 10
37.185
 20
19.9548
  0
VERTEX
  8
0
 10
37.1631
 20
19.9464
  0
VERTEX
  8
0
 10
37.1383
 20
19.9399
  0
VERTEX
  8
0
 10
37.1105
 20
19.9352
  0
VERTEX
  8
0
 10
37.0798
 20
19.9324
  0
VERTEX
  8
0
 10
37.0462
 20
19.9314
  0
VERTEX
  8
0
 10
37.0462
 20
19.9314
  0
SEQEND
  0
POLYLINE
  8
0
 66
     1
 10
0
 20
0
  0
VERTEX
  8
0
 10
37.0461
 20
19.9794
  0
VERTEX
  8
0
 10
37.1073
 20
19.9823
  0
VERTEX
  8
0
 10
37.152
 20
19.9909
  0
VERTEX
  8
0
 10
37.1875
 20
20.0079
  0
VERTEX
  8
0
 10
37.2088
 20
20.0327
  0
VERTEX
  8
0
 10
37.2161
 20
20.0654
  0
VERTEX
  8
0
 10
37.2141
 20
20.0835
  0
VERTEX
  8
0
 10
37.2079
 20
20.0994
  0
VERTEX
  8
0
 10
37.1975
 20
20.1132
  0
VERTEX
  8
0
 10
37.1828
 20
20.1249
  0
VERTEX
  8
0
 10
37.1639
 20
20.1344
  0
VERTEX
  8
0
 10
37.1408
 20
20.1419
  0
VERTEX
  8
0
 10
37.1135
 20
20.1472
  0
VERTEX
  8
0
 10
37.0819
 20
20.1504
  0
VERTEX
  8
0
 10
37.0461
 20
20.1514
  0
VERTEX
  8
0
 10
36.9849
 20
20.1486
  0
VERTEX
  8
0
 10
36.9402
 20
20.14
  0
VERTEX
  8
0
 10
36.9047
 20
20.1228
  0
VERTEX
  8
0
 10
36.8834
 20
20.0977
  0
VERTEX
  8
0
 10
36.8761
 20
20.0649
  0
VERTEX
  8
0
 10
36.8834
 20
20.0321
  0
VERTEX
  8
0
 10
36.9059
 20
20.0067
  0
VERTEX
  8
0
 10
36.938
 20
19.9916
  0
VERTEX
  8
0
 10
36.9848
 20
19.9825
  0
VERTEX
  8
0
 10
37.0461
 20
19.9794
  0
VERTEX
  8
0
 10
37.0461
 20
19.9794
  0
SEQEND
  0
LINE
  8
0
 10
37.05
 20
20.2995
 11
37.05
 21
29.9011
  0
LINE
  8
0
 10
37.1394
 20
29.7222
 11
37.05
 21
29.9011
  0
LINE
  8
0
 10
36.9606
 20
29.7222
 11
37.05
 21
29.9011
  0
LINE
  8
0
 10
37.05
 20
19.5005
 11
37.05
 21
9.899
  0
LINE
  8
0
 10
36.9606
 20
10.0778
 11
37.05
 21
9.899
  0
LINE
  8
0
 10
37.1394
 20
10.0778
 11
37.05
 21
9.899
  0
LINE
  8
0
 10
37.15
 20
9.899
 11
36.55
 21
9.899
  0
POLYLINE
  8
0
 66
     1
 10
0
 20
0
  0
VERTEX
  8
0
 10
7.4401
 20
4.0074
  0
VERTEX
  8
0
 10
7.4401
 20
3.9554
  0
VERTEX
  8
0
 10
7.1681
 20
3.9554
  0
VERTEX
  8
0
 10
7.1775
 20
3.9994
  0
VERTEX
  8
0
 10
7.2079
 20
4.0454
  0
VERTEX
  8
0
 10
7.2367
 20
4.0748
  0
VERTEX
  8
0
 10
7.2755
 20
4.1078
  0
VERTEX
  8
0
 10
7.3195
 20
4.1445
  0
VERTEX
  8
0
 10
7.3489
 20
4.1725
  0
VERTEX
  8
0
 10
7.3813
 20
4.2164
  0
VERTEX
  8
0
 10
7.3921
 20
4.256
  0
VERTEX
  8
0
 10
7.3862
 20
4.285
  0
VERTEX
  8
0
 10
7.3686
 20
4.308
  0
VERTEX
  8
0
 10
7.3435
 20
4.3224
  0
VERTEX
  8
0
 10
7.313
 20
4.3274
  0
VERTEX
  8
0
 10
7.2787
 20
4.3219
  0
VERTEX
  8
0
 10
7.2527
 20
4.3049
  0
VERTEX
  8
0
 10
7.2363
 20
4.2781
  0
VERTEX
  8
0
 10
7.2307
 20
4.2435
  0
VERTEX
  8
0
 10
7.1776
 20
4.2489
  0
VERTEX
  8
0
 10
7.1902
 20
4.2997
  0
VERTEX
  8
0
 10
7.2178
 20
4.3369
  0
VERTEX
  8
0
 10
7.2588
 20
4.3598
  0
VERTEX
  8
0
 10
7.3115
 20
4.3674
  0
VERTEX
  8
0
 10
7.3614
 20
4.3601
  0
VERTEX
  8
0
 10
7.4019
 20
4.3383
  0
VERTEX
  8
0
 10
7.4305
 20
4.3019
  0
VERTEX
  8
0
 10
7.4401
 20
4.2546
  0
VERTEX
  8
0
 10
7.4291
 20
4.206
  0
VERTEX
  8
0
 10
7.3962
 20
4.157
  0
VERTEX
  8
0
 10
7.3645
 20
4.1257
  0
VERTEX
  8
0
 10
7.3181
 20
4.0855
  0
VERTEX
  8
0
 10
7.289
 20
4.0614
  0
VERTEX
  8
0
 10
7.275
 20
4.0493
  0
VERTEX
  8
0
 10
7.254
 20
4.028
  0
VERTEX
  8
0
 10
7.2381
 20
4.0074
  0
VERTEX
  8
0
 10
7.4401
 20
4.0074
  0
SEQEND
  0
POLYLINE
  8
0
 66
     1
 10
0
 20
0
  0
VERTEX
  8
0
 10
7.5241
 20
3.9554
  0
VERTEX
  8
0
 10
7.5241
 20
4.0114
  0
VERTEX
  8
0
 10
7.5801
 20
4.0114
  0
VERTEX
  8
0
 10
7.5801
 20
3.9554
  0
VERTEX
  8
0
 10
7.5241
 20
3.9554
  0
SEQEND
  0
POLYLINE
  8
0
 66
     1
 10
0
 20
0
  0
VERTEX
  8
0
 10
7.6561
 20
4.0629
  0
VERTEX
  8
0
 10
7.7094
 20
4.0674
  0
VERTEX
  8
0
 10
7.7187
 20
4.0324
  0
VERTEX
  8
0
 10
7.7351
 20
4.0074
  0
VERTEX
  8
0
 10
7.7585
 20
3.9924
  0
VERTEX
  8
0
 10
7.7888
 20
3.9874
  0
VERTEX
  8
0
 10
7.8253
 20
3.9952
  0
VERTEX
  8
0
 10
7.8535
 20
4.0187
  0
VERTEX
  8
0
 10
7.8705
 20
4.0505
  0
VERTEX
  8
0
 10
7.8761
 20
4.0891
  0
VERTEX
  8
0
 10
7.8703
 20
4.1271
  0
VERTEX
  8
0
 10
7.8527
 20
4.1571
  0
VERTEX
  8
0
 10
7.8248
 20
4.1767
  0
VERTEX
  8
0
 10
7.7879
 20
4.1834
  0
VERTEX
  8
0
 10
7.7449
 20
4.1735
  0
VERTEX
  8
0
 10
7.7127
 20
4.1433
  0
VERTEX
  8
0
 10
7.665
 20
4.1494
  0
VERTEX
  8
0
 10
7.7048
 20
4.3594
  0
VERTEX
  8
0
 10
7.9089
 20
4.3594
  0
VERTEX
  8
0
 10
7.9089
 20
4.3074
  0
VERTEX
  8
0
 10
7.7439
 20
4.3074
  0
VERTEX
  8
0
 10
7.7238
 20
4.2017
  0
VERTEX
  8
0
 10
7.7615
 20
4.2209
  0
VERTEX
  8
0
 10
7.801
 20
4.2274
  0
VERTEX
  8
0
 10
7.8519
 20
4.2179
  0
VERTEX
  8
0
 10
7.893
 20
4.1887
  0
VERTEX
  8
0
 10
7.9193
 20
4.146
  0
VERTEX
  8
0
 10
7.9281
 20
4.094
  0
VERTEX
  8
0
 10
7.92
 20
4.0421
  0
VERTEX
  8
0
 10
7.8957
 20
3.9974
  0
VERTEX
  8
0
 10
7.849
 20
3.96
  0
VERTEX
  8
0
 10
7.7879
 20
3.9474
  0
VERTEX
  8
0
 10
7.7381
 20
3.955
  0
VERTEX
  8
0
 10
7.6978
 20
3.9776
  0
VERTEX
  8
0
 10
7.6692
 20
4.0145
  0
VERTEX
  8
0
 10
7.6561
 20
4.0629
  0
VERTEX
  8
0
 10
7.6561
 20
4.0629
  0
SEQEND
  0
LINE
  8
0
 10
8.0312
 20
4.15
 11
8.8
 21
4.15
  0
LINE
  8
0
 10
8.6211
 20
4.0606
 11
8.8
 21
4.15
  0
LINE
  8
0
 10
8.6211
 20
4.2394
 11
8.8
 21
4.15
  0
LINE
  8
0
 10
8.8
 20
4.05
 11
8.8
 21
4.65
  0
LINE
  8
0
 10
7.0688
 20
4.15
 11
6.3
 21
4.15
  0
LINE
  8
0
 10
6.4789
 20
4.2394
 11
6.3
 21
4.15
  0
LINE
  8
0
 10
6.4789
 20
4.0606
 11
6.3
 21
4.15
  0
LINE
  8
0
 10
6.3
 20
4.05
 11
6.3
 21
4.65
  0
POLYLINE
  8
0
 66
     1
 10
0
 20
0
  0
VERTEX
  8
0
 10
21.2721
 20
4.0074
  0
VERTEX
  8
0
 10
21.2721
 20
3.9554
  0
VERTEX
  8
0
 10
21.0001
 20
3.9554
  0
VERTEX
  8
0
 10
21.0095
 20
3.9994
  0
VERTEX
  8
0
 10
21.0399
 20
4.0454
  0
VERTEX
  8
0
 10
21.0687
 20
4.0748
  0
VERTEX
  8
0
 10
21.1075
 20
4.1078
  0
VERTEX
  8
0
 10
21.1515
 20
4.1445
  0
VERTEX
  8
0
 10
21.1809
 20
4.1725
  0
VERTEX
  8
0
 10
21.2133
 20
4.2164
  0
VERTEX
  8
0
 10
21.2241
 20
4.256
  0
VERTEX
  8
0
 10
21.2182
 20
4.285
  0
VERTEX
  8
0
 10
21.2006
 20
4.308
  0
VERTEX
  8
0
 10
21.1755
 20
4.3224
  0
VERTEX
  8
0
 10
21.145
 20
4.3274
  0
VERTEX
  8
0
 10
21.1107
 20
4.3219
  0
VERTEX
  8
0
 10
21.0847
 20
4.3049
  0
VERTEX
  8
0
 10
21.0683
 20
4.2781
  0
VERTEX
  8
0
 10
21.0627
 20
4.2435
  0
VERTEX
  8
0
 10
21.0096
 20
4.2489
  0
VERTEX
  8
0
 10
21.0222
 20
4.2997
  0
VERTEX
  8
0
 10
21.0498
 20
4.3369
  0
VERTEX
  8
0
 10
21.0908
 20
4.3598
  0
VERTEX
  8
0
 10
21.1435
 20
4.3674
  0
VERTEX
  8
0
 10
21.1934
 20
4.3601
  0
VERTEX
  8
0
 10
21.2339
 20
4.3383
  0
VERTEX
  8
0
 10
21.2625
 20
4.3019
  0
VERTEX
  8
0
 10
21.2721
 20
4.2546
  0
VERTEX
  8
0
 10
21.2611
 20
4.206
  0
VERTEX
  8
0
 10
21.2282
 20
4.157
  0
VERTEX
  8
0
 10
21.1965
 20
4.1257
  0
VERTEX
  8
0
 10
21.1501
 20
4.0855
  0
VERTEX
  8
0
 10
21.121
 20
4.0614
  0
VERTEX
  8
0
 10
21.107
 20
4.0493
  0
VERTEX
  8
0
 10
21.086
 20
4.028
  0
VERTEX
  8
0
 10
21.0701
 20
4.0074
  0
VERTEX
  8
0
 10
21.2721
 20
4.0074
  0
SEQEND
  0
POLYLINE
  8
0
 66
     1
 10
0
 20
0
  0
VERTEX
  8
0
 10
21.3281
 20
4.0629
  0
VERTEX
  8
0
 10
21.3814
 20
4.0674
  0
VERTEX
  8
0
 10
21.3907
 20
4.0324
  0
VERTEX
  8
0
 10
21.4071
 20
4.0074
  0
VERTEX
  8
0
 10
21.4305
 20
3.9924
  0
VERTEX
  8
0
 10
21.4608
 20
3.9874
  0
VERTEX
  8
0
 10
21.4973
 20
3.9952
  0
VERTEX
  8
0
 10
21.5255
 20
4.0187
  0
VERTEX
  8
0
 10
21.5425
 20
4.0505
  0
VERTEX
  8
0
 10
21.5481
 20
4.0891
  0
VERTEX
  8
0
 10
21.5423
 20
4.1271
  0
VERTEX
  8
0
 10
21.5247
 20
4.1571
  0
VERTEX
  8
0
 10
21.4968
 20
4.1767
  0
VERTEX
  8
0
 10
21.4599
 20
4.1834
  0
VERTEX
  8
0
 10
21.4169
 20
4.1735
  0
VERTEX
  8
0
 10
21.3847
 20
4.1433
  0
VERTEX
  8
0
 10
21.337
 20
4.1494
  0
VERTEX
  8
0
 10
21.3768
 20
4.3594
  0
VERTEX
  8
0
 10
21.5809
 20
4.3594
  0
VERTEX
  8
0
 10
21.5809
 20
4.3074
  0
VERTEX
  8
0
 10
21.4159
 20
4.3074
  0
VERTEX
  8
0
 10
21.3958
 20
4.2017
  0
VERTEX
  8
0
 10
21.4335
 20
4.2209
  0
VERTEX
  8
0
 10
21.473
 20
4.2274
  0
VERTEX
  8
0
 10
21.5239
 20
4.2179
  0
VERTEX
  8
0
 10
21.565
 20
4.1887
  0
VERTEX
  8
0
 10
21.5913
 20
4.146
  0
VERTEX
  8
0
 10
21.6001
 20
4.094
  0
VERTEX
  8
0
 10
21.592
 20
4.0421
  0
VERTEX
  8
0
 10
21.5677
 20
3.9974
  0
VERTEX
  8
0
 10
21.521
 20
3.96
  0
VERTEX
  8
0
 10
21.4599
 20
3.9474
  0
VERTEX
  8
0
 10
21.4101
 20
3.955
  0
VERTEX
  8
0
 10
21.3698
 20
3.9776
  0
VERTEX
  8
0
 10
21.3412
 20
4.0145
  0
VERTEX
  8
0
 10
21.3281
 20
4.0629
  0
VERTEX
  8
0
 10
21.3281
 20
4.0629
  0
SEQEND
  0
LINE
  8
0
 10
21.7005
 20
4.15
 11
33.8
 21
4.15
  0
LINE
  8
0
 10
33.6211
 20
4.0606
 11
33.8
 21
4.15
  0
LINE
  8
0
 10
33.6211
 20
4.2394
 11
33.8
 21
4.15
  0
LINE
  8
0
 10
33.8
 20
4.05
 11
33.8
 21
4.65
  0
LINE
  8
0
 10
20.8995
 20
4.15
 11
8.8
 21
4.15
  0
LINE
  8
0
 10
8.9789
 20
4.2394
 11
8.8
 21
4.15
  0
LINE
  8
0
 10
8.9789
 20
4.0606
 11
8.8
 21
4.15
  0
POLYLINE
  8
0
 66
     1
 10
0
 20
0
  0
VERTEX
  8
0
 10
34.9401
 20
4.0074
  0
VERTEX
  8
0
 10
34.9401
 20
3.9554
  0
VERTEX
  8
0
 10
34.6681
 20
3.9554
  0
VERTEX
  8
0
 10
34.6775
 20
3.9994
  0
VERTEX
  8
0
 10
34.7079
 20
4.0454
  0
VERTEX
  8
0
 10
34.7367
 20
4.0748
  0
VERTEX
  8
0
 10
34.7755
 20
4.1078
  0
VERTEX
  8
0
 10
34.8195
 20
4.1445
  0
VERTEX
  8
0
 10
34.8489
 20
4.1725
  0
VERTEX
  8
0
 10
34.8813
 20
4.2164
  0
VERTEX
  8
0
 10
34.8921
 20
4.256
  0
VERTEX
  8
0
 10
34.8862
 20
4.285
  0
VERTEX
  8
0
 10
34.8686
 20
4.308
  0
VERTEX
  8
0
 10
34.8435
 20
4.3224
  0
VERTEX
  8
0
 10
34.813
 20
4.3274
  0
VERTEX
  8
0
 10
34.7787
 20
4.3219
  0
VERTEX
  8
0
 10
34.7527
 20
4.3049
  0
VERTEX
  8
0
 10
34.7363
 20
4.2781
  0
VERTEX
  8
0
 10
34.7307
 20
4.2435
  0
VERTEX
  8
0
 10
34.6776
 20
4.2489
  0
VERTEX
  8
0
 10
34.6902
 20
4.2997
  0
VERTEX
  8
0
 10
34.7178
 20
4.3369
  0
VERTEX
  8
0
 10
34.7588
 20
4.3598
  0
VERTEX
  8
0
 10
34.8115
 20
4.3674
  0
VERTEX
  8
0
 10
34.8614
 20
4.3601
  0
VERTEX
  8
0
 10
34.9019
 20
4.3383
  0
VERTEX
  8
0
 10
34.9305
 20
4.3019
  0
VERTEX
  8
0
 10
34.9401
 20
4.2546
  0
VERTEX
  8
0
 10
34.9291
 20
4.206
  0
VERTEX
  8
0
 10
34.8962
 20
4.157
  0
VERTEX
  8
0
 10
34.8645
 20
4.1257
  0
VERTEX
  8
0
 10
34.8181
 20
4.0855
  0
VERTEX
  8
0
 10
34.789
 20
4.0614
  0
VERTEX
  8
0
 10
34.775
 20
4.0493
  0
VERTEX
  8
0
 10
34.754
 20
4.028
  0
VERTEX
  8
0
 10
34.7381
 20
4.0074
  0
VERTEX
  8
0
 10
34.9401
 20
4.0074
  0
SEQEND
  0
POLYLINE
  8
0
 66
     1
 10
0
 20
0
  0
VERTEX
  8
0
 10
35.0241
 20
3.9554
  0
VERTEX
  8
0
 10
35.0241
 20
4.0114
  0
VERTEX
  8
0
 10
35.0801
 20
4.0114
  0
VERTEX
  8
0
 10
35.0801
 20
3.9554
  0
VERTEX
  8
0
 10
35.0241
 20
3.9554
  0
SEQEND
  0
POLYLINE
  8
0
 66
     1
 10
0
 20
0
  0
VERTEX
  8
0
 10
35.1561
 20
4.0629
  0
VERTEX
  8
0
 10
35.2094
 20
4.0674
  0
VERTEX
  8
0
 10
35.2187
 20
4.0324
  0
VERTEX
  8
0
 10
35.2351
 20
4.0074
  0
VERTEX
  8
0
 10
35.2585
 20
3.9924
  0
VERTEX
  8
0
 10
35.2888
 20
3.9874
  0
VERTEX
  8
0
 10
35.3253
 20
3.9952
  0
VERTEX
  8
0
 10
35.3535
 20
4.0187
  0
VERTEX
  8
0
 10
35.3705
 20
4.0505
  0
VERTEX
  8
0
 10
35.3761
 20
4.0891
  0
VERTEX
  8
0
 10
35.3703
 20
4.1271
  0
VERTEX
  8
0
 10
35.3527
 20
4.1571
  0
VERTEX
  8
0
 10
35.3248
 20
4.1767
  0
VERTEX
  8
0
 10
35.2879
 20
4.1834
  0
VERTEX
  8
0
 10
35.2449
 20
4.1735
  0
VERTEX
  8
0
 10
35.2127
 20
4.1433
  0
VERTEX
  8
0
 10
35.165
 20
4.1494
  0
VERTEX
  8
0
 10
35.2048
 20
4.3594
  0
VERTEX
  8
0
 10
35.4089
 20
4.3594
  0
VERTEX
  8
0
 10
35.4089
 20
4.3074
  0
VERTEX
  8
0
 10
35.2439
 20
4.3074
  0
VERTEX
  8
0
 10
35.2238
 20
4.2017
  0
VERTEX
  8
0
 10
35.2615
 20
4.2209
  0
VERTEX
  8
0
 10
35.301
 20
4.2274
  0
VERTEX
  8
0
 10
35.3519
 20
4.2179
  0
VERTEX
  8
0
 10
35.393
 20
4.1887
  0
VERTEX
  8
0
 10
35.4193
 20
4.146
  0
VERTEX
  8
0
 10
35.4281
 20
4.094
  0
VERTEX
  8
0
 10
35.42
 20
4.0421
  0
VERTEX
  8
0
 10
35.3957
 20
3.9974
  0
VERTEX
  8
0
 10
35.349
 20
3.96
  0
VERTEX
  8
0
 10
35.2879
 20
3.9474
  0
VERTEX
  8
0
 10
35.2381
 20
3.955
  0
VERTEX
  8
0
 10
35.1978
 20
3.9776
  0
VERTEX
  8
0
 10
35.1692
 20
4.0145
  0
VERTEX
  8
0
 10
35.1561
 20
4.0629
  0
VERTEX
  8
0
 10
35.1561
 20
4.0629
  0
SEQEND
  0
LINE
  8
0
 10
35.5312
 20
4.15
 11
36.3
 21
4.15
  0
LINE
  8
0
 10
36.1211
 20
4.0606
 11
36.3
 21
4.15
  0
LINE
  8
0
 10
36.1211
 20
4.2394
 11
36.3
 21
4.15
  0
LINE
  8
0
 10
36.3
 20
4.05
 11
36.3
 21
4.65
  0
LINE
  8
0
 10
34.5688
 20
4.15
 11
33.8
 21
4.15
  0
LINE
  8
0
 10
33.9789
 20
4.2394
 11
33.8
 21
4.15
  0
LINE
  8
0
 10
33.9789
 20
4.0606
 11
33.8
 21
4.15
  0
LINE
  8
0
 10
33.8
 20
4.05
 11
33.8
 21
4.65
  0
POLYLINE
  8
0
 66
     1
 10
0
 20
0
  0
VERTEX
  8
0
 10
37.1406
 20
7.2674
  0
VERTEX
  8
0
 10
37.1361
 20
7.3207
  0
VERTEX
  8
0
 10
37.1711
 20
7.3301
  0
VERTEX
  8
0
 10
37.1961
 20
7.3464
  0
VERTEX
  8
0
 10
37.2111
 20
7.3698
  0
VERTEX
  8
0
 10
37.2161
 20
7.4001
  0
VERTEX
  8
0
 10
37.2083
 20
7.4366
  0
VERTEX
  8
0
 10
37.1849
 20
7.4649
  0
VERTEX
  8
0
 10
37.1531
 20
7.4818
  0
VERTEX
  8
0
 10
37.1144
 20
7.4874
  0
VERTEX
  8
0
 10
37.0764
 20
7.4816
  0
VERTEX
  8
0
 10
37.0464
 20
7.464
  0
VERTEX
  8
0
 10
37.0268
 20
7.4362
  0
VERTEX
  8
0
 10
37.0201
 20
7.3992
  0
VERTEX
  8
0
 10
37.03
 20
7.3562
  0
VERTEX
  8
0
 10
37.0602
 20
7.324
  0
VERTEX
  8
0
 10
37.0541
 20
7.2764
  0
VERTEX
  8
0
 10
36.8441
 20
7.3161
  0
VERTEX
  8
0
 10
36.8441
 20
7.5203
  0
VERTEX
  8
0
 10
36.8961
 20
7.5203
  0
VERTEX
  8
0
 10
36.8961
 20
7.3552
  0
VERTEX
  8
0
 10
37.0018
 20
7.3351
  0
VERTEX
  8
0
 10
36.9826
 20
7.3728
  0
VERTEX
  8
0
 10
36.9761
 20
7.4123
  0
VERTEX
  8
0
 10
36.9857
 20
7.4632
  0
VERTEX
  8
0
 10
37.0149
 20
7.5043
  0
VERTEX
  8
0
 10
37.0575
 20
7.5306
  0
VERTEX
  8
0
 10
37.1095
 20
7.5394
  0
VERTEX
  8
0
 10
37.1614
 20
7.5313
  0
VERTEX
  8
0
 10
37.2061
 20
7.507
  0
VERTEX
  8
0
 10
37.2435
 20
7.4603
  0
VERTEX
  8
0
 10
37.2561
 20
7.3992
  0
VERTEX
  8
0
 10
37.2486
 20
7.3494
  0
VERTEX
  8
0
 10
37.2259
 20
7.3091
  0
VERTEX
  8
0
 10
37.1891
 20
7.2805
  0
VERTEX
  8
0
 10
37.1406
 20
7.2674
  0
VERTEX
  8
0
 10
37.1406
 20
7.2674
  0
SEQEND
  0
LINE
  8
0
 10
37.05
 20
7.6366
 11
37.05
 21
9.899
  0
LINE
  8
0
 10
37.1394
 20
9.7201
 11
37.05
 21
9.899
  0
LINE
  8
0
 10
36.9606
 20
9.7201
 11
37.05
 21
9.899
  0
LINE
  8
0
 10
37.15
 20
9.899
 11
36.55
 21
9.899
  0
LINE
  8
0
 10
37.05
 20
7.1623
 11
37.05
 21
4.9
  0
LINE
  8
0
 10
36.9606
 20
5.0789
 11
37.05
 21
4.9
  0
LINE
  8
0
 10
37.1394
 20
5.0789
 11
37.05
 21
4.9
  0
LINE
  8
0
 10
37.15
 20
4.9
 11
36.55
 21
4.9
  0
POLYLINE
  8
0
 66
     1
 10
0
 20
0
  0
VERTEX
  8
0
 10
38.1398
 20
19.6074
  0
VERTEX
  8
0
 10
38.133
 20
19.658
  0
VERTEX
  8
0
 10
38.1693
 20
19.6689
  0
VERTEX
  8
0
 10
38.1952
 20
19.686
  0
VERTEX
  8
0
 10
38.2108
 20
19.7092
  0
VERTEX
  8
0
 10
38.2161
 20
19.7386
  0
VERTEX
  8
0
 10
38.21
 20
19.7718
  0
VERTEX
  8
0
 10
38.1911
 20
19.799
  0
VERTEX
  8
0
 10
38.1629
 20
19.8172
  0
VERTEX
  8
0
 10
38.1291
 20
19.8234
  0
VERTEX
  8
0
 10
38.0969
 20
19.8178
  0
VERTEX
  8
0
 10
38.071
 20
19.8006
  0
VERTEX
  8
0
 10
38.0538
 20
19.7746
  0
VERTEX
  8
0
 10
38.0481
 20
19.7426
  0
VERTEX
  8
0
 10
38.0495
 20
19.7261
  0
VERTEX
  8
0
 10
38.0538
 20
19.7069
  0
VERTEX
  8
0
 10
38.0081
 20
19.7126
  0
VERTEX
  8
0
 10
38.0081
 20
19.7162
  0
VERTEX
  8
0
 10
38.0081
 20
19.721
  0
VERTEX
  8
0
 10
38.004
 20
19.754
  0
VERTEX
  8
0
 10
37.9917
 20
19.7805
  0
VERTEX
  8
0
 10
37.9695
 20
19.8005
  0
VERTEX
  8
0
 10
37.9399
 20
19.8074
  0
VERTEX
  8
0
 10
37.9142
 20
19.8028
  0
VERTEX
  8
0
 10
37.8939
 20
19.7882
  0
VERTEX
  8
0
 10
37.8807
 20
19.7662
  0
VERTEX
  8
0
 10
37.8761
 20
19.7391
  0
VERTEX
  8
0
 10
37.8806
 20
19.7106
  0
VERTEX
  8
0
 10
37.8946
 20
19.6885
  0
VERTEX
  8
0
 10
37.9182
 20
19.6729
  0
VERTEX
  8
0
 10
37.9513
 20
19.6637
  0
VERTEX
  8
0
 10
37.9424
 20
19.6125
  0
VERTEX
  8
0
 10
37.8982
 20
19.6272
  0
VERTEX
  8
0
 10
37.8646
 20
19.6537
  0
VERTEX
  8
0
 10
37.8434
 20
19.6903
  0
VERTEX
  8
0
 10
37.8361
 20
19.7356
  0
VERTEX
  8
0
 10
37.8393
 20
19.7664
  0
VERTEX
  8
0
 10
37.8495
 20
19.7951
  0
VERTEX
  8
0
 10
37.8668
 20
19.8212
  0
VERTEX
  8
0
 10
37.8899
 20
19.8404
  0
VERTEX
  8
0
 10
37.9157
 20
19.8517
  0
VERTEX
  8
0
 10
37.9429
 20
19.8554
  0
VERTEX
  8
0
 10
37.9776
 20
19.8492
  0
VERTEX
  8
0
 10
38.0053
 20
19.8306
  0
VERTEX
  8
0
 10
38.0262
 20
19.7995
  0
VERTEX
  8
0
 10
38.0395
 20
19.8321
  0
VERTEX
  8
0
 10
38.0621
 20
19.8563
  0
VERTEX
  8
0
 10
38.0916
 20
19.8706
  0
VERTEX
  8
0
 10
38.1274
 20
19.8754
  0
VERTEX
  8
0
 10
38.1773
 20
19.8657
  0
VERTEX
  8
0
 10
38.2187
 20
19.8365
  0
VERTEX
  8
0
 10
38.2466
 20
19.7923
  0
VERTEX
  8
0
 10
38.2561
 20
19.7375
  0
VERTEX
  8
0
 10
38.2482
 20
19.6886
  0
VERTEX
  8
0
 10
38.2246
 20
19.6486
  0
VERTEX
  8
0
 10
38.1876
 20
19.6205
  0
VERTEX
  8
0
 10
38.1398
 20
19.6074
  0
VERTEX
  8
0
 10
38.1398
 20
19.6074
  0
SEQEND
  0
POLYLINE
  8
0
 66
     1
 10
0
 20
0
  0
VERTEX
  8
0
 10
38.0462
 20
19.9274
  0
VERTEX
  8
0
 10
37.9949
 20
19.9298
  0
VERTEX
  8
0
 10
37.9506
 20
19.9369
  0
VERTEX
  8
0
 10
37.9134
 20
19.9488
  0
VERTEX
  8
0
 10
37.8833
 20
19.9655
  0
VERTEX
  8
0
 10
37.8602
 20
19.9869
  0
VERTEX
  8
0
 10
37.8423
 20
20.0201
  0
VERTEX
  8
0
 10
37.8361
 20
20.0614
  0
VERTEX
  8
0
 10
37.8393
 20
20.092
  0
VERTEX
  8
0
 10
37.8495
 20
20.1194
  0
VERTEX
  8
0
 10
37.8869
 20
20.1597
  0
VERTEX
  8
0
 10
37.9492
 20
20.1862
  0
VERTEX
  8
0
 10
37.9911
 20
20.1931
  0
VERTEX
  8
0
 10
38.0462
 20
20.1954
  0
VERTEX
  8
0
 10
38.0975
 20
20.193
  0
VERTEX
  8
0
 10
38.1417
 20
20.1859
  0
VERTEX
  8
0
 10
38.1788
 20
20.174
  0
VERTEX
  8
0
 10
38.2089
 20
20.1574
  0
VERTEX
  8
0
 10
38.232
 20
20.136
  0
VERTEX
  8
0
 10
38.2499
 20
20.1028
  0
VERTEX
  8
0
 10
38.2561
 20
20.0614
  0
VERTEX
  8
0
 10
38.2547
 20
20.0401
  0
VERTEX
  8
0
 10
38.2504
 20
20.0205
  0
VERTEX
  8
0
 10
38.2432
 20
20.0029
  0
VERTEX
  8
0
 10
38.233
 20
19.9871
  0
VERTEX
  8
0
 10
38.2199
 20
19.9731
  0
VERTEX
  8
0
 10
38.2039
 20
19.961
  0
VERTEX
  8
0
 10
38.185
 20
19.9508
  0
VERTEX
  8
0
 10
38.1631
 20
19.9424
  0
VERTEX
  8
0
 10
38.1383
 20
19.9359
  0
VERTEX
  8
0
 10
38.1105
 20
19.9312
  0
VERTEX
  8
0
 10
38.0798
 20
19.9284
  0
VERTEX
  8
0
 10
38.0462
 20
19.9274
  0
VERTEX
  8
0
 10
38.0462
 20
19.9274
  0
SEQEND
  0
POLYLINE
  8
0
 66
     1
 10
0
 20
0
  0
VERTEX
  8
0
 10
38.0461
 20
19.9754
  0
VERTEX
  8
0
 10
38.1073
 20
19.9783
  0
VERTEX
  8
0
 10
38.152
 20
19.9869
  0
VERTEX
  8
0
 10
38.1875
 20
20.0039
  0
VERTEX
  8
0
 10
38.2088
 20
20.0287
  0
VERTEX
  8
0
 10
38.2161
 20
20.0614
  0
VERTEX
  8
0
 10
38.2141
 20
20.0795
  0
VERTEX
  8
0
 10
38.2079
 20
20.0954
  0
VERTEX
  8
0
 10
38.1975
 20
20.1092
  0
VERTEX
  8
0
 10
38.1828
 20
20.1209
  0
VERTEX
  8
0
 10
38.1639
 20
20.1304
  0
VERTEX
  8
0
 10
38.1408
 20
20.1379
  0
VERTEX
  8
0
 10
38.1135
 20
20.1432
  0
VERTEX
  8
0
 10
38.0819
 20
20.1464
  0
VERTEX
  8
0
 10
38.0461
 20
20.1474
  0
VERTEX
  8
0
 10
37.9849
 20
20.1446
  0
VERTEX
  8
0
 10
37.9402
 20
20.136
  0
VERTEX
  8
0
 10
37.9047
 20
20.1188
  0
VERTEX
  8
0
 10
37.8834
 20
20.0937
  0
VERTEX
  8
0
 10
37.8761
 20
20.0609
  0
VERTEX
  8
0
 10
37.8834
 20
20.0281
  0
VERTEX
  8
0
 10
37.9059
 20
20.0027
  0
VERTEX
  8
0
 10
37.938
 20
19.9876
  0
VERTEX
  8
0
 10
37.9848
 20
19.9785
  0
VERTEX
  8
0
 10
38.0461
 20
19.9754
  0
VERTEX
  8
0
 10
38.0461
 20
19.9754
  0
SEQEND
  0
LINE
  8
0
 10
38.05
 20
20.2953
 11
38.05
 21
34.9
  0
LINE
  8
0
 10
38.1394
 20
34.7211
 11
38.05
 21
34.9
  0
LINE
  8
0
 10
37.9606
 20
34.7211
 11
38.05
 21
34.9
  0
LINE
  8
0
 10
38.15
 20
34.9
 11
36.4
 21
34.9
  0
LINE
  8
0
 10
38.05
 20
19.5047
 11
38.05
 21
4.9
  0
LINE
  8
0
 10
37.9606
 20
5.0789
 11
38.05
 21
4.9
  0
LINE
  8
0
 10
38.1394
 20
5.0789
 11
38.05
 21
4.9
  0
LINE
  8
0
 10
38.15
 20
4.9
 11
36.4
 21
4.9
  0
POLYLINE
  8
0
 66
     1
 10
0
 20
0
  0
VERTEX
  8
0
 10
21.0041
 20
3.0637
  0
VERTEX
  8
0
 10
21.0547
 20
3.0705
  0
VERTEX
  8
0
 10
21.0656
 20
3.0343
  0
VERTEX
  8
0
 10
21.0827
 20
3.0083
  0
VERTEX
  8
0
 10
21.1059
 20
2.9927
  0
VERTEX
  8
0
 10
21.1353
 20
2.9874
  0
VERTEX
  8
0
 10
21.1685
 20
2.9936
  0
VERTEX
  8
0
 10
21.1957
 20
3.0124
  0
VERTEX
  8
0
 10
21.2139
 20
3.0406
  0
VERTEX
  8
0
 10
21.2201
 20
3.0744
  0
VERTEX
  8
0
 10
21.2146
 20
3.1066
  0
VERTEX
  8
0
 10
21.1973
 20
3.1325
  0
VERTEX
  8
0
 10
21.1713
 20
3.1497
  0
VERTEX
  8
0
 10
21.1393
 20
3.1554
  0
VERTEX
  8
0
 10
21.1228
 20
3.154
  0
VERTEX
  8
0
 10
21.1035
 20
3.1497
  0
VERTEX
  8
0
 10
21.1093
 20
3.1954
  0
VERTEX
  8
0
 10
21.1129
 20
3.1954
  0
VERTEX
  8
0
 10
21.1177
 20
3.1954
  0
VERTEX
  8
0
 10
21.1507
 20
3.1995
  0
VERTEX
  8
0
 10
21.1772
 20
3.2119
  0
VERTEX
  8
0
 10
21.1972
 20
3.234
  0
VERTEX
  8
0
 10
21.2041
 20
3.2637
  0
VERTEX
  8
0
 10
21.1994
 20
3.2893
  0
VERTEX
  8
0
 10
21.1849
 20
3.3096
  0
VERTEX
  8
0
 10
21.1629
 20
3.3228
  0
VERTEX
  8
0
 10
21.1358
 20
3.3274
  0
VERTEX
  8
0
 10
21.1073
 20
3.3229
  0
VERTEX
  8
0
 10
21.0852
 20
3.3089
  0
VERTEX
  8
0
 10
21.0696
 20
3.2853
  0
VERTEX
  8
0
 10
21.0604
 20
3.2522
  0
VERTEX
  8
0
 10
21.0092
 20
3.2612
  0
VERTEX
  8
0
 10
21.0239
 20
3.3054
  0
VERTEX
  8
0
 10
21.0504
 20
3.3389
  0
VERTEX
  8
0
 10
21.087
 20
3.3602
  0
VERTEX
  8
0
 10
21.1323
 20
3.3674
  0
VERTEX
  8
0
 10
21.1631
 20
3.3642
  0
VERTEX
  8
0
 10
21.1918
 20
3.354
  0
VERTEX
  8
0
 10
21.2179
 20
3.3367
  0
VERTEX
  8
0
 10
21.237
 20
3.3136
  0
VERTEX
  8
0
 10
21.2483
 20
3.2879
  0
VERTEX
  8
0
 10
21.2521
 20
3.2606
  0
VERTEX
  8
0
 10
21.2459
 20
3.2259
  0
VERTEX
  8
0
 10
21.2273
 20
3.1982
  0
VERTEX
  8
0
 10
21.1962
 20
3.1774
  0
VERTEX
  8
0
 10
21.2288
 20
3.164
  0
VERTEX
  8
0
 10
21.253
 20
3.1414
  0
VERTEX
  8
0
 10
21.2673
 20
3.1119
  0
VERTEX
  8
0
 10
21.2721
 20
3.0761
  0
VERTEX
  8
0
 10
21.2624
 20
3.0262
  0
VERTEX
  8
0
 10
21.2332
 20
2.9848
  0
VERTEX
  8
0
 10
21.1889
 20
2.9569
  0
VERTEX
  8
0
 10
21.1342
 20
2.9474
  0
VERTEX
  8
0
 10
21.0853
 20
2.9553
  0
VERTEX
  8
0
 10
21.0453
 20
2.9789
  0
VERTEX
  8
0
 10
21.0172
 20
3.0159
  0
VERTEX
  8
0
 10
21.0041
 20
3.0637
  0
VERTEX
  8
0
 10
21.0041
 20
3.0637
  0
SEQEND
  0
POLYLINE
  8
0
 66
     1
 10
0
 20
0
  0
VERTEX
  8
0
 10
21.3241
 20
3.1573
  0
VERTEX
  8
0
 10
21.3265
 20
3.2086
  0
VERTEX
  8
0
 10
21.3336
 20
3.2529
  0
VERTEX
  8
0
 10
21.3455
 20
3.2901
  0
VERTEX
  8
0
 10
21.3621
 20
3.3202
  0
VERTEX
  8
0
 10
21.3835
 20
3.3433
  0
VERTEX
  8
0
 10
21.4167
 20
3.3613
  0
VERTEX
  8
0
 10
21.4581
 20
3.3674
  0
VERTEX
  8
0
 10
21.4887
 20
3.3642
  0
VERTEX
  8
0
 10
21.5161
 20
3.354
  0
VERTEX
  8
0
 10
21.5564
 20
3.3166
  0
VERTEX
  8
0
 10
21.5829
 20
3.2544
  0
VERTEX
  8
0
 10
21.5898
 20
3.2124
  0
VERTEX
  8
0
 10
21.5921
 20
3.1573
  0
VERTEX
  8
0
 10
21.5897
 20
3.106
  0
VERTEX
  8
0
 10
21.5826
 20
3.0618
  0
VERTEX
  8
0
 10
21.5707
 20
3.0247
  0
VERTEX
  8
0
 10
21.5541
 20
2.9946
  0
VERTEX
  8
0
 10
21.5327
 20
2.9715
  0
VERTEX
  8
0
 10
21.4995
 20
2.9536
  0
VERTEX
  8
0
 10
21.4581
 20
2.9474
  0
VERTEX
  8
0
 10
21.4367
 20
2.9488
  0
VERTEX
  8
0
 10
21.4172
 20
2.9531
  0
VERTEX
  8
0
 10
21.3996
 20
2.9603
  0
VERTEX
  8
0
 10
21.3838
 20
2.9705
  0
VERTEX
  8
0
 10
21.3698
 20
2.9836
  0
VERTEX
  8
0
 10
21.3577
 20
2.9996
  0
VERTEX
  8
0
 10
21.3475
 20
3.0186
  0
VERTEX
  8
0
 10
21.3391
 20
3.0404
  0
VERTEX
  8
0
 10
21.3326
 20
3.0653
  0
VERTEX
  8
0
 10
21.3279
 20
3.093
  0
VERTEX
  8
0
 10
21.3251
 20
3.1237
  0
VERTEX
  8
0
 10
21.3241
 20
3.1573
  0
VERTEX
  8
0
 10
21.3241
 20
3.1573
  0
SEQEND
  0
POLYLINE
  8
0
 66
     1
 10
0
 20
0
  0
VERTEX
  8
0
 10
21.3721
 20
3.1574
  0
VERTEX
  8
0
 10
21.375
 20
3.0962
  0
VERTEX
  8
0
 10
21.3835
 20
3.0515
  0
VERTEX
  8
0
 10
21.4006
 20
3.016
  0
VERTEX
  8
0
 10
21.4254
 20
2.9947
  0
VERTEX
  8
0
 10
21.4581
 20
2.9874
  0
VERTEX
  8
0
 10
21.4762
 20
2.9894
  0
VERTEX
  8
0
 10
21.4921
 20
2.9956
  0
VERTEX
  8
0
 10
21.5059
 20
3.0061
  0
VERTEX
  8
0
 10
21.5176
 20
3.0207
  0
VERTEX
  8
0
 10
21.5271
 20
3.0396
  0
VERTEX
  8
0
 10
21.5345
 20
3.0627
  0
VERTEX
  8
0
 10
21.5399
 20
3.0901
  0
VERTEX
  8
0
 10
21.543
 20
3.1216
  0
VERTEX
  8
0
 10
21.5441
 20
3.1574
  0
VERTEX
  8
0
 10
21.5412
 20
3.2186
  0
VERTEX
  8
0
 10
21.5327
 20
3.2634
  0
VERTEX
  8
0
 10
21.5155
 20
3.2988
  0
VERTEX
  8
0
 10
21.4904
 20
3.3202
  0
VERTEX
  8
0
 10
21.4575
 20
3.3274
  0
VERTEX
  8
0
 10
21.4248
 20
3.3201
  0
VERTEX
  8
0
 10
21.3994
 20
3.2977
  0
VERTEX
  8
0
 10
21.3842
 20
3.2655
  0
VERTEX
  8
0
 10
21.3751
 20
3.2187
  0
VERTEX
  8
0
 10
21.3721
 20
3.1574
  0
VERTEX
  8
0
 10
21.3721
 20
3.1574
  0
SEQEND
  0
LINE
  8
0
 10
21.6953
 20
3.15
 11
36.3
 21
3.15
  0
LINE
  8
0
 10
36.1211
 20
3.0606
 11
36.3
 21
3.15
  0
LINE
  8
0
 10
36.1211
 20
3.2394
 11
36.3
 21
3.15
  0
LINE
  8
0
 10
36.3
 20
3.05
 11
36.3
 21
4.8
  0
LINE
  8
0
 10
20.9047
 20
3.15
 11
6.3
 21
3.15
  0
LINE
  8
0
 10
6.4789
 20
3.2394
 11
6.3
 21
3.15
  0
LINE
  8
0
 10
6.4789
 20
3.0606
 11
6.3
 21
3.15
  0
LINE
  8
0
 10
6.3
 20
3.05
 11
6.3
 21
4.8
  0
POLYLINE
  8
0
 66
     1
 10
0
 20
0
  0
VERTEX
  8
0
 10
6.4521
 20
2.2914
  0
VERTEX
  8
0
 10
6.4041
 20
2.2914
  0
VERTEX
  8
0
 10
6.4041
 20
2.6126
  0
VERTEX
  8
0
 10
6.3576
 20
2.5785
  0
VERTEX
  8
0
 10
6.3001
 20
2.5518
  0
VERTEX
  8
0
 10
6.3001
 20
2.6005
  0
VERTEX
  8
0
 10
6.3526
 20
2.6302
  0
VERTEX
  8
0
 10
6.3924
 20
2.6645
  0
VERTEX
  8
0
 10
6.4195
 20
2.7034
  0
VERTEX
  8
0
 10
6.4521
 20
2.7034
  0
VERTEX
  8
0
 10
6.4521
 20
2.2914
  0
SEQEND
  0
POLYLINE
  8
0
 66
     1
 10
0
 20
0
  0
VERTEX
  8
0
 10
6.6081
 20
2.2914
  0
VERTEX
  8
0
 10
6.6081
 20
2.3474
  0
VERTEX
  8
0
 10
6.6641
 20
2.3474
  0
VERTEX
  8
0
 10
6.6641
 20
2.2914
  0
VERTEX
  8
0
 10
6.6081
 20
2.2914
  0
SEQEND
  0
POLYLINE
  8
0
 66
     1
 10
0
 20
0
  0
VERTEX
  8
0
 10
6.7401
 20
2.3989
  0
VERTEX
  8
0
 10
6.7934
 20
2.4034
  0
VERTEX
  8
0
 10
6.8027
 20
2.3684
  0
VERTEX
  8
0
 10
6.8191
 20
2.3434
  0
VERTEX
  8
0
 10
6.8425
 20
2.3284
  0
VERTEX
  8
0
 10
6.8728
 20
2.3234
  0
VERTEX
  8
0
 10
6.9093
 20
2.3312
  0
VERTEX
  8
0
 10
6.9375
 20
2.3547
  0
VERTEX
  8
0
 10
6.9545
 20
2.3865
  0
VERTEX
  8
0
 10
6.9601
 20
2.4251
  0
VERTEX
  8
0
 10
6.9543
 20
2.4631
  0
VERTEX
  8
0
 10
6.9367
 20
2.4931
  0
VERTEX
  8
0
 10
6.9088
 20
2.5127
  0
VERTEX
  8
0
 10
6.8719
 20
2.5194
  0
VERTEX
  8
0
 10
6.8289
 20
2.5095
  0
VERTEX
  8
0
 10
6.7967
 20
2.4793
  0
VERTEX
  8
0
 10
6.749
 20
2.4854
  0
VERTEX
  8
0
 10
6.7888
 20
2.6954
  0
VERTEX
  8
0
 10
6.9929
 20
2.6954
  0
VERTEX
  8
0
 10
6.9929
 20
2.6434
  0
VERTEX
  8
0
 10
6.8279
 20
2.6434
  0
VERTEX
  8
0
 10
6.8078
 20
2.5377
  0
VERTEX
  8
0
 10
6.8455
 20
2.5569
  0
VERTEX
  8
0
 10
6.885
 20
2.5634
  0
VERTEX
  8
0
 10
6.9359
 20
2.5539
  0
VERTEX
  8
0
 10
6.977
 20
2.5247
  0
VERTEX
  8
0
 10
7.0033
 20
2.482
  0
VERTEX
  8
0
 10
7.0121
 20
2.43
  0
VERTEX
  8
0
 10
7.004
 20
2.3781
  0
VERTEX
  8
0
 10
6.9797
 20
2.3334
  0
VERTEX
  8
0
 10
6.933
 20
2.296
  0
VERTEX
  8
0
 10
6.8719
 20
2.2834
  0
VERTEX
  8
0
 10
6.8221
 20
2.291
  0
VERTEX
  8
0
 10
6.7818
 20
2.3136
  0
VERTEX
  8
0
 10
6.7532
 20
2.3505
  0
VERTEX
  8
0
 10
6.7401
 20
2.3989
  0
VERTEX
  8
0
 10
6.7401
 20
2.3989
  0
SEQEND
  0
POLYLINE
  8
0
 66
     1
 10
0
 20
0
  0
VERTEX
  8
0
 10
7.0641
 20
2.4933
  0
VERTEX
  8
0
 10
7.0665
 20
2.5446
  0
VERTEX
  8
0
 10
7.0736
 20
2.5889
  0
VERTEX
  8
0
 10
7.0855
 20
2.6261
  0
VERTEX
  8
0
 10
7.1021
 20
2.6562
  0
VERTEX
  8
0
 10
7.1235
 20
2.6793
  0
VERTEX
  8
0
 10
7.1567
 20
2.6973
  0
VERTEX
  8
0
 10
7.1981
 20
2.7034
  0
VERTEX
  8
0
 10
7.2287
 20
2.7002
  0
VERTEX
  8
0
 10
7.2561
 20
2.69
  0
VERTEX
  8
0
 10
7.2964
 20
2.6526
  0
VERTEX
  8
0
 10
7.3229
 20
2.5904
  0
VERTEX
  8
0
 10
7.3298
 20
2.5484
  0
VERTEX
  8
0
 10
7.3321
 20
2.4933
  0
VERTEX
  8
0
 10
7.3297
 20
2.442
  0
VERTEX
  8
0
 10
7.3226
 20
2.3978
  0
VERTEX
  8
0
 10
7.3107
 20
2.3607
  0
VERTEX
  8
0
 10
7.2941
 20
2.3306
  0
VERTEX
  8
0
 10
7.2727
 20
2.3075
  0
VERTEX
  8
0
 10
7.2395
 20
2.2896
  0
VERTEX
  8
0
 10
7.1981
 20
2.2834
  0
VERTEX
  8
0
 10
7.1767
 20
2.2848
  0
VERTEX
  8
0
 10
7.1572
 20
2.2891
  0
VERTEX
  8
0
 10
7.1396
 20
2.2963
  0
VERTEX
  8
0
 10
7.1238
 20
2.3065
  0
VERTEX
  8
0
 10
7.1098
 20
2.3196
  0
VERTEX
  8
0
 10
7.0977
 20
2.3356
  0
VERTEX
  8
0
 10
7.0875
 20
2.3546
  0
VERTEX
  8
0
 10
7.0791
 20
2.3764
  0
VERTEX
  8
0
 10
7.0726
 20
2.4013
  0
VERTEX
  8
0
 10
7.0679
 20
2.429
  0
VERTEX
  8
0
 10
7.0651
 20
2.4597
  0
VERTEX
  8
0
 10
7.0641
 20
2.4933
  0
VERTEX
  8
0
 10
7.0641
 20
2.4933
  0
SEQEND
  0
POLYLINE
  8
0
 66
     1
 10
0
 20
0
  0
VERTEX
  8
0
 10
7.1121
 20
2.4934
  0
VERTEX
  8
0
 10
7.115
 20
2.4322
  0
VERTEX
  8
0
 10
7.1235
 20
2.3875
  0
VERTEX
  8
0
 10
7.1406
 20
2.352
  0
VERTEX
  8
0
 10
7.1654
 20
2.3307
  0
VERTEX
  8
0
 10
7.1981
 20
2.3234
  0
VERTEX
  8
0
 10
7.2162
 20
2.3254
  0
VERTEX
  8
0
 10
7.2321
 20
2.3316
  0
VERTEX
  8
0
 10
7.2459
 20
2.3421
  0
VERTEX
  8
0
 10
7.2576
 20
2.3567
  0
VERTEX
  8
0
 10
7.2671
 20
2.3756
  0
VERTEX
  8
0
 10
7.2745
 20
2.3987
  0
VERTEX
  8
0
 10
7.2799
 20
2.4261
  0
VERTEX
  8
0
 10
7.283
 20
2.4576
  0
VERTEX
  8
0
 10
7.2841
 20
2.4934
  0
VERTEX
  8
0
 10
7.2812
 20
2.5546
  0
VERTEX
  8
0
 10
7.2727
 20
2.5994
  0
VERTEX
  8
0
 10
7.2555
 20
2.6348
  0
VERTEX
  8
0
 10
7.2304
 20
2.6562
  0
VERTEX
  8
0
 10
7.1975
 20
2.6634
  0
VERTEX
  8
0
 10
7.1648
 20
2.6561
  0
VERTEX
  8
0
 10
7.1394
 20
2.6337
  0
VERTEX
  8
0
 10
7.1242
 20
2.6015
  0
VERTEX
  8
0
 10
7.1151
 20
2.5547
  0
VERTEX
  8
0
 10
7.1121
 20
2.4934
  0
VERTEX
  8
0
 10
7.1121
 20
2.4934
  0
SEQEND
  0
POLYLINE
  8
0
 66
     1
 10
0
 20
0
  0
VERTEX
  8
0
 10
7.3978
 20
2.5554
  0
VERTEX
  8
0
 10
7.3841
 20
2.635
  0
VERTEX
  8
0
 10
7.3841
 20
2.7034
  0
VERTEX
  8
0
 10
7.4401
 20
2.7034
  0
VERTEX
  8
0
 10
7.4401
 20
2.635
  0
VERTEX
  8
0
 10
7.4278
 20
2.5554
  0
VERTEX
  8
0
 10
7.3978
 20
2.5554
  0
SEQEND
  0
POLYLINE
  8
0
 66
     1
 10
0
 20
0
  0
VERTEX
  8
0
 10
7.4935
 20
2.5554
  0
VERTEX
  8
0
 10
7.4801
 20
2.635
  0
VERTEX
  8
0
 10
7.4801
 20
2.7034
  0
VERTEX
  8
0
 10
7.5361
 20
2.7034
  0
VERTEX
  8
0
 10
7.5361
 20
2.635
  0
VERTEX
  8
0
 10
7.523
 20
2.5554
  0
VERTEX
  8
0
 10
7.4935
 20
2.5554
  0
SEQEND
  0
POLYLINE
  8
0
 66
     1
 10
0
 20
0
  0
VERTEX
  8
0
 10
7.8761
 20
2.2914
  0
VERTEX
  8
0
 10
7.8761
 20
2.7034
  0
VERTEX
  8
0
 10
8.058
 20
2.7034
  0
VERTEX
  8
0
 10
8.0996
 20
2.7015
  0
VERTEX
  8
0
 10
8.1305
 20
2.6959
  0
VERTEX
  8
0
 10
8.1634
 20
2.6795
  0
VERTEX
  8
0
 10
8.187
 20
2.6531
  0
VERTEX
  8
0
 10
8.1997
 20
2.6237
  0
VERTEX
  8
0
 10
8.2041
 20
2.591
  0
VERTEX
  8
0
 10
8.2019
 20
2.5653
  0
VERTEX
  8
0
 10
8.1949
 20
2.5428
  0
VERTEX
  8
0
 10
8.1832
 20
2.5236
  0
VERTEX
  8
0
 10
8.1667
 20
2.5076
  0
VERTEX
  8
0
 10
8.1454
 20
2.4948
  0
VERTEX
  8
0
 10
8.1194
 20
2.4852
  0
VERTEX
  8
0
 10
8.0887
 20
2.4789
  0
VERTEX
  8
0
 10
8.1078
 20
2.4685
  0
VERTEX
  8
0
 10
8.1214
 20
2.4584
  0
VERTEX
  8
0
 10
8.1451
 20
2.433
  0
VERTEX
  8
0
 10
8.1665
 20
2.4035
  0
VERTEX
  8
0
 10
8.2379
 20
2.2914
  0
VERTEX
  8
0
 10
8.1715
 20
2.2914
  0
VERTEX
  8
0
 10
8.1164
 20
2.3775
  0
VERTEX
  8
0
 10
8.0995
 20
2.4027
  0
VERTEX
  8
0
 10
8.0862
 20
2.4212
  0
VERTEX
  8
0
 10
8.0665
 20
2.4446
  0
VERTEX
  8
0
 10
8.0497
 20
2.4589
  0
VERTEX
  8
0
 10
8.0374
 20
2.4655
  0
VERTEX
  8
0
 10
8.0251
 20
2.4695
  0
VERTEX
  8
0
 10
8.0132
 20
2.4709
  0
VERTEX
  8
0
 10
7.9949
 20
2.4714
  0
VERTEX
  8
0
 10
7.9321
 20
2.4714
  0
VERTEX
  8
0
 10
7.9321
 20
2.2914
  0
VERTEX
  8
0
 10
7.8761
 20
2.2914
  0
SEQEND
  0
POLYLINE
  8
0
 66
     1
 10
0
 20
0
  0
VERTEX
  8
0
 10
7.9321
 20
2.5194
  0
VERTEX
  8
0
 10
8.0479
 20
2.5194
  0
VERTEX
  8
0
 10
8.1046
 20
2.5277
  0
VERTEX
  8
0
 10
8.1373
 20
2.5526
  0
VERTEX
  8
0
 10
8.1454
 20
2.5709
  0
VERTEX
  8
0
 10
8.1481
 20
2.5907
  0
VERTEX
  8
0
 10
8.1412
 20
2.6224
  0
VERTEX
  8
0
 10
8.1206
 20
2.6447
  0
VERTEX
  8
0
 10
8.0944
 20
2.6557
  0
VERTEX
  8
0
 10
8.0609
 20
2.6594
  0
VERTEX
  8
0
 10
7.9321
 20
2.6594
  0
VERTEX
  8
0
 10
7.9321
 20
2.5194
  0
SEQEND
  0
POLYLINE
  8
0
 66
     1
 10
0
 20
0
  0
VERTEX
  8
0
 10
8.4792
 20
2.3281
  0
VERTEX
  8
0
 10
8.4265
 20
2.2947
  0
VERTEX
  8
0
 10
8.3697
 20
2.2834
  0
VERTEX
  8
0
 10
8.3301
 20
2.2884
  0
VERTEX
  8
0
 10
8.2986
 20
2.3038
  0
VERTEX
  8
0
 10
8.2759
 20
2.3317
  0
VERTEX
  8
0
 10
8.2681
 20
2.3695
  0
VERTEX
  8
0
 10
8.2769
 20
2.4089
  0
VERTEX
  8
0
 10
8.3041
 20
2.4391
  0
VERTEX
  8
0
 10
8.3209
 20
2.4488
  0
VERTEX
  8
0
 10
8.3406
 20
2.4558
  0
VERTEX
  8
0
 10
8.359
 20
2.4597
  0
VERTEX
  8
0
 10
8.3856
 20
2.4634
  0
VERTEX
  8
0
 10
8.4396
 20
2.4716
  0
VERTEX
  8
0
 10
8.4759
 20
2.481
  0
VERTEX
  8
0
 10
8.4759
 20
2.4898
  0
VERTEX
  8
0
 10
8.4761
 20
2.4943
  0
VERTEX
  8
0
 10
8.4725
 20
2.5208
  0
VERTEX
  8
0
 10
8.4618
 20
2.5382
  0
VERTEX
  8
0
 10
8.4378
 20
2.5509
  0
VERTEX
  8
0
 10
8.4041
 20
2.5554
  0
VERTEX
  8
0
 10
8.3741
 20
2.5525
  0
VERTEX
  8
0
 10
8.3527
 20
2.5433
  0
VERTEX
  8
0
 10
8.3371
 20
2.5253
  0
VERTEX
  8
0
 10
8.3262
 20
2.4972
  0
VERTEX
  8
0
 10
8.2767
 20
2.5039
  0
VERTEX
  8
0
 10
8.2998
 20
2.5548
  0
VERTEX
  8
0
 10
8.3429
 20
2.5848
  0
VERTEX
  8
0
 10
8.3737
 20
2.5926
  0
VERTEX
  8
0
 10
8.4099
 20
2.5954
  0
VERTEX
  8
0
 10
8.4688
 20
2.5877
  0
VERTEX
  8
0
 10
8.506
 20
2.5638
  0
VERTEX
  8
0
 10
8.5153
 20
2.5487
  0
VERTEX
  8
0
 10
8.5216
 20
2.5296
  0
VERTEX
  8
0
 10
8.5235
 20
2.5124
  0
VERTEX
  8
0
 10
8.5241
 20
2.4832
  0
VERTEX
  8
0
 10
8.5241
 20
2.416
  0
VERTEX
  8
0
 10
8.5242
 20
2.3698
  0
VERTEX
  8
0
 10
8.5244
 20
2.3522
  0
VERTEX
  8
0
 10
8.53
 20
2.3185
  0
VERTEX
  8
0
 10
8.5419
 20
2.2914
  0
VERTEX
  8
0
 10
8.4893
 20
2.2914
  0
VERTEX
  8
0
 10
8.483
 20
2.3084
  0
VERTEX
  8
0
 10
8.4792
 20
2.3281
  0
VERTEX
  8
0
 10
8.4792
 20
2.3281
  0
SEQEND
  0
POLYLINE
  8
0
 66
     1
 10
0
 20
0
  0
VERTEX
  8
0
 10
8.4761
 20
2.4407
  0
VERTEX
  8
0
 10
8.4412
 20
2.4304
  0
VERTEX
  8
0
 10
8.3922
 20
2.4215
  0
VERTEX
  8
0
 10
8.3703
 20
2.418
  0
VERTEX
  8
0
 10
8.3564
 20
2.4147
  0
VERTEX
  8
0
 10
8.3389
 20
2.4065
  0
VERTEX
  8
0
 10
8.3272
 20
2.3947
  0
VERTEX
  8
0
 10
8.322
 20
2.3835
  0
VERTEX
  8
0
 10
8.3201
 20
2.3708
  0
VERTEX
  8
0
 10
8.3247
 20
2.3496
  0
VERTEX
  8
0
 10
8.3392
 20
2.3341
  0
VERTEX
  8
0
 10
8.3579
 20
2.3261
  0
VERTEX
  8
0
 10
8.3811
 20
2.3234
  0
VERTEX
  8
0
 10
8.419
 20
2.3287
  0
VERTEX
  8
0
 10
8.4479
 20
2.3447
  0
VERTEX
  8
0
 10
8.4679
 20
2.3714
  0
VERTEX
  8
0
 10
8.474
 20
2.3926
  0
VERTEX
  8
0
 10
8.4761
 20
2.422
  0
VERTEX
  8
0
 10
8.4761
 20
2.4407
  0
SEQEND
  0
POLYLINE
  8
0
 66
     1
 10
0
 20
0
  0
VERTEX
  8
0
 10
8.7961
 20
2.2914
  0
VERTEX
  8
0
 10
8.7961
 20
2.3289
  0
VERTEX
  8
0
 10
8.7618
 20
2.2949
  0
VERTEX
  8
0
 10
8.7142
 20
2.2834
  0
VERTEX
  8
0
 10
8.6797
 20
2.2884
  0
VERTEX
  8
0
 10
8.6485
 20
2.3039
  0
VERTEX
  8
0
 10
8.6229
 20
2.3275
  0
VERTEX
  8
0
 10
8.6039
 20
2.3582
  0
VERTEX
  8
0
 10
8.5922
 20
2.3956
  0
VERTEX
  8
0
 10
8.5881
 20
2.4392
  0
VERTEX
  8
0
 10
8.5916
 20
2.4842
  0
VERTEX
  8
0
 10
8.6027
 20
2.522
  0
VERTEX
  8
0
 10
8.6213
 20
2.5526
  0
VERTEX
  8
0
 10
8.6475
 20
2.576
  0
VERTEX
  8
0
 10
8.6789
 20
2.5906
  0
VERTEX
  8
0
 10
8.714
 20
2.5954
  0
VERTEX
  8
0
 10
8.7607
 20
2.5852
  0
VERTEX
  8
0
 10
8.7961
 20
2.5546
  0
VERTEX
  8
0
 10
8.7961
 20
2.7034
  0
VERTEX
  8
0
 10
8.8441
 20
2.7034
  0
VERTEX
  8
0
 10
8.8441
 20
2.2914
  0
VERTEX
  8
0
 10
8.7961
 20
2.2914
  0
SEQEND
  0
POLYLINE
  8
0
 66
     1
 10
0
 20
0
  0
VERTEX
  8
0
 10
8.6361
 20
2.4393
  0
VERTEX
  8
0
 10
8.6406
 20
2.397
  0
VERTEX
  8
0
 10
8.6542
 20
2.3619
  0
VERTEX
  8
0
 10
8.6814
 20
2.3332
  0
VERTEX
  8
0
 10
8.7189
 20
2.3234
  0
VERTEX
  8
0
 10
8.7559
 20
2.3324
  0
VERTEX
  8
0
 10
8.7825
 20
2.3599
  0
VERTEX
  8
0
 10
8.7957
 20
2.3938
  0
VERTEX
  8
0
 10
8.8
 20
2.435
  0
VERTEX
  8
0
 10
8.7958
 20
2.4794
  0
VERTEX
  8
0
 10
8.7831
 20
2.5152
  0
VERTEX
  8
0
 10
8.7556
 20
2.5454
  0
VERTEX
  8
0
 10
8.7167
 20
2.5554
  0
VERTEX
  8
0
 10
8.6788
 20
2.5458
  0
VERTEX
  8
0
 10
8.6524
 20
2.5169
  0
VERTEX
  8
0
 10
8.6402
 20
2.4824
  0
VERTEX
  8
0
 10
8.6361
 20
2.4393
  0
VERTEX
  8
0
 10
8.6361
 20
2.4393
  0
SEQEND
  0
POLYLINE
  8
0
 66
     1
 10
0
 20
0
  0
VERTEX
  8
0
 10
8.9281
 20
2.6434
  0
VERTEX
  8
0
 10
8.9281
 20
2.7034
  0
VERTEX
  8
0
 10
8.9761
 20
2.7034
  0
VERTEX
  8
0
 10
8.9761
 20
2.6434
  0
VERTEX
  8
0
 10
8.9281
 20
2.6434
  0
SEQEND
  0
POLYLINE
  8
0
 66
     1
 10
0
 20
0
  0
VERTEX
  8
0
 10
8.9281
 20
2.2914
  0
VERTEX
  8
0
 10
8.9281
 20
2.5888
  0
VERTEX
  8
0
 10
8.9761
 20
2.5888
  0
VERTEX
  8
0
 10
8.9761
 20
2.2914
  0
VERTEX
  8
0
 10
8.9281
 20
2.2914
  0
SEQEND
  0
POLYLINE
  8
0
 66
     1
 10
0
 20
0
  0
VERTEX
  8
0
 10
9.2481
 20
2.2914
  0
VERTEX
  8
0
 10
9.2481
 20
2.3351
  0
VERTEX
  8
0
 10
9.2073
 20
2.2963
  0
VERTEX
  8
0
 10
9.1537
 20
2.2834
  0
VERTEX
  8
0
 10
9.1306
 20
2.2856
  0
VERTEX
  8
0
 10
9.1081
 20
2.2921
  0
VERTEX
  8
0
 10
9.0863
 20
2.3035
  0
VERTEX
  8
0
 10
9.0706
 20
2.3187
  0
VERTEX
  8
0
 10
9.0614
 20
2.3353
  0
VERTEX
  8
0
 10
9.0552
 20
2.3562
  0
VERTEX
  8
0
 10
9.0529
 20
2.3755
  0
VERTEX
  8
0
 10
9.0521
 20
2.4032
  0
VERTEX
  8
0
 10
9.0521
 20
2.5874
  0
VERTEX
  8
0
 10
9.1001
 20
2.5874
  0
VERTEX
  8
0
 10
9.1001
 20
2.4229
  0
VERTEX
  8
0
 10
9.1009
 20
2.3896
  0
VERTEX
  8
0
 10
9.1033
 20
2.3699
  0
VERTEX
  8
0
 10
9.1234
 20
2.3383
  0
VERTEX
  8
0
 10
9.163
 20
2.3274
  0
VERTEX
  8
0
 10
9.1856
 20
2.3301
  0
VERTEX
  8
0
 10
9.2066
 20
2.3387
  0
VERTEX
  8
0
 10
9.2239
 20
2.3524
  0
VERTEX
  8
0
 10
9.2355
 20
2.3704
  0
VERTEX
  8
0
 10
9.2419
 20
2.395
  0
VERTEX
  8
0
 10
9.2441
 20
2.4285
  0
VERTEX
  8
0
 10
9.2441
 20
2.5874
  0
VERTEX
  8
0
 10
9.2921
 20
2.5874
  0
VERTEX
  8
0
 10
9.2921
 20
2.2914
  0
VERTEX
  8
0
 10
9.2481
 20
2.2914
  0
SEQEND
  0
POLYLINE
  8
0
 66
     1
 10
0
 20
0
  0
VERTEX
  8
0
 10
9.3561
 20
2.3801
  0
VERTEX
  8
0
 10
9.4072
 20
2.388
  0
VERTEX
  8
0
 10
9.4155
 20
2.3598
  0
VERTEX
  8
0
 10
9.4314
 20
2.3396
  0
VERTEX
  8
0
 10
9.4549
 20
2.3275
  0
VERTEX
  8
0
 10
9.4861
 20
2.3234
  0
VERTEX
  8
0
 10
9.5115
 20
2.326
  0
VERTEX
  8
0
 10
9.5326
 20
2.3336
  0
VERTEX
  8
0
 10
9.5502
 20
2.3492
  0
VERTEX
  8
0
 10
9.5561
 20
2.3712
  0
VERTEX
  8
0
 10
9.5523
 20
2.3866
  0
VERTEX
  8
0
 10
9.5409
 20
2.3984
  0
VERTEX
  8
0
 10
9.5224
 20
2.406
  0
VERTEX
  8
0
 10
9.4879
 20
2.4156
  0
VERTEX
  8
0
 10
9.4481
 20
2.4258
  0
VERTEX
  8
0
 10
9.426
 20
2.4325
  0
VERTEX
  8
0
 10
9.395
 20
2.4483
  0
VERTEX
  8
0
 10
9.3754
 20
2.4685
  0
VERTEX
  8
0
 10
9.3669
 20
2.4875
  0
VERTEX
  8
0
 10
9.3641
 20
2.5089
  0
VERTEX
  8
0
 10
9.3726
 20
2.5457
  0
VERTEX
  8
0
 10
9.398
 20
2.5745
  0
VERTEX
  8
0
 10
9.431
 20
2.59
  0
VERTEX
  8
0
 10
9.4738
 20
2.5954
  0
VERTEX
  8
0
 10
9.5062
 20
2.5931
  0
VERTEX
  8
0
 10
9.5352
 20
2.5854
  0
VERTEX
  8
0
 10
9.5582
 20
2.5733
  0
VERTEX
  8
0
 10
9.5747
 20
2.5574
  0
VERTEX
  8
0
 10
9.585
 20
2.5379
  0
VERTEX
  8
0
 10
9.5919
 20
2.512
  0
VERTEX
  8
0
 10
9.5423
 20
2.5054
  0
VERTEX
  8
0
 10
9.5317
 20
2.533
  0
VERTEX
  8
0
 10
9.51
 20
2.5497
  0
VERTEX
  8
0
 10
9.4769
 20
2.5554
  0
VERTEX
  8
0
 10
9.4412
 20
2.5513
  0
VERTEX
  8
0
 10
9.4196
 20
2.5383
  0
VERTEX
  8
0
 10
9.4121
 20
2.5167
  0
VERTEX
  8
0
 10
9.4135
 20
2.5075
  0
VERTEX
  8
0
 10
9.4184
 20
2.4987
  0
VERTEX
  8
0
 10
9.4265
 20
2.4911
  0
VERTEX
  8
0
 10
9.4379
 20
2.4853
  0
VERTEX
  8
0
 10
9.4522
 20
2.4808
  0
VERTEX
  8
0
 10
9.4829
 20
2.4723
  0
VERTEX
  8
0
 10
9.5291
 20
2.4589
  0
VERTEX
  8
0
 10
9.5582
 20
2.4485
  0
VERTEX
  8
0
 10
9.5925
 20
2.4214
  0
VERTEX
  8
0
 10
9.6041
 20
2.3784
  0
VERTEX
  8
0
 10
9.6005
 20
2.3538
  0
VERTEX
  8
0
 10
9.5892
 20
2.3304
  0
VERTEX
  8
0
 10
9.5639
 20
2.3044
  0
VERTEX
  8
0
 10
9.5287
 20
2.2888
  0
VERTEX
  8
0
 10
9.4837
 20
2.2834
  0
VERTEX
  8
0
 10
9.4495
 20
2.286
  0
VERTEX
  8
0
 10
9.4204
 20
2.2939
  0
VERTEX
  8
0
 10
9.3966
 20
2.3073
  0
VERTEX
  8
0
 10
9.3779
 20
2.3262
  0
VERTEX
  8
0
 10
9.3644
 20
2.3504
  0
VERTEX
  8
0
 10
9.3561
 20
2.3801
  0
VERTEX
  8
0
 10
9.3561
 20
2.3801
  0
SEQEND
  0
POLYLINE
  8
0
 66
     1
 10
0
 20
0
  0
VERTEX
  8
0
 10
9.6801
 20
2.2914
  0
VERTEX
  8
0
 10
9.6801
 20
2.3474
  0
VERTEX
  8
0
 10
9.7361
 20
2.3474
  0
VERTEX
  8
0
 10
9.7361
 20
2.2911
  0
VERTEX
  8
0
 10
9.731
 20
2.2559
  0
VERTEX
  8
0
 10
9.7156
 20
2.2293
  0
VERTEX
  8
0
 10
9.6899
 20
2.2114
  0
VERTEX
  8
0
 10
9.6761
 20
2.2327
  0
VERTEX
  8
0
 10
9.6993
 20
2.2537
  0
VERTEX
  8
0
 10
9.708
 20
2.2914
  0
VERTEX
  8
0
 10
9.6801
 20
2.2914
  0
SEQEND
  0
POLYLINE
  8
0
 66
     1
 10
0
 20
0
  0
VERTEX
  8
0
 10
10.0801
 20
2.4933
  0
VERTEX
  8
0
 10
10.0825
 20
2.5446
  0
VERTEX
  8
0
 10
10.0896
 20
2.5889
  0
VERTEX
  8
0
 10
10.1015
 20
2.6261
  0
VERTEX
  8
0
 10
10.1181
 20
2.6562
  0
VERTEX
  8
0
 10
10.1395
 20
2.6793
  0
VERTEX
  8
0
 10
10.1727
 20
2.6973
  0
VERTEX
  8
0
 10
10.2141
 20
2.7034
  0
VERTEX
  8
0
 10
10.2447
 20
2.7002
  0
VERTEX
  8
0
 10
10.2721
 20
2.69
  0
VERTEX
  8
0
 10
10.3124
 20
2.6526
  0
VERTEX
  8
0
 10
10.3389
 20
2.5904
  0
VERTEX
  8
0
 10
10.3458
 20
2.5484
  0
VERTEX
  8
0
 10
10.3481
 20
2.4933
  0
VERTEX
  8
0
 10
10.3457
 20
2.442
  0
VERTEX
  8
0
 10
10.3386
 20
2.3978
  0
VERTEX
  8
0
 10
10.3267
 20
2.3607
  0
VERTEX
  8
0
 10
10.3101
 20
2.3306
  0
VERTEX
  8
0
 10
10.2887
 20
2.3075
  0
VERTEX
  8
0
 10
10.2555
 20
2.2896
  0
VERTEX
  8
0
 10
10.2141
 20
2.2834
  0
VERTEX
  8
0
 10
10.1927
 20
2.2848
  0
VERTEX
  8
0
 10
10.1732
 20
2.2891
  0
VERTEX
  8
0
 10
10.1556
 20
2.2963
  0
VERTEX
  8
0
 10
10.1398
 20
2.3065
  0
VERTEX
  8
0
 10
10.1258
 20
2.3196
  0
VERTEX
  8
0
 10
10.1137
 20
2.3356
  0
VERTEX
  8
0
 10
10.1035
 20
2.3546
  0
VERTEX
  8
0
 10
10.0951
 20
2.3764
  0
VERTEX
  8
0
 10
10.0886
 20
2.4013
  0
VERTEX
  8
0
 10
10.0839
 20
2.429
  0
VERTEX
  8
0
 10
10.0811
 20
2.4597
  0
VERTEX
  8
0
 10
10.0801
 20
2.4933
  0
VERTEX
  8
0
 10
10.0801
 20
2.4933
  0
SEQEND
  0
POLYLINE
  8
0
 66
     1
 10
0
 20
0
  0
VERTEX
  8
0
 10
10.1281
 20
2.4934
  0
VERTEX
  8
0
 10
10.131
 20
2.4322
  0
VERTEX
  8
0
 10
10.1395
 20
2.3875
  0
VERTEX
  8
0
 10
10.1566
 20
2.352
  0
VERTEX
  8
0
 10
10.1814
 20
2.3307
  0
VERTEX
  8
0
 10
10.2141
 20
2.3234
  0
VERTEX
  8
0
 10
10.2322
 20
2.3254
  0
VERTEX
  8
0
 10
10.2481
 20
2.3316
  0
VERTEX
  8
0
 10
10.2619
 20
2.3421
  0
VERTEX
  8
0
 10
10.2736
 20
2.3567
  0
VERTEX
  8
0
 10
10.2831
 20
2.3756
  0
VERTEX
  8
0
 10
10.2905
 20
2.3987
  0
VERTEX
  8
0
 10
10.2959
 20
2.4261
  0
VERTEX
  8
0
 10
10.299
 20
2.4576
  0
VERTEX
  8
0
 10
10.3001
 20
2.4934
  0
VERTEX
  8
0
 10
10.2972
 20
2.5546
  0
VERTEX
  8
0
 10
10.2887
 20
2.5994
  0
VERTEX
  8
0
 10
10.2715
 20
2.6348
  0
VERTEX
  8
0
 10
10.2464
 20
2.6562
  0
VERTEX
  8
0
 10
10.2135
 20
2.6634
  0
VERTEX
  8
0
 10
10.1808
 20
2.6561
  0
VERTEX
  8
0
 10
10.1554
 20
2.6337
  0
VERTEX
  8
0
 10
10.1402
 20
2.6015
  0
VERTEX
  8
0
 10
10.1311
 20
2.5547
  0
VERTEX
  8
0
 10
10.1281
 20
2.4934
  0
VERTEX
  8
0
 10
10.1281
 20
2.4934
  0
SEQEND
  0
POLYLINE
  8
0
 66
     1
 10
0
 20
0
  0
VERTEX
  8
0
 10
10.4281
 20
2.2914
  0
VERTEX
  8
0
 10
10.4281
 20
2.3474
  0
VERTEX
  8
0
 10
10.4841
 20
2.3474
  0
VERTEX
  8
0
 10
10.4841
 20
2.2914
  0
VERTEX
  8
0
 10
10.4281
 20
2.2914
  0
SEQEND
  0
POLYLINE
  8
0
 66
     1
 10
0
 20
0
  0
VERTEX
  8
0
 10
10.5601
 20
2.3989
  0
VERTEX
  8
0
 10
10.6134
 20
2.4034
  0
VERTEX
  8
0
 10
10.6227
 20
2.3684
  0
VERTEX
  8
0
 10
10.6391
 20
2.3434
  0
VERTEX
  8
0
 10
10.6625
 20
2.3284
  0
VERTEX
  8
0
 10
10.6928
 20
2.3234
  0
VERTEX
  8
0
 10
10.7293
 20
2.3312
  0
VERTEX
  8
0
 10
10.7575
 20
2.3547
  0
VERTEX
  8
0
 10
10.7745
 20
2.3865
  0
VERTEX
  8
0
 10
10.7801
 20
2.4251
  0
VERTEX
  8
0
 10
10.7743
 20
2.4631
  0
VERTEX
  8
0
 10
10.7567
 20
2.4931
  0
VERTEX
  8
0
 10
10.7288
 20
2.5127
  0
VERTEX
  8
0
 10
10.6919
 20
2.5194
  0
VERTEX
  8
0
 10
10.6489
 20
2.5095
  0
VERTEX
  8
0
 10
10.6167
 20
2.4793
  0
VERTEX
  8
0
 10
10.569
 20
2.4854
  0
VERTEX
  8
0
 10
10.6088
 20
2.6954
  0
VERTEX
  8
0
 10
10.8129
 20
2.6954
  0
VERTEX
  8
0
 10
10.8129
 20
2.6434
  0
VERTEX
  8
0
 10
10.6479
 20
2.6434
  0
VERTEX
  8
0
 10
10.6278
 20
2.5377
  0
VERTEX
  8
0
 10
10.6655
 20
2.5569
  0
VERTEX
  8
0
 10
10.705
 20
2.5634
  0
VERTEX
  8
0
 10
10.7559
 20
2.5539
  0
VERTEX
  8
0
 10
10.797
 20
2.5247
  0
VERTEX
  8
0
 10
10.8233
 20
2.482
  0
VERTEX
  8
0
 10
10.8321
 20
2.43
  0
VERTEX
  8
0
 10
10.824
 20
2.3781
  0
VERTEX
  8
0
 10
10.7997
 20
2.3334
  0
VERTEX
  8
0
 10
10.753
 20
2.296
  0
VERTEX
  8
0
 10
10.6919
 20
2.2834
  0
VERTEX
  8
0
 10
10.6421
 20
2.291
  0
VERTEX
  8
0
 10
10.6018
 20
2.3136
  0
VERTEX
  8
0
 10
10.5732
 20
2.3505
  0
VERTEX
  8
0
 10
10.5601
 20
2.3989
  0
VERTEX
  8
0
 10
10.5601
 20
2.3989
  0
SEQEND
  0
POLYLINE
  8
0
 66
     1
 10
0
 20
0
  0
VERTEX
  8
0
 10
10.8841
 20
2.4933
  0
VERTEX
  8
0
 10
10.8865
 20
2.5446
  0
VERTEX
  8
0
 10
10.8936
 20
2.5889
  0
VERTEX
  8
0
 10
10.9055
 20
2.6261
  0
VERTEX
  8
0
 10
10.9221
 20
2.6562
  0
VERTEX
  8
0
 10
10.9435
 20
2.6793
  0
VERTEX
  8
0
 10
10.9767
 20
2.6973
  0
VERTEX
  8
0
 10
11.0181
 20
2.7034
  0
VERTEX
  8
0
 10
11.0487
 20
2.7002
  0
VERTEX
  8
0
 10
11.0761
 20
2.69
  0
VERTEX
  8
0
 10
11.1164
 20
2.6526
  0
VERTEX
  8
0
 10
11.1429
 20
2.5904
  0
VERTEX
  8
0
 10
11.1498
 20
2.5484
  0
VERTEX
  8
0
 10
11.1521
 20
2.4933
  0
VERTEX
  8
0
 10
11.1497
 20
2.442
  0
VERTEX
  8
0
 10
11.1426
 20
2.3978
  0
VERTEX
  8
0
 10
11.1307
 20
2.3607
  0
VERTEX
  8
0
 10
11.1141
 20
2.3306
  0
VERTEX
  8
0
 10
11.0927
 20
2.3075
  0
VERTEX
  8
0
 10
11.0595
 20
2.2896
  0
VERTEX
  8
0
 10
11.0181
 20
2.2834
  0
VERTEX
  8
0
 10
10.9967
 20
2.2848
  0
VERTEX
  8
0
 10
10.9772
 20
2.2891
  0
VERTEX
  8
0
 10
10.9596
 20
2.2963
  0
VERTEX
  8
0
 10
10.9438
 20
2.3065
  0
VERTEX
  8
0
 10
10.9298
 20
2.3196
  0
VERTEX
  8
0
 10
10.9177
 20
2.3356
  0
VERTEX
  8
0
 10
10.9075
 20
2.3546
  0
VERTEX
  8
0
 10
10.8991
 20
2.3764
  0
VERTEX
  8
0
 10
10.8926
 20
2.4013
  0
VERTEX
  8
0
 10
10.8879
 20
2.429
  0
VERTEX
  8
0
 10
10.8851
 20
2.4597
  0
VERTEX
  8
0
 10
10.8841
 20
2.4933
  0
VERTEX
  8
0
 10
10.8841
 20
2.4933
  0
SEQEND
  0
POLYLINE
  8
0
 66
     1
 10
0
 20
0
  0
VERTEX
  8
0
 10
10.9321
 20
2.4934
  0
VERTEX
  8
0
 10
10.935
 20
2.4322
  0
VERTEX
  8
0
 10
10.9435
 20
2.3875
  0
VERTEX
  8
0
 10
10.9606
 20
2.352
  0
VERTEX
  8
0
 10
10.9854
 20
2.3307
  0
VERTEX
  8
0
 10
11.0181
 20
2.3234
  0
VERTEX
  8
0
 10
11.0362
 20
2.3254
  0
VERTEX
  8
0
 10
11.0521
 20
2.3316
  0
VERTEX
  8
0
 10
11.0659
 20
2.3421
  0
VERTEX
  8
0
 10
11.0776
 20
2.3567
  0
VERTEX
  8
0
 10
11.0871
 20
2.3756
  0
VERTEX
  8
0
 10
11.0945
 20
2.3987
  0
VERTEX
  8
0
 10
11.0999
 20
2.4261
  0
VERTEX
  8
0
 10
11.103
 20
2.4576
  0
VERTEX
  8
0
 10
11.1041
 20
2.4934
  0
VERTEX
  8
0
 10
11.1012
 20
2.5546
  0
VERTEX
  8
0
 10
11.0927
 20
2.5994
  0
VERTEX
  8
0
 10
11.0755
 20
2.6348
  0
VERTEX
  8
0
 10
11.0504
 20
2.6562
  0
VERTEX
  8
0
 10
11.0175
 20
2.6634
  0
VERTEX
  8
0
 10
10.9848
 20
2.6561
  0
VERTEX
  8
0
 10
10.9594
 20
2.6337
  0
VERTEX
  8
0
 10
10.9442
 20
2.6015
  0
VERTEX
  8
0
 10
10.9351
 20
2.5547
  0
VERTEX
  8
0
 10
10.9321
 20
2.4934
  0
VERTEX
  8
0
 10
10.9321
 20
2.4934
  0
SEQEND
  0
POLYLINE
  8
0
 66
     1
 10
0
 20
0
  0
VERTEX
  8
0
 10
11.2178
 20
2.5554
  0
VERTEX
  8
0
 10
11.2041
 20
2.635
  0
VERTEX
  8
0
 10
11.2041
 20
2.7034
  0
VERTEX
  8
0
 10
11.2601
 20
2.7034
  0
VERTEX
  8
0
 10
11.2601
 20
2.635
  0
VERTEX
  8
0
 10
11.2478
 20
2.5554
  0
VERTEX
  8
0
 10
11.2178
 20
2.5554
  0
SEQEND
  0
POLYLINE
  8
0
 66
     1
 10
0
 20
0
  0
VERTEX
  8
0
 10
11.3135
 20
2.5554
  0
VERTEX
  8
0
 10
11.3001
 20
2.635
  0
VERTEX
  8
0
 10
11.3001
 20
2.7034
  0
VERTEX
  8
0
 10
11.3561
 20
2.7034
  0
VERTEX
  8
0
 10
11.3561
 20
2.635
  0
VERTEX
  8
0
 10
11.343
 20
2.5554
  0
VERTEX
  8
0
 10
11.3135
 20
2.5554
  0
SEQEND
  0
POLYLINE
  8
0
 66
     1
 10
0
 20
0
  0
VERTEX
  8
0
 10
11.6921
 20
2.2914
  0
VERTEX
  8
0
 10
11.6921
 20
2.7034
  0
VERTEX
  8
0
 10
11.8471
 20
2.7034
  0
VERTEX
  8
0
 10
11.8893
 20
2.7003
  0
VERTEX
  8
0
 10
11.9229
 20
2.6908
  0
VERTEX
  8
0
 10
11.9476
 20
2.6755
  0
VERTEX
  8
0
 10
11.967
 20
2.6534
  0
VERTEX
  8
0
 10
11.9797
 20
2.6268
  0
VERTEX
  8
0
 10
11.9841
 20
2.598
  0
VERTEX
  8
0
 10
11.9778
 20
2.5626
  0
VERTEX
  8
0
 10
11.958
 20
2.5334
  0
VERTEX
  8
0
 10
11.9248
 20
2.5106
  0
VERTEX
  8
0
 10
11.9561
 20
2.4962
  0
VERTEX
  8
0
 10
11.9797
 20
2.4744
  0
VERTEX
  8
0
 10
11.995
 20
2.4453
  0
VERTEX
  8
0
 10
12.0001
 20
2.4109
  0
VERTEX
  8
0
 10
11.9974
 20
2.3849
  0
VERTEX
  8
0
 10
11.9892
 20
2.36
  0
VERTEX
  8
0
 10
11.9758
 20
2.3366
  0
VERTEX
  8
0
 10
11.9581
 20
2.3187
  0
VERTEX
  8
0
 10
11.9127
 20
2.2982
  0
VERTEX
  8
0
 10
11.8476
 20
2.2914
  0
VERTEX
  8
0
 10
11.6921
 20
2.2914
  0
SEQEND
  0
POLYLINE
  8
0
 66
     1
 10
0
 20
0
  0
VERTEX
  8
0
 10
11.7481
 20
2.5314
  0
VERTEX
  8
0
 10
11.8377
 20
2.5314
  0
VERTEX
  8
0
 10
11.8689
 20
2.5326
  0
VERTEX
  8
0
 10
11.89
 20
2.536
  0
VERTEX
  8
0
 10
11.9213
 20
2.5556
  0
VERTEX
  8
0
 10
11.9321
 20
2.5905
  0
VERTEX
  8
0
 10
11.9228
 20
2.6259
  0
VERTEX
  8
0
 10
11.8939
 20
2.6457
  0
VERTEX
  8
0
 10
11.869
 20
2.65
  0
VERTEX
  8
0
 10
11.8309
 20
2.6514
  0
VERTEX
  8
0
 10
11.7481
 20
2.6514
  0
VERTEX
  8
0
 10
11.7481
 20
2.5314
  0
SEQEND
  0
POLYLINE
  8
0
 66
     1
 10
0
 20
0
  0
VERTEX
  8
0
 10
11.7481
 20
2.3434
  0
VERTEX
  8
0
 10
11.8486
 20
2.3434
  0
VERTEX
  8
0
 10
11.8706
 20
2.3439
  0
VERTEX
  8
0
 10
11.8849
 20
2.3453
  0
VERTEX
  8
0
 10
11.9161
 20
2.3568
  0
VERTEX
  8
0
 10
11.9361
 20
2.378
  0
VERTEX
  8
0
 10
11.942
 20
2.3933
  0
VERTEX
  8
0
 10
11.9441
 20
2.4114
  0
VERTEX
  8
0
 10
11.9334
 20
2.4501
  0
VERTEX
  8
0
 10
11.9004
 20
2.4727
  0
VERTEX
  8
0
 10
11.8753
 20
2.4777
  0
VERTEX
  8
0
 10
11.8414
 20
2.4794
  0
VERTEX
  8
0
 10
11.7481
 20
2.4794
  0
VERTEX
  8
0
 10
11.7481
 20
2.3434
  0
SEQEND
  0
POLYLINE
  8
0
 66
     1
 10
0
 20
0
  0
VERTEX
  8
0
 10
12.0561
 20
2.4394
  0
VERTEX
  8
0
 10
12.0612
 20
2.4899
  0
VERTEX
  8
0
 10
12.0766
 20
2.5309
  0
VERTEX
  8
0
 10
12.1022
 20
2.5622
  0
VERTEX
  8
0
 10
12.1449
 20
2.5871
  0
VERTEX
  8
0
 10
12.1962
 20
2.5954
  0
VERTEX
  8
0
 10
12.2551
 20
2.5845
  0
VERTEX
  8
0
 10
12.3001
 20
2.5519
  0
VERTEX
  8
0
 10
12.3271
 20
2.504
  0
VERTEX
  8
0
 10
12.3361
 20
2.4436
  0
VERTEX
  8
0
 10
12.3319
 20
2.3955
  0
VERTEX
  8
0
 10
12.3191
 20
2.3558
  0
VERTEX
  8
0
 10
12.298
 20
2.3246
  0
VERTEX
  8
0
 10
12.2683
 20
2.3017
  0
VERTEX
  8
0
 10
12.2338
 20
2.2881
  0
VERTEX
  8
0
 10
12.1962
 20
2.2834
  0
VERTEX
  8
0
 10
12.1357
 20
2.2945
  0
VERTEX
  8
0
 10
12.0907
 20
2.3281
  0
VERTEX
  8
0
 10
12.0648
 20
2.3767
  0
VERTEX
  8
0
 10
12.0561
 20
2.4394
  0
VERTEX
  8
0
 10
12.0561
 20
2.4394
  0
SEQEND
  0
POLYLINE
  8
0
 66
     1
 10
0
 20
0
  0
VERTEX
  8
0
 10
12.1041
 20
2.4395
  0
VERTEX
  8
0
 10
12.1092
 20
2.3951
  0
VERTEX
  8
0
 10
12.1244
 20
2.3599
  0
VERTEX
  8
0
 10
12.1544
 20
2.3327
  0
VERTEX
  8
0
 10
12.1962
 20
2.3234
  0
VERTEX
  8
0
 10
12.238
 20
2.3326
  0
VERTEX
  8
0
 10
12.2681
 20
2.3608
  0
VERTEX
  8
0
 10
12.2831
 20
2.3966
  0
VERTEX
  8
0
 10
12.2881
 20
2.4413
  0
VERTEX
  8
0
 10
12.2829
 20
2.4845
  0
VERTEX
  8
0
 10
12.2672
 20
2.5195
  0
VERTEX
  8
0
 10
12.2371
 20
2.5464
  0
VERTEX
  8
0
 10
12.1962
 20
2.5554
  0
VERTEX
  8
0
 10
12.1544
 20
2.5463
  0
VERTEX
  8
0
 10
12.1244
 20
2.5189
  0
VERTEX
  8
0
 10
12.1092
 20
2.4836
  0
VERTEX
  8
0
 10
12.1041
 20
2.4395
  0
VERTEX
  8
0
 10
12.1041
 20
2.4395
  0
SEQEND
  0
POLYLINE
  8
0
 66
     1
 10
0
 20
0
  0
VERTEX
  8
0
 10
12.3961
 20
2.2914
  0
VERTEX
  8
0
 10
12.3961
 20
2.5888
  0
VERTEX
  8
0
 10
12.4401
 20
2.5888
  0
VERTEX
  8
0
 10
12.4401
 20
2.5437
  0
VERTEX
  8
0
 10
12.4534
 20
2.5651
  0
VERTEX
  8
0
 10
12.4656
 20
2.5795
  0
VERTEX
  8
0
 10
12.4839
 20
2.5914
  0
VERTEX
  8
0
 10
12.5052
 20
2.5954
  0
VERTEX
  8
0
 10
12.5311
 20
2.5914
  0
VERTEX
  8
0
 10
12.5577
 20
2.5792
  0
VERTEX
  8
0
 10
12.5399
 20
2.5325
  0
VERTEX
  8
0
 10
12.521
 20
2.5407
  0
VERTEX
  8
0
 10
12.5022
 20
2.5434
  0
VERTEX
  8
0
 10
12.4856
 20
2.5405
  0
VERTEX
  8
0
 10
12.4701
 20
2.5319
  0
VERTEX
  8
0
 10
12.4597
 20
2.5207
  0
VERTEX
  8
0
 10
12.4527
 20
2.5059
  0
VERTEX
  8
0
 10
12.4462
 20
2.4781
  0
VERTEX
  8
0
 10
12.4441
 20
2.4471
  0
VERTEX
  8
0
 10
12.4441
 20
2.2914
  0
VERTEX
  8
0
 10
12.3961
 20
2.2914
  0
SEQEND
  0
POLYLINE
  8
0
 66
     1
 10
0
 20
0
  0
VERTEX
  8
0
 10
12.7801
 20
2.2914
  0
VERTEX
  8
0
 10
12.7801
 20
2.3289
  0
VERTEX
  8
0
 10
12.7458
 20
2.2949
  0
VERTEX
  8
0
 10
12.6982
 20
2.2834
  0
VERTEX
  8
0
 10
12.6637
 20
2.2884
  0
VERTEX
  8
0
 10
12.6325
 20
2.3039
  0
VERTEX
  8
0
 10
12.6069
 20
2.3275
  0
VERTEX
  8
0
 10
12.5879
 20
2.3582
  0
VERTEX
  8
0
 10
12.5762
 20
2.3956
  0
VERTEX
  8
0
 10
12.5721
 20
2.4392
  0
VERTEX
  8
0
 10
12.5756
 20
2.4842
  0
VERTEX
  8
0
 10
12.5867
 20
2.522
  0
VERTEX
  8
0
 10
12.6053
 20
2.5526
  0
VERTEX
  8
0
 10
12.6315
 20
2.576
  0
VERTEX
  8
0
 10
12.6629
 20
2.5906
  0
VERTEX
  8
0
 10
12.698
 20
2.5954
  0
VERTEX
  8
0
 10
12.7447
 20
2.5852
  0
VERTEX
  8
0
 10
12.7801
 20
2.5546
  0
VERTEX
  8
0
 10
12.7801
 20
2.7034
  0
VERTEX
  8
0
 10
12.8281
 20
2.7034
  0
VERTEX
  8
0
 10
12.8281
 20
2.2914
  0
VERTEX
  8
0
 10
12.7801
 20
2.2914
  0
SEQEND
  0
POLYLINE
  8
0
 66
     1
 10
0
 20
0
  0
VERTEX
  8
0
 10
12.6201
 20
2.4393
  0
VERTEX
  8
0
 10
12.6246
 20
2.397
  0
VERTEX
  8
0
 10
12.6382
 20
2.3619
  0
VERTEX
  8
0
 10
12.6654
 20
2.3332
  0
VERTEX
  8
0
 10
12.7029
 20
2.3234
  0
VERTEX
  8
0
 10
12.7399
 20
2.3324
  0
VERTEX
  8
0
 10
12.7665
 20
2.3599
  0
VERTEX
  8
0
 10
12.7797
 20
2.3938
  0
VERTEX
  8
0
 10
12.784
 20
2.435
  0
VERTEX
  8
0
 10
12.7798
 20
2.4794
  0
VERTEX
  8
0
 10
12.7671
 20
2.5152
  0
VERTEX
  8
0
 10
12.7396
 20
2.5454
  0
VERTEX
  8
0
 10
12.7007
 20
2.5554
  0
VERTEX
  8
0
 10
12.6628
 20
2.5458
  0
VERTEX
  8
0
 10
12.6364
 20
2.5169
  0
VERTEX
  8
0
 10
12.6242
 20
2.4824
  0
VERTEX
  8
0
 10
12.6201
 20
2.4393
  0
VERTEX
  8
0
 10
12.6201
 20
2.4393
  0
SEQEND
  0
POLYLINE
  8
0
 66
     1
 10
0
 20
0
  0
VERTEX
  8
0
 10
13.1115
 20
2.3872
  0
VERTEX
  8
0
 10
13.1645
 20
2.3807
  0
VERTEX
  8
0
 10
13.1538
 20
2.351
  0
VERTEX
  8
0
 10
13.1386
 20
2.3266
  0
VERTEX
  8
0
 10
13.119
 20
2.3077
  0
VERTEX
  8
0
 10
13.095
 20
2.2942
  0
VERTEX
  8
0
 10
13.0666
 20
2.2861
  0
VERTEX
  8
0
 10
13.0338
 20
2.2834
  0
VERTEX
  8
0
 10
12.9751
 20
2.2935
  0
VERTEX
  8
0
 10
12.9302
 20
2.3236
  0
VERTEX
  8
0
 10
12.9016
 20
2.372
  0
VERTEX
  8
0
 10
12.8921
 20
2.4369
  0
VERTEX
  8
0
 10
12.9006
 20
2.4996
  0
VERTEX
  8
0
 10
12.9263
 20
2.549
  0
VERTEX
  8
0
 10
12.9712
 20
2.5838
  0
VERTEX
  8
0
 10
13.031
 20
2.5954
  0
VERTEX
  8
0
 10
13.0892
 20
2.584
  0
VERTEX
  8
0
 10
13.1329
 20
2.5499
  0
VERTEX
  8
0
 10
13.1579
 20
2.5016
  0
VERTEX
  8
0
 10
13.1662
 20
2.4409
  0
VERTEX
  8
0
 10
13.1661
 20
2.4338
  0
VERTEX
  8
0
 10
13.1659
 20
2.4274
  0
VERTEX
  8
0
 10
12.9401
 20
2.4274
  0
VERTEX
  8
0
 10
12.9473
 20
2.3869
  0
VERTEX
  8
0
 10
12.9644
 20
2.3548
  0
VERTEX
  8
0
 10
12.9936
 20
2.3313
  0
VERTEX
  8
0
 10
13.0317
 20
2.3234
  0
VERTEX
  8
0
 10
13.066
 20
2.3305
  0
VERTEX
  8
0
 10
13.0926
 20
2.3518
  0
VERTEX
  8
0
 10
13.1115
 20
2.3872
  0
VERTEX
  8
0
 10
13.1115
 20
2.3872
  0
SEQEND
  0
POLYLINE
  8
0
 66
     1
 10
0
 20
0
  0
VERTEX
  8
0
 10
12.947
 20
2.4674
  0
VERTEX
  8
0
 10
13.113
 20
2.4674
  0
VERTEX
  8
0
 10
13.1066
 20
2.5013
  0
VERTEX
  8
0
 10
13.094
 20
2.5254
  0
VERTEX
  8
0
 10
13.0663
 20
2.5478
  0
VERTEX
  8
0
 10
13.0315
 20
2.5554
  0
VERTEX
  8
0
 10
12.9982
 20
2.5492
  0
VERTEX
  8
0
 10
12.9716
 20
2.53
  0
VERTEX
  8
0
 10
12.9544
 20
2.5023
  0
VERTEX
  8
0
 10
12.947
 20
2.4674
  0
VERTEX
  8
0
 10
12.947
 20
2.4674
  0
SEQEND
  0
POLYLINE
  8
0
 66
     1
 10
0
 20
0
  0
VERTEX
  8
0
 10
13.2281
 20
2.2914
  0
VERTEX
  8
0
 10
13.2281
 20
2.5888
  0
VERTEX
  8
0
 10
13.2721
 20
2.5888
  0
VERTEX
  8
0
 10
13.2721
 20
2.5437
  0
VERTEX
  8
0
 10
13.2854
 20
2.5651
  0
VERTEX
  8
0
 10
13.2976
 20
2.5795
  0
VERTEX
  8
0
 10
13.3159
 20
2.5914
  0
VERTEX
  8
0
 10
13.3372
 20
2.5954
  0
VERTEX
  8
0
 10
13.3631
 20
2.5914
  0
VERTEX
  8
0
 10
13.3897
 20
2.5792
  0
VERTEX
  8
0
 10
13.3719
 20
2.5325
  0
VERTEX
  8
0
 10
13.353
 20
2.5407
  0
VERTEX
  8
0
 10
13.3342
 20
2.5434
  0
VERTEX
  8
0
 10
13.3176
 20
2.5405
  0
VERTEX
  8
0
 10
13.3021
 20
2.5319
  0
VERTEX
  8
0
 10
13.2917
 20
2.5207
  0
VERTEX
  8
0
 10
13.2847
 20
2.5059
  0
VERTEX
  8
0
 10
13.2782
 20
2.4781
  0
VERTEX
  8
0
 10
13.2761
 20
2.4471
  0
VERTEX
  8
0
 10
13.2761
 20
2.2914
  0
VERTEX
  8
0
 10
13.2281
 20
2.2914
  0
SEQEND
  0
POLYLINE
  8
0
 66
     1
 10
0
 20
0
  0
VERTEX
  8
0
 10
13.4361
 20
2.2914
  0
VERTEX
  8
0
 10
13.4361
 20
2.3474
  0
VERTEX
  8
0
 10
13.4921
 20
2.3474
  0
VERTEX
  8
0
 10
13.4921
 20
2.2911
  0
VERTEX
  8
0
 10
13.487
 20
2.2559
  0
VERTEX
  8
0
 10
13.4716
 20
2.2293
  0
VERTEX
  8
0
 10
13.4459
 20
2.2114
  0
VERTEX
  8
0
 10
13.4321
 20
2.2327
  0
VERTEX
  8
0
 10
13.4553
 20
2.2537
  0
VERTEX
  8
0
 10
13.464
 20
2.2914
  0
VERTEX
  8
0
 10
13.4361
 20
2.2914
  0
SEQEND
  0
POLYLINE
  8
0
 66
     1
 10
0
 20
0
  0
VERTEX
  8
0
 10
13.9304
 20
2.2914
  0
VERTEX
  8
0
 10
13.8201
 20
2.7034
  0
VERTEX
  8
0
 10
13.8759
 20
2.7034
  0
VERTEX
  8
0
 10
13.9383
 20
2.4332
  0
VERTEX
  8
0
 10
13.9476
 20
2.3904
  0
VERTEX
  8
0
 10
13.9556
 20
2.3488
  0
VERTEX
  8
0
 10
13.9679
 20
2.4002
  0
VERTEX
  8
0
 10
13.9741
 20
2.4247
  0
VERTEX
  8
0
 10
14.0522
 20
2.7034
  0
VERTEX
  8
0
 10
14.1177
 20
2.7034
  0
VERTEX
  8
0
 10
14.1765
 20
2.4942
  0
VERTEX
  8
0
 10
14.1957
 20
2.4193
  0
VERTEX
  8
0
 10
14.209
 20
2.3488
  0
VERTEX
  8
0
 10
14.217
 20
2.3852
  0
VERTEX
  8
0
 10
14.2297
 20
2.438
  0
VERTEX
  8
0
 10
14.294
 20
2.7034
  0
VERTEX
  8
0
 10
14.3479
 20
2.7034
  0
VERTEX
  8
0
 10
14.2354
 20
2.2914
  0
VERTEX
  8
0
 10
14.1795
 20
2.2914
  0
VERTEX
  8
0
 10
14.0958
 20
2.604
  0
VERTEX
  8
0
 10
14.0867
 20
2.6355
  0
VERTEX
  8
0
 10
14.0824
 20
2.652
  0
VERTEX
  8
0
 10
14.0783
 20
2.6272
  0
VERTEX
  8
0
 10
14.074
 20
2.6035
  0
VERTEX
  8
0
 10
13.9866
 20
2.2914
  0
VERTEX
  8
0
 10
13.9304
 20
2.2914
  0
SEQEND
  0
POLYLINE
  8
0
 66
     1
 10
0
 20
0
  0
VERTEX
  8
0
 10
14.3961
 20
2.2914
  0
VERTEX
  8
0
 10
14.3961
 20
2.7034
  0
VERTEX
  8
0
 10
14.4441
 20
2.7034
  0
VERTEX
  8
0
 10
14.4441
 20
2.5546
  0
VERTEX
  8
0
 10
14.4849
 20
2.5851
  0
VERTEX
  8
0
 10
14.5351
 20
2.5954
  0
VERTEX
  8
0
 10
14.5662
 20
2.5923
  0
VERTEX
  8
0
 10
14.5937
 20
2.5822
  0
VERTEX
  8
0
 10
14.6174
 20
2.5641
  0
VERTEX
  8
0
 10
14.6324
 20
2.5386
  0
VERTEX
  8
0
 10
14.6382
 20
2.5132
  0
VERTEX
  8
0
 10
14.6401
 20
2.4798
  0
VERTEX
  8
0
 10
14.6401
 20
2.2914
  0
VERTEX
  8
0
 10
14.5921
 20
2.2914
  0
VERTEX
  8
0
 10
14.5921
 20
2.4794
  0
VERTEX
  8
0
 10
14.588
 20
2.5107
  0
VERTEX
  8
0
 10
14.5757
 20
2.5331
  0
VERTEX
  8
0
 10
14.5552
 20
2.5467
  0
VERTEX
  8
0
 10
14.5265
 20
2.5514
  0
VERTEX
  8
0
 10
14.5038
 20
2.5487
  0
VERTEX
  8
0
 10
14.4825
 20
2.5399
  0
VERTEX
  8
0
 10
14.4649
 20
2.5262
  0
VERTEX
  8
0
 10
14.453
 20
2.5085
  0
VERTEX
  8
0
 10
14.4463
 20
2.485
  0
VERTEX
  8
0
 10
14.4441
 20
2.4537
  0
VERTEX
  8
0
 10
14.4441
 20
2.2914
  0
VERTEX
  8
0
 10
14.3961
 20
2.2914
  0
SEQEND
  0
POLYLINE
  8
0
 66
     1
 10
0
 20
0
  0
VERTEX
  8
0
 10
14.7161
 20
2.6434
  0
VERTEX
  8
0
 10
14.7161
 20
2.7034
  0
VERTEX
  8
0
 10
14.7641
 20
2.7034
  0
VERTEX
  8
0
 10
14.7641
 20
2.6434
  0
VERTEX
  8
0
 10
14.7161
 20
2.6434
  0
SEQEND
  0
POLYLINE
  8
0
 66
     1
 10
0
 20
0
  0
VERTEX
  8
0
 10
14.7161
 20
2.2914
  0
VERTEX
  8
0
 10
14.7161
 20
2.5888
  0
VERTEX
  8
0
 10
14.7641
 20
2.5888
  0
VERTEX
  8
0
 10
14.7641
 20
2.2914
  0
VERTEX
  8
0
 10
14.7161
 20
2.2914
  0
SEQEND
  0
POLYLINE
  8
0
 66
     1
 10
0
 20
0
  0
VERTEX
  8
0
 10
14.9535
 20
2.3365
  0
VERTEX
  8
0
 10
14.9612
 20
2.2919
  0
VERTEX
  8
0
 10
14.9407
 20
2.2887
  0
VERTEX
  8
0
 10
14.9227
 20
2.2874
  0
VERTEX
  8
0
 10
14.8812
 20
2.2949
  0
VERTEX
  8
0
 10
14.8583
 20
2.3185
  0
VERTEX
  8
0
 10
14.8536
 20
2.3405
  0
VERTEX
  8
0
 10
14.8521
 20
2.3777
  0
VERTEX
  8
0
 10
14.8521
 20
2.5474
  0
VERTEX
  8
0
 10
14.8161
 20
2.5474
  0
VERTEX
  8
0
 10
14.8161
 20
2.5874
  0
VERTEX
  8
0
 10
14.8521
 20
2.5874
  0
VERTEX
  8
0
 10
14.8521
 20
2.6612
  0
VERTEX
  8
0
 10
14.9001
 20
2.6914
  0
VERTEX
  8
0
 10
14.9001
 20
2.5874
  0
VERTEX
  8
0
 10
14.9521
 20
2.5874
  0
VERTEX
  8
0
 10
14.9521
 20
2.5474
  0
VERTEX
  8
0
 10
14.9001
 20
2.5474
  0
VERTEX
  8
0
 10
14.9001
 20
2.376
  0
VERTEX
  8
0
 10
14.9003
 20
2.3627
  0
VERTEX
  8
0
 10
14.901
 20
2.3555
  0
VERTEX
  8
0
 10
14.9047
 20
2.3457
  0
VERTEX
  8
0
 10
14.9119
 20
2.339
  0
VERTEX
  8
0
 10
14.9194
 20
2.3364
  0
VERTEX
  8
0
 10
14.9302
 20
2.3354
  0
VERTEX
  8
0
 10
14.9403
 20
2.3355
  0
VERTEX
  8
0
 10
14.9535
 20
2.3365
  0
VERTEX
  8
0
 10
14.9535
 20
2.3365
  0
SEQEND
  0
POLYLINE
  8
0
 66
     1
 10
0
 20
0
  0
VERTEX
  8
0
 10
15.2075
 20
2.3872
  0
VERTEX
  8
0
 10
15.2605
 20
2.3807
  0
VERTEX
  8
0
 10
15.2498
 20
2.351
  0
VERTEX
  8
0
 10
15.2346
 20
2.3266
  0
VERTEX
  8
0
 10
15.215
 20
2.3077
  0
VERTEX
  8
0
 10
15.191
 20
2.2942
  0
VERTEX
  8
0
 10
15.1626
 20
2.2861
  0
VERTEX
  8
0
 10
15.1298
 20
2.2834
  0
VERTEX
  8
0
 10
15.0711
 20
2.2935
  0
VERTEX
  8
0
 10
15.0262
 20
2.3236
  0
VERTEX
  8
0
 10
14.9976
 20
2.372
  0
VERTEX
  8
0
 10
14.9881
 20
2.4369
  0
VERTEX
  8
0
 10
14.9966
 20
2.4996
  0
VERTEX
  8
0
 10
15.0223
 20
2.549
  0
VERTEX
  8
0
 10
15.0672
 20
2.5838
  0
VERTEX
  8
0
 10
15.127
 20
2.5954
  0
VERTEX
  8
0
 10
15.1852
 20
2.584
  0
VERTEX
  8
0
 10
15.2289
 20
2.5499
  0
VERTEX
  8
0
 10
15.2539
 20
2.5016
  0
VERTEX
  8
0
 10
15.2622
 20
2.4409
  0
VERTEX
  8
0
 10
15.2621
 20
2.4338
  0
VERTEX
  8
0
 10
15.2619
 20
2.4274
  0
VERTEX
  8
0
 10
15.0361
 20
2.4274
  0
VERTEX
  8
0
 10
15.0433
 20
2.3869
  0
VERTEX
  8
0
 10
15.0604
 20
2.3548
  0
VERTEX
  8
0
 10
15.0896
 20
2.3313
  0
VERTEX
  8
0
 10
15.1277
 20
2.3234
  0
VERTEX
  8
0
 10
15.162
 20
2.3305
  0
VERTEX
  8
0
 10
15.1886
 20
2.3518
  0
VERTEX
  8
0
 10
15.2075
 20
2.3872
  0
VERTEX
  8
0
 10
15.2075
 20
2.3872
  0
SEQEND
  0
POLYLINE
  8
0
 66
     1
 10
0
 20
0
  0
VERTEX
  8
0
 10
15.043
 20
2.4674
  0
VERTEX
  8
0
 10
15.209
 20
2.4674
  0
VERTEX
  8
0
 10
15.2026
 20
2.5013
  0
VERTEX
  8
0
 10
15.19
 20
2.5254
  0
VERTEX
  8
0
 10
15.1623
 20
2.5478
  0
VERTEX
  8
0
 10
15.1275
 20
2.5554
  0
VERTEX
  8
0
 10
15.0942
 20
2.5492
  0
VERTEX
  8
0
 10
15.0676
 20
2.53
  0
VERTEX
  8
0
 10
15.0504
 20
2.5023
  0
VERTEX
  8
0
 10
15.043
 20
2.4674
  0
VERTEX
  8
0
 10
15.043
 20
2.4674
  0
SEQEND
  0
POLYLINE
  8
0
 66
     1
 10
0
 20
0
  0
VERTEX
  8
0
 10
15.5721
 20
2.4394
  0
VERTEX
  8
0
 10
15.5772
 20
2.4899
  0
VERTEX
  8
0
 10
15.5926
 20
2.5309
  0
VERTEX
  8
0
 10
15.6182
 20
2.5622
  0
VERTEX
  8
0
 10
15.6609
 20
2.5871
  0
VERTEX
  8
0
 10
15.7122
 20
2.5954
  0
VERTEX
  8
0
 10
15.7711
 20
2.5845
  0
VERTEX
  8
0
 10
15.8161
 20
2.5519
  0
VERTEX
  8
0
 10
15.8431
 20
2.504
  0
VERTEX
  8
0
 10
15.8521
 20
2.4436
  0
VERTEX
  8
0
 10
15.8479
 20
2.3955
  0
VERTEX
  8
0
 10
15.8351
 20
2.3558
  0
VERTEX
  8
0
 10
15.814
 20
2.3246
  0
VERTEX
  8
0
 10
15.7843
 20
2.3017
  0
VERTEX
  8
0
 10
15.7498
 20
2.2881
  0
VERTEX
  8
0
 10
15.7122
 20
2.2834
  0
VERTEX
  8
0
 10
15.6517
 20
2.2945
  0
VERTEX
  8
0
 10
15.6067
 20
2.3281
  0
VERTEX
  8
0
 10
15.5808
 20
2.3767
  0
VERTEX
  8
0
 10
15.5721
 20
2.4394
  0
VERTEX
  8
0
 10
15.5721
 20
2.4394
  0
SEQEND
  0
POLYLINE
  8
0
 66
     1
 10
0
 20
0
  0
VERTEX
  8
0
 10
15.6201
 20
2.4395
  0
VERTEX
  8
0
 10
15.6252
 20
2.3951
  0
VERTEX
  8
0
 10
15.6404
 20
2.3599
  0
VERTEX
  8
0
 10
15.6704
 20
2.3327
  0
VERTEX
  8
0
 10
15.7122
 20
2.3234
  0
VERTEX
  8
0
 10
15.754
 20
2.3326
  0
VERTEX
  8
0
 10
15.7841
 20
2.3608
  0
VERTEX
  8
0
 10
15.7991
 20
2.3966
  0
VERTEX
  8
0
 10
15.8041
 20
2.4413
  0
VERTEX
  8
0
 10
15.7989
 20
2.4845
  0
VERTEX
  8
0
 10
15.7832
 20
2.5195
  0
VERTEX
  8
0
 10
15.7531
 20
2.5464
  0
VERTEX
  8
0
 10
15.7122
 20
2.5554
  0
VERTEX
  8
0
 10
15.6704
 20
2.5463
  0
VERTEX
  8
0
 10
15.6404
 20
2.5189
  0
VERTEX
  8
0
 10
15.6252
 20
2.4836
  0
VERTEX
  8
0
 10
15.6201
 20
2.4395
  0
VERTEX
  8
0
 10
15.6201
 20
2.4395
  0
SEQEND
  0
POLYLINE
  8
0
 66
     1
 10
0
 20
0
  0
VERTEX
  8
0
 10
15.9121
 20
2.2914
  0
VERTEX
  8
0
 10
15.9121
 20
2.5888
  0
VERTEX
  8
0
 10
15.9561
 20
2.5888
  0
VERTEX
  8
0
 10
15.9561
 20
2.5465
  0
VERTEX
  8
0
 10
15.9961
 20
2.5831
  0
VERTEX
  8
0
 10
16.0506
 20
2.5954
  0
VERTEX
  8
0
 10
16.0759
 20
2.593
  0
VERTEX
  8
0
 10
16.0998
 20
2.5856
  0
VERTEX
  8
0
 10
16.1322
 20
2.5615
  0
VERTEX
  8
0
 10
16.1493
 20
2.5232
  0
VERTEX
  8
0
 10
16.1514
 20
2.5044
  0
VERTEX
  8
0
 10
16.1521
 20
2.4742
  0
VERTEX
  8
0
 10
16.1521
 20
2.2914
  0
VERTEX
  8
0
 10
16.1041
 20
2.2914
  0
VERTEX
  8
0
 10
16.1041
 20
2.472
  0
VERTEX
  8
0
 10
16.1031
 20
2.495
  0
VERTEX
  8
0
 10
16.1001
 20
2.5114
  0
VERTEX
  8
0
 10
16.0914
 20
2.5292
  0
VERTEX
  8
0
 10
16.0766
 20
2.5422
  0
VERTEX
  8
0
 10
16.0601
 20
2.5491
  0
VERTEX
  8
0
 10
16.0409
 20
2.5514
  0
VERTEX
  8
0
 10
16.0162
 20
2.5487
  0
VERTEX
  8
0
 10
15.996
 20
2.5405
  0
VERTEX
  8
0
 10
15.9803
 20
2.5269
  0
VERTEX
  8
0
 10
15.9691
 20
2.5079
  0
VERTEX
  8
0
 10
15.9623
 20
2.4834
  0
VERTEX
  8
0
 10
15.9601
 20
2.4535
  0
VERTEX
  8
0
 10
15.9601
 20
2.2914
  0
VERTEX
  8
0
 10
15.9121
 20
2.2914
  0
SEQEND
  0
POLYLINE
  8
0
 66
     1
 10
0
 20
0
  0
VERTEX
  8
0
 10
16.7041
 20
2.4514
  0
VERTEX
  8
0
 10
16.7041
 20
2.5034
  0
VERTEX
  8
0
 10
16.8761
 20
2.5034
  0
VERTEX
  8
0
 10
16.8761
 20
2.3486
  0
VERTEX
  8
0
 10
16.8216
 20
2.3124
  0
VERTEX
  8
0
 10
16.7649
 20
2.2907
  0
VERTEX
  8
0
 10
16.706
 20
2.2834
  0
VERTEX
  8
0
 10
16.6492
 20
2.2894
  0
VERTEX
  8
0
 10
16.5987
 20
2.3075
  0
VERTEX
  8
0
 10
16.5537
 20
2.3398
  0
VERTEX
  8
0
 10
16.5214
 20
2.3841
  0
VERTEX
  8
0
 10
16.5024
 20
2.4356
  0
VERTEX
  8
0
 10
16.4961
 20
2.4935
  0
VERTEX
  8
0
 10
16.5019
 20
2.55
  0
VERTEX
  8
0
 10
16.5194
 20
2.6017
  0
VERTEX
  8
0
 10
16.5507
 20
2.6492
  0
VERTEX
  8
0
 10
16.5933
 20
2.6822
  0
VERTEX
  8
0
 10
16.6439
 20
2.7011
  0
VERTEX
  8
0
 10
16.7017
 20
2.7074
  0
VERTEX
  8
0
 10
16.7438
 20
2.7038
  0
VERTEX
  8
0
 10
16.7823
 20
2.6929
  0
VERTEX
  8
0
 10
16.8151
 20
2.6753
  0
VERTEX
  8
0
 10
16.84
 20
2.6517
  0
VERTEX
  8
0
 10
16.8568
 20
2.6235
  0
VERTEX
  8
0
 10
16.8697
 20
2.587
  0
VERTEX
  8
0
 10
16.8207
 20
2.5737
  0
VERTEX
  8
0
 10
16.8108
 20
2.5998
  0
VERTEX
  8
0
 10
16.7991
 20
2.6191
  0
VERTEX
  8
0
 10
16.7817
 20
2.636
  0
VERTEX
  8
0
 10
16.7586
 20
2.6487
  0
VERTEX
  8
0
 10
16.7315
 20
2.6567
  0
VERTEX
  8
0
 10
16.7019
 20
2.6594
  0
VERTEX
  8
0
 10
16.6675
 20
2.6566
  0
VERTEX
  8
0
 10
16.6375
 20
2.6481
  0
VERTEX
  8
0
 10
16.5957
 20
2.6209
  0
VERTEX
  8
0
 10
16.5678
 20
2.5789
  0
VERTEX
  8
0
 10
16.5561
 20
2.5404
  0
VERTEX
  8
0
 10
16.5521
 20
2.4975
  0
VERTEX
  8
0
 10
16.5549
 20
2.4571
  0
VERTEX
  8
0
 10
16.5637
 20
2.4224
  0
VERTEX
  8
0
 10
16.5786
 20
2.3935
  0
VERTEX
  8
0
 10
16.5995
 20
2.3704
  0
VERTEX
  8
0
 10
16.6264
 20
2.353
  0
VERTEX
  8
0
 10
16.6639
 20
2.3399
  0
VERTEX
  8
0
 10
16.7036
 20
2.3354
  0
VERTEX
  8
0
 10
16.7346
 20
2.3381
  0
VERTEX
  8
0
 10
16.7675
 20
2.3466
  0
VERTEX
  8
0
 10
16.7993
 20
2.3601
  0
VERTEX
  8
0
 10
16.8241
 20
2.3769
  0
VERTEX
  8
0
 10
16.8241
 20
2.4514
  0
VERTEX
  8
0
 10
16.7041
 20
2.4514
  0
SEQEND
  0
POLYLINE
  8
0
 66
     1
 10
0
 20
0
  0
VERTEX
  8
0
 10
16.9521
 20
2.2914
  0
VERTEX
  8
0
 10
16.9521
 20
2.5888
  0
VERTEX
  8
0
 10
16.9961
 20
2.5888
  0
VERTEX
  8
0
 10
16.9961
 20
2.5437
  0
VERTEX
  8
0
 10
17.0094
 20
2.5651
  0
VERTEX
  8
0
 10
17.0216
 20
2.5795
  0
VERTEX
  8
0
 10
17.0399
 20
2.5914
  0
VERTEX
  8
0
 10
17.0612
 20
2.5954
  0
VERTEX
  8
0
 10
17.0871
 20
2.5914
  0
VERTEX
  8
0
 10
17.1137
 20
2.5792
  0
VERTEX
  8
0
 10
17.0959
 20
2.5325
  0
VERTEX
  8
0
 10
17.077
 20
2.5407
  0
VERTEX
  8
0
 10
17.0582
 20
2.5434
  0
VERTEX
  8
0
 10
17.0416
 20
2.5405
  0
VERTEX
  8
0
 10
17.0261
 20
2.5319
  0
VERTEX
  8
0
 10
17.0157
 20
2.5207
  0
VERTEX
  8
0
 10
17.0087
 20
2.5059
  0
VERTEX
  8
0
 10
17.0022
 20
2.4781
  0
VERTEX
  8
0
 10
17.0001
 20
2.4471
  0
VERTEX
  8
0
 10
17.0001
 20
2.2914
  0
VERTEX
  8
0
 10
16.9521
 20
2.2914
  0
SEQEND
  0
POLYLINE
  8
0
 66
     1
 10
0
 20
0
  0
VERTEX
  8
0
 10
17.3475
 20
2.3872
  0
VERTEX
  8
0
 10
17.4005
 20
2.3807
  0
VERTEX
  8
0
 10
17.3898
 20
2.351
  0
VERTEX
  8
0
 10
17.3746
 20
2.3266
  0
VERTEX
  8
0
 10
17.355
 20
2.3077
  0
VERTEX
  8
0
 10
17.331
 20
2.2942
  0
VERTEX
  8
0
 10
17.3026
 20
2.2861
  0
VERTEX
  8
0
 10
17.2698
 20
2.2834
  0
VERTEX
  8
0
 10
17.2111
 20
2.2935
  0
VERTEX
  8
0
 10
17.1662
 20
2.3236
  0
VERTEX
  8
0
 10
17.1376
 20
2.372
  0
VERTEX
  8
0
 10
17.1281
 20
2.4369
  0
VERTEX
  8
0
 10
17.1366
 20
2.4996
  0
VERTEX
  8
0
 10
17.1623
 20
2.549
  0
VERTEX
  8
0
 10
17.2072
 20
2.5838
  0
VERTEX
  8
0
 10
17.267
 20
2.5954
  0
VERTEX
  8
0
 10
17.3252
 20
2.584
  0
VERTEX
  8
0
 10
17.3689
 20
2.5499
  0
VERTEX
  8
0
 10
17.3939
 20
2.5016
  0
VERTEX
  8
0
 10
17.4022
 20
2.4409
  0
VERTEX
  8
0
 10
17.4021
 20
2.4338
  0
VERTEX
  8
0
 10
17.4019
 20
2.4274
  0
VERTEX
  8
0
 10
17.1761
 20
2.4274
  0
VERTEX
  8
0
 10
17.1833
 20
2.3869
  0
VERTEX
  8
0
 10
17.2004
 20
2.3548
  0
VERTEX
  8
0
 10
17.2296
 20
2.3313
  0
VERTEX
  8
0
 10
17.2677
 20
2.3234
  0
VERTEX
  8
0
 10
17.302
 20
2.3305
  0
VERTEX
  8
0
 10
17.3286
 20
2.3518
  0
VERTEX
  8
0
 10
17.3475
 20
2.3872
  0
VERTEX
  8
0
 10
17.3475
 20
2.3872
  0
SEQEND
  0
POLYLINE
  8
0
 66
     1
 10
0
 20
0
  0
VERTEX
  8
0
 10
17.183
 20
2.4674
  0
VERTEX
  8
0
 10
17.349
 20
2.4674
  0
VERTEX
  8
0
 10
17.3426
 20
2.5013
  0
VERTEX
  8
0
 10
17.33
 20
2.5254
  0
VERTEX
  8
0
 10
17.3023
 20
2.5478
  0
VERTEX
  8
0
 10
17.2675
 20
2.5554
  0
VERTEX
  8
0
 10
17.2342
 20
2.5492
  0
VERTEX
  8
0
 10
17.2076
 20
2.53
  0
VERTEX
  8
0
 10
17.1904
 20
2.5023
  0
VERTEX
  8
0
 10
17.183
 20
2.4674
  0
VERTEX
  8
0
 10
17.183
 20
2.4674
  0
SEQEND
  0
POLYLINE
  8
0
 66
     1
 10
0
 20
0
  0
VERTEX
  8
0
 10
17.6675
 20
2.3872
  0
VERTEX
  8
0
 10
17.7205
 20
2.3807
  0
VERTEX
  8
0
 10
17.7098
 20
2.351
  0
VERTEX
  8
0
 10
17.6946
 20
2.3266
  0
VERTEX
  8
0
 10
17.675
 20
2.3077
  0
VERTEX
  8
0
 10
17.651
 20
2.2942
  0
VERTEX
  8
0
 10
17.6226
 20
2.2861
  0
VERTEX
  8
0
 10
17.5898
 20
2.2834
  0
VERTEX
  8
0
 10
17.5311
 20
2.2935
  0
VERTEX
  8
0
 10
17.4862
 20
2.3236
  0
VERTEX
  8
0
 10
17.4576
 20
2.372
  0
VERTEX
  8
0
 10
17.4481
 20
2.4369
  0
VERTEX
  8
0
 10
17.4566
 20
2.4996
  0
VERTEX
  8
0
 10
17.4823
 20
2.549
  0
VERTEX
  8
0
 10
17.5272
 20
2.5838
  0
VERTEX
  8
0
 10
17.587
 20
2.5954
  0
VERTEX
  8
0
 10
17.6452
 20
2.584
  0
VERTEX
  8
0
 10
17.6889
 20
2.5499
  0
VERTEX
  8
0
 10
17.7139
 20
2.5016
  0
VERTEX
  8
0
 10
17.7222
 20
2.4409
  0
VERTEX
  8
0
 10
17.7221
 20
2.4338
  0
VERTEX
  8
0
 10
17.7219
 20
2.4274
  0
VERTEX
  8
0
 10
17.4961
 20
2.4274
  0
VERTEX
  8
0
 10
17.5033
 20
2.3869
  0
VERTEX
  8
0
 10
17.5204
 20
2.3548
  0
VERTEX
  8
0
 10
17.5496
 20
2.3313
  0
VERTEX
  8
0
 10
17.5877
 20
2.3234
  0
VERTEX
  8
0
 10
17.622
 20
2.3305
  0
VERTEX
  8
0
 10
17.6486
 20
2.3518
  0
VERTEX
  8
0
 10
17.6675
 20
2.3872
  0
VERTEX
  8
0
 10
17.6675
 20
2.3872
  0
SEQEND
  0
POLYLINE
  8
0
 66
     1
 10
0
 20
0
  0
VERTEX
  8
0
 10
17.503
 20
2.4674
  0
VERTEX
  8
0
 10
17.669
 20
2.4674
  0
VERTEX
  8
0
 10
17.6626
 20
2.5013
  0
VERTEX
  8
0
 10
17.65
 20
2.5254
  0
VERTEX
  8
0
 10
17.6223
 20
2.5478
  0
VERTEX
  8
0
 10
17.5875
 20
2.5554
  0
VERTEX
  8
0
 10
17.5542
 20
2.5492
  0
VERTEX
  8
0
 10
17.5276
 20
2.53
  0
VERTEX
  8
0
 10
17.5104
 20
2.5023
  0
VERTEX
  8
0
 10
17.503
 20
2.4674
  0
VERTEX
  8
0
 10
17.503
 20
2.4674
  0
SEQEND
  0
POLYLINE
  8
0
 66
     1
 10
0
 20
0
  0
VERTEX
  8
0
 10
17.7841
 20
2.2914
  0
VERTEX
  8
0
 10
17.7841
 20
2.5888
  0
VERTEX
  8
0
 10
17.8281
 20
2.5888
  0
VERTEX
  8
0
 10
17.8281
 20
2.5465
  0
VERTEX
  8
0
 10
17.8681
 20
2.5831
  0
VERTEX
  8
0
 10
17.9226
 20
2.5954
  0
VERTEX
  8
0
 10
17.9479
 20
2.593
  0
VERTEX
  8
0
 10
17.9718
 20
2.5856
  0
VERTEX
  8
0
 10
18.0042
 20
2.5615
  0
VERTEX
  8
0
 10
18.0213
 20
2.5232
  0
VERTEX
  8
0
 10
18.0234
 20
2.5044
  0
VERTEX
  8
0
 10
18.0241
 20
2.4742
  0
VERTEX
  8
0
 10
18.0241
 20
2.2914
  0
VERTEX
  8
0
 10
17.9761
 20
2.2914
  0
VERTEX
  8
0
 10
17.9761
 20
2.472
  0
VERTEX
  8
0
 10
17.9751
 20
2.495
  0
VERTEX
  8
0
 10
17.9721
 20
2.5114
  0
VERTEX
  8
0
 10
17.9634
 20
2.5292
  0
VERTEX
  8
0
 10
17.9486
 20
2.5422
  0
VERTEX
  8
0
 10
17.9321
 20
2.5491
  0
VERTEX
  8
0
 10
17.9129
 20
2.5514
  0
VERTEX
  8
0
 10
17.8882
 20
2.5487
  0
VERTEX
  8
0
 10
17.868
 20
2.5405
  0
VERTEX
  8
0
 10
17.8523
 20
2.5269
  0
VERTEX
  8
0
 10
17.8411
 20
2.5079
  0
VERTEX
  8
0
 10
17.8343
 20
2.4834
  0
VERTEX
  8
0
 10
17.8321
 20
2.4535
  0
VERTEX
  8
0
 10
17.8321
 20
2.2914
  0
VERTEX
  8
0
 10
17.7841
 20
2.2914
  0
SEQEND
  0
POLYLINE
  8
0
 66
     1
 10
0
 20
0
  0
VERTEX
  8
0
 10
18.1201
 20
2.5314
  0
VERTEX
  8
0
 10
18.1201
 20
2.5874
  0
VERTEX
  8
0
 10
18.1761
 20
2.5874
  0
VERTEX
  8
0
 10
18.1761
 20
2.5314
  0
VERTEX
  8
0
 10
18.1201
 20
2.5314
  0
SEQEND
  0
POLYLINE
  8
0
 66
     1
 10
0
 20
0
  0
VERTEX
  8
0
 10
18.1201
 20
2.2914
  0
VERTEX
  8
0
 10
18.1201
 20
2.3474
  0
VERTEX
  8
0
 10
18.1761
 20
2.3474
  0
VERTEX
  8
0
 10
18.1761
 20
2.2911
  0
VERTEX
  8
0
 10
18.171
 20
2.2559
  0
VERTEX
  8
0
 10
18.1556
 20
2.2293
  0
VERTEX
  8
0
 10
18.1299
 20
2.2114
  0
VERTEX
  8
0
 10
18.1161
 20
2.2327
  0
VERTEX
  8
0
 10
18.1393
 20
2.2537
  0
VERTEX
  8
0
 10
18.148
 20
2.2914
  0
VERTEX
  8
0
 10
18.1201
 20
2.2914
  0
SEQEND
  0
POLYLINE
  8
0
 66
     1
 10
0
 20
0
  0
VERTEX
  8
0
 10
23.8425
 20
28.5994
  0
VERTEX
  8
0
 10
23.9156
 20
28.575
  0
VERTEX
  8
0
 10
23.9678
 20
28.5367
  0
VERTEX
  8
0
 10
24.0095
 20
28.488
  0
VERTEX
  8
0
 10
24.0339
 20
28.4288
  0
VERTEX
  8
0
 10
24.0443
 20
28.3627
  0
VERTEX
  8
0
 10
24.0374
 20
28.2896
  0
VERTEX
  8
0
 10
24.02
 20
28.213
  0
VERTEX
  8
0
 10
23.9852
 20
28.133
  0
VERTEX
  8
0
 10
23.9399
 20
28.0495
  0
VERTEX
  8
0
 10
23.8773
 20
27.9659
  0
VERTEX
  8
0
 10
23.8146
 20
28.0042
  0
VERTEX
  8
0
 10
23.7729
 20
28.0112
  0
VERTEX
  8
0
 10
23.7555
 20
27.9833
  0
VERTEX
  8
0
 10
23.752
 20
27.9381
  0
VERTEX
  8
0
 10
23.745
 20
27.4995
  0
VERTEX
  8
0
 10
23.7694
 20
27.4299
  0
VERTEX
  8
0
 10
23.7972
 20
27.3673
  0
VERTEX
  8
0
 10
23.8251
 20
27.3116
  0
VERTEX
  8
0
 10
23.8564
 20
27.2559
  0
VERTEX
  8
0
 10
23.8877
 20
27.2107
  0
VERTEX
  8
0
 10
23.9225
 20
27.1654
  0
VERTEX
  8
0
 10
23.9608
 20
27.1306
  0
VERTEX
  8
0
 10
24.0026
 20
27.0958
  0
VERTEX
  8
0
 10
24.0478
 20
27.068
  0
VERTEX
  8
0
 10
24.0965
 20
27.0436
  0
VERTEX
  8
0
 10
24.368
 20
26.9496
  0
VERTEX
  8
0
 10
24.6395
 20
26.9009
  0
VERTEX
  8
0
 10
24.9144
 20
26.8905
  0
VERTEX
  8
0
 10
25.1894
 20
26.9079
  0
VERTEX
  8
0
 10
25.4643
 20
26.9462
  0
VERTEX
  8
0
 10
25.7428
 20
26.9949
  0
VERTEX
  8
0
 10
26.0177
 20
27.0471
  0
VERTEX
  8
0
 10
26.2962
 20
27.0958
  0
VERTEX
  8
0
 10
26.5746
 20
27.1306
  0
VERTEX
  8
0
 10
26.853
 20
27.1411
  0
VERTEX
  8
0
 10
26.9818
 20
27.0993
  0
VERTEX
  8
0
 10
27.1176
 20
27.0506
  0
VERTEX
  8
0
 10
27.2568
 20
27.0053
  0
VERTEX
  8
0
 10
27.396
 20
26.9636
  0
VERTEX
  8
0
 10
27.5352
 20
26.9322
  0
VERTEX
  8
0
 10
27.6744
 20
26.9148
  0
VERTEX
  8
0
 10
27.8136
 20
26.9183
  0
VERTEX
  8
0
 10
27.9459
 20
26.9462
  0
VERTEX
  8
0
 10
28.0782
 20
27.0018
  0
VERTEX
  8
0
 10
28.2069
 20
27.0923
  0
VERTEX
  8
0
 10
28.3949
 20
27.1759
  0
VERTEX
  8
0
 10
28.5898
 20
27.242
  0
VERTEX
  8
0
 10
28.7882
 20
27.2907
  0
VERTEX
  8
0
 10
28.9935
 20
27.329
  0
VERTEX
  8
0
 10
29.1954
 20
27.3603
  0
VERTEX
  8
0
 10
29.4007
 20
27.3882
  0
VERTEX
  8
0
 10
29.6026
 20
27.4195
  0
VERTEX
  8
0
 10
29.8045
 20
27.4613
  0
VERTEX
  8
0
 10
29.9994
 20
27.51
  0
VERTEX
  8
0
 10
30.1873
 20
27.5761
  0
VERTEX
  8
0
 10
30.3926
 20
27.5866
  0
VERTEX
  8
0
 10
30.5876
 20
27.6179
  0
VERTEX
  8
0
 10
30.7755
 20
27.6701
  0
VERTEX
  8
0
 10
30.9565
 20
27.7327
  0
VERTEX
  8
0
 10
31.1305
 20
27.8093
  0
VERTEX
  8
0
 10
31.301
 20
27.8963
  0
VERTEX
  8
0
 10
31.4716
 20
27.9833
  0
VERTEX
  8
0
 10
31.6386
 20
28.0773
  0
VERTEX
  8
0
 10
31.8057
 20
28.1678
  0
VERTEX
  8
0
 10
31.9762
 20
28.2548
  0
VERTEX
  8
0
 10
32.1085
 20
28.3557
  0
VERTEX
  8
0
 10
32.2477
 20
28.4532
  0
VERTEX
  8
0
 10
32.3904
 20
28.5437
  0
VERTEX
  8
0
 10
32.5401
 20
28.6272
  0
VERTEX
  8
0
 10
32.6967
 20
28.7003
  0
VERTEX
  8
0
 10
32.8638
 20
28.756
  0
VERTEX
  8
0
 10
33.0378
 20
28.7943
  0
VERTEX
  8
0
 10
33.2188
 20
28.8152
  0
VERTEX
  8
0
 10
33.4137
 20
28.8152
  0
VERTEX
  8
0
 10
33.619
 20
28.7838
  0
VERTEX
  8
0
 10
33.6712
 20
28.7525
  0
VERTEX
  8
0
 10
33.7165
 20
28.7003
  0
VERTEX
  8
0
 10
33.7513
 20
28.6342
  0
VERTEX
  8
0
 10
33.7791
 20
28.5576
  0
VERTEX
  8
0
 10
33.793
 20
28.4671
  0
VERTEX
  8
0
 10
33.8
 20
28.3731
  0
VERTEX
  8
0
 10
33.7965
 20
28.2722
  0
VERTEX
  8
0
 10
33.7791
 20
28.1678
  0
VERTEX
  8
0
 10
33.7548
 20
28.0634
  0
VERTEX
  8
0
 10
33.7165
 20
27.9624
  0
VERTEX
  8
0
 10
33.5981
 20
27.9207
  0
VERTEX
  8
0
 10
33.4763
 20
27.8894
  0
VERTEX
  8
0
 10
33.3545
 20
27.858
  0
VERTEX
  8
0
 10
33.2327
 20
27.8337
  0
VERTEX
  8
0
 10
33.1074
 20
27.8093
  0
VERTEX
  8
0
 10
32.9821
 20
27.7849
  0
VERTEX
  8
0
 10
32.8533
 20
27.7606
  0
VERTEX
  8
0
 10
32.7245
 20
27.7362
  0
VERTEX
  8
0
 10
32.5923
 20
27.7049
  0
VERTEX
  8
0
 10
32.46
 20
27.6736
  0
VERTEX
  8
0
 10
32.2303
 20
27.6109
  0
VERTEX
  8
0
 10
31.9971
 20
27.5483
  0
VERTEX
  8
0
 10
31.7674
 20
27.4821
  0
VERTEX
  8
0
 10
31.5377
 20
27.4125
  0
VERTEX
  8
0
 10
31.3115
 20
27.3394
  0
VERTEX
  8
0
 10
31.0887
 20
27.2594
  0
VERTEX
  8
0
 10
30.866
 20
27.1724
  0
VERTEX
  8
0
 10
30.6502
 20
27.0749
  0
VERTEX
  8
0
 10
30.4379
 20
26.9705
  0
VERTEX
  8
0
 10
30.236
 20
26.8522
  0
VERTEX
  8
0
 10
29.8949
 20
26.6851
  0
VERTEX
  8
0
 10
29.5539
 20
26.5146
  0
VERTEX
  8
0
 10
29.2093
 20
26.3475
  0
VERTEX
  8
0
 10
28.8613
 20
26.1909
  0
VERTEX
  8
0
 10
28.5097
 20
26.0412
  0
VERTEX
  8
0
 10
28.1547
 20
25.9055
  0
VERTEX
  8
0
 10
27.7893
 20
25.7906
  0
VERTEX
  8
0
 10
27.4204
 20
25.6967
  0
VERTEX
  8
0
 10
27.0445
 20
25.6305
  0
VERTEX
  8
0
 10
26.6581
 20
25.5957
  0
VERTEX
  8
0
 10
26.6059
 20
25.3208
  0
VERTEX
  8
0
 10
26.5085
 20
25.0667
  0
VERTEX
  8
0
 10
26.3832
 20
24.8266
  0
VERTEX
  8
0
 10
26.2335
 20
24.5934
  0
VERTEX
  8
0
 10
26.0769
 20
24.3671
  0
VERTEX
  8
0
 10
25.9203
 20
24.1409
  0
VERTEX
  8
0
 10
25.7776
 20
23.9077
  0
VERTEX
  8
0
 10
25.6627
 20
23.6641
  0
VERTEX
  8
0
 10
25.5827
 20
23.4065
  0
VERTEX
  8
0
 10
25.5479
 20
23.1281
  0
VERTEX
  8
0
 10
25.5479
 20
22.8184
  0
VERTEX
  8
0
 10
25.5235
 20
22.5051
  0
VERTEX
  8
0
 10
25.4852
 20
22.1954
  0
VERTEX
  8
0
 10
25.4435
 20
21.8821
  0
VERTEX
  8
0
 10
25.3982
 20
21.5689
  0
VERTEX
  8
0
 10
25.3669
 20
21.2591
  0
VERTEX
  8
0
 10
25.3495
 20
20.9494
  0
VERTEX
  8
0
 10
25.3634
 20
20.6431
  0
VERTEX
  8
0
 10
25.4087
 20
20.3368
  0
VERTEX
  8
0
 10
25.4992
 20
20.034
  0
VERTEX
  8
0
 10
25.534
 20
19.8495
  0
VERTEX
  8
0
 10
25.5409
 20
19.6651
  0
VERTEX
  8
0
 10
25.5305
 20
19.4771
  0
VERTEX
  8
0
 10
25.5026
 20
19.2927
  0
VERTEX
  8
0
 10
25.4609
 20
19.1082
  0
VERTEX
  8
0
 10
25.4121
 20
18.9272
  0
VERTEX
  8
0
 10
25.3599
 20
18.7497
  0
VERTEX
  8
0
 10
25.3042
 20
18.5757
  0
VERTEX
  8
0
 10
25.252
 20
18.4086
  0
VERTEX
  8
0
 10
25.2068
 20
18.2485
  0
VERTEX
  8
0
 10
25.1302
 20
17.8483
  0
VERTEX
  8
0
 10
25.085
 20
17.448
  0
VERTEX
  8
0
 10
25.0676
 20
17.0478
  0
VERTEX
  8
0
 10
25.0676
 20
16.6475
  0
VERTEX
  8
0
 10
25.078
 20
16.2438
  0
VERTEX
  8
0
 10
25.0954
 20
15.8435
  0
VERTEX
  8
0
 10
25.1128
 20
15.4398
  0
VERTEX
  8
0
 10
25.1128
 20
15.0396
  0
VERTEX
  8
0
 10
25.1024
 20
14.6358
  0
VERTEX
  8
0
 10
25.0641
 20
14.2356
  0
VERTEX
  8
0
 10
25.0189
 20
14.1625
  0
VERTEX
  8
0
 10
24.9666
 20
14.0929
  0
VERTEX
  8
0
 10
24.9144
 20
14.0233
  0
VERTEX
  8
0
 10
24.8587
 20
13.9537
  0
VERTEX
  8
0
 10
24.8065
 20
13.8875
  0
VERTEX
  8
0
 10
24.7578
 20
13.8179
  0
VERTEX
  8
0
 10
24.7126
 20
13.7448
  0
VERTEX
  8
0
 10
24.6743
 20
13.6717
  0
VERTEX
  8
0
 10
24.643
 20
13.5917
  0
VERTEX
  8
0
 10
24.629
 20
13.5082
  0
VERTEX
  8
0
 10
24.5838
 20
13.369
  0
VERTEX
  8
0
 10
24.556
 20
13.2228
  0
VERTEX
  8
0
 10
24.5351
 20
13.0731
  0
VERTEX
  8
0
 10
24.5177
 20
12.9235
  0
VERTEX
  8
0
 10
24.5003
 20
12.7738
  0
VERTEX
  8
0
 10
24.4794
 20
12.6241
  0
VERTEX
  8
0
 10
24.4481
 20
12.4814
  0
VERTEX
  8
0
 10
24.3993
 20
12.3457
  0
VERTEX
  8
0
 10
24.3332
 20
12.2204
  0
VERTEX
  8
0
 10
24.2427
 20
12.109
  0
VERTEX
  8
0
 10
24.2114
 20
12.0881
  0
VERTEX
  8
0
 10
24.1835
 20
12.0673
  0
VERTEX
  8
0
 10
24.1592
 20
12.0394
  0
VERTEX
  8
0
 10
24.1348
 20
12.0116
  0
VERTEX
  8
0
 10
24.1105
 20
11.9803
  0
VERTEX
  8
0
 10
24.0896
 20
11.9489
  0
VERTEX
  8
0
 10
24.0687
 20
11.9141
  0
VERTEX
  8
0
 10
24.0443
 20
11.8828
  0
VERTEX
  8
0
 10
24.0234
 20
11.848
  0
VERTEX
  8
0
 10
23.9991
 20
11.8167
  0
VERTEX
  8
0
 10
23.9991
 20
10.5602
  0
VERTEX
  8
0
 10
23.9643
 20
10.4976
  0
VERTEX
  8
0
 10
23.933
 20
10.4349
  0
VERTEX
  8
0
 10
23.9086
 20
10.3793
  0
VERTEX
  8
0
 10
23.8842
 20
10.3201
  0
VERTEX
  8
0
 10
23.8668
 20
10.2609
  0
VERTEX
  8
0
 10
23.8459
 20
10.2052
  0
VERTEX
  8
0
 10
23.8285
 20
10.1426
  0
VERTEX
  8
0
 10
23.8077
 20
10.0765
  0
VERTEX
  8
0
 10
23.7833
 20
10.0068
  0
VERTEX
  8
0
 10
23.7589
 20
9.9338
  0
VERTEX
  8
0
 10
23.6476
 20
9.9024
  0
VERTEX
  8
0
 10
23.5571
 20
9.899
  0
VERTEX
  8
0
 10
23.4805
 20
9.9233
  0
VERTEX
  8
0
 10
23.4144
 20
9.9581
  0
VERTEX
  8
0
 10
23.3587
 20
10.0103
  0
VERTEX
  8
0
 10
23.3065
 20
10.066
  0
VERTEX
  8
0
 10
23.2577
 20
10.1287
  0
VERTEX
  8
0
 10
23.2055
 20
10.1843
  0
VERTEX
  8
0
 10
23.1464
 20
10.2331
  0
VERTEX
  8
0
 10
23.0802
 20
10.2714
  0
VERTEX
  8
0
 10
23.0211
 20
10.508
  0
VERTEX
  8
0
 10
22.9549
 20
10.7482
  0
VERTEX
  8
0
 10
22.8819
 20
10.9988
  0
VERTEX
  8
0
 10
22.8192
 20
11.2494
  0
VERTEX
  8
0
 10
22.7705
 20
11.5
  0
VERTEX
  8
0
 10
22.7426
 20
11.7505
  0
VERTEX
  8
0
 10
22.7496
 20
11.9977
  0
VERTEX
  8
0
 10
22.7914
 20
12.2378
  0
VERTEX
  8
0
 10
22.8853
 20
12.4675
  0
VERTEX
  8
0
 10
23.0315
 20
12.6868
  0
VERTEX
  8
0
 10
23.129
 20
12.8747
  0
VERTEX
  8
0
 10
23.2021
 20
13.094
  0
VERTEX
  8
0
 10
23.2508
 20
13.3376
  0
VERTEX
  8
0
 10
23.2751
 20
13.6021
  0
VERTEX
  8
0
 10
23.2786
 20
13.8771
  0
VERTEX
  8
0
 10
23.2543
 20
14.1555
  0
VERTEX
  8
0
 10
23.209
 20
14.427
  0
VERTEX
  8
0
 10
23.1394
 20
14.6915
  0
VERTEX
  8
0
 10
23.0489
 20
14.9351
  0
VERTEX
  8
0
 10
22.9375
 20
15.1544
  0
VERTEX
  8
0
 10
22.8853
 20
15.2936
  0
VERTEX
  8
0
 10
22.8366
 20
15.4363
  0
VERTEX
  8
0
 10
22.7948
 20
15.5825
  0
VERTEX
  8
0
 10
22.7566
 20
15.7287
  0
VERTEX
  8
0
 10
22.7183
 20
15.8749
  0
VERTEX
  8
0
 10
22.6835
 20
16.021
  0
VERTEX
  8
0
 10
22.6487
 20
16.1672
  0
VERTEX
  8
0
 10
22.6173
 20
16.3134
  0
VERTEX
  8
0
 10
22.5825
 20
16.4596
  0
VERTEX
  8
0
 10
22.5512
 20
16.6023
  0
VERTEX
  8
0
 10
22.137
 20
16.122
  0
VERTEX
  8
0
 10
21.7264
 20
15.6417
  0
VERTEX
  8
0
 10
21.3191
 20
15.1544
  0
VERTEX
  8
0
 10
20.9085
 20
14.6706
  0
VERTEX
  8
0
 10
20.5012
 20
14.1799
  0
VERTEX
  8
0
 10
20.101
 20
13.6892
  0
VERTEX
  8
0
 10
19.7007
 20
13.1914
  0
VERTEX
  8
0
 10
19.3074
 20
12.6903
  0
VERTEX
  8
0
 10
18.9211
 20
12.1821
  0
VERTEX
  8
0
 10
18.5383
 20
11.674
  0
VERTEX
  8
0
 10
18.5661
 20
11.5661
  0
VERTEX
  8
0
 10
18.5661
 20
11.4756
  0
VERTEX
  8
0
 10
18.5418
 20
11.4025
  0
VERTEX
  8
0
 10
18.493
 20
11.3433
  0
VERTEX
  8
0
 10
18.4339
 20
11.2911
  0
VERTEX
  8
0
 10
18.3677
 20
11.2459
  0
VERTEX
  8
0
 10
18.3016
 20
11.2006
  0
VERTEX
  8
0
 10
18.239
 20
11.1554
  0
VERTEX
  8
0
 10
18.1867
 20
11.1032
  0
VERTEX
  8
0
 10
18.1519
 20
11.044
  0
VERTEX
  8
0
 10
18.0789
 20
11.0127
  0
VERTEX
  8
0
 10
18.0197
 20
10.9779
  0
VERTEX
  8
0
 10
17.971
 20
10.9361
  0
VERTEX
  8
0
 10
17.9327
 20
10.8909
  0
VERTEX
  8
0
 10
17.9014
 20
10.8387
  0
VERTEX
  8
0
 10
17.8735
 20
10.7865
  0
VERTEX
  8
0
 10
17.8561
 20
10.7238
  0
VERTEX
  8
0
 10
17.8387
 20
10.6577
  0
VERTEX
  8
0
 10
17.8248
 20
10.5881
  0
VERTEX
  8
0
 10
17.8109
 20
10.5115
  0
VERTEX
  8
0
 10
17.7204
 20
10.4175
  0
VERTEX
  8
0
 10
17.6229
 20
10.334
  0
VERTEX
  8
0
 10
17.5255
 20
10.2609
  0
VERTEX
  8
0
 10
17.421
 20
10.1983
  0
VERTEX
  8
0
 10
17.3132
 20
10.1461
  0
VERTEX
  8
0
 10
17.2018
 20
10.1043
  0
VERTEX
  8
0
 10
17.0834
 20
10.066
  0
VERTEX
  8
0
 10
16.9616
 20
10.0347
  0
VERTEX
  8
0
 10
16.8329
 20
10.0068
  0
VERTEX
  8
0
 10
16.7006
 20
9.9825
  0
VERTEX
  8
0
 10
16.6519
 20
10.0068
  0
VERTEX
  8
0
 10
16.6171
 20
10.0347
  0
VERTEX
  8
0
 10
16.5857
 20
10.066
  0
VERTEX
  8
0
 10
16.5614
 20
10.1008
  0
VERTEX
  8
0
 10
16.5405
 20
10.1356
  0
VERTEX
  8
0
 10
16.5196
 20
10.1739
  0
VERTEX
  8
0
 10
16.4987
 20
10.2087
  0
VERTEX
  8
0
 10
16.4744
 20
10.247
  0
VERTEX
  8
0
 10
16.4465
 20
10.2818
  0
VERTEX
  8
0
 10
16.4117
 20
10.3201
  0
VERTEX
  8
0
 10
16.4465
 20
10.3827
  0
VERTEX
  8
0
 10
16.4709
 20
10.4523
  0
VERTEX
  8
0
 10
16.4883
 20
10.5289
  0
VERTEX
  8
0
 10
16.5022
 20
10.6055
  0
VERTEX
  8
0
 10
16.5127
 20
10.6855
  0
VERTEX
  8
0
 10
16.5301
 20
10.7586
  0
VERTEX
  8
0
 10
16.5509
 20
10.8317
  0
VERTEX
  8
0
 10
16.5857
 20
10.8978
  0
VERTEX
  8
0
 10
16.6345
 20
10.9535
  0
VERTEX
  8
0
 10
16.7006
 20
10.9953
  0
VERTEX
  8
0
 10
16.711
 20
11.0893
  0
VERTEX
  8
0
 10
16.7493
 20
11.1658
  0
VERTEX
  8
0
 10
16.805
 20
11.232
  0
VERTEX
  8
0
 10
16.8711
 20
11.2911
  0
VERTEX
  8
0
 10
16.9442
 20
11.3468
  0
VERTEX
  8
0
 10
17.0138
 20
11.4025
  0
VERTEX
  8
0
 10
17.0765
 20
11.4651
  0
VERTEX
  8
0
 10
17.1217
 20
11.5348
  0
VERTEX
  8
0
 10
17.1426
 20
11.6183
  0
VERTEX
  8
0
 10
17.1357
 20
11.7227
  0
VERTEX
  8
0
 10
17.1739
 20
11.7575
  0
VERTEX
  8
0
 10
17.2053
 20
11.8028
  0
VERTEX
  8
0
 10
17.2296
 20
11.855
  0
VERTEX
  8
0
 10
17.2505
 20
11.9106
  0
VERTEX
  8
0
 10
17.2644
 20
11.9733
  0
VERTEX
  8
0
 10
17.2749
 20
12.0359
  0
VERTEX
  8
0
 10
17.2818
 20
12.0986
  0
VERTEX
  8
0
 10
17.2818
 20
12.1682
  0
VERTEX
  8
0
 10
17.2818
 20
12.2343
  0
VERTEX
  8
0
 10
17.2818
 20
12.3005
  0
VERTEX
  8
0
 10
17.4872
 20
12.6276
  0
VERTEX
  8
0
 10
17.689
 20
12.9617
  0
VERTEX
  8
0
 10
17.8874
 20
13.2993
  0
VERTEX
  8
0
 10
18.0823
 20
13.6404
  0
VERTEX
  8
0
 10
18.2772
 20
13.9815
  0
VERTEX
  8
0
 10
18.4687
 20
14.3191
  0
VERTEX
  8
0
 10
18.6636
 20
14.6532
  0
VERTEX
  8
0
 10
18.8585
 20
14.9769
  0
VERTEX
  8
0
 10
19.2622
 20
15.5895
  0
VERTEX
  8
0
 10
19.2761
 20
15.6382
  0
VERTEX
  8
0
 10
19.29
 20
15.6939
  0
VERTEX
  8
0
 10
19.3074
 20
15.7565
  0
VERTEX
  8
0
 10
19.3249
 20
15.8227
  0
VERTEX
  8
0
 10
19.3492
 20
15.8853
  0
VERTEX
  8
0
 10
19.3805
 20
15.941
  0
VERTEX
  8
0
 10
19.4612
 20
16.1134
  0
VERTEX
  8
0
 10
19.5429
 20
16.2059
  0
VERTEX
  8
0
 10
19.6523
 20
16.2575
  0
VERTEX
  8
0
 10
19.9618
 20
16.4491
  0
VERTEX
  8
0
 10
20.0279
 20
16.6197
  0
VERTEX
  8
0
 10
20.5778
 20
18.9168
  0
VERTEX
  8
0
 10
20.6161
 20
19.0978
  0
VERTEX
  8
0
 10
21.8516
 20
21.7255
  0
VERTEX
  8
0
 10
21.8691
 20
21.7638
  0
VERTEX
  8
0
 10
21.876
 20
21.809
  0
VERTEX
  8
0
 10
21.8795
 20
21.8577
  0
VERTEX
  8
0
 10
21.876
 20
21.91
  0
VERTEX
  8
0
 10
21.8725
 20
21.9656
  0
VERTEX
  8
0
 10
21.8691
 20
22.0178
  0
VERTEX
  8
0
 10
21.8656
 20
22.0666
  0
VERTEX
  8
0
 10
21.8725
 20
22.1153
  0
VERTEX
  8
0
 10
21.7472
 20
22.2093
  0
VERTEX
  8
0
 10
21.6185
 20
22.2998
  0
VERTEX
  8
0
 10
21.4862
 20
22.3833
  0
VERTEX
  8
0
 10
21.3574
 20
22.4703
  0
VERTEX
  8
0
 10
21.2217
 20
22.5504
  0
VERTEX
  8
0
 10
21.086
 20
22.6269
  0
VERTEX
  8
0
 10
20.9467
 20
22.7
  0
VERTEX
  8
0
 10
20.8075
 20
22.7661
  0
VERTEX
  8
0
 10
20.6648
 20
22.8288
  0
VERTEX
  8
0
 10
20.5186
 20
22.888
  0
VERTEX
  8
0
 10
20.4073
 20
22.8392
  0
VERTEX
  8
0
 10
20.2924
 20
22.787
  0
VERTEX
  8
0
 10
20.1776
 20
22.7383
  0
VERTEX
  8
0
 10
20.0592
 20
22.6896
  0
VERTEX
  8
0
 10
19.9444
 20
22.6443
  0
VERTEX
  8
0
 10
19.826
 20
22.5991
  0
VERTEX
  8
0
 10
19.7112
 20
22.5573
  0
VERTEX
  8
0
 10
19.5928
 20
22.519
  0
VERTEX
  8
0
 10
19.4745
 20
22.4842
  0
VERTEX
  8
0
 10
19.3597
 20
22.4529
  0
VERTEX
  8
0
 10
18.9246
 20
22.3137
  0
VERTEX
  8
0
 10
18.493
 20
22.1745
  0
VERTEX
  8
0
 10
18.058
 20
22.0318
  0
VERTEX
  8
0
 10
17.6229
 20
21.896
  0
VERTEX
  8
0
 10
17.1844
 20
21.7603
  0
VERTEX
  8
0
 10
16.7458
 20
21.635
  0
VERTEX
  8
0
 10
16.3073
 20
21.5201
  0
VERTEX
  8
0
 10
15.8618
 20
21.4123
  0
VERTEX
  8
0
 10
15.4128
 20
21.3218
  0
VERTEX
  8
0
 10
14.9604
 20
21.2452
  0
VERTEX
  8
0
 10
14.7898
 20
21.3113
  0
VERTEX
  8
0
 10
14.6263
 20
21.3914
  0
VERTEX
  8
0
 10
14.4662
 20
21.4749
  0
VERTEX
  8
0
 10
14.3061
 20
21.5689
  0
VERTEX
  8
0
 10
14.1529
 20
21.6663
  0
VERTEX
  8
0
 10
13.9998
 20
21.7673
  0
VERTEX
  8
0
 10
13.8501
 20
21.8682
  0
VERTEX
  8
0
 10
13.7039
 20
21.9691
  0
VERTEX
  8
0
 10
13.5578
 20
22.0701
  0
VERTEX
  8
0
 10
12.6877
 20
22.4703
  0
VERTEX
  8
0
 10
12.5832
 20
22.4947
  0
VERTEX
  8
0
 10
12.4788
 20
22.5156
  0
VERTEX
  8
0
 10
12.3779
 20
22.5295
  0
VERTEX
  8
0
 10
12.2735
 20
22.5434
  0
VERTEX
  8
0
 10
12.176
 20
22.5573
  0
VERTEX
  8
0
 10
12.0821
 20
22.5678
  0
VERTEX
  8
0
 10
11.995
 20
22.5817
  0
VERTEX
  8
0
 10
11.915
 20
22.5991
  0
VERTEX
  8
0
 10
11.7862
 20
22.62
  0
VERTEX
  8
0
 10
11.654
 20
22.6339
  0
VERTEX
  8
0
 10
11.5217
 20
22.6443
  0
VERTEX
  8
0
 10
11.386
 20
22.6478
  0
VERTEX
  8
0
 10
11.2502
 20
22.6478
  0
VERTEX
  8
0
 10
11.111
 20
22.6478
  0
VERTEX
  8
0
 10
10.9753
 20
22.6443
  0
VERTEX
  8
0
 10
10.8361
 20
22.6443
  0
VERTEX
  8
0
 10
10.6968
 20
22.6443
  0
VERTEX
  8
0
 10
10.5611
 20
22.6443
  0
VERTEX
  8
0
 10
10.1469
 20
22.7731
  0
VERTEX
  8
0
 10
9.7745
 20
22.9854
  0
VERTEX
  8
0
 10
9.4508
 20
23.2743
  0
VERTEX
  8
0
 10
9.1828
 20
23.6154
  0
VERTEX
  8
0
 10
8.981
 20
24.0052
  0
VERTEX
  8
0
 10
8.8487
 20
24.4194
  0
VERTEX
  8
0
 10
8.8
 20
24.8509
  0
VERTEX
  8
0
 10
8.8348
 20
25.279
  0
VERTEX
  8
0
 10
8.9705
 20
25.6932
  0
VERTEX
  8
0
 10
9.2072
 20
26.0795
  0
VERTEX
  8
0
 10
9.3986
 20
26.3406
  0
VERTEX
  8
0
 10
9.597
 20
26.6051
  0
VERTEX
  8
0
 10
9.8024
 20
26.8661
  0
VERTEX
  8
0
 10
10.0112
 20
27.1237
  0
VERTEX
  8
0
 10
10.2235
 20
27.3742
  0
VERTEX
  8
0
 10
10.4393
 20
27.6248
  0
VERTEX
  8
0
 10
10.6551
 20
27.865
  0
VERTEX
  8
0
 10
10.8674
 20
28.1017
  0
VERTEX
  8
0
 10
11.0797
 20
28.3279
  0
VERTEX
  8
0
 10
11.285
 20
28.5437
  0
VERTEX
  8
0
 10
11.3059
 20
28.4358
  0
VERTEX
  8
0
 10
11.3198
 20
28.3209
  0
VERTEX
  8
0
 10
11.3303
 20
28.2026
  0
VERTEX
  8
0
 10
11.3407
 20
28.0843
  0
VERTEX
  8
0
 10
11.3407
 20
27.9624
  0
VERTEX
  8
0
 10
11.3407
 20
27.8406
  0
VERTEX
  8
0
 10
11.3303
 20
27.7223
  0
VERTEX
  8
0
 10
11.3198
 20
27.6074
  0
VERTEX
  8
0
 10
11.3059
 20
27.4926
  0
VERTEX
  8
0
 10
11.285
 20
27.3847
  0
VERTEX
  8
0
 10
11.1702
 20
27.242
  0
VERTEX
  8
0
 10
11.0727
 20
27.0889
  0
VERTEX
  8
0
 10
10.9996
 20
26.9253
  0
VERTEX
  8
0
 10
10.9405
 20
26.7547
  0
VERTEX
  8
0
 10
10.8952
 20
26.5772
  0
VERTEX
  8
0
 10
10.8569
 20
26.3997
  0
VERTEX
  8
0
 10
10.8221
 20
26.2257
  0
VERTEX
  8
0
 10
10.7873
 20
26.0552
  0
VERTEX
  8
0
 10
10.749
 20
25.8916
  0
VERTEX
  8
0
 10
10.7073
 20
25.7384
  0
VERTEX
  8
0
 10
10.7003
 20
25.6166
  0
VERTEX
  8
0
 10
10.7282
 20
25.4983
  0
VERTEX
  8
0
 10
10.7804
 20
25.3869
  0
VERTEX
  8
0
 10
10.85
 20
25.279
  0
VERTEX
  8
0
 10
10.937
 20
25.1746
  0
VERTEX
  8
0
 10
11.0344
 20
25.0737
  0
VERTEX
  8
0
 10
11.1389
 20
24.9762
  0
VERTEX
  8
0
 10
11.2433
 20
24.8753
  0
VERTEX
  8
0
 10
11.3407
 20
24.7744
  0
VERTEX
  8
0
 10
11.4312
 20
24.6769
  0
VERTEX
  8
0
 10
11.5043
 20
24.6282
  0
VERTEX
  8
0
 10
11.5774
 20
24.5795
  0
VERTEX
  8
0
 10
11.6505
 20
24.5307
  0
VERTEX
  8
0
 10
11.7201
 20
24.482
  0
VERTEX
  8
0
 10
11.7862
 20
24.4298
  0
VERTEX
  8
0
 10
11.8558
 20
24.3741
  0
VERTEX
  8
0
 10
11.922
 20
24.3184
  0
VERTEX
  8
0
 10
11.9846
 20
24.2627
  0
VERTEX
  8
0
 10
12.0473
 20
24.2036
  0
VERTEX
  8
0
 10
12.1099
 20
24.1444
  0
VERTEX
  8
0
 10
12.277
 20
24.04
  0
VERTEX
  8
0
 10
12.4475
 20
23.9391
  0
VERTEX
  8
0
 10
12.618
 20
23.8381
  0
VERTEX
  8
0
 10
12.7921
 20
23.7407
  0
VERTEX
  8
0
 10
12.9661
 20
23.6397
  0
VERTEX
  8
0
 10
13.1366
 20
23.5388
  0
VERTEX
  8
0
 10
13.3072
 20
23.4379
  0
VERTEX
  8
0
 10
13.4742
 20
23.3369
  0
VERTEX
  8
0
 10
13.6413
 20
23.2325
  0
VERTEX
  8
0
 10
13.8014
 20
23.1281
  0
VERTEX
  8
0
 10
13.9162
 20
23.0724
  0
VERTEX
  8
0
 10
14.0346
 20
23.0133
  0
VERTEX
  8
0
 10
14.1529
 20
22.9541
  0
VERTEX
  8
0
 10
14.2713
 20
22.8949
  0
VERTEX
  8
0
 10
14.3896
 20
22.8392
  0
VERTEX
  8
0
 10
14.5079
 20
22.787
  0
VERTEX
  8
0
 10
14.6297
 20
22.7418
  0
VERTEX
  8
0
 10
14.755
 20
22.7
  0
VERTEX
  8
0
 10
14.8803
 20
22.6687
  0
VERTEX
  8
0
 10
15.2841
 20
22.4285
  0
VERTEX
  8
0
 10
15.5799
 20
22.3172
  0
VERTEX
  8
0
 10
15.8931
 20
22.2893
  0
VERTEX
  8
0
 10
16.2168
 20
22.3346
  0
VERTEX
  8
0
 10
16.5475
 20
22.4285
  0
VERTEX
  8
0
 10
16.8851
 20
22.5573
  0
VERTEX
  8
0
 10
17.2227
 20
22.707
  0
VERTEX
  8
0
 10
17.5568
 20
22.8532
  0
VERTEX
  8
0
 10
17.8839
 20
22.9854
  0
VERTEX
  8
0
 10
18.2007
 20
23.0794
  0
VERTEX
  8
0
 10
18.4582
 20
23.3509
  0
VERTEX
  8
0
 10
18.7332
 20
23.6015
  0
VERTEX
  8
0
 10
19.0221
 20
23.8381
  0
VERTEX
  8
0
 10
19.3179
 20
24.0643
  0
VERTEX
  8
0
 10
19.6242
 20
24.2801
  0
VERTEX
  8
0
 10
19.9374
 20
24.489
  0
VERTEX
  8
0
 10
20.2506
 20
24.6943
  0
VERTEX
  8
0
 10
20.5674
 20
24.8962
  0
VERTEX
  8
0
 10
20.8841
 20
25.098
  0
VERTEX
  8
0
 10
21.1973
 20
25.3034
  0
VERTEX
  8
0
 10
21.3157
 20
25.4008
  0
VERTEX
  8
0
 10
21.4444
 20
25.4948
  0
VERTEX
  8
0
 10
21.5767
 20
25.5957
  0
VERTEX
  8
0
 10
21.709
 20
25.7002
  0
VERTEX
  8
0
 10
21.8308
 20
25.8185
  0
VERTEX
  8
0
 10
21.9421
 20
25.9507
  0
VERTEX
  8
0
 10
22.0326
 20
26.1004
  0
VERTEX
  8
0
 10
22.1022
 20
26.2744
  0
VERTEX
  8
0
 10
22.1405
 20
26.4728
  0
VERTEX
  8
0
 10
22.1405
 20
26.699
  0
VERTEX
  8
0
 10
22.1579
 20
26.7373
  0
VERTEX
  8
0
 10
22.1719
 20
26.7826
  0
VERTEX
  8
0
 10
22.1823
 20
26.8313
  0
VERTEX
  8
0
 10
22.1927
 20
26.887
  0
VERTEX
  8
0
 10
22.1962
 20
26.9496
  0
VERTEX
  8
0
 10
22.1962
 20
27.0123
  0
VERTEX
  8
0
 10
22.1962
 20
27.0819
  0
VERTEX
  8
0
 10
22.1823
 20
27.1515
  0
VERTEX
  8
0
 10
22.1684
 20
27.2246
  0
VERTEX
  8
0
 10
22.1405
 20
27.2977
  0
VERTEX
  8
0
 10
22.1162
 20
27.329
  0
VERTEX
  8
0
 10
22.0918
 20
27.3708
  0
VERTEX
  8
0
 10
22.0674
 20
27.423
  0
VERTEX
  8
0
 10
22.0396
 20
27.4787
  0
VERTEX
  8
0
 10
22.0117
 20
27.5413
  0
VERTEX
  8
0
 10
21.9804
 20
27.604
  0
VERTEX
  8
0
 10
21.9421
 20
27.6666
  0
VERTEX
  8
0
 10
21.8969
 20
27.7258
  0
VERTEX
  8
0
 10
21.8412
 20
27.7849
  0
VERTEX
  8
0
 10
21.7751
 20
27.8337
  0
VERTEX
  8
0
 10
21.7159
 20
27.8928
  0
VERTEX
  8
0
 10
21.6741
 20
27.959
  0
VERTEX
  8
0
 10
21.6498
 20
28.0251
  0
VERTEX
  8
0
 10
21.6359
 20
28.0947
  0
VERTEX
  8
0
 10
21.6428
 20
28.1678
  0
VERTEX
  8
0
 10
21.6602
 20
28.2339
  0
VERTEX
  8
0
 10
21.6915
 20
28.3
  0
VERTEX
  8
0
 10
21.7368
 20
28.3557
  0
VERTEX
  8
0
 10
21.7994
 20
28.4045
  0
VERTEX
  8
0
 10
21.8725
 20
28.4462
  0
VERTEX
  8
0
 10
21.8865
 20
28.5193
  0
VERTEX
  8
0
 10
21.8899
 20
28.5924
  0
VERTEX
  8
0
 10
21.8899
 20
28.6655
  0
VERTEX
  8
0
 10
21.8865
 20
28.7351
  0
VERTEX
  8
0
 10
21.883
 20
28.8082
  0
VERTEX
  8
0
 10
21.876
 20
28.8813
  0
VERTEX
  8
0
 10
21.8691
 20
28.9544
  0
VERTEX
  8
0
 10
21.8656
 20
29.0275
  0
VERTEX
  8
0
 10
21.8656
 20
29.1005
  0
VERTEX
  8
0
 10
21.8725
 20
29.1702
  0
VERTEX
  8
0
 10
21.9352
 20
29.4068
  0
VERTEX
  8
0
 10
22.0605
 20
29.5983
  0
VERTEX
  8
0
 10
22.2345
 20
29.7479
  0
VERTEX
  8
0
 10
22.4468
 20
29.8488
  0
VERTEX
  8
0
 10
22.6765
 20
29.9011
  0
VERTEX
  8
0
 10
22.9132
 20
29.9011
  0
VERTEX
  8
0
 10
23.1429
 20
29.8523
  0
VERTEX
  8
0
 10
23.3517
 20
29.7479
  0
VERTEX
  8
0
 10
23.5223
 20
29.5878
  0
VERTEX
  8
0
 10
23.6441
 20
29.3685
  0
VERTEX
  8
0
 10
23.7102
 20
29.3094
  0
VERTEX
  8
0
 10
23.7485
 20
29.2328
  0
VERTEX
  8
0
 10
23.7624
 20
29.1458
  0
VERTEX
  8
0
 10
23.7694
 20
29.0483
  0
VERTEX
  8
0
 10
23.7624
 20
28.9509
  0
VERTEX
  8
0
 10
23.7589
 20
28.8569
  0
VERTEX
  8
0
 10
23.7555
 20
28.7699
  0
VERTEX
  8
0
 10
23.7659
 20
28.6933
  0
VERTEX
  8
0
 10
23.7937
 20
28.6342
  0
VERTEX
  8
0
 10
23.8425
 20
28.5994
  0
SEQEND
  0
ENDSEC
  0
EOF