  0
SECTION
  2
HEADER
  9
$ACADVER
  1
AC1009
  0
ENDSEC
  0
SECTION
  2
TABLES
  0
TABLE
  2
STYLE
 70
   1
  0
STYLE
  2
STANDARD
 70
    64
 40
0.0
 41
1.0
 50
0.0
 71
     0
 42
1.0
  3
txt
  4

  0
ENDTAB
  0
ENDSEC
  0
SECTION
  2
ENTITIES
  0
ARC
  8
0
 10
21.5
 20
241.5
 40
1.5
 50
180
 51
270
  0
ARC
  8
0
 10
42.5
 20
241.5
 40
1.5
 50
270
 51
360
  0
ARC
  8
0
 10
42.5
 20
262.5
 40
1.5
 50
0
 51
90
  0
ARC
  8
0
 10
21.5
 20
262.5
 40
1.5
 50
90
 51
180
  0
POLYLINE
  8
0
 66
     1
 10
0
 20
0
  0
VERTEX
  8
0
 10
21.5
 20
240
  0
VERTEX
  8
0
 10
42.5
 20
240
  0
SEQEND
  0
POLYLINE
  8
0
 66
     1
 10
0
 20
0
  0
VERTEX
  8
0
 10
44
 20
241.5
  0
VERTEX
  8
0
 10
44
 20
262.5
  0
SEQEND
  0
POLYLINE
  8
0
 66
     1
 10
0
 20
0
  0
VERTEX
  8
0
 10
42.5
 20
264
  0
VERTEX
  8
0
 10
21.5
 20
264
  0
SEQEND
  0
POLYLINE
  8
0
 66
     1
 10
0
 20
0
  0
VERTEX
  8
0
 10
20
 20
262.5
  0
VERTEX
  8
0
 10
20
 20
241.5
  0
SEQEND
  0
ARC
  8
0
 10
21.5
 20
241.5
 40
1.5
 50
180
 51
270
  0
ARC
  8
0
 10
21.5
 20
241.5
 40
1
 50
180
 51
270
  0
ARC
  8
0
 10
42.5
 20
241.5
 40
1.5
 50
270
 51
360
  0
ARC
  8
0
 10
42.5
 20
241.5
 40
1
 50
270
 51
360
  0
ARC
  8
0
 10
42.5
 20
262.5
 40
1.5
 50
0
 51
90
  0
ARC
  8
0
 10
42.5
 20
262.5
 40
1
 50
0
 51
90
  0
ARC
  8
0
 10
21.5
 20
262.5
 40
1.5
 50
90
 51
180
  0
ARC
  8
0
 10
21.5
 20
262.5
 40
1
 50
90
 51
180
  0
POLYLINE
  8
0
 66
     1
 10
0
 20
0
  0
VERTEX
  8
0
 10
21.5
 20
240.5
  0
VERTEX
  8
0
 10
42.5
 20
240.5
  0
SEQEND
  0
POLYLINE
  8
0
 66
     1
 10
0
 20
0
  0
VERTEX
  8
0
 10
42.5
 20
240
  0
VERTEX
  8
0
 10
21.5
 20
240
  0
SEQEND
  0
POLYLINE
  8
0
 66
     1
 10
0
 20
0
  0
VERTEX
  8
0
 10
43.5
 20
241.5
  0
VERTEX
  8
0
 10
43.5
 20
262.5
  0
SEQEND
  0
POLYLINE
  8
0
 66
     1
 10
0
 20
0
  0
VERTEX
  8
0
 10
44
 20
262.5
  0
VERTEX
  8
0
 10
44
 20
241.5
  0
SEQEND
  0
POLYLINE
  8
0
 66
     1
 10
0
 20
0
  0
VERTEX
  8
0
 10
42.5
 20
263.5
  0
VERTEX
  8
0
 10
21.5
 20
263.5
  0
SEQEND
  0
POLYLINE
  8
0
 66
     1
 10
0
 20
0
  0
VERTEX
  8
0
 10
21.5
 20
264
  0
VERTEX
  8
0
 10
42.5
 20
264
  0
SEQEND
  0
POLYLINE
  8
0
 66
     1
 10
0
 20
0
  0
VERTEX
  8
0
 10
20.5
 20
262.5
  0
VERTEX
  8
0
 10
20.5
 20
241.5
  0
SEQEND
  0
POLYLINE
  8
0
 66
     1
 10
0
 20
0
  0
VERTEX
  8
0
 10
20
 20
241.5
  0
VERTEX
  8
0
 10
20
 20
262.5
  0
SEQEND
  0
POLYLINE
  8
0
 66
     1
 10
0
 20
0
  0
VERTEX
  8
0
 10
45.9032
 20
261.3443
  0
VERTEX
  8
0
 10
45.6992
 20
261.3443
  0
VERTEX
  8
0
 10
45.6992
 20
260.9843
  0
VERTEX
  8
0
 10
45.6072
 20
260.9843
  0
VERTEX
  8
0
 10
45.0712
 20
261.3618
  0
VERTEX
  8
0
 10
45.0712
 20
261.4443
  0
VERTEX
  8
0
 10
45.6072
 20
261.4443
  0
VERTEX
  8
0
 10
45.6072
 20
261.5564
  0
VERTEX
  8
0
 10
45.6992
 20
261.5564
  0
VERTEX
  8
0
 10
45.6992
 20
261.4443
  0
VERTEX
  8
0
 10
45.9032
 20
261.4443
  0
VERTEX
  8
0
 10
45.9032
 20
261.3443
  0
SEQEND
  0
POLYLINE
  8
0
 66
     1
 10
0
 20
0
  0
VERTEX
  8
0
 10
45.6072
 20
261.3443
  0
VERTEX
  8
0
 10
45.2279
 20
261.3443
  0
VERTEX
  8
0
 10
45.6081
 20
261.0815
  0
VERTEX
  8
0
 10
45.6072
 20
261.3443
  0
SEQEND
  0
POLYLINE
  8
0
 66
     1
 10
0
 20
0
  0
VERTEX
  8
0
 10
45.9032
 20
261.7123
  0
VERTEX
  8
0
 10
45.7832
 20
261.7123
  0
VERTEX
  8
0
 10
45.7832
 20
261.8283
  0
VERTEX
  8
0
 10
45.9032
 20
261.8283
  0
VERTEX
  8
0
 10
45.9032
 20
261.7123
  0
SEQEND
  0
POLYLINE
  8
0
 66
     1
 10
0
 20
0
  0
VERTEX
  8
0
 10
45.6827
 20
261.9763
  0
VERTEX
  8
0
 10
45.6735
 20
262.0828
  0
VERTEX
  8
0
 10
45.7066
 20
262.0894
  0
VERTEX
  8
0
 10
45.7358
 20
262.0988
  0
VERTEX
  8
0
 10
45.7612
 20
262.111
  0
VERTEX
  8
0
 10
45.7826
 20
262.1259
  0
VERTEX
  8
0
 10
45.8001
 20
262.1435
  0
VERTEX
  8
0
 10
45.8137
 20
262.1639
  0
VERTEX
  8
0
 10
45.8234
 20
262.1871
  0
VERTEX
  8
0
 10
45.8293
 20
262.213
  0
VERTEX
  8
0
 10
45.8312
 20
262.2417
  0
VERTEX
  8
0
 10
45.8243
 20
262.2921
  0
VERTEX
  8
0
 10
45.8035
 20
262.3353
  0
VERTEX
  8
0
 10
45.7687
 20
262.3713
  0
VERTEX
  8
0
 10
45.7051
 20
262.4051
  0
VERTEX
  8
0
 10
45.6279
 20
262.4163
  0
VERTEX
  8
0
 10
45.5518
 20
262.4046
  0
VERTEX
  8
0
 10
45.4918
 20
262.3696
  0
VERTEX
  8
0
 10
45.4628
 20
262.3344
  0
VERTEX
  8
0
 10
45.4453
 20
262.2912
  0
VERTEX
  8
0
 10
45.4392
 20
262.24
  0
VERTEX
  8
0
 10
45.4441
 20
262.1943
  0
VERTEX
  8
0
 10
45.4593
 20
262.154
  0
VERTEX
  8
0
 10
45.4848
 20
262.1191
  0
VERTEX
  8
0
 10
45.5207
 20
262.0896
  0
VERTEX
  8
0
 10
45.5082
 20
261.9944
  0
VERTEX
  8
0
 10
45.0832
 20
262.0745
  0
VERTEX
  8
0
 10
45.0832
 20
262.4858
  0
VERTEX
  8
0
 10
45.1792
 20
262.4858
  0
VERTEX
  8
0
 10
45.1792
 20
262.1582
  0
VERTEX
  8
0
 10
45.4029
 20
262.1119
  0
VERTEX
  8
0
 10
45.3644
 20
262.188
  0
VERTEX
  8
0
 10
45.3512
 20
262.2678
  0
VERTEX
  8
0
 10
45.3559
 20
262.3216
  0
VERTEX
  8
0
 10
45.3705
 20
262.3705
  0
VERTEX
  8
0
 10
45.3949
 20
262.4144
  0
VERTEX
  8
0
 10
45.4293
 20
262.4534
  0
VERTEX
  8
0
 10
45.4699
 20
262.4845
  0
VERTEX
  8
0
 10
45.5151
 20
262.5066
  0
VERTEX
  8
0
 10
45.5652
 20
262.5199
  0
VERTEX
  8
0
 10
45.6199
 20
262.5243
  0
VERTEX
  8
0
 10
45.6913
 20
262.5171
  0
VERTEX
  8
0
 10
45.7562
 20
262.4953
  0
VERTEX
  8
0
 10
45.8145
 20
262.4589
  0
VERTEX
  8
0
 10
45.8506
 20
262.4248
  0
VERTEX
  8
0
 10
45.8787
 20
262.3861
  0
VERTEX
  8
0
 10
45.8989
 20
262.3426
  0
VERTEX
  8
0
 10
45.911
 20
262.2946
  0
VERTEX
  8
0
 10
45.9152
 20
262.2419
  0
VERTEX
  8
0
 10
45.9085
 20
262.1728
  0
VERTEX
  8
0
 10
45.8882
 20
262.1123
  0
VERTEX
  8
0
 10
45.8544
 20
262.0603
  0
VERTEX
  8
0
 10
45.8075
 20
262.0184
  0
VERTEX
  8
0
 10
45.7503
 20
261.9904
  0
VERTEX
  8
0
 10
45.6827
 20
261.9763
  0
VERTEX
  8
0
 10
45.6827
 20
261.9763
  0
SEQEND
  0
LINE
  8
0
 10
45.5
 20
262.7202
 11
45.5
 21
264
  0
LINE
  8
0
 10
45.6789
 20
263.6422
 11
45.5
 21
264
  0
LINE
  8
0
 10
45.3211
 20
263.6422
 11
45.5
 21
264
  0
LINE
  8
0
 10
45.7
 20
264
 11
44.5
 21
264
  0
LINE
  8
0
 10
45.5
 20
260.7788
 11
45.5
 21
259.499
  0
LINE
  8
0
 10
45.3211
 20
259.8568
 11
45.5
 21
259.499
  0
LINE
  8
0
 10
45.6789
 20
259.8568
 11
45.5
 21
259.499
  0
LINE
  8
0
 10
45.7
 20
259.499
 11
44.5
 21
259.499
  0
POLYLINE
  8
0
 66
     1
 10
0
 20
0
  0
VERTEX
  8
0
 10
45.9032
 20
251.7563
  0
VERTEX
  8
0
 10
45.9032
 20
251.6563
  0
VERTEX
  8
0
 10
45.2521
 20
251.6563
  0
VERTEX
  8
0
 10
45.3208
 20
251.5651
  0
VERTEX
  8
0
 10
45.3745
 20
251.4523
  0
VERTEX
  8
0
 10
45.2759
 20
251.4523
  0
VERTEX
  8
0
 10
45.2469
 20
251.508
  0
VERTEX
  8
0
 10
45.2157
 20
251.5574
  0
VERTEX
  8
0
 10
45.182
 20
251.6004
  0
VERTEX
  8
0
 10
45.1461
 20
251.637
  0
VERTEX
  8
0
 10
45.1078
 20
251.6672
  0
VERTEX
  8
0
 10
45.0672
 20
251.691
  0
VERTEX
  8
0
 10
45.0672
 20
251.7563
  0
VERTEX
  8
0
 10
45.9032
 20
251.7563
  0
SEQEND
  0
POLYLINE
  8
0
 66
     1
 10
0
 20
0
  0
VERTEX
  8
0
 10
45.6827
 20
252.0083
  0
VERTEX
  8
0
 10
45.6735
 20
252.1148
  0
VERTEX
  8
0
 10
45.7066
 20
252.1214
  0
VERTEX
  8
0
 10
45.7358
 20
252.1308
  0
VERTEX
  8
0
 10
45.7612
 20
252.143
  0
VERTEX
  8
0
 10
45.7826
 20
252.1579
  0
VERTEX
  8
0
 10
45.8001
 20
252.1755
  0
VERTEX
  8
0
 10
45.8137
 20
252.1959
  0
VERTEX
  8
0
 10
45.8234
 20
252.2191
  0
VERTEX
  8
0
 10
45.8293
 20
252.245
  0
VERTEX
  8
0
 10
45.8312
 20
252.2737
  0
VERTEX
  8
0
 10
45.8243
 20
252.3241
  0
VERTEX
  8
0
 10
45.8035
 20
252.3673
  0
VERTEX
  8
0
 10
45.7687
 20
252.4033
  0
VERTEX
  8
0
 10
45.7051
 20
252.4371
  0
VERTEX
  8
0
 10
45.6279
 20
252.4483
  0
VERTEX
  8
0
 10
45.5518
 20
252.4366
  0
VERTEX
  8
0
 10
45.4918
 20
252.4016
  0
VERTEX
  8
0
 10
45.4628
 20
252.3664
  0
VERTEX
  8
0
 10
45.4453
 20
252.3232
  0
VERTEX
  8
0
 10
45.4392
 20
252.272
  0
VERTEX
  8
0
 10
45.4441
 20
252.2263
  0
VERTEX
  8
0
 10
45.4593
 20
252.186
  0
VERTEX
  8
0
 10
45.4848
 20
252.1511
  0
VERTEX
  8
0
 10
45.5207
 20
252.1216
  0
VERTEX
  8
0
 10
45.5082
 20
252.0264
  0
VERTEX
  8
0
 10
45.0832
 20
252.1065
  0
VERTEX
  8
0
 10
45.0832
 20
252.5178
  0
VERTEX
  8
0
 10
45.1792
 20
252.5178
  0
VERTEX
  8
0
 10
45.1792
 20
252.1902
  0
VERTEX
  8
0
 10
45.4029
 20
252.1439
  0
VERTEX
  8
0
 10
45.3644
 20
252.22
  0
VERTEX
  8
0
 10
45.3512
 20
252.2998
  0
VERTEX
  8
0
 10
45.3559
 20
252.3536
  0
VERTEX
  8
0
 10
45.3705
 20
252.4025
  0
VERTEX
  8
0
 10
45.3949
 20
252.4464
  0
VERTEX
  8
0
 10
45.4293
 20
252.4854
  0
VERTEX
  8
0
 10
45.4699
 20
252.5165
  0
VERTEX
  8
0
 10
45.5151
 20
252.5386
  0
VERTEX
  8
0
 10
45.5652
 20
252.5519
  0
VERTEX
  8
0
 10
45.6199
 20
252.5563
  0
VERTEX
  8
0
 10
45.6913
 20
252.5491
  0
VERTEX
  8
0
 10
45.7562
 20
252.5273
  0
VERTEX
  8
0
 10
45.8145
 20
252.4909
  0
VERTEX
  8
0
 10
45.8506
 20
252.4568
  0
VERTEX
  8
0
 10
45.8787
 20
252.4181
  0
VERTEX
  8
0
 10
45.8989
 20
252.3746
  0
VERTEX
  8
0
 10
45.911
 20
252.3266
  0
VERTEX
  8
0
 10
45.9152
 20
252.2739
  0
VERTEX
  8
0
 10
45.9085
 20
252.2048
  0
VERTEX
  8
0
 10
45.8882
 20
252.1443
  0
VERTEX
  8
0
 10
45.8544
 20
252.0923
  0
VERTEX
  8
0
 10
45.8075
 20
252.0504
  0
VERTEX
  8
0
 10
45.7503
 20
252.0224
  0
VERTEX
  8
0
 10
45.6827
 20
252.0083
  0
VERTEX
  8
0
 10
45.6827
 20
252.0083
  0
SEQEND
  0
LINE
  8
0
 10
45.5
 20
252.7529
 11
45.5
 21
259.499
  0
LINE
  8
0
 10
45.6789
 20
259.1412
 11
45.5
 21
259.499
  0
LINE
  8
0
 10
45.3211
 20
259.1412
 11
45.5
 21
259.499
  0
LINE
  8
0
 10
45.5
 20
251.2471
 11
45.5
 21
244.501
  0
LINE
  8
0
 10
45.3211
 20
244.8588
 11
45.5
 21
244.501
  0
LINE
  8
0
 10
45.6789
 20
244.8588
 11
45.5
 21
244.501
  0
LINE
  8
0
 10
45.7
 20
244.501
 11
44.5
 21
244.501
  0
POLYLINE
  8
0
 66
     1
 10
0
 20
0
  0
VERTEX
  8
0
 10
21.2752
 20
238.1963
  0
VERTEX
  8
0
 10
21.2752
 20
238.1003
  0
VERTEX
  8
0
 10
20.7312
 20
238.1003
  0
VERTEX
  8
0
 10
20.7353
 20
238.1443
  0
VERTEX
  8
0
 10
20.7497
 20
238.1893
  0
VERTEX
  8
0
 10
20.7744
 20
238.2352
  0
VERTEX
  8
0
 10
20.8094
 20
238.2822
  0
VERTEX
  8
0
 10
20.866
 20
238.3416
  0
VERTEX
  8
0
 10
20.9422
 20
238.4084
  0
VERTEX
  8
0
 10
21.003
 20
238.4598
  0
VERTEX
  8
0
 10
21.051
 20
238.5034
  0
VERTEX
  8
0
 10
21.0863
 20
238.5391
  0
VERTEX
  8
0
 10
21.1235
 20
238.5846
  0
VERTEX
  8
0
 10
21.15
 20
238.6279
  0
VERTEX
  8
0
 10
21.1659
 20
238.669
  0
VERTEX
  8
0
 10
21.1712
 20
238.7079
  0
VERTEX
  8
0
 10
21.1597
 20
238.7666
  0
VERTEX
  8
0
 10
21.1251
 20
238.8131
  0
VERTEX
  8
0
 10
21.0759
 20
238.8422
  0
VERTEX
  8
0
 10
21.016
 20
238.8523
  0
VERTEX
  8
0
 10
20.9487
 20
238.8414
  0
VERTEX
  8
0
 10
20.8978
 20
238.8073
  0
VERTEX
  8
0
 10
20.8656
 20
238.7539
  0
VERTEX
  8
0
 10
20.8545
 20
238.6849
  0
VERTEX
  8
0
 10
20.7504
 20
238.6957
  0
VERTEX
  8
0
 10
20.7592
 20
238.7507
  0
VERTEX
  8
0
 10
20.7756
 20
238.7988
  0
VERTEX
  8
0
 10
20.7995
 20
238.8401
  0
VERTEX
  8
0
 10
20.8309
 20
238.8744
  0
VERTEX
  8
0
 10
20.8829
 20
238.9088
  0
VERTEX
  8
0
 10
20.9454
 20
238.9294
  0
VERTEX
  8
0
 10
21.0182
 20
238.9363
  0
VERTEX
  8
0
 10
21.0867
 20
238.9297
  0
VERTEX
  8
0
 10
21.1469
 20
238.9097
  0
VERTEX
  8
0
 10
21.1987
 20
238.8765
  0
VERTEX
  8
0
 10
21.2322
 20
238.8418
  0
VERTEX
  8
0
 10
21.2561
 20
238.8016
  0
VERTEX
  8
0
 10
21.2705
 20
238.7558
  0
VERTEX
  8
0
 10
21.2752
 20
238.7044
  0
VERTEX
  8
0
 10
21.2698
 20
238.6545
  0
VERTEX
  8
0
 10
21.2533
 20
238.6045
  0
VERTEX
  8
0
 10
21.2259
 20
238.5543
  0
VERTEX
  8
0
 10
21.1876
 20
238.5039
  0
VERTEX
  8
0
 10
21.1488
 20
238.4631
  0
VERTEX
  8
0
 10
21.0969
 20
238.4141
  0
VERTEX
  8
0
 10
21.0319
 20
238.3569
  0
VERTEX
  8
0
 10
20.9899
 20
238.3211
  0
VERTEX
  8
0
 10
20.9612
 20
238.2962
  0
VERTEX
  8
0
 10
20.9459
 20
238.2823
  0
VERTEX
  8
0
 10
20.9039
 20
238.2386
  0
VERTEX
  8
0
 10
20.8723
 20
238.1963
  0
VERTEX
  8
0
 10
21.2752
 20
238.1963
  0
SEQEND
  0
LINE
  8
0
 10
21.4743
 20
238.5
 11
22
 21
238.5
  0
LINE
  8
0
 10
21.6422
 20
238.3211
 11
22
 21
238.5
  0
LINE
  8
0
 10
21.6422
 20
238.6789
 11
22
 21
238.5
  0
LINE
  8
0
 10
22
 20
238.3
 11
22
 21
239.5
  0
LINE
  8
0
 10
20.5257
 20
238.5
 11
20
 21
238.5
  0
LINE
  8
0
 10
20.3578
 20
238.6789
 11
20
 21
238.5
  0
LINE
  8
0
 10
20.3578
 20
238.3211
 11
20
 21
238.5
  0
LINE
  8
0
 10
20
 20
238.3
 11
20
 21
239.5
  0
POLYLINE
  8
0
 66
     1
 10
0
 20
0
  0
VERTEX
  8
0
 10
31.9472
 20
238.1963
  0
VERTEX
  8
0
 10
31.9472
 20
238.1003
  0
VERTEX
  8
0
 10
31.4032
 20
238.1003
  0
VERTEX
  8
0
 10
31.4073
 20
238.1443
  0
VERTEX
  8
0
 10
31.4217
 20
238.1893
  0
VERTEX
  8
0
 10
31.4464
 20
238.2352
  0
VERTEX
  8
0
 10
31.4814
 20
238.2822
  0
VERTEX
  8
0
 10
31.538
 20
238.3416
  0
VERTEX
  8
0
 10
31.6142
 20
238.4084
  0
VERTEX
  8
0
 10
31.675
 20
238.4598
  0
VERTEX
  8
0
 10
31.723
 20
238.5034
  0
VERTEX
  8
0
 10
31.7583
 20
238.5391
  0
VERTEX
  8
0
 10
31.7955
 20
238.5846
  0
VERTEX
  8
0
 10
31.822
 20
238.6279
  0
VERTEX
  8
0
 10
31.8379
 20
238.669
  0
VERTEX
  8
0
 10
31.8432
 20
238.7079
  0
VERTEX
  8
0
 10
31.8317
 20
238.7666
  0
VERTEX
  8
0
 10
31.7971
 20
238.8131
  0
VERTEX
  8
0
 10
31.7479
 20
238.8422
  0
VERTEX
  8
0
 10
31.688
 20
238.8523
  0
VERTEX
  8
0
 10
31.6207
 20
238.8414
  0
VERTEX
  8
0
 10
31.5698
 20
238.8073
  0
VERTEX
  8
0
 10
31.5376
 20
238.7539
  0
VERTEX
  8
0
 10
31.5265
 20
238.6849
  0
VERTEX
  8
0
 10
31.4224
 20
238.6957
  0
VERTEX
  8
0
 10
31.4312
 20
238.7507
  0
VERTEX
  8
0
 10
31.4476
 20
238.7988
  0
VERTEX
  8
0
 10
31.4715
 20
238.8401
  0
VERTEX
  8
0
 10
31.5029
 20
238.8744
  0
VERTEX
  8
0
 10
31.5549
 20
238.9088
  0
VERTEX
  8
0
 10
31.6174
 20
238.9294
  0
VERTEX
  8
0
 10
31.6902
 20
238.9363
  0
VERTEX
  8
0
 10
31.7587
 20
238.9297
  0
VERTEX
  8
0
 10
31.8189
 20
238.9097
  0
VERTEX
  8
0
 10
31.8707
 20
238.8765
  0
VERTEX
  8
0
 10
31.9042
 20
238.8418
  0
VERTEX
  8
0
 10
31.9281
 20
238.8016
  0
VERTEX
  8
0
 10
31.9425
 20
238.7558
  0
VERTEX
  8
0
 10
31.9472
 20
238.7044
  0
VERTEX
  8
0
 10
31.9418
 20
238.6545
  0
VERTEX
  8
0
 10
31.9253
 20
238.6045
  0
VERTEX
  8
0
 10
31.8979
 20
238.5543
  0
VERTEX
  8
0
 10
31.8595
 20
238.5039
  0
VERTEX
  8
0
 10
31.8208
 20
238.4631
  0
VERTEX
  8
0
 10
31.7689
 20
238.4141
  0
VERTEX
  8
0
 10
31.7039
 20
238.3569
  0
VERTEX
  8
0
 10
31.6619
 20
238.3211
  0
VERTEX
  8
0
 10
31.6332
 20
238.2962
  0
VERTEX
  8
0
 10
31.6179
 20
238.2823
  0
VERTEX
  8
0
 10
31.5759
 20
238.2386
  0
VERTEX
  8
0
 10
31.5443
 20
238.1963
  0
VERTEX
  8
0
 10
31.9472
 20
238.1963
  0
SEQEND
  0
POLYLINE
  8
0
 66
     1
 10
0
 20
0
  0
VERTEX
  8
0
 10
32.0592
 20
238.512
  0
VERTEX
  8
0
 10
32.0604
 20
238.5656
  0
VERTEX
  8
0
 10
32.064
 20
238.6157
  0
VERTEX
  8
0
 10
32.07
 20
238.6622
  0
VERTEX
  8
0
 10
32.0784
 20
238.7051
  0
VERTEX
  8
0
 10
32.0892
 20
238.7444
  0
VERTEX
  8
0
 10
32.1023
 20
238.7802
  0
VERTEX
  8
0
 10
32.1179
 20
238.8124
  0
VERTEX
  8
0
 10
32.1359
 20
238.8411
  0
VERTEX
  8
0
 10
32.1562
 20
238.8661
  0
VERTEX
  8
0
 10
32.179
 20
238.8876
  0
VERTEX
  8
0
 10
32.2459
 20
238.9239
  0
VERTEX
  8
0
 10
32.3292
 20
238.9363
  0
VERTEX
  8
0
 10
32.3909
 20
238.9298
  0
VERTEX
  8
0
 10
32.4462
 20
238.9091
  0
VERTEX
  8
0
 10
32.4819
 20
238.8849
  0
VERTEX
  8
0
 10
32.5132
 20
238.8527
  0
VERTEX
  8
0
 10
32.5401
 20
238.8125
  0
VERTEX
  8
0
 10
32.5626
 20
238.7643
  0
VERTEX
  8
0
 10
32.5806
 20
238.708
  0
VERTEX
  8
0
 10
32.5946
 20
238.6233
  0
VERTEX
  8
0
 10
32.5992
 20
238.512
  0
VERTEX
  8
0
 10
32.598
 20
238.4585
  0
VERTEX
  8
0
 10
32.5944
 20
238.4085
  0
VERTEX
  8
0
 10
32.5885
 20
238.3622
  0
VERTEX
  8
0
 10
32.5801
 20
238.3193
  0
VERTEX
  8
0
 10
32.5693
 20
238.28
  0
VERTEX
  8
0
 10
32.5561
 20
238.2443
  0
VERTEX
  8
0
 10
32.5406
 20
238.2122
  0
VERTEX
  8
0
 10
32.5226
 20
238.1835
  0
VERTEX
  8
0
 10
32.5022
 20
238.1585
  0
VERTEX
  8
0
 10
32.4795
 20
238.137
  0
VERTEX
  8
0
 10
32.4125
 20
238.1008
  0
VERTEX
  8
0
 10
32.3292
 20
238.0883
  0
VERTEX
  8
0
 10
32.3081
 20
238.0889
  0
VERTEX
  8
0
 10
32.2878
 20
238.0909
  0
VERTEX
  8
0
 10
32.2684
 20
238.0942
  0
VERTEX
  8
0
 10
32.2499
 20
238.0989
  0
VERTEX
  8
0
 10
32.2322
 20
238.1049
  0
VERTEX
  8
0
 10
32.2154
 20
238.1123
  0
VERTEX
  8
0
 10
32.1994
 20
238.1211
  0
VERTEX
  8
0
 10
32.1843
 20
238.1312
  0
VERTEX
  8
0
 10
32.1701
 20
238.1427
  0
VERTEX
  8
0
 10
32.1567
 20
238.1556
  0
VERTEX
  8
0
 10
32.1442
 20
238.1698
  0
VERTEX
  8
0
 10
32.1325
 20
238.1854
  0
VERTEX
  8
0
 10
32.1217
 20
238.2023
  0
VERTEX
  8
0
 10
32.1118
 20
238.2206
  0
VERTEX
  8
0
 10
32.1027
 20
238.2403
  0
VERTEX
  8
0
 10
32.0945
 20
238.2613
  0
VERTEX
  8
0
 10
32.0871
 20
238.2837
  0
VERTEX
  8
0
 10
32.0806
 20
238.3075
  0
VERTEX
  8
0
 10
32.075
 20
238.3326
  0
VERTEX
  8
0
 10
32.0702
 20
238.3591
  0
VERTEX
  8
0
 10
32.0663
 20
238.387
  0
VERTEX
  8
0
 10
32.0632
 20
238.4162
  0
VERTEX
  8
0
 10
32.061
 20
238.4468
  0
VERTEX
  8
0
 10
32.0597
 20
238.4787
  0
VERTEX
  8
0
 10
32.0592
 20
238.512
  0
VERTEX
  8
0
 10
32.0592
 20
238.512
  0
SEQEND
  0
POLYLINE
  8
0
 66
     1
 10
0
 20
0
  0
VERTEX
  8
0
 10
32.1632
 20
238.5123
  0
VERTEX
  8
0
 10
32.1657
 20
238.4271
  0
VERTEX
  8
0
 10
32.1731
 20
238.3564
  0
VERTEX
  8
0
 10
32.1854
 20
238.3004
  0
VERTEX
  8
0
 10
32.1976
 20
238.2665
  0
VERTEX
  8
0
 10
32.2126
 20
238.2379
  0
VERTEX
  8
0
 10
32.2304
 20
238.2144
  0
VERTEX
  8
0
 10
32.2509
 20
238.1961
  0
VERTEX
  8
0
 10
32.2743
 20
238.183
  0
VERTEX
  8
0
 10
32.3004
 20
238.1751
  0
VERTEX
  8
0
 10
32.3292
 20
238.1723
  0
VERTEX
  8
0
 10
32.3463
 20
238.1732
  0
VERTEX
  8
0
 10
32.3623
 20
238.1759
  0
VERTEX
  8
0
 10
32.3775
 20
238.1805
  0
VERTEX
  8
0
 10
32.3918
 20
238.187
  0
VERTEX
  8
0
 10
32.4051
 20
238.1954
  0
VERTEX
  8
0
 10
32.4175
 20
238.2057
  0
VERTEX
  8
0
 10
32.429
 20
238.2179
  0
VERTEX
  8
0
 10
32.4396
 20
238.232
  0
VERTEX
  8
0
 10
32.4493
 20
238.248
  0
VERTEX
  8
0
 10
32.458
 20
238.2659
  0
VERTEX
  8
0
 10
32.4658
 20
238.2857
  0
VERTEX
  8
0
 10
32.4727
 20
238.3074
  0
VERTEX
  8
0
 10
32.4787
 20
238.331
  0
VERTEX
  8
0
 10
32.4837
 20
238.3565
  0
VERTEX
  8
0
 10
32.4879
 20
238.3839
  0
VERTEX
  8
0
 10
32.4911
 20
238.4131
  0
VERTEX
  8
0
 10
32.4934
 20
238.4443
  0
VERTEX
  8
0
 10
32.4948
 20
238.4774
  0
VERTEX
  8
0
 10
32.4952
 20
238.5123
  0
VERTEX
  8
0
 10
32.4928
 20
238.5976
  0
VERTEX
  8
0
 10
32.4854
 20
238.6682
  0
VERTEX
  8
0
 10
32.4731
 20
238.7243
  0
VERTEX
  8
0
 10
32.4607
 20
238.7581
  0
VERTEX
  8
0
 10
32.4456
 20
238.7868
  0
VERTEX
  8
0
 10
32.4276
 20
238.8102
  0
VERTEX
  8
0
 10
32.4069
 20
238.8285
  0
VERTEX
  8
0
 10
32.3834
 20
238.8416
  0
VERTEX
  8
0
 10
32.3572
 20
238.8496
  0
VERTEX
  8
0
 10
32.3281
 20
238.8523
  0
VERTEX
  8
0
 10
32.2844
 20
238.846
  0
VERTEX
  8
0
 10
32.247
 20
238.8261
  0
VERTEX
  8
0
 10
32.2159
 20
238.7928
  0
VERTEX
  8
0
 10
32.2019
 20
238.7688
  0
VERTEX
  8
0
 10
32.1901
 20
238.7394
  0
VERTEX
  8
0
 10
32.1804
 20
238.7047
  0
VERTEX
  8
0
 10
32.1729
 20
238.6646
  0
VERTEX
  8
0
 10
32.1675
 20
238.6192
  0
VERTEX
  8
0
 10
32.1643
 20
238.5684
  0
VERTEX
  8
0
 10
32.1632
 20
238.5123
  0
VERTEX
  8
0
 10
32.1632
 20
238.5123
  0
SEQEND
  0
LINE
  8
0
 10
32.799
 20
238.5
 11
42
 21
238.5
  0
LINE
  8
0
 10
41.6422
 20
238.3211
 11
42
 21
238.5
  0
LINE
  8
0
 10
41.6422
 20
238.6789
 11
42
 21
238.5
  0
LINE
  8
0
 10
42
 20
238.3
 11
42
 21
239.5
  0
LINE
  8
0
 10
31.201
 20
238.5
 11
22
 21
238.5
  0
LINE
  8
0
 10
22.3578
 20
238.6789
 11
22
 21
238.5
  0
LINE
  8
0
 10
22.3578
 20
238.3211
 11
22
 21
238.5
  0
POLYLINE
  8
0
 66
     1
 10
0
 20
0
  0
VERTEX
  8
0
 10
43.2752
 20
238.1963
  0
VERTEX
  8
0
 10
43.2752
 20
238.1003
  0
VERTEX
  8
0
 10
42.7312
 20
238.1003
  0
VERTEX
  8
0
 10
42.7353
 20
238.1443
  0
VERTEX
  8
0
 10
42.7497
 20
238.1893
  0
VERTEX
  8
0
 10
42.7744
 20
238.2352
  0
VERTEX
  8
0
 10
42.8094
 20
238.2822
  0
VERTEX
  8
0
 10
42.866
 20
238.3416
  0
VERTEX
  8
0
 10
42.9422
 20
238.4084
  0
VERTEX
  8
0
 10
43.003
 20
238.4598
  0
VERTEX
  8
0
 10
43.051
 20
238.5034
  0
VERTEX
  8
0
 10
43.0863
 20
238.5391
  0
VERTEX
  8
0
 10
43.1235
 20
238.5846
  0
VERTEX
  8
0
 10
43.15
 20
238.6279
  0
VERTEX
  8
0
 10
43.1659
 20
238.669
  0
VERTEX
  8
0
 10
43.1712
 20
238.7079
  0
VERTEX
  8
0
 10
43.1597
 20
238.7666
  0
VERTEX
  8
0
 10
43.1251
 20
238.8131
  0
VERTEX
  8
0
 10
43.0759
 20
238.8422
  0
VERTEX
  8
0
 10
43.016
 20
238.8523
  0
VERTEX
  8
0
 10
42.9487
 20
238.8414
  0
VERTEX
  8
0
 10
42.8978
 20
238.8073
  0
VERTEX
  8
0
 10
42.8656
 20
238.7539
  0
VERTEX
  8
0
 10
42.8545
 20
238.6849
  0
VERTEX
  8
0
 10
42.7504
 20
238.6957
  0
VERTEX
  8
0
 10
42.7592
 20
238.7507
  0
VERTEX
  8
0
 10
42.7756
 20
238.7988
  0
VERTEX
  8
0
 10
42.7995
 20
238.8401
  0
VERTEX
  8
0
 10
42.8309
 20
238.8744
  0
VERTEX
  8
0
 10
42.8829
 20
238.9088
  0
VERTEX
  8
0
 10
42.9454
 20
238.9294
  0
VERTEX
  8
0
 10
43.0182
 20
238.9363
  0
VERTEX
  8
0
 10
43.0867
 20
238.9297
  0
VERTEX
  8
0
 10
43.1469
 20
238.9097
  0
VERTEX
  8
0
 10
43.1987
 20
238.8765
  0
VERTEX
  8
0
 10
43.2322
 20
238.8418
  0
VERTEX
  8
0
 10
43.2561
 20
238.8016
  0
VERTEX
  8
0
 10
43.2705
 20
238.7558
  0
VERTEX
  8
0
 10
43.2752
 20
238.7044
  0
VERTEX
  8
0
 10
43.2698
 20
238.6545
  0
VERTEX
  8
0
 10
43.2533
 20
238.6045
  0
VERTEX
  8
0
 10
43.2259
 20
238.5543
  0
VERTEX
  8
0
 10
43.1875
 20
238.5039
  0
VERTEX
  8
0
 10
43.1488
 20
238.4631
  0
VERTEX
  8
0
 10
43.0969
 20
238.4141
  0
VERTEX
  8
0
 10
43.0319
 20
238.3569
  0
VERTEX
  8
0
 10
42.9899
 20
238.3211
  0
VERTEX
  8
0
 10
42.9612
 20
238.2962
  0
VERTEX
  8
0
 10
42.9459
 20
238.2823
  0
VERTEX
  8
0
 10
42.9039
 20
238.2386
  0
VERTEX
  8
0
 10
42.8723
 20
238.1963
  0
VERTEX
  8
0
 10
43.2752
 20
238.1963
  0
SEQEND
  0
LINE
  8
0
 10
43.4743
 20
238.5
 11
44
 21
238.5
  0
LINE
  8
0
 10
43.6422
 20
238.3211
 11
44
 21
238.5
  0
LINE
  8
0
 10
43.6422
 20
238.6789
 11
44
 21
238.5
  0
LINE
  8
0
 10
44
 20
238.3
 11
44
 21
239.5
  0
LINE
  8
0
 10
42.5257
 20
238.5
 11
42
 21
238.5
  0
LINE
  8
0
 10
42.3578
 20
238.6789
 11
42
 21
238.5
  0
LINE
  8
0
 10
42.3578
 20
238.3211
 11
42
 21
238.5
  0
LINE
  8
0
 10
42
 20
238.3
 11
42
 21
239.5
  0
POLYLINE
  8
0
 66
     1
 10
0
 20
0
  0
VERTEX
  8
0
 10
45.9032
 20
241.8443
  0
VERTEX
  8
0
 10
45.6992
 20
241.8443
  0
VERTEX
  8
0
 10
45.6992
 20
241.4843
  0
VERTEX
  8
0
 10
45.6072
 20
241.4843
  0
VERTEX
  8
0
 10
45.0712
 20
241.8618
  0
VERTEX
  8
0
 10
45.0712
 20
241.9443
  0
VERTEX
  8
0
 10
45.6072
 20
241.9443
  0
VERTEX
  8
0
 10
45.6072
 20
242.0564
  0
VERTEX
  8
0
 10
45.6992
 20
242.0564
  0
VERTEX
  8
0
 10
45.6992
 20
241.9443
  0
VERTEX
  8
0
 10
45.9032
 20
241.9443
  0
VERTEX
  8
0
 10
45.9032
 20
241.8443
  0
SEQEND
  0
POLYLINE
  8
0
 66
     1
 10
0
 20
0
  0
VERTEX
  8
0
 10
45.6072
 20
241.8443
  0
VERTEX
  8
0
 10
45.2279
 20
241.8443
  0
VERTEX
  8
0
 10
45.6081
 20
241.5815
  0
VERTEX
  8
0
 10
45.6072
 20
241.8443
  0
SEQEND
  0
POLYLINE
  8
0
 66
     1
 10
0
 20
0
  0
VERTEX
  8
0
 10
45.9032
 20
242.2123
  0
VERTEX
  8
0
 10
45.7832
 20
242.2123
  0
VERTEX
  8
0
 10
45.7832
 20
242.3283
  0
VERTEX
  8
0
 10
45.9032
 20
242.3283
  0
VERTEX
  8
0
 10
45.9032
 20
242.2123
  0
SEQEND
  0
POLYLINE
  8
0
 66
     1
 10
0
 20
0
  0
VERTEX
  8
0
 10
45.6827
 20
242.4763
  0
VERTEX
  8
0
 10
45.6735
 20
242.5828
  0
VERTEX
  8
0
 10
45.7066
 20
242.5894
  0
VERTEX
  8
0
 10
45.7358
 20
242.5988
  0
VERTEX
  8
0
 10
45.7612
 20
242.611
  0
VERTEX
  8
0
 10
45.7826
 20
242.6259
  0
VERTEX
  8
0
 10
45.8001
 20
242.6435
  0
VERTEX
  8
0
 10
45.8137
 20
242.6639
  0
VERTEX
  8
0
 10
45.8234
 20
242.6871
  0
VERTEX
  8
0
 10
45.8293
 20
242.713
  0
VERTEX
  8
0
 10
45.8312
 20
242.7417
  0
VERTEX
  8
0
 10
45.8243
 20
242.7921
  0
VERTEX
  8
0
 10
45.8035
 20
242.8353
  0
VERTEX
  8
0
 10
45.7687
 20
242.8713
  0
VERTEX
  8
0
 10
45.7051
 20
242.9051
  0
VERTEX
  8
0
 10
45.6279
 20
242.9163
  0
VERTEX
  8
0
 10
45.5518
 20
242.9046
  0
VERTEX
  8
0
 10
45.4918
 20
242.8696
  0
VERTEX
  8
0
 10
45.4628
 20
242.8344
  0
VERTEX
  8
0
 10
45.4453
 20
242.7912
  0
VERTEX
  8
0
 10
45.4392
 20
242.74
  0
VERTEX
  8
0
 10
45.4441
 20
242.6943
  0
VERTEX
  8
0
 10
45.4593
 20
242.654
  0
VERTEX
  8
0
 10
45.4848
 20
242.6191
  0
VERTEX
  8
0
 10
45.5207
 20
242.5896
  0
VERTEX
  8
0
 10
45.5082
 20
242.4944
  0
VERTEX
  8
0
 10
45.0832
 20
242.5745
  0
VERTEX
  8
0
 10
45.0832
 20
242.9858
  0
VERTEX
  8
0
 10
45.1792
 20
242.9858
  0
VERTEX
  8
0
 10
45.1792
 20
242.6582
  0
VERTEX
  8
0
 10
45.4029
 20
242.6119
  0
VERTEX
  8
0
 10
45.3644
 20
242.688
  0
VERTEX
  8
0
 10
45.3512
 20
242.7678
  0
VERTEX
  8
0
 10
45.3559
 20
242.8216
  0
VERTEX
  8
0
 10
45.3705
 20
242.8705
  0
VERTEX
  8
0
 10
45.3949
 20
242.9144
  0
VERTEX
  8
0
 10
45.4293
 20
242.9534
  0
VERTEX
  8
0
 10
45.4699
 20
242.9845
  0
VERTEX
  8
0
 10
45.5151
 20
243.0066
  0
VERTEX
  8
0
 10
45.5652
 20
243.0199
  0
VERTEX
  8
0
 10
45.6199
 20
243.0243
  0
VERTEX
  8
0
 10
45.6913
 20
243.0171
  0
VERTEX
  8
0
 10
45.7562
 20
242.9953
  0
VERTEX
  8
0
 10
45.8145
 20
242.9589
  0
VERTEX
  8
0
 10
45.8506
 20
242.9248
  0
VERTEX
  8
0
 10
45.8787
 20
242.8861
  0
VERTEX
  8
0
 10
45.8989
 20
242.8426
  0
VERTEX
  8
0
 10
45.911
 20
242.7946
  0
VERTEX
  8
0
 10
45.9152
 20
242.7419
  0
VERTEX
  8
0
 10
45.9085
 20
242.6728
  0
VERTEX
  8
0
 10
45.8882
 20
242.6123
  0
VERTEX
  8
0
 10
45.8544
 20
242.5603
  0
VERTEX
  8
0
 10
45.8075
 20
242.5184
  0
VERTEX
  8
0
 10
45.7503
 20
242.4904
  0
VERTEX
  8
0
 10
45.6827
 20
242.4763
  0
VERTEX
  8
0
 10
45.6827
 20
242.4763
  0
SEQEND
  0
LINE
  8
0
 10
45.5
 20
243.2212
 11
45.5
 21
244.501
  0
LINE
  8
0
 10
45.6789
 20
244.1432
 11
45.5
 21
244.501
  0
LINE
  8
0
 10
45.3211
 20
244.1432
 11
45.5
 21
244.501
  0
LINE
  8
0
 10
45.7
 20
244.501
 11
44.5
 21
244.501
  0
LINE
  8
0
 10
45.5
 20
241.2798
 11
45.5
 21
240
  0
LINE
  8
0
 10
45.3211
 20
240.3578
 11
45.5
 21
240
  0
LINE
  8
0
 10
45.6789
 20
240.3578
 11
45.5
 21
240
  0
LINE
  8
0
 10
45.7
 20
240
 11
44.5
 21
240
  0
POLYLINE
  8
0
 66
     1
 10
0
 20
0
  0
VERTEX
  8
0
 10
47.8072
 20
251.9523
  0
VERTEX
  8
0
 10
47.9032
 20
251.9523
  0
VERTEX
  8
0
 10
47.9032
 20
251.4083
  0
VERTEX
  8
0
 10
47.8593
 20
251.4124
  0
VERTEX
  8
0
 10
47.8143
 20
251.4267
  0
VERTEX
  8
0
 10
47.7683
 20
251.4515
  0
VERTEX
  8
0
 10
47.7214
 20
251.4865
  0
VERTEX
  8
0
 10
47.662
 20
251.5431
  0
VERTEX
  8
0
 10
47.5952
 20
251.6193
  0
VERTEX
  8
0
 10
47.5438
 20
251.6801
  0
VERTEX
  8
0
 10
47.5002
 20
251.7281
  0
VERTEX
  8
0
 10
47.4644
 20
251.7634
  0
VERTEX
  8
0
 10
47.4189
 20
251.8005
  0
VERTEX
  8
0
 10
47.3756
 20
251.8271
  0
VERTEX
  8
0
 10
47.3345
 20
251.843
  0
VERTEX
  8
0
 10
47.2956
 20
251.8483
  0
VERTEX
  8
0
 10
47.2369
 20
251.8368
  0
VERTEX
  8
0
 10
47.1905
 20
251.8022
  0
VERTEX
  8
0
 10
47.1613
 20
251.753
  0
VERTEX
  8
0
 10
47.1512
 20
251.6931
  0
VERTEX
  8
0
 10
47.1622
 20
251.6258
  0
VERTEX
  8
0
 10
47.1962
 20
251.5749
  0
VERTEX
  8
0
 10
47.2496
 20
251.5427
  0
VERTEX
  8
0
 10
47.3187
 20
251.5316
  0
VERTEX
  8
0
 10
47.3079
 20
251.4275
  0
VERTEX
  8
0
 10
47.2529
 20
251.4363
  0
VERTEX
  8
0
 10
47.2047
 20
251.4527
  0
VERTEX
  8
0
 10
47.1635
 20
251.4766
  0
VERTEX
  8
0
 10
47.1291
 20
251.5079
  0
VERTEX
  8
0
 10
47.0947
 20
251.56
  0
VERTEX
  8
0
 10
47.0741
 20
251.6224
  0
VERTEX
  8
0
 10
47.0672
 20
251.6953
  0
VERTEX
  8
0
 10
47.0739
 20
251.7638
  0
VERTEX
  8
0
 10
47.0938
 20
251.824
  0
VERTEX
  8
0
 10
47.127
 20
251.8758
  0
VERTEX
  8
0
 10
47.1617
 20
251.9093
  0
VERTEX
  8
0
 10
47.202
 20
251.9332
  0
VERTEX
  8
0
 10
47.2478
 20
251.9475
  0
VERTEX
  8
0
 10
47.2991
 20
251.9523
  0
VERTEX
  8
0
 10
47.349
 20
251.9468
  0
VERTEX
  8
0
 10
47.3991
 20
251.9304
  0
VERTEX
  8
0
 10
47.4493
 20
251.903
  0
VERTEX
  8
0
 10
47.4996
 20
251.8646
  0
VERTEX
  8
0
 10
47.5405
 20
251.8259
  0
VERTEX
  8
0
 10
47.5895
 20
251.774
  0
VERTEX
  8
0
 10
47.6466
 20
251.709
  0
VERTEX
  8
0
 10
47.6825
 20
251.667
  0
VERTEX
  8
0
 10
47.7074
 20
251.6383
  0
VERTEX
  8
0
 10
47.7212
 20
251.623
  0
VERTEX
  8
0
 10
47.765
 20
251.581
  0
VERTEX
  8
0
 10
47.8072
 20
251.5494
  0
VERTEX
  8
0
 10
47.8072
 20
251.9523
  0
SEQEND
  0
POLYLINE
  8
0
 66
     1
 10
0
 20
0
  0
VERTEX
  8
0
 10
47.9032
 20
252.3883
  0
VERTEX
  8
0
 10
47.6992
 20
252.3883
  0
VERTEX
  8
0
 10
47.6992
 20
252.0283
  0
VERTEX
  8
0
 10
47.6072
 20
252.0283
  0
VERTEX
  8
0
 10
47.0712
 20
252.4058
  0
VERTEX
  8
0
 10
47.0712
 20
252.4883
  0
VERTEX
  8
0
 10
47.6072
 20
252.4883
  0
VERTEX
  8
0
 10
47.6072
 20
252.6004
  0
VERTEX
  8
0
 10
47.6992
 20
252.6004
  0
VERTEX
  8
0
 10
47.6992
 20
252.4883
  0
VERTEX
  8
0
 10
47.9032
 20
252.4883
  0
VERTEX
  8
0
 10
47.9032
 20
252.3883
  0
SEQEND
  0
POLYLINE
  8
0
 66
     1
 10
0
 20
0
  0
VERTEX
  8
0
 10
47.6072
 20
252.3883
  0
VERTEX
  8
0
 10
47.2279
 20
252.3883
  0
VERTEX
  8
0
 10
47.6081
 20
252.1255
  0
VERTEX
  8
0
 10
47.6072
 20
252.3883
  0
SEQEND
  0
LINE
  8
0
 10
47.5
 20
252.799
 11
47.5
 21
264
  0
LINE
  8
0
 10
47.6789
 20
263.6422
 11
47.5
 21
264
  0
LINE
  8
0
 10
47.3211
 20
263.6422
 11
47.5
 21
264
  0
LINE
  8
0
 10
47.7
 20
264
 11
44.2
 21
264
  0
LINE
  8
0
 10
47.5
 20
251.201
 11
47.5
 21
240
  0
LINE
  8
0
 10
47.3211
 20
240.3578
 11
47.5
 21
240
  0
LINE
  8
0
 10
47.6789
 20
240.3578
 11
47.5
 21
240
  0
LINE
  8
0
 10
47.7
 20
240
 11
44.2
 21
240
  0
POLYLINE
  8
0
 66
     1
 10
0
 20
0
  0
VERTEX
  8
0
 10
31.9472
 20
236.1963
  0
VERTEX
  8
0
 10
31.9472
 20
236.1003
  0
VERTEX
  8
0
 10
31.4032
 20
236.1003
  0
VERTEX
  8
0
 10
31.4073
 20
236.1443
  0
VERTEX
  8
0
 10
31.4217
 20
236.1893
  0
VERTEX
  8
0
 10
31.4464
 20
236.2352
  0
VERTEX
  8
0
 10
31.4814
 20
236.2822
  0
VERTEX
  8
0
 10
31.538
 20
236.3416
  0
VERTEX
  8
0
 10
31.6142
 20
236.4084
  0
VERTEX
  8
0
 10
31.675
 20
236.4598
  0
VERTEX
  8
0
 10
31.723
 20
236.5034
  0
VERTEX
  8
0
 10
31.7583
 20
236.5391
  0
VERTEX
  8
0
 10
31.7955
 20
236.5846
  0
VERTEX
  8
0
 10
31.822
 20
236.6279
  0
VERTEX
  8
0
 10
31.8379
 20
236.669
  0
VERTEX
  8
0
 10
31.8432
 20
236.7079
  0
VERTEX
  8
0
 10
31.8317
 20
236.7666
  0
VERTEX
  8
0
 10
31.7971
 20
236.8131
  0
VERTEX
  8
0
 10
31.7479
 20
236.8422
  0
VERTEX
  8
0
 10
31.688
 20
236.8523
  0
VERTEX
  8
0
 10
31.6207
 20
236.8414
  0
VERTEX
  8
0
 10
31.5698
 20
236.8073
  0
VERTEX
  8
0
 10
31.5376
 20
236.7539
  0
VERTEX
  8
0
 10
31.5265
 20
236.6849
  0
VERTEX
  8
0
 10
31.4224
 20
236.6957
  0
VERTEX
  8
0
 10
31.4312
 20
236.7507
  0
VERTEX
  8
0
 10
31.4476
 20
236.7988
  0
VERTEX
  8
0
 10
31.4715
 20
236.8401
  0
VERTEX
  8
0
 10
31.5029
 20
236.8744
  0
VERTEX
  8
0
 10
31.5549
 20
236.9088
  0
VERTEX
  8
0
 10
31.6174
 20
236.9294
  0
VERTEX
  8
0
 10
31.6902
 20
236.9363
  0
VERTEX
  8
0
 10
31.7587
 20
236.9297
  0
VERTEX
  8
0
 10
31.8189
 20
236.9097
  0
VERTEX
  8
0
 10
31.8707
 20
236.8765
  0
VERTEX
  8
0
 10
31.9042
 20
236.8418
  0
VERTEX
  8
0
 10
31.9281
 20
236.8016
  0
VERTEX
  8
0
 10
31.9425
 20
236.7558
  0
VERTEX
  8
0
 10
31.9472
 20
236.7044
  0
VERTEX
  8
0
 10
31.9418
 20
236.6545
  0
VERTEX
  8
0
 10
31.9253
 20
236.6045
  0
VERTEX
  8
0
 10
31.8979
 20
236.5543
  0
VERTEX
  8
0
 10
31.8595
 20
236.5039
  0
VERTEX
  8
0
 10
31.8208
 20
236.4631
  0
VERTEX
  8
0
 10
31.7689
 20
236.4141
  0
VERTEX
  8
0
 10
31.7039
 20
236.3569
  0
VERTEX
  8
0
 10
31.6619
 20
236.3211
  0
VERTEX
  8
0
 10
31.6332
 20
236.2962
  0
VERTEX
  8
0
 10
31.6179
 20
236.2823
  0
VERTEX
  8
0
 10
31.5759
 20
236.2386
  0
VERTEX
  8
0
 10
31.5443
 20
236.1963
  0
VERTEX
  8
0
 10
31.9472
 20
236.1963
  0
SEQEND
  0
POLYLINE
  8
0
 66
     1
 10
0
 20
0
  0
VERTEX
  8
0
 10
32.3832
 20
236.1003
  0
VERTEX
  8
0
 10
32.3832
 20
236.3043
  0
VERTEX
  8
0
 10
32.0232
 20
236.3043
  0
VERTEX
  8
0
 10
32.0232
 20
236.3963
  0
VERTEX
  8
0
 10
32.4007
 20
236.9323
  0
VERTEX
  8
0
 10
32.4832
 20
236.9323
  0
VERTEX
  8
0
 10
32.4832
 20
236.3963
  0
VERTEX
  8
0
 10
32.5953
 20
236.3963
  0
VERTEX
  8
0
 10
32.5953
 20
236.3043
  0
VERTEX
  8
0
 10
32.4832
 20
236.3043
  0
VERTEX
  8
0
 10
32.4832
 20
236.1003
  0
VERTEX
  8
0
 10
32.3832
 20
236.1003
  0
SEQEND
  0
POLYLINE
  8
0
 66
     1
 10
0
 20
0
  0
VERTEX
  8
0
 10
32.3832
 20
236.3963
  0
VERTEX
  8
0
 10
32.3832
 20
236.7756
  0
VERTEX
  8
0
 10
32.1204
 20
236.3954
  0
VERTEX
  8
0
 10
32.3832
 20
236.3963
  0
SEQEND
  0
LINE
  8
0
 10
32.799
 20
236.5
 11
44
 21
236.5
  0
LINE
  8
0
 10
43.6422
 20
236.3211
 11
44
 21
236.5
  0
LINE
  8
0
 10
43.6422
 20
236.6789
 11
44
 21
236.5
  0
LINE
  8
0
 10
44
 20
236.3
 11
44
 21
239.8
  0
LINE
  8
0
 10
31.201
 20
236.5
 11
20
 21
236.5
  0
LINE
  8
0
 10
20.3578
 20
236.6789
 11
20
 21
236.5
  0
LINE
  8
0
 10
20.3578
 20
236.3211
 11
20
 21
236.5
  0
LINE
  8
0
 10
20
 20
236.3
 11
20
 21
239.8
  0
POLYLINE
  8
0
 66
     1
 10
0
 20
0
  0
VERTEX
  8
0
 10
20.3032
 20
234.7723
  0
VERTEX
  8
0
 10
20.2032
 20
234.7723
  0
VERTEX
  8
0
 10
20.2032
 20
235.4234
  0
VERTEX
  8
0
 10
20.112
 20
235.3547
  0
VERTEX
  8
0
 10
19.9992
 20
235.301
  0
VERTEX
  8
0
 10
19.9992
 20
235.3997
  0
VERTEX
  8
0
 10
20.055
 20
235.4286
  0
VERTEX
  8
0
 10
20.1043
 20
235.4599
  0
VERTEX
  8
0
 10
20.1473
 20
235.4935
  0
VERTEX
  8
0
 10
20.1839
 20
235.5294
  0
VERTEX
  8
0
 10
20.2141
 20
235.5677
  0
VERTEX
  8
0
 10
20.2379
 20
235.6083
  0
VERTEX
  8
0
 10
20.3032
 20
235.6083
  0
VERTEX
  8
0
 10
20.3032
 20
234.7723
  0
SEQEND
  0
POLYLINE
  8
0
 66
     1
 10
0
 20
0
  0
VERTEX
  8
0
 10
20.6152
 20
234.7723
  0
VERTEX
  8
0
 10
20.6152
 20
234.8923
  0
VERTEX
  8
0
 10
20.7312
 20
234.8923
  0
VERTEX
  8
0
 10
20.7312
 20
234.7723
  0
VERTEX
  8
0
 10
20.6152
 20
234.7723
  0
SEQEND
  0
POLYLINE
  8
0
 66
     1
 10
0
 20
0
  0
VERTEX
  8
0
 10
20.8792
 20
234.9929
  0
VERTEX
  8
0
 10
20.9857
 20
235.002
  0
VERTEX
  8
0
 10
20.9924
 20
234.9689
  0
VERTEX
  8
0
 10
21.0017
 20
234.9397
  0
VERTEX
  8
0
 10
21.0139
 20
234.9144
  0
VERTEX
  8
0
 10
21.0288
 20
234.893
  0
VERTEX
  8
0
 10
21.0464
 20
234.8755
  0
VERTEX
  8
0
 10
21.0668
 20
234.8618
  0
VERTEX
  8
0
 10
21.09
 20
234.8521
  0
VERTEX
  8
0
 10
21.1159
 20
234.8463
  0
VERTEX
  8
0
 10
21.1446
 20
234.8443
  0
VERTEX
  8
0
 10
21.1951
 20
234.8513
  0
VERTEX
  8
0
 10
21.2383
 20
234.8721
  0
VERTEX
  8
0
 10
21.2742
 20
234.9068
  0
VERTEX
  8
0
 10
21.308
 20
234.9704
  0
VERTEX
  8
0
 10
21.3192
 20
235.0477
  0
VERTEX
  8
0
 10
21.3076
 20
235.1237
  0
VERTEX
  8
0
 10
21.2725
 20
235.1838
  0
VERTEX
  8
0
 10
21.2373
 20
235.2127
  0
VERTEX
  8
0
 10
21.1941
 20
235.2302
  0
VERTEX
  8
0
 10
21.1429
 20
235.2363
  0
VERTEX
  8
0
 10
21.0972
 20
235.2314
  0
VERTEX
  8
0
 10
21.0569
 20
235.2162
  0
VERTEX
  8
0
 10
21.022
 20
235.1907
  0
VERTEX
  8
0
 10
20.9925
 20
235.1549
  0
VERTEX
  8
0
 10
20.8973
 20
235.1673
  0
VERTEX
  8
0
 10
20.9774
 20
235.5923
  0
VERTEX
  8
0
 10
21.3887
 20
235.5923
  0
VERTEX
  8
0
 10
21.3887
 20
235.4963
  0
VERTEX
  8
0
 10
21.0611
 20
235.4963
  0
VERTEX
  8
0
 10
21.0149
 20
235.2727
  0
VERTEX
  8
0
 10
21.0909
 20
235.3111
  0
VERTEX
  8
0
 10
21.1707
 20
235.3243
  0
VERTEX
  8
0
 10
21.2245
 20
235.3197
  0
VERTEX
  8
0
 10
21.2734
 20
235.3051
  0
VERTEX
  8
0
 10
21.3173
 20
235.2806
  0
VERTEX
  8
0
 10
21.3564
 20
235.2463
  0
VERTEX
  8
0
 10
21.3874
 20
235.2057
  0
VERTEX
  8
0
 10
21.4095
 20
235.1604
  0
VERTEX
  8
0
 10
21.4228
 20
235.1104
  0
VERTEX
  8
0
 10
21.4272
 20
235.0556
  0
VERTEX
  8
0
 10
21.42
 20
234.9842
  0
VERTEX
  8
0
 10
21.3982
 20
234.9194
  0
VERTEX
  8
0
 10
21.3619
 20
234.861
  0
VERTEX
  8
0
 10
21.3277
 20
234.8249
  0
VERTEX
  8
0
 10
21.289
 20
234.7968
  0
VERTEX
  8
0
 10
21.2456
 20
234.7767
  0
VERTEX
  8
0
 10
21.1975
 20
234.7645
  0
VERTEX
  8
0
 10
21.1448
 20
234.7603
  0
VERTEX
  8
0
 10
21.0758
 20
234.7671
  0
VERTEX
  8
0
 10
21.0152
 20
234.7874
  0
VERTEX
  8
0
 10
20.9632
 20
234.8212
  0
VERTEX
  8
0
 10
20.9213
 20
234.8681
  0
VERTEX
  8
0
 10
20.8933
 20
234.9253
  0
VERTEX
  8
0
 10
20.8792
 20
234.9929
  0
VERTEX
  8
0
 10
20.8792
 20
234.9929
  0
SEQEND
  0
POLYLINE
  8
0
 66
     1
 10
0
 20
0
  0
VERTEX
  8
0
 10
21.5556
 20
235.3123
  0
VERTEX
  8
0
 10
21.5272
 20
235.4693
  0
VERTEX
  8
0
 10
21.5272
 20
235.6043
  0
VERTEX
  8
0
 10
21.6432
 20
235.6043
  0
VERTEX
  8
0
 10
21.6432
 20
235.4693
  0
VERTEX
  8
0
 10
21.6178
 20
235.3123
  0
VERTEX
  8
0
 10
21.5556
 20
235.3123
  0
SEQEND
  0
POLYLINE
  8
0
 66
     1
 10
0
 20
0
  0
VERTEX
  8
0
 10
21.743
 20
235.3123
  0
VERTEX
  8
0
 10
21.7152
 20
235.4693
  0
VERTEX
  8
0
 10
21.7152
 20
235.6043
  0
VERTEX
  8
0
 10
21.8312
 20
235.6043
  0
VERTEX
  8
0
 10
21.8312
 20
235.4693
  0
VERTEX
  8
0
 10
21.8041
 20
235.3123
  0
VERTEX
  8
0
 10
21.743
 20
235.3123
  0
SEQEND
  0
POLYLINE
  8
0
 66
     1
 10
0
 20
0
  0
VERTEX
  8
0
 10
22.5072
 20
234.7723
  0
VERTEX
  8
0
 10
22.5072
 20
235.6043
  0
VERTEX
  8
0
 10
22.8733
 20
235.6043
  0
VERTEX
  8
0
 10
22.957
 20
235.6005
  0
VERTEX
  8
0
 10
23.0191
 20
235.589
  0
VERTEX
  8
0
 10
23.0853
 20
235.5561
  0
VERTEX
  8
0
 10
23.1329
 20
235.5028
  0
VERTEX
  8
0
 10
23.1584
 20
235.4433
  0
VERTEX
  8
0
 10
23.1672
 20
235.3773
  0
VERTEX
  8
0
 10
23.1662
 20
235.3506
  0
VERTEX
  8
0
 10
23.1628
 20
235.3254
  0
VERTEX
  8
0
 10
23.157
 20
235.3019
  0
VERTEX
  8
0
 10
23.1488
 20
235.2801
  0
VERTEX
  8
0
 10
23.1382
 20
235.2598
  0
VERTEX
  8
0
 10
23.1253
 20
235.2412
  0
VERTEX
  8
0
 10
23.1099
 20
235.2242
  0
VERTEX
  8
0
 10
23.0921
 20
235.2089
  0
VERTEX
  8
0
 10
23.072
 20
235.1951
  0
VERTEX
  8
0
 10
23.0495
 20
235.183
  0
VERTEX
  8
0
 10
23.0246
 20
235.1725
  0
VERTEX
  8
0
 10
22.9973
 20
235.1637
  0
VERTEX
  8
0
 10
22.9676
 20
235.1565
  0
VERTEX
  8
0
 10
22.9355
 20
235.1509
  0
VERTEX
  8
0
 10
22.974
 20
235.13
  0
VERTEX
  8
0
 10
23.0015
 20
235.1094
  0
VERTEX
  8
0
 10
23.0493
 20
235.0582
  0
VERTEX
  8
0
 10
23.0924
 20
234.9988
  0
VERTEX
  8
0
 10
23.2363
 20
234.7723
  0
VERTEX
  8
0
 10
23.0992
 20
234.7723
  0
VERTEX
  8
0
 10
22.9888
 20
234.9482
  0
VERTEX
  8
0
 10
22.9546
 20
235.0008
  0
VERTEX
  8
0
 10
22.9277
 20
235.0394
  0
VERTEX
  8
0
 10
22.8876
 20
235.0883
  0
VERTEX
  8
0
 10
22.8536
 20
235.1183
  0
VERTEX
  8
0
 10
22.8286
 20
235.132
  0
VERTEX
  8
0
 10
22.8037
 20
235.1404
  0
VERTEX
  8
0
 10
22.7797
 20
235.1433
  0
VERTEX
  8
0
 10
22.7426
 20
235.1443
  0
VERTEX
  8
0
 10
22.6152
 20
235.1443
  0
VERTEX
  8
0
 10
22.6152
 20
234.7723
  0
VERTEX
  8
0
 10
22.5072
 20
234.7723
  0
SEQEND
  0
POLYLINE
  8
0
 66
     1
 10
0
 20
0
  0
VERTEX
  8
0
 10
22.6152
 20
235.2403
  0
VERTEX
  8
0
 10
22.8511
 20
235.2403
  0
VERTEX
  8
0
 10
22.9032
 20
235.2429
  0
VERTEX
  8
0
 10
22.9475
 20
235.2506
  0
VERTEX
  8
0
 10
22.9839
 20
235.2635
  0
VERTEX
  8
0
 10
23.0125
 20
235.2816
  0
VERTEX
  8
0
 10
23.0332
 20
235.3048
  0
VERTEX
  8
0
 10
23.0497
 20
235.3404
  0
VERTEX
  8
0
 10
23.0552
 20
235.3788
  0
VERTEX
  8
0
 10
23.049
 20
235.4219
  0
VERTEX
  8
0
 10
23.0303
 20
235.4568
  0
VERTEX
  8
0
 10
22.9992
 20
235.4837
  0
VERTEX
  8
0
 10
22.9459
 20
235.5052
  0
VERTEX
  8
0
 10
22.8777
 20
235.5123
  0
VERTEX
  8
0
 10
22.6152
 20
235.5123
  0
VERTEX
  8
0
 10
22.6152
 20
235.2403
  0
SEQEND
  0
POLYLINE
  8
0
 66
     1
 10
0
 20
0
  0
VERTEX
  8
0
 10
23.7207
 20
234.8503
  0
VERTEX
  8
0
 10
23.6686
 20
234.8129
  0
VERTEX
  8
0
 10
23.6145
 20
234.7861
  0
VERTEX
  8
0
 10
23.5583
 20
234.7699
  0
VERTEX
  8
0
 10
23.5001
 20
234.7643
  0
VERTEX
  8
0
 10
23.4202
 20
234.7741
  0
VERTEX
  8
0
 10
23.3567
 20
234.8048
  0
VERTEX
  8
0
 10
23.3228
 20
234.8395
  0
VERTEX
  8
0
 10
23.3023
 20
234.883
  0
VERTEX
  8
0
 10
23.2952
 20
234.9351
  0
VERTEX
  8
0
 10
23.2995
 20
234.9767
  0
VERTEX
  8
0
 10
23.3129
 20
235.0135
  0
VERTEX
  8
0
 10
23.3355
 20
235.0458
  0
VERTEX
  8
0
 10
23.3672
 20
235.0734
  0
VERTEX
  8
0
 10
23.4009
 20
235.0926
  0
VERTEX
  8
0
 10
23.4403
 20
235.1065
  0
VERTEX
  8
0
 10
23.4771
 20
235.1142
  0
VERTEX
  8
0
 10
23.5302
 20
235.1217
  0
VERTEX
  8
0
 10
23.6063
 20
235.1323
  0
VERTEX
  8
0
 10
23.6664
 20
235.1439
  0
VERTEX
  8
0
 10
23.7107
 20
235.1565
  0
VERTEX
  8
0
 10
23.7108
 20
235.1741
  0
VERTEX
  8
0
 10
23.7112
 20
235.1829
  0
VERTEX
  8
0
 10
23.7041
 20
235.2356
  0
VERTEX
  8
0
 10
23.6826
 20
235.2701
  0
VERTEX
  8
0
 10
23.6347
 20
235.2955
  0
VERTEX
  8
0
 10
23.5674
 20
235.3043
  0
VERTEX
  8
0
 10
23.5074
 20
235.2987
  0
VERTEX
  8
0
 10
23.4645
 20
235.2808
  0
VERTEX
  8
0
 10
23.4333
 20
235.2457
  0
VERTEX
  8
0
 10
23.4117
 20
235.191
  0
VERTEX
  8
0
 10
23.3127
 20
235.2045
  0
VERTEX
  8
0
 10
23.3266
 20
235.2504
  0
VERTEX
  8
0
 10
23.347
 20
235.2896
  0
VERTEX
  8
0
 10
23.3739
 20
235.3221
  0
VERTEX
  8
0
 10
23.4072
 20
235.3479
  0
VERTEX
  8
0
 10
23.4471
 20
235.3669
  0
VERTEX
  8
0
 10
23.5096
 20
235.3827
  0
VERTEX
  8
0
 10
23.5832
 20
235.3883
  0
VERTEX
  8
0
 10
23.6364
 20
235.3859
  0
VERTEX
  8
0
 10
23.6825
 20
235.3783
  0
VERTEX
  8
0
 10
23.7216
 20
235.3655
  0
VERTEX
  8
0
 10
23.7536
 20
235.3475
  0
VERTEX
  8
0
 10
23.7786
 20
235.3242
  0
VERTEX
  8
0
 10
23.7975
 20
235.2936
  0
VERTEX
  8
0
 10
23.8102
 20
235.255
  0
VERTEX
  8
0
 10
23.814
 20
235.2201
  0
VERTEX
  8
0
 10
23.8152
 20
235.1609
  0
VERTEX
  8
0
 10
23.8152
 20
235.0248
  0
VERTEX
  8
0
 10
23.8153
 20
234.9804
  0
VERTEX
  8
0
 10
23.8153
 20
234.9452
  0
VERTEX
  8
0
 10
23.8154
 20
234.9194
  0
VERTEX
  8
0
 10
23.8156
 20
234.9027
  0
VERTEX
  8
0
 10
23.8158
 20
234.8954
  0
VERTEX
  8
0
 10
23.8258
 20
234.8272
  0
VERTEX
  8
0
 10
23.8471
 20
234.7723
  0
VERTEX
  8
0
 10
23.741
 20
234.7723
  0
VERTEX
  8
0
 10
23.7283
 20
234.8085
  0
VERTEX
  8
0
 10
23.7207
 20
234.8503
  0
VERTEX
  8
0
 10
23.7207
 20
234.8503
  0
SEQEND
  0
POLYLINE
  8
0
 66
     1
 10
0
 20
0
  0
VERTEX
  8
0
 10
23.7112
 20
235.0771
  0
VERTEX
  8
0
 10
23.6423
 20
235.0566
  0
VERTEX
  8
0
 10
23.5457
 20
235.039
  0
VERTEX
  8
0
 10
23.5023
 20
235.032
  0
VERTEX
  8
0
 10
23.4747
 20
235.0256
  0
VERTEX
  8
0
 10
23.4404
 20
235.0092
  0
VERTEX
  8
0
 10
23.4173
 20
234.9859
  0
VERTEX
  8
0
 10
23.407
 20
234.9636
  0
VERTEX
  8
0
 10
23.4032
 20
234.9383
  0
VERTEX
  8
0
 10
23.4124
 20
234.8964
  0
VERTEX
  8
0
 10
23.441
 20
234.8656
  0
VERTEX
  8
0
 10
23.478
 20
234.8496
  0
VERTEX
  8
0
 10
23.5237
 20
234.8443
  0
VERTEX
  8
0
 10
23.5634
 20
234.847
  0
VERTEX
  8
0
 10
23.5986
 20
234.8549
  0
VERTEX
  8
0
 10
23.6293
 20
234.8681
  0
VERTEX
  8
0
 10
23.6556
 20
234.8866
  0
VERTEX
  8
0
 10
23.6775
 20
234.9104
  0
VERTEX
  8
0
 10
23.6949
 20
234.9394
  0
VERTEX
  8
0
 10
23.7072
 20
234.9817
  0
VERTEX
  8
0
 10
23.7112
 20
235.0401
  0
VERTEX
  8
0
 10
23.7112
 20
235.0771
  0
SEQEND
  0
POLYLINE
  8
0
 66
     1
 10
0
 20
0
  0
VERTEX
  8
0
 10
24.3592
 20
234.7723
  0
VERTEX
  8
0
 10
24.3592
 20
234.8519
  0
VERTEX
  8
0
 10
24.3346
 20
234.8206
  0
VERTEX
  8
0
 10
24.3055
 20
234.7961
  0
VERTEX
  8
0
 10
24.2721
 20
234.7786
  0
VERTEX
  8
0
 10
24.2344
 20
234.768
  0
VERTEX
  8
0
 10
24.1922
 20
234.7643
  0
VERTEX
  8
0
 10
24.1219
 20
234.7743
  0
VERTEX
  8
0
 10
24.0584
 20
234.8054
  0
VERTEX
  8
0
 10
24.0062
 20
234.8524
  0
VERTEX
  8
0
 10
23.9676
 20
234.9139
  0
VERTEX
  8
0
 10
23.9436
 20
234.9886
  0
VERTEX
  8
0
 10
23.9352
 20
235.0758
  0
VERTEX
  8
0
 10
23.9369
 20
235.1226
  0
VERTEX
  8
0
 10
23.9423
 20
235.1658
  0
VERTEX
  8
0
 10
23.9516
 20
235.2054
  0
VERTEX
  8
0
 10
23.9647
 20
235.2414
  0
VERTEX
  8
0
 10
23.9816
 20
235.2739
  0
VERTEX
  8
0
 10
24.0023
 20
235.3027
  0
VERTEX
  8
0
 10
24.0269
 20
235.3279
  0
VERTEX
  8
0
 10
24.0552
 20
235.3495
  0
VERTEX
  8
0
 10
24.1185
 20
235.3786
  0
VERTEX
  8
0
 10
24.1894
 20
235.3883
  0
VERTEX
  8
0
 10
24.2394
 20
235.3832
  0
VERTEX
  8
0
 10
24.2838
 20
235.3679
  0
VERTEX
  8
0
 10
24.3224
 20
235.3424
  0
VERTEX
  8
0
 10
24.3552
 20
235.3067
  0
VERTEX
  8
0
 10
24.3552
 20
235.6043
  0
VERTEX
  8
0
 10
24.4552
 20
235.6043
  0
VERTEX
  8
0
 10
24.4552
 20
234.7723
  0
VERTEX
  8
0
 10
24.3592
 20
234.7723
  0
SEQEND
  0
POLYLINE
  8
0
 66
     1
 10
0
 20
0
  0
VERTEX
  8
0
 10
24.0392
 20
235.0761
  0
VERTEX
  8
0
 10
24.0481
 20
234.9929
  0
VERTEX
  8
0
 10
24.0748
 20
234.9241
  0
VERTEX
  8
0
 10
24.0991
 20
234.8911
  0
VERTEX
  8
0
 10
24.1285
 20
234.8675
  0
VERTEX
  8
0
 10
24.1629
 20
234.8533
  0
VERTEX
  8
0
 10
24.2025
 20
234.8483
  0
VERTEX
  8
0
 10
24.2415
 20
234.8526
  0
VERTEX
  8
0
 10
24.2754
 20
234.866
  0
VERTEX
  8
0
 10
24.3042
 20
234.8885
  0
VERTEX
  8
0
 10
24.3279
 20
234.9201
  0
VERTEX
  8
0
 10
24.3538
 20
234.9867
  0
VERTEX
  8
0
 10
24.3624
 20
235.0676
  0
VERTEX
  8
0
 10
24.354
 20
235.155
  0
VERTEX
  8
0
 10
24.3291
 20
235.2253
  0
VERTEX
  8
0
 10
24.3048
 20
235.2598
  0
VERTEX
  8
0
 10
24.2748
 20
235.2846
  0
VERTEX
  8
0
 10
24.2392
 20
235.2994
  0
VERTEX
  8
0
 10
24.198
 20
235.3043
  0
VERTEX
  8
0
 10
24.1579
 20
235.2996
  0
VERTEX
  8
0
 10
24.1234
 20
235.2854
  0
VERTEX
  8
0
 10
24.0946
 20
235.2617
  0
VERTEX
  8
0
 10
24.0714
 20
235.2286
  0
VERTEX
  8
0
 10
24.0473
 20
235.1607
  0
VERTEX
  8
0
 10
24.0392
 20
235.0761
  0
VERTEX
  8
0
 10
24.0392
 20
235.0761
  0
SEQEND
  0
POLYLINE
  8
0
 66
     1
 10
0
 20
0
  0
VERTEX
  8
0
 10
24.6112
 20
235.4883
  0
VERTEX
  8
0
 10
24.6112
 20
235.6043
  0
VERTEX
  8
0
 10
24.7112
 20
235.6043
  0
VERTEX
  8
0
 10
24.7112
 20
235.4883
  0
VERTEX
  8
0
 10
24.6112
 20
235.4883
  0
SEQEND
  0
POLYLINE
  8
0
 66
     1
 10
0
 20
0
  0
VERTEX
  8
0
 10
24.6112
 20
234.7723
  0
VERTEX
  8
0
 10
24.6112
 20
235.3755
  0
VERTEX
  8
0
 10
24.7112
 20
235.3755
  0
VERTEX
  8
0
 10
24.7112
 20
234.7723
  0
VERTEX
  8
0
 10
24.6112
 20
234.7723
  0
SEQEND
  0
POLYLINE
  8
0
 66
     1
 10
0
 20
0
  0
VERTEX
  8
0
 10
25.2592
 20
234.7723
  0
VERTEX
  8
0
 10
25.2592
 20
234.8643
  0
VERTEX
  8
0
 10
25.2296
 20
234.8283
  0
VERTEX
  8
0
 10
25.196
 20
234.8003
  0
VERTEX
  8
0
 10
25.1582
 20
234.7803
  0
VERTEX
  8
0
 10
25.1164
 20
234.7683
  0
VERTEX
  8
0
 10
25.0705
 20
234.7643
  0
VERTEX
  8
0
 10
25.0242
 20
234.7687
  0
VERTEX
  8
0
 10
24.9792
 20
234.7818
  0
VERTEX
  8
0
 10
24.9356
 20
234.8048
  0
VERTEX
  8
0
 10
24.9042
 20
234.8353
  0
VERTEX
  8
0
 10
24.8859
 20
234.8689
  0
VERTEX
  8
0
 10
24.8734
 20
234.9108
  0
VERTEX
  8
0
 10
24.8688
 20
234.9497
  0
VERTEX
  8
0
 10
24.8672
 20
235.0055
  0
VERTEX
  8
0
 10
24.8672
 20
235.3763
  0
VERTEX
  8
0
 10
24.9672
 20
235.3763
  0
VERTEX
  8
0
 10
24.9672
 20
235.0448
  0
VERTEX
  8
0
 10
24.9688
 20
234.9776
  0
VERTEX
  8
0
 10
24.9735
 20
234.9379
  0
VERTEX
  8
0
 10
24.9847
 20
234.9074
  0
VERTEX
  8
0
 10
25.0021
 20
234.8837
  0
VERTEX
  8
0
 10
25.0257
 20
234.8666
  0
VERTEX
  8
0
 10
25.0554
 20
234.8561
  0
VERTEX
  8
0
 10
25.0914
 20
234.8523
  0
VERTEX
  8
0
 10
25.1358
 20
234.8577
  0
VERTEX
  8
0
 10
25.1773
 20
234.8751
  0
VERTEX
  8
0
 10
25.2115
 20
234.9027
  0
VERTEX
  8
0
 10
25.2342
 20
234.939
  0
VERTEX
  8
0
 10
25.247
 20
234.9885
  0
VERTEX
  8
0
 10
25.2512
 20
235.0561
  0
VERTEX
  8
0
 10
25.2512
 20
235.3763
  0
VERTEX
  8
0
 10
25.3512
 20
235.3763
  0
VERTEX
  8
0
 10
25.3512
 20
234.7723
  0
VERTEX
  8
0
 10
25.2592
 20
234.7723
  0
SEQEND
  0
POLYLINE
  8
0
 66
     1
 10
0
 20
0
  0
VERTEX
  8
0
 10
25.4712
 20
234.9553
  0
VERTEX
  8
0
 10
25.5714
 20
234.9709
  0
VERTEX
  8
0
 10
25.5776
 20
234.9422
  0
VERTEX
  8
0
 10
25.5876
 20
234.9173
  0
VERTEX
  8
0
 10
25.6013
 20
234.8962
  0
VERTEX
  8
0
 10
25.6187
 20
234.879
  0
VERTEX
  8
0
 10
25.6399
 20
234.8656
  0
VERTEX
  8
0
 10
25.6649
 20
234.856
  0
VERTEX
  8
0
 10
25.6936
 20
234.8502
  0
VERTEX
  8
0
 10
25.726
 20
234.8483
  0
VERTEX
  8
0
 10
25.7758
 20
234.8534
  0
VERTEX
  8
0
 10
25.8171
 20
234.8685
  0
VERTEX
  8
0
 10
25.8517
 20
234.8996
  0
VERTEX
  8
0
 10
25.8632
 20
234.9432
  0
VERTEX
  8
0
 10
25.8558
 20
234.9738
  0
VERTEX
  8
0
 10
25.8334
 20
234.9971
  0
VERTEX
  8
0
 10
25.8128
 20
235.0069
  0
VERTEX
  8
0
 10
25.7782
 20
235.0183
  0
VERTEX
  8
0
 10
25.7296
 20
235.0313
  0
VERTEX
  8
0
 10
25.6738
 20
235.0455
  0
VERTEX
  8
0
 10
25.6334
 20
235.0568
  0
VERTEX
  8
0
 10
25.6084
 20
235.065
  0
VERTEX
  8
0
 10
25.5478
 20
235.0963
  0
VERTEX
  8
0
 10
25.5092
 20
235.1363
  0
VERTEX
  8
0
 10
25.4927
 20
235.174
  0
VERTEX
  8
0
 10
25.4872
 20
235.2166
  0
VERTEX
  8
0
 10
25.4948
 20
235.267
  0
VERTEX
  8
0
 10
25.5177
 20
235.3103
  0
VERTEX
  8
0
 10
25.5557
 20
235.3468
  0
VERTEX
  8
0
 10
25.6221
 20
235.3776
  0
VERTEX
  8
0
 10
25.7083
 20
235.3883
  0
VERTEX
  8
0
 10
25.7737
 20
235.3835
  0
VERTEX
  8
0
 10
25.8321
 20
235.3681
  0
VERTEX
  8
0
 10
25.8786
 20
235.3439
  0
VERTEX
  8
0
 10
25.9118
 20
235.3119
  0
VERTEX
  8
0
 10
25.9326
 20
235.2729
  0
VERTEX
  8
0
 10
25.9463
 20
235.2209
  0
VERTEX
  8
0
 10
25.8462
 20
235.2074
  0
VERTEX
  8
0
 10
25.8399
 20
235.233
  0
VERTEX
  8
0
 10
25.8293
 20
235.2546
  0
VERTEX
  8
0
 10
25.8147
 20
235.2724
  0
VERTEX
  8
0
 10
25.7958
 20
235.2862
  0
VERTEX
  8
0
 10
25.7728
 20
235.2962
  0
VERTEX
  8
0
 10
25.7455
 20
235.3022
  0
VERTEX
  8
0
 10
25.7141
 20
235.3043
  0
VERTEX
  8
0
 10
25.6797
 20
235.3029
  0
VERTEX
  8
0
 10
25.6505
 20
235.2983
  0
VERTEX
  8
0
 10
25.6265
 20
235.2905
  0
VERTEX
  8
0
 10
25.6078
 20
235.2795
  0
VERTEX
  8
0
 10
25.5944
 20
235.2653
  0
VERTEX
  8
0
 10
25.5862
 20
235.248
  0
VERTEX
  8
0
 10
25.5832
 20
235.2274
  0
VERTEX
  8
0
 10
25.5861
 20
235.2092
  0
VERTEX
  8
0
 10
25.5957
 20
235.1918
  0
VERTEX
  8
0
 10
25.612
 20
235.1765
  0
VERTEX
  8
0
 10
25.6348
 20
235.1651
  0
VERTEX
  8
0
 10
25.6503
 20
235.16
  0
VERTEX
  8
0
 10
25.6803
 20
235.1514
  0
VERTEX
  8
0
 10
25.7248
 20
235.1393
  0
VERTEX
  8
0
 10
25.7901
 20
235.1208
  0
VERTEX
  8
0
 10
25.8404
 20
235.1051
  0
VERTEX
  8
0
 10
25.8755
 20
235.0921
  0
VERTEX
  8
0
 10
25.9083
 20
235.0743
  0
VERTEX
  8
0
 10
25.9339
 20
235.0515
  0
VERTEX
  8
0
 10
25.9523
 20
235.0237
  0
VERTEX
  8
0
 10
25.9634
 20
234.9908
  0
VERTEX
  8
0
 10
25.9672
 20
234.9529
  0
VERTEX
  8
0
 10
25.9601
 20
234.9041
  0
VERTEX
  8
0
 10
25.9374
 20
234.8575
  0
VERTEX
  8
0
 10
25.9145
 20
234.8292
  0
VERTEX
  8
0
 10
25.8867
 20
234.806
  0
VERTEX
  8
0
 10
25.8541
 20
234.7879
  0
VERTEX
  8
0
 10
25.8165
 20
234.7749
  0
VERTEX
  8
0
 10
25.774
 20
234.7671
  0
VERTEX
  8
0
 10
25.7266
 20
234.7643
  0
VERTEX
  8
0
 10
25.6937
 20
234.7653
  0
VERTEX
  8
0
 10
25.663
 20
234.7685
  0
VERTEX
  8
0
 10
25.6345
 20
234.7741
  0
VERTEX
  8
0
 10
25.6082
 20
234.7819
  0
VERTEX
  8
0
 10
25.5842
 20
234.792
  0
VERTEX
  8
0
 10
25.5623
 20
234.8044
  0
VERTEX
  8
0
 10
25.5427
 20
234.8191
  0
VERTEX
  8
0
 10
25.5252
 20
234.8361
  0
VERTEX
  8
0
 10
25.51
 20
234.8554
  0
VERTEX
  8
0
 10
25.497
 20
234.8769
  0
VERTEX
  8
0
 10
25.4862
 20
234.9007
  0
VERTEX
  8
0
 10
25.4776
 20
234.9269
  0
VERTEX
  8
0
 10
25.4712
 20
234.9553
  0
VERTEX
  8
0
 10
25.4712
 20
234.9553
  0
SEQEND
  0
POLYLINE
  8
0
 66
     1
 10
0
 20
0
  0
VERTEX
  8
0
 10
26.1192
 20
234.7723
  0
VERTEX
  8
0
 10
26.1192
 20
234.8923
  0
VERTEX
  8
0
 10
26.2352
 20
234.8923
  0
VERTEX
  8
0
 10
26.2352
 20
234.7764
  0
VERTEX
  8
0
 10
26.2326
 20
234.7379
  0
VERTEX
  8
0
 10
26.2246
 20
234.7038
  0
VERTEX
  8
0
 10
26.2114
 20
234.6743
  0
VERTEX
  8
0
 10
26.1928
 20
234.6492
  0
VERTEX
  8
0
 10
26.169
 20
234.6285
  0
VERTEX
  8
0
 10
26.1398
 20
234.6123
  0
VERTEX
  8
0
 10
26.1112
 20
234.6548
  0
VERTEX
  8
0
 10
26.1383
 20
234.6717
  0
VERTEX
  8
0
 10
26.1581
 20
234.6969
  0
VERTEX
  8
0
 10
26.1705
 20
234.7304
  0
VERTEX
  8
0
 10
26.1756
 20
234.7723
  0
VERTEX
  8
0
 10
26.1192
 20
234.7723
  0
SEQEND
  0
POLYLINE
  8
0
 66
     1
 10
0
 20
0
  0
VERTEX
  8
0
 10
26.9192
 20
235.184
  0
VERTEX
  8
0
 10
26.9204
 20
235.2376
  0
VERTEX
  8
0
 10
26.924
 20
235.2877
  0
VERTEX
  8
0
 10
26.93
 20
235.3342
  0
VERTEX
  8
0
 10
26.9384
 20
235.3771
  0
VERTEX
  8
0
 10
26.9492
 20
235.4164
  0
VERTEX
  8
0
 10
26.9623
 20
235.4522
  0
VERTEX
  8
0
 10
26.9779
 20
235.4844
  0
VERTEX
  8
0
 10
26.9959
 20
235.5131
  0
VERTEX
  8
0
 10
27.0162
 20
235.5381
  0
VERTEX
  8
0
 10
27.039
 20
235.5596
  0
VERTEX
  8
0
 10
27.1059
 20
235.5959
  0
VERTEX
  8
0
 10
27.1892
 20
235.6083
  0
VERTEX
  8
0
 10
27.2509
 20
235.6018
  0
VERTEX
  8
0
 10
27.3062
 20
235.5811
  0
VERTEX
  8
0
 10
27.3419
 20
235.5569
  0
VERTEX
  8
0
 10
27.3732
 20
235.5247
  0
VERTEX
  8
0
 10
27.4001
 20
235.4845
  0
VERTEX
  8
0
 10
27.4226
 20
235.4363
  0
VERTEX
  8
0
 10
27.4406
 20
235.38
  0
VERTEX
  8
0
 10
27.4546
 20
235.2953
  0
VERTEX
  8
0
 10
27.4592
 20
235.184
  0
VERTEX
  8
0
 10
27.458
 20
235.1305
  0
VERTEX
  8
0
 10
27.4544
 20
235.0805
  0
VERTEX
  8
0
 10
27.4485
 20
235.0342
  0
VERTEX
  8
0
 10
27.4401
 20
234.9913
  0
VERTEX
  8
0
 10
27.4293
 20
234.952
  0
VERTEX
  8
0
 10
27.4161
 20
234.9163
  0
VERTEX
  8
0
 10
27.4006
 20
234.8842
  0
VERTEX
  8
0
 10
27.3826
 20
234.8555
  0
VERTEX
  8
0
 10
27.3622
 20
234.8305
  0
VERTEX
  8
0
 10
27.3395
 20
234.809
  0
VERTEX
  8
0
 10
27.2725
 20
234.7728
  0
VERTEX
  8
0
 10
27.1892
 20
234.7603
  0
VERTEX
  8
0
 10
27.1681
 20
234.7609
  0
VERTEX
  8
0
 10
27.1478
 20
234.7629
  0
VERTEX
  8
0
 10
27.1284
 20
234.7662
  0
VERTEX
  8
0
 10
27.1099
 20
234.7709
  0
VERTEX
  8
0
 10
27.0922
 20
234.7769
  0
VERTEX
  8
0
 10
27.0754
 20
234.7843
  0
VERTEX
  8
0
 10
27.0594
 20
234.7931
  0
VERTEX
  8
0
 10
27.0443
 20
234.8032
  0
VERTEX
  8
0
 10
27.0301
 20
234.8147
  0
VERTEX
  8
0
 10
27.0167
 20
234.8276
  0
VERTEX
  8
0
 10
27.0042
 20
234.8418
  0
VERTEX
  8
0
 10
26.9925
 20
234.8574
  0
VERTEX
  8
0
 10
26.9817
 20
234.8743
  0
VERTEX
  8
0
 10
26.9718
 20
234.8926
  0
VERTEX
  8
0
 10
26.9627
 20
234.9123
  0
VERTEX
  8
0
 10
26.9545
 20
234.9333
  0
VERTEX
  8
0
 10
26.9471
 20
234.9557
  0
VERTEX
  8
0
 10
26.9406
 20
234.9795
  0
VERTEX
  8
0
 10
26.935
 20
235.0046
  0
VERTEX
  8
0
 10
26.9302
 20
235.0311
  0
VERTEX
  8
0
 10
26.9263
 20
235.059
  0
VERTEX
  8
0
 10
26.9232
 20
235.0882
  0
VERTEX
  8
0
 10
26.921
 20
235.1188
  0
VERTEX
  8
0
 10
26.9197
 20
235.1507
  0
VERTEX
  8
0
 10
26.9192
 20
235.184
  0
VERTEX
  8
0
 10
26.9192
 20
235.184
  0
SEQEND
  0
POLYLINE
  8
0
 66
     1
 10
0
 20
0
  0
VERTEX
  8
0
 10
27.0232
 20
235.1843
  0
VERTEX
  8
0
 10
27.0257
 20
235.0991
  0
VERTEX
  8
0
 10
27.0331
 20
235.0284
  0
VERTEX
  8
0
 10
27.0454
 20
234.9724
  0
VERTEX
  8
0
 10
27.0576
 20
234.9385
  0
VERTEX
  8
0
 10
27.0726
 20
234.9099
  0
VERTEX
  8
0
 10
27.0904
 20
234.8864
  0
VERTEX
  8
0
 10
27.1109
 20
234.8681
  0
VERTEX
  8
0
 10
27.1343
 20
234.855
  0
VERTEX
  8
0
 10
27.1604
 20
234.8471
  0
VERTEX
  8
0
 10
27.1892
 20
234.8443
  0
VERTEX
  8
0
 10
27.2063
 20
234.8452
  0
VERTEX
  8
0
 10
27.2223
 20
234.8479
  0
VERTEX
  8
0
 10
27.2375
 20
234.8525
  0
VERTEX
  8
0
 10
27.2518
 20
234.859
  0
VERTEX
  8
0
 10
27.2651
 20
234.8674
  0
VERTEX
  8
0
 10
27.2775
 20
234.8777
  0
VERTEX
  8
0
 10
27.289
 20
234.8899
  0
VERTEX
  8
0
 10
27.2996
 20
234.904
  0
VERTEX
  8
0
 10
27.3093
 20
234.92
  0
VERTEX
  8
0
 10
27.318
 20
234.9379
  0
VERTEX
  8
0
 10
27.3258
 20
234.9577
  0
VERTEX
  8
0
 10
27.3327
 20
234.9794
  0
VERTEX
  8
0
 10
27.3387
 20
235.003
  0
VERTEX
  8
0
 10
27.3437
 20
235.0285
  0
VERTEX
  8
0
 10
27.3479
 20
235.0559
  0
VERTEX
  8
0
 10
27.3511
 20
235.0851
  0
VERTEX
  8
0
 10
27.3534
 20
235.1163
  0
VERTEX
  8
0
 10
27.3548
 20
235.1494
  0
VERTEX
  8
0
 10
27.3552
 20
235.1843
  0
VERTEX
  8
0
 10
27.3528
 20
235.2696
  0
VERTEX
  8
0
 10
27.3454
 20
235.3402
  0
VERTEX
  8
0
 10
27.3331
 20
235.3963
  0
VERTEX
  8
0
 10
27.3207
 20
235.4301
  0
VERTEX
  8
0
 10
27.3056
 20
235.4588
  0
VERTEX
  8
0
 10
27.2876
 20
235.4822
  0
VERTEX
  8
0
 10
27.2669
 20
235.5005
  0
VERTEX
  8
0
 10
27.2434
 20
235.5136
  0
VERTEX
  8
0
 10
27.2172
 20
235.5216
  0
VERTEX
  8
0
 10
27.1881
 20
235.5243
  0
VERTEX
  8
0
 10
27.1444
 20
235.518
  0
VERTEX
  8
0
 10
27.107
 20
235.4981
  0
VERTEX
  8
0
 10
27.0759
 20
235.4648
  0
VERTEX
  8
0
 10
27.0619
 20
235.4408
  0
VERTEX
  8
0
 10
27.0501
 20
235.4114
  0
VERTEX
  8
0
 10
27.0404
 20
235.3767
  0
VERTEX
  8
0
 10
27.0329
 20
235.3366
  0
VERTEX
  8
0
 10
27.0275
 20
235.2912
  0
VERTEX
  8
0
 10
27.0243
 20
235.2404
  0
VERTEX
  8
0
 10
27.0232
 20
235.1843
  0
VERTEX
  8
0
 10
27.0232
 20
235.1843
  0
SEQEND
  0
POLYLINE
  8
0
 66
     1
 10
0
 20
0
  0
VERTEX
  8
0
 10
27.6152
 20
234.7723
  0
VERTEX
  8
0
 10
27.6152
 20
234.8923
  0
VERTEX
  8
0
 10
27.7312
 20
234.8923
  0
VERTEX
  8
0
 10
27.7312
 20
234.7723
  0
VERTEX
  8
0
 10
27.6152
 20
234.7723
  0
SEQEND
  0
POLYLINE
  8
0
 66
     1
 10
0
 20
0
  0
VERTEX
  8
0
 10
27.8792
 20
234.9929
  0
VERTEX
  8
0
 10
27.9857
 20
235.002
  0
VERTEX
  8
0
 10
27.9924
 20
234.9689
  0
VERTEX
  8
0
 10
28.0017
 20
234.9397
  0
VERTEX
  8
0
 10
28.0139
 20
234.9144
  0
VERTEX
  8
0
 10
28.0288
 20
234.893
  0
VERTEX
  8
0
 10
28.0464
 20
234.8755
  0
VERTEX
  8
0
 10
28.0668
 20
234.8618
  0
VERTEX
  8
0
 10
28.09
 20
234.8521
  0
VERTEX
  8
0
 10
28.1159
 20
234.8463
  0
VERTEX
  8
0
 10
28.1446
 20
234.8443
  0
VERTEX
  8
0
 10
28.1951
 20
234.8513
  0
VERTEX
  8
0
 10
28.2383
 20
234.8721
  0
VERTEX
  8
0
 10
28.2742
 20
234.9068
  0
VERTEX
  8
0
 10
28.308
 20
234.9704
  0
VERTEX
  8
0
 10
28.3192
 20
235.0477
  0
VERTEX
  8
0
 10
28.3075
 20
235.1237
  0
VERTEX
  8
0
 10
28.2725
 20
235.1838
  0
VERTEX
  8
0
 10
28.2373
 20
235.2127
  0
VERTEX
  8
0
 10
28.1941
 20
235.2302
  0
VERTEX
  8
0
 10
28.1429
 20
235.2363
  0
VERTEX
  8
0
 10
28.0972
 20
235.2314
  0
VERTEX
  8
0
 10
28.0569
 20
235.2162
  0
VERTEX
  8
0
 10
28.022
 20
235.1907
  0
VERTEX
  8
0
 10
27.9925
 20
235.1549
  0
VERTEX
  8
0
 10
27.8973
 20
235.1673
  0
VERTEX
  8
0
 10
27.9774
 20
235.5923
  0
VERTEX
  8
0
 10
28.3887
 20
235.5923
  0
VERTEX
  8
0
 10
28.3887
 20
235.4963
  0
VERTEX
  8
0
 10
28.0611
 20
235.4963
  0
VERTEX
  8
0
 10
28.0149
 20
235.2727
  0
VERTEX
  8
0
 10
28.0909
 20
235.3111
  0
VERTEX
  8
0
 10
28.1707
 20
235.3243
  0
VERTEX
  8
0
 10
28.2245
 20
235.3197
  0
VERTEX
  8
0
 10
28.2734
 20
235.3051
  0
VERTEX
  8
0
 10
28.3173
 20
235.2806
  0
VERTEX
  8
0
 10
28.3564
 20
235.2463
  0
VERTEX
  8
0
 10
28.3874
 20
235.2057
  0
VERTEX
  8
0
 10
28.4095
 20
235.1604
  0
VERTEX
  8
0
 10
28.4228
 20
235.1104
  0
VERTEX
  8
0
 10
28.4272
 20
235.0556
  0
VERTEX
  8
0
 10
28.42
 20
234.9842
  0
VERTEX
  8
0
 10
28.3982
 20
234.9194
  0
VERTEX
  8
0
 10
28.3619
 20
234.861
  0
VERTEX
  8
0
 10
28.3277
 20
234.8249
  0
VERTEX
  8
0
 10
28.289
 20
234.7968
  0
VERTEX
  8
0
 10
28.2456
 20
234.7767
  0
VERTEX
  8
0
 10
28.1975
 20
234.7645
  0
VERTEX
  8
0
 10
28.1448
 20
234.7603
  0
VERTEX
  8
0
 10
28.0758
 20
234.7671
  0
VERTEX
  8
0
 10
28.0152
 20
234.7874
  0
VERTEX
  8
0
 10
27.9632
 20
234.8212
  0
VERTEX
  8
0
 10
27.9213
 20
234.8681
  0
VERTEX
  8
0
 10
27.8933
 20
234.9253
  0
VERTEX
  8
0
 10
27.8792
 20
234.9929
  0
VERTEX
  8
0
 10
27.8792
 20
234.9929
  0
SEQEND
  0
POLYLINE
  8
0
 66
     1
 10
0
 20
0
  0
VERTEX
  8
0
 10
28.5555
 20
235.3123
  0
VERTEX
  8
0
 10
28.5272
 20
235.4693
  0
VERTEX
  8
0
 10
28.5272
 20
235.6043
  0
VERTEX
  8
0
 10
28.6432
 20
235.6043
  0
VERTEX
  8
0
 10
28.6432
 20
235.4693
  0
VERTEX
  8
0
 10
28.6178
 20
235.3123
  0
VERTEX
  8
0
 10
28.5555
 20
235.3123
  0
SEQEND
  0
POLYLINE
  8
0
 66
     1
 10
0
 20
0
  0
VERTEX
  8
0
 10
28.743
 20
235.3123
  0
VERTEX
  8
0
 10
28.7152
 20
235.4693
  0
VERTEX
  8
0
 10
28.7152
 20
235.6043
  0
VERTEX
  8
0
 10
28.8312
 20
235.6043
  0
VERTEX
  8
0
 10
28.8312
 20
235.4693
  0
VERTEX
  8
0
 10
28.804
 20
235.3123
  0
VERTEX
  8
0
 10
28.743
 20
235.3123
  0
SEQEND
  0
POLYLINE
  8
0
 66
     1
 10
0
 20
0
  0
VERTEX
  8
0
 10
29.5032
 20
234.7723
  0
VERTEX
  8
0
 10
29.5032
 20
235.6043
  0
VERTEX
  8
0
 10
29.8133
 20
235.6043
  0
VERTEX
  8
0
 10
29.8977
 20
235.5979
  0
VERTEX
  8
0
 10
29.9649
 20
235.5788
  0
VERTEX
  8
0
 10
30.0143
 20
235.548
  0
VERTEX
  8
0
 10
30.0531
 20
235.5033
  0
VERTEX
  8
0
 10
30.0784
 20
235.4495
  0
VERTEX
  8
0
 10
30.0872
 20
235.3915
  0
VERTEX
  8
0
 10
30.0844
 20
235.3541
  0
VERTEX
  8
0
 10
30.075
 20
235.3199
  0
VERTEX
  8
0
 10
30.059
 20
235.2889
  0
VERTEX
  8
0
 10
30.0366
 20
235.2611
  0
VERTEX
  8
0
 10
30.0076
 20
235.2365
  0
VERTEX
  8
0
 10
29.9721
 20
235.215
  0
VERTEX
  8
0
 10
30.0366
 20
235.1859
  0
VERTEX
  8
0
 10
30.0851
 20
235.1418
  0
VERTEX
  8
0
 10
30.1167
 20
235.083
  0
VERTEX
  8
0
 10
30.1272
 20
235.0135
  0
VERTEX
  8
0
 10
30.1217
 20
234.9612
  0
VERTEX
  8
0
 10
30.1052
 20
234.9108
  0
VERTEX
  8
0
 10
30.0779
 20
234.8636
  0
VERTEX
  8
0
 10
30.0421
 20
234.8274
  0
VERTEX
  8
0
 10
30.0011
 20
234.8033
  0
VERTEX
  8
0
 10
29.9501
 20
234.7861
  0
VERTEX
  8
0
 10
29.8892
 20
234.7758
  0
VERTEX
  8
0
 10
29.8184
 20
234.7723
  0
VERTEX
  8
0
 10
29.5032
 20
234.7723
  0
SEQEND
  0
POLYLINE
  8
0
 66
     1
 10
0
 20
0
  0
VERTEX
  8
0
 10
29.6112
 20
235.2563
  0
VERTEX
  8
0
 10
29.7904
 20
235.2563
  0
VERTEX
  8
0
 10
29.8528
 20
235.2587
  0
VERTEX
  8
0
 10
29.895
 20
235.266
  0
VERTEX
  8
0
 10
29.925
 20
235.2786
  0
VERTEX
  8
0
 10
29.9484
 20
235.2963
  0
VERTEX
  8
0
 10
29.9652
 20
235.3192
  0
VERTEX
  8
0
 10
29.9755
 20
235.3472
  0
VERTEX
  8
0
 10
29.9792
 20
235.3803
  0
VERTEX
  8
0
 10
29.9765
 20
235.4141
  0
VERTEX
  8
0
 10
29.9676
 20
235.4426
  0
VERTEX
  8
0
 10
29.9523
 20
235.4658
  0
VERTEX
  8
0
 10
29.9308
 20
235.4837
  0
VERTEX
  8
0
 10
29.9029
 20
235.4964
  0
VERTEX
  8
0
 10
29.853
 20
235.5053
  0
VERTEX
  8
0
 10
29.7769
 20
235.5083
  0
VERTEX
  8
0
 10
29.6112
 20
235.5083
  0
VERTEX
  8
0
 10
29.6112
 20
235.2563
  0
SEQEND
  0
POLYLINE
  8
0
 66
     1
 10
0
 20
0
  0
VERTEX
  8
0
 10
29.6112
 20
234.8683
  0
VERTEX
  8
0
 10
29.8184
 20
234.8683
  0
VERTEX
  8
0
 10
29.8637
 20
234.8693
  0
VERTEX
  8
0
 10
29.8932
 20
234.8724
  0
VERTEX
  8
0
 10
29.9388
 20
234.8866
  0
VERTEX
  8
0
 10
29.974
 20
234.91
  0
VERTEX
  8
0
 10
29.9988
 20
234.9425
  0
VERTEX
  8
0
 10
30.0108
 20
234.9755
  0
VERTEX
  8
0
 10
30.0152
 20
235.0143
  0
VERTEX
  8
0
 10
30.012
 20
235.0517
  0
VERTEX
  8
0
 10
30.0013
 20
235.0835
  0
VERTEX
  8
0
 10
29.9833
 20
235.1098
  0
VERTEX
  8
0
 10
29.9578
 20
235.1306
  0
VERTEX
  8
0
 10
29.925
 20
235.1458
  0
VERTEX
  8
0
 10
29.8734
 20
235.1567
  0
VERTEX
  8
0
 10
29.8036
 20
235.1603
  0
VERTEX
  8
0
 10
29.6112
 20
235.1603
  0
VERTEX
  8
0
 10
29.6112
 20
234.8683
  0
SEQEND
  0
POLYLINE
  8
0
 66
     1
 10
0
 20
0
  0
VERTEX
  8
0
 10
30.2272
 20
235.0763
  0
VERTEX
  8
0
 10
30.2298
 20
235.1292
  0
VERTEX
  8
0
 10
30.2375
 20
235.1773
  0
VERTEX
  8
0
 10
30.2503
 20
235.2206
  0
VERTEX
  8
0
 10
30.2683
 20
235.2592
  0
VERTEX
  8
0
 10
30.2913
 20
235.293
  0
VERTEX
  8
0
 10
30.3195
 20
235.322
  0
VERTEX
  8
0
 10
30.3745
 20
235.3588
  0
VERTEX
  8
0
 10
30.4371
 20
235.381
  0
VERTEX
  8
0
 10
30.5075
 20
235.3883
  0
VERTEX
  8
0
 10
30.558
 20
235.3848
  0
VERTEX
  8
0
 10
30.604
 20
235.3744
  0
VERTEX
  8
0
 10
30.6455
 20
235.357
  0
VERTEX
  8
0
 10
30.6826
 20
235.3326
  0
VERTEX
  8
0
 10
30.7152
 20
235.3012
  0
VERTEX
  8
0
 10
30.7467
 20
235.2565
  0
VERTEX
  8
0
 10
30.7692
 20
235.2055
  0
VERTEX
  8
0
 10
30.7827
 20
235.1483
  0
VERTEX
  8
0
 10
30.7872
 20
235.0848
  0
VERTEX
  8
0
 10
30.7856
 20
235.0399
  0
VERTEX
  8
0
 10
30.7805
 20
234.9985
  0
VERTEX
  8
0
 10
30.7722
 20
234.9603
  0
VERTEX
  8
0
 10
30.7604
 20
234.9254
  0
VERTEX
  8
0
 10
30.7454
 20
234.8939
  0
VERTEX
  8
0
 10
30.727
 20
234.8656
  0
VERTEX
  8
0
 10
30.7052
 20
234.8407
  0
VERTEX
  8
0
 10
30.6801
 20
234.8192
  0
VERTEX
  8
0
 10
30.6516
 20
234.8009
  0
VERTEX
  8
0
 10
30.5827
 20
234.7737
  0
VERTEX
  8
0
 10
30.5075
 20
234.7643
  0
VERTEX
  8
0
 10
30.4553
 20
234.7677
  0
VERTEX
  8
0
 10
30.4081
 20
234.7784
  0
VERTEX
  8
0
 10
30.3659
 20
234.7962
  0
VERTEX
  8
0
 10
30.3287
 20
234.8213
  0
VERTEX
  8
0
 10
30.2965
 20
234.8537
  0
VERTEX
  8
0
 10
30.2662
 20
234.8988
  0
VERTEX
  8
0
 10
30.2445
 20
234.9509
  0
VERTEX
  8
0
 10
30.2316
 20
235.0101
  0
VERTEX
  8
0
 10
30.2272
 20
235.0763
  0
VERTEX
  8
0
 10
30.2272
 20
235.0763
  0
SEQEND
  0
POLYLINE
  8
0
 66
     1
 10
0
 20
0
  0
VERTEX
  8
0
 10
30.3312
 20
235.0766
  0
VERTEX
  8
0
 10
30.341
 20
234.9892
  0
VERTEX
  8
0
 10
30.3701
 20
234.9201
  0
VERTEX
  8
0
 10
30.396
 20
234.8889
  0
VERTEX
  8
0
 10
30.4276
 20
234.8666
  0
VERTEX
  8
0
 10
30.4647
 20
234.853
  0
VERTEX
  8
0
 10
30.5075
 20
234.8483
  0
VERTEX
  8
0
 10
30.5503
 20
234.8527
  0
VERTEX
  8
0
 10
30.5875
 20
234.8664
  0
VERTEX
  8
0
 10
30.619
 20
234.8895
  0
VERTEX
  8
0
 10
30.6449
 20
234.9218
  0
VERTEX
  8
0
 10
30.6737
 20
234.9922
  0
VERTEX
  8
0
 10
30.6832
 20
235.0799
  0
VERTEX
  8
0
 10
30.6732
 20
235.1649
  0
VERTEX
  8
0
 10
30.6432
 20
235.2336
  0
VERTEX
  8
0
 10
30.617
 20
235.2646
  0
VERTEX
  8
0
 10
30.5857
 20
235.2866
  0
VERTEX
  8
0
 10
30.5492
 20
235.2999
  0
VERTEX
  8
0
 10
30.5075
 20
235.3043
  0
VERTEX
  8
0
 10
30.4647
 20
235.2998
  0
VERTEX
  8
0
 10
30.4276
 20
235.2864
  0
VERTEX
  8
0
 10
30.396
 20
235.2639
  0
VERTEX
  8
0
 10
30.3701
 20
235.2325
  0
VERTEX
  8
0
 10
30.341
 20
235.1632
  0
VERTEX
  8
0
 10
30.3312
 20
235.0766
  0
VERTEX
  8
0
 10
30.3312
 20
235.0766
  0
SEQEND
  0
POLYLINE
  8
0
 66
     1
 10
0
 20
0
  0
VERTEX
  8
0
 10
30.9072
 20
234.7723
  0
VERTEX
  8
0
 10
30.9072
 20
235.3755
  0
VERTEX
  8
0
 10
30.9992
 20
235.3755
  0
VERTEX
  8
0
 10
30.9992
 20
235.2847
  0
VERTEX
  8
0
 10
31.0257
 20
235.3276
  0
VERTEX
  8
0
 10
31.0499
 20
235.3564
  0
VERTEX
  8
0
 10
31.0862
 20
235.3803
  0
VERTEX
  8
0
 10
31.1287
 20
235.3883
  0
VERTEX
  8
0
 10
31.18
 20
235.3802
  0
VERTEX
  8
0
 10
31.2327
 20
235.3558
  0
VERTEX
  8
0
 10
31.1975
 20
235.2621
  0
VERTEX
  8
0
 10
31.16
 20
235.2788
  0
VERTEX
  8
0
 10
31.1225
 20
235.2843
  0
VERTEX
  8
0
 10
31.0896
 20
235.2785
  0
VERTEX
  8
0
 10
31.0589
 20
235.261
  0
VERTEX
  8
0
 10
31.0383
 20
235.2381
  0
VERTEX
  8
0
 10
31.0243
 20
235.2081
  0
VERTEX
  8
0
 10
31.0115
 20
235.1515
  0
VERTEX
  8
0
 10
31.0072
 20
235.0886
  0
VERTEX
  8
0
 10
31.0072
 20
234.7723
  0
VERTEX
  8
0
 10
30.9072
 20
234.7723
  0
SEQEND
  0
POLYLINE
  8
0
 66
     1
 10
0
 20
0
  0
VERTEX
  8
0
 10
31.6832
 20
234.7723
  0
VERTEX
  8
0
 10
31.6832
 20
234.8519
  0
VERTEX
  8
0
 10
31.6586
 20
234.8206
  0
VERTEX
  8
0
 10
31.6295
 20
234.7961
  0
VERTEX
  8
0
 10
31.5961
 20
234.7786
  0
VERTEX
  8
0
 10
31.5584
 20
234.768
  0
VERTEX
  8
0
 10
31.5162
 20
234.7643
  0
VERTEX
  8
0
 10
31.4459
 20
234.7743
  0
VERTEX
  8
0
 10
31.3824
 20
234.8054
  0
VERTEX
  8
0
 10
31.3302
 20
234.8524
  0
VERTEX
  8
0
 10
31.2916
 20
234.9139
  0
VERTEX
  8
0
 10
31.2676
 20
234.9886
  0
VERTEX
  8
0
 10
31.2592
 20
235.0758
  0
VERTEX
  8
0
 10
31.2609
 20
235.1226
  0
VERTEX
  8
0
 10
31.2663
 20
235.1658
  0
VERTEX
  8
0
 10
31.2756
 20
235.2054
  0
VERTEX
  8
0
 10
31.2887
 20
235.2414
  0
VERTEX
  8
0
 10
31.3056
 20
235.2739
  0
VERTEX
  8
0
 10
31.3263
 20
235.3027
  0
VERTEX
  8
0
 10
31.3509
 20
235.3279
  0
VERTEX
  8
0
 10
31.3792
 20
235.3495
  0
VERTEX
  8
0
 10
31.4425
 20
235.3786
  0
VERTEX
  8
0
 10
31.5134
 20
235.3883
  0
VERTEX
  8
0
 10
31.5634
 20
235.3832
  0
VERTEX
  8
0
 10
31.6078
 20
235.3679
  0
VERTEX
  8
0
 10
31.6464
 20
235.3424
  0
VERTEX
  8
0
 10
31.6792
 20
235.3067
  0
VERTEX
  8
0
 10
31.6792
 20
235.6043
  0
VERTEX
  8
0
 10
31.7792
 20
235.6043
  0
VERTEX
  8
0
 10
31.7792
 20
234.7723
  0
VERTEX
  8
0
 10
31.6832
 20
234.7723
  0
SEQEND
  0
POLYLINE
  8
0
 66
     1
 10
0
 20
0
  0
VERTEX
  8
0
 10
31.3632
 20
235.0761
  0
VERTEX
  8
0
 10
31.3721
 20
234.9929
  0
VERTEX
  8
0
 10
31.3988
 20
234.9241
  0
VERTEX
  8
0
 10
31.4231
 20
234.8911
  0
VERTEX
  8
0
 10
31.4525
 20
234.8675
  0
VERTEX
  8
0
 10
31.4869
 20
234.8533
  0
VERTEX
  8
0
 10
31.5265
 20
234.8483
  0
VERTEX
  8
0
 10
31.5655
 20
234.8526
  0
VERTEX
  8
0
 10
31.5994
 20
234.866
  0
VERTEX
  8
0
 10
31.6282
 20
234.8885
  0
VERTEX
  8
0
 10
31.6519
 20
234.9201
  0
VERTEX
  8
0
 10
31.6778
 20
234.9867
  0
VERTEX
  8
0
 10
31.6864
 20
235.0676
  0
VERTEX
  8
0
 10
31.678
 20
235.155
  0
VERTEX
  8
0
 10
31.653
 20
235.2253
  0
VERTEX
  8
0
 10
31.6288
 20
235.2598
  0
VERTEX
  8
0
 10
31.5988
 20
235.2846
  0
VERTEX
  8
0
 10
31.5632
 20
235.2994
  0
VERTEX
  8
0
 10
31.522
 20
235.3043
  0
VERTEX
  8
0
 10
31.4819
 20
235.2996
  0
VERTEX
  8
0
 10
31.4474
 20
235.2854
  0
VERTEX
  8
0
 10
31.4186
 20
235.2617
  0
VERTEX
  8
0
 10
31.3954
 20
235.2286
  0
VERTEX
  8
0
 10
31.3713
 20
235.1607
  0
VERTEX
  8
0
 10
31.3632
 20
235.0761
  0
VERTEX
  8
0
 10
31.3632
 20
235.0761
  0
SEQEND
  0
POLYLINE
  8
0
 66
     1
 10
0
 20
0
  0
VERTEX
  8
0
 10
32.343
 20
234.9693
  0
VERTEX
  8
0
 10
32.4482
 20
234.9564
  0
VERTEX
  8
0
 10
32.4385
 20
234.9257
  0
VERTEX
  8
0
 10
32.4265
 20
234.8977
  0
VERTEX
  8
0
 10
32.4123
 20
234.8724
  0
VERTEX
  8
0
 10
32.3959
 20
234.8497
  0
VERTEX
  8
0
 10
32.3772
 20
234.8297
  0
VERTEX
  8
0
 10
32.3564
 20
234.8123
  0
VERTEX
  8
0
 10
32.3333
 20
234.7977
  0
VERTEX
  8
0
 10
32.308
 20
234.7857
  0
VERTEX
  8
0
 10
32.2805
 20
234.7763
  0
VERTEX
  8
0
 10
32.2508
 20
234.7697
  0
VERTEX
  8
0
 10
32.2189
 20
234.7657
  0
VERTEX
  8
0
 10
32.1847
 20
234.7643
  0
VERTEX
  8
0
 10
32.1222
 20
234.7693
  0
VERTEX
  8
0
 10
32.0665
 20
234.7844
  0
VERTEX
  8
0
 10
32.0178
 20
234.8095
  0
VERTEX
  8
0
 10
31.976
 20
234.8447
  0
VERTEX
  8
0
 10
31.9484
 20
234.8795
  0
VERTEX
  8
0
 10
31.9269
 20
234.9195
  0
VERTEX
  8
0
 10
31.9115
 20
234.9648
  0
VERTEX
  8
0
 10
31.9023
 20
235.0154
  0
VERTEX
  8
0
 10
31.8992
 20
235.0713
  0
VERTEX
  8
0
 10
31.9035
 20
235.1374
  0
VERTEX
  8
0
 10
31.9164
 20
235.1968
  0
VERTEX
  8
0
 10
31.9379
 20
235.2495
  0
VERTEX
  8
0
 10
31.968
 20
235.2956
  0
VERTEX
  8
0
 10
32.0007
 20
235.329
  0
VERTEX
  8
0
 10
32.0381
 20
235.3549
  0
VERTEX
  8
0
 10
32.0803
 20
235.3735
  0
VERTEX
  8
0
 10
32.1273
 20
235.3846
  0
VERTEX
  8
0
 10
32.1791
 20
235.3883
  0
VERTEX
  8
0
 10
32.2296
 20
235.3846
  0
VERTEX
  8
0
 10
32.2753
 20
235.3736
  0
VERTEX
  8
0
 10
32.3164
 20
235.3551
  0
VERTEX
  8
0
 10
32.3528
 20
235.3293
  0
VERTEX
  8
0
 10
32.3845
 20
235.2961
  0
VERTEX
  8
0
 10
32.4139
 20
235.2505
  0
VERTEX
  8
0
 10
32.4348
 20
235.1985
  0
VERTEX
  8
0
 10
32.4474
 20
235.1402
  0
VERTEX
  8
0
 10
32.4516
 20
235.0754
  0
VERTEX
  8
0
 10
32.4515
 20
235.0613
  0
VERTEX
  8
0
 10
32.451
 20
235.0483
  0
VERTEX
  8
0
 10
32.0032
 20
235.0483
  0
VERTEX
  8
0
 10
32.0175
 20
234.9705
  0
VERTEX
  8
0
 10
32.0513
 20
234.9087
  0
VERTEX
  8
0
 10
32.088
 20
234.8752
  0
VERTEX
  8
0
 10
32.1325
 20
234.855
  0
VERTEX
  8
0
 10
32.1847
 20
234.8483
  0
VERTEX
  8
0
 10
32.2207
 20
234.8517
  0
VERTEX
  8
0
 10
32.2529
 20
234.8618
  0
VERTEX
  8
0
 10
32.2812
 20
234.8786
  0
VERTEX
  8
0
 10
32.3056
 20
234.9021
  0
VERTEX
  8
0
 10
32.3263
 20
234.9323
  0
VERTEX
  8
0
 10
32.343
 20
234.9693
  0
VERTEX
  8
0
 10
32.343
 20
234.9693
  0
SEQEND
  0
POLYLINE
  8
0
 66
     1
 10
0
 20
0
  0
VERTEX
  8
0
 10
32.0098
 20
235.1323
  0
VERTEX
  8
0
 10
32.3444
 20
235.1323
  0
VERTEX
  8
0
 10
32.3315
 20
235.1984
  0
VERTEX
  8
0
 10
32.306
 20
235.2457
  0
VERTEX
  8
0
 10
32.2705
 20
235.278
  0
VERTEX
  8
0
 10
32.2286
 20
235.2976
  0
VERTEX
  8
0
 10
32.1802
 20
235.3043
  0
VERTEX
  8
0
 10
32.1131
 20
235.2922
  0
VERTEX
  8
0
 10
32.0595
 20
235.2547
  0
VERTEX
  8
0
 10
32.0248
 20
235.2004
  0
VERTEX
  8
0
 10
32.0098
 20
235.1323
  0
VERTEX
  8
0
 10
32.0098
 20
235.1323
  0
SEQEND
  0
POLYLINE
  8
0
 66
     1
 10
0
 20
0
  0
VERTEX
  8
0
 10
32.5752
 20
234.7723
  0
VERTEX
  8
0
 10
32.5752
 20
235.3755
  0
VERTEX
  8
0
 10
32.6672
 20
235.3755
  0
VERTEX
  8
0
 10
32.6672
 20
235.2847
  0
VERTEX
  8
0
 10
32.6937
 20
235.3276
  0
VERTEX
  8
0
 10
32.7179
 20
235.3564
  0
VERTEX
  8
0
 10
32.7542
 20
235.3803
  0
VERTEX
  8
0
 10
32.7967
 20
235.3883
  0
VERTEX
  8
0
 10
32.848
 20
235.3802
  0
VERTEX
  8
0
 10
32.9007
 20
235.3558
  0
VERTEX
  8
0
 10
32.8655
 20
235.2621
  0
VERTEX
  8
0
 10
32.828
 20
235.2788
  0
VERTEX
  8
0
 10
32.7905
 20
235.2843
  0
VERTEX
  8
0
 10
32.7576
 20
235.2785
  0
VERTEX
  8
0
 10
32.7269
 20
235.261
  0
VERTEX
  8
0
 10
32.7063
 20
235.2381
  0
VERTEX
  8
0
 10
32.6923
 20
235.2081
  0
VERTEX
  8
0
 10
32.6795
 20
235.1515
  0
VERTEX
  8
0
 10
32.6752
 20
235.0886
  0
VERTEX
  8
0
 10
32.6752
 20
234.7723
  0
VERTEX
  8
0
 10
32.5752
 20
234.7723
  0
SEQEND
  0
POLYLINE
  8
0
 66
     1
 10
0
 20
0
  0
VERTEX
  8
0
 10
32.9912
 20
234.7723
  0
VERTEX
  8
0
 10
32.9912
 20
234.8923
  0
VERTEX
  8
0
 10
33.1072
 20
234.8923
  0
VERTEX
  8
0
 10
33.1072
 20
234.7764
  0
VERTEX
  8
0
 10
33.1046
 20
234.7379
  0
VERTEX
  8
0
 10
33.0966
 20
234.7038
  0
VERTEX
  8
0
 10
33.0834
 20
234.6743
  0
VERTEX
  8
0
 10
33.0648
 20
234.6492
  0
VERTEX
  8
0
 10
33.041
 20
234.6285
  0
VERTEX
  8
0
 10
33.0118
 20
234.6123
  0
VERTEX
  8
0
 10
32.9832
 20
234.6548
  0
VERTEX
  8
0
 10
33.0103
 20
234.6717
  0
VERTEX
  8
0
 10
33.0301
 20
234.6969
  0
VERTEX
  8
0
 10
33.0425
 20
234.7304
  0
VERTEX
  8
0
 10
33.0475
 20
234.7723
  0
VERTEX
  8
0
 10
32.9912
 20
234.7723
  0
SEQEND
  0
POLYLINE
  8
0
 66
     1
 10
0
 20
0
  0
VERTEX
  8
0
 10
33.9761
 20
234.7723
  0
VERTEX
  8
0
 10
33.7552
 20
235.6043
  0
VERTEX
  8
0
 10
33.8675
 20
235.6043
  0
VERTEX
  8
0
 10
33.9934
 20
235.0614
  0
VERTEX
  8
0
 10
34.0122
 20
234.9756
  0
VERTEX
  8
0
 10
34.0283
 20
234.892
  0
VERTEX
  8
0
 10
34.0397
 20
234.94
  0
VERTEX
  8
0
 10
34.0492
 20
234.9793
  0
VERTEX
  8
0
 10
34.0566
 20
235.0099
  0
VERTEX
  8
0
 10
34.0621
 20
235.0317
  0
VERTEX
  8
0
 10
34.0655
 20
235.0449
  0
VERTEX
  8
0
 10
34.2229
 20
235.6043
  0
VERTEX
  8
0
 10
34.355
 20
235.6043
  0
VERTEX
  8
0
 10
34.4735
 20
235.1848
  0
VERTEX
  8
0
 10
34.5113
 20
235.0341
  0
VERTEX
  8
0
 10
34.5374
 20
234.892
  0
VERTEX
  8
0
 10
34.5469
 20
234.9374
  0
VERTEX
  8
0
 10
34.5606
 20
234.9974
  0
VERTEX
  8
0
 10
34.5783
 20
235.0721
  0
VERTEX
  8
0
 10
34.7068
 20
235.6043
  0
VERTEX
  8
0
 10
34.8187
 20
235.6043
  0
VERTEX
  8
0
 10
34.5919
 20
234.7723
  0
VERTEX
  8
0
 10
34.4861
 20
234.7723
  0
VERTEX
  8
0
 10
34.3112
 20
235.4063
  0
VERTEX
  8
0
 10
34.2979
 20
235.452
  0
VERTEX
  8
0
 10
34.2888
 20
235.4842
  0
VERTEX
  8
0
 10
34.2839
 20
235.5029
  0
VERTEX
  8
0
 10
34.2737
 20
235.4535
  0
VERTEX
  8
0
 10
34.2627
 20
235.4063
  0
VERTEX
  8
0
 10
34.0885
 20
234.7723
  0
VERTEX
  8
0
 10
33.9761
 20
234.7723
  0
SEQEND
  0
POLYLINE
  8
0
 66
     1
 10
0
 20
0
  0
VERTEX
  8
0
 10
34.9072
 20
234.7723
  0
VERTEX
  8
0
 10
34.9072
 20
235.6043
  0
VERTEX
  8
0
 10
35.0072
 20
235.6043
  0
VERTEX
  8
0
 10
35.0072
 20
235.3067
  0
VERTEX
  8
0
 10
35.0453
 20
235.3422
  0
VERTEX
  8
0
 10
35.088
 20
235.3676
  0
VERTEX
  8
0
 10
35.1353
 20
235.383
  0
VERTEX
  8
0
 10
35.1874
 20
235.3883
  0
VERTEX
  8
0
 10
35.249
 20
235.3819
  0
VERTEX
  8
0
 10
35.3035
 20
235.3616
  0
VERTEX
  8
0
 10
35.3503
 20
235.3248
  0
VERTEX
  8
0
 10
35.3799
 20
235.2732
  0
VERTEX
  8
0
 10
35.3914
 20
235.2219
  0
VERTEX
  8
0
 10
35.3952
 20
235.1541
  0
VERTEX
  8
0
 10
35.3952
 20
234.7723
  0
VERTEX
  8
0
 10
35.2952
 20
234.7723
  0
VERTEX
  8
0
 10
35.2952
 20
235.154
  0
VERTEX
  8
0
 10
35.2937
 20
235.1845
  0
VERTEX
  8
0
 10
35.2889
 20
235.2114
  0
VERTEX
  8
0
 10
35.281
 20
235.2348
  0
VERTEX
  8
0
 10
35.27
 20
235.2546
  0
VERTEX
  8
0
 10
35.2558
 20
235.2709
  0
VERTEX
  8
0
 10
35.2385
 20
235.2836
  0
VERTEX
  8
0
 10
35.218
 20
235.2927
  0
VERTEX
  8
0
 10
35.1943
 20
235.2983
  0
VERTEX
  8
0
 10
35.1675
 20
235.3003
  0
VERTEX
  8
0
 10
35.1233
 20
235.2948
  0
VERTEX
  8
0
 10
35.082
 20
235.2771
  0
VERTEX
  8
0
 10
35.0477
 20
235.2492
  0
VERTEX
  8
0
 10
35.0246
 20
235.2133
  0
VERTEX
  8
0
 10
35.0116
 20
235.1654
  0
VERTEX
  8
0
 10
35.0072
 20
235.1018
  0
VERTEX
  8
0
 10
35.0072
 20
234.7723
  0
VERTEX
  8
0
 10
34.9072
 20
234.7723
  0
SEQEND
  0
POLYLINE
  8
0
 66
     1
 10
0
 20
0
  0
VERTEX
  8
0
 10
35.5472
 20
235.4883
  0
VERTEX
  8
0
 10
35.5472
 20
235.6043
  0
VERTEX
  8
0
 10
35.6472
 20
235.6043
  0
VERTEX
  8
0
 10
35.6472
 20
235.4883
  0
VERTEX
  8
0
 10
35.5472
 20
235.4883
  0
SEQEND
  0
POLYLINE
  8
0
 66
     1
 10
0
 20
0
  0
VERTEX
  8
0
 10
35.5472
 20
234.7723
  0
VERTEX
  8
0
 10
35.5472
 20
235.3755
  0
VERTEX
  8
0
 10
35.6472
 20
235.3755
  0
VERTEX
  8
0
 10
35.6472
 20
234.7723
  0
VERTEX
  8
0
 10
35.5472
 20
234.7723
  0
SEQEND
  0
POLYLINE
  8
0
 66
     1
 10
0
 20
0
  0
VERTEX
  8
0
 10
36.0249
 20
234.8671
  0
VERTEX
  8
0
 10
36.0395
 20
234.7774
  0
VERTEX
  8
0
 10
35.9989
 20
234.7709
  0
VERTEX
  8
0
 10
35.9633
 20
234.7683
  0
VERTEX
  8
0
 10
35.9175
 20
234.7718
  0
VERTEX
  8
0
 10
35.8809
 20
234.7836
  0
VERTEX
  8
0
 10
35.8536
 20
234.8034
  0
VERTEX
  8
0
 10
35.8355
 20
234.8315
  0
VERTEX
  8
0
 10
35.8287
 20
234.8579
  0
VERTEX
  8
0
 10
35.8246
 20
234.8979
  0
VERTEX
  8
0
 10
35.8232
 20
234.9516
  0
VERTEX
  8
0
 10
35.8232
 20
235.2963
  0
VERTEX
  8
0
 10
35.7472
 20
235.2963
  0
VERTEX
  8
0
 10
35.7472
 20
235.3763
  0
VERTEX
  8
0
 10
35.8232
 20
235.3763
  0
VERTEX
  8
0
 10
35.8232
 20
235.5238
  0
VERTEX
  8
0
 10
35.9232
 20
235.5843
  0
VERTEX
  8
0
 10
35.9232
 20
235.3763
  0
VERTEX
  8
0
 10
36.0232
 20
235.3763
  0
VERTEX
  8
0
 10
36.0232
 20
235.2963
  0
VERTEX
  8
0
 10
35.9232
 20
235.2963
  0
VERTEX
  8
0
 10
35.9232
 20
234.947
  0
VERTEX
  8
0
 10
35.9237
 20
234.92
  0
VERTEX
  8
0
 10
35.9249
 20
234.9054
  0
VERTEX
  8
0
 10
35.9321
 20
234.8854
  0
VERTEX
  8
0
 10
35.9457
 20
234.8716
  0
VERTEX
  8
0
 10
35.96
 20
234.8664
  0
VERTEX
  8
0
 10
35.9805
 20
234.8643
  0
VERTEX
  8
0
 10
35.9998
 20
234.8647
  0
VERTEX
  8
0
 10
36.0249
 20
234.8671
  0
VERTEX
  8
0
 10
36.0249
 20
234.8671
  0
SEQEND
  0
POLYLINE
  8
0
 66
     1
 10
0
 20
0
  0
VERTEX
  8
0
 10
36.535
 20
234.9693
  0
VERTEX
  8
0
 10
36.6402
 20
234.9564
  0
VERTEX
  8
0
 10
36.6305
 20
234.9257
  0
VERTEX
  8
0
 10
36.6185
 20
234.8977
  0
VERTEX
  8
0
 10
36.6043
 20
234.8724
  0
VERTEX
  8
0
 10
36.5879
 20
234.8497
  0
VERTEX
  8
0
 10
36.5692
 20
234.8297
  0
VERTEX
  8
0
 10
36.5484
 20
234.8123
  0
VERTEX
  8
0
 10
36.5253
 20
234.7977
  0
VERTEX
  8
0
 10
36.5
 20
234.7857
  0
VERTEX
  8
0
 10
36.4725
 20
234.7763
  0
VERTEX
  8
0
 10
36.4428
 20
234.7697
  0
VERTEX
  8
0
 10
36.4109
 20
234.7657
  0
VERTEX
  8
0
 10
36.3767
 20
234.7643
  0
VERTEX
  8
0
 10
36.3142
 20
234.7693
  0
VERTEX
  8
0
 10
36.2585
 20
234.7844
  0
VERTEX
  8
0
 10
36.2098
 20
234.8095
  0
VERTEX
  8
0
 10
36.168
 20
234.8447
  0
VERTEX
  8
0
 10
36.1404
 20
234.8795
  0
VERTEX
  8
0
 10
36.1189
 20
234.9195
  0
VERTEX
  8
0
 10
36.1035
 20
234.9648
  0
VERTEX
  8
0
 10
36.0943
 20
235.0154
  0
VERTEX
  8
0
 10
36.0912
 20
235.0713
  0
VERTEX
  8
0
 10
36.0955
 20
235.1374
  0
VERTEX
  8
0
 10
36.1084
 20
235.1968
  0
VERTEX
  8
0
 10
36.1299
 20
235.2495
  0
VERTEX
  8
0
 10
36.16
 20
235.2956
  0
VERTEX
  8
0
 10
36.1927
 20
235.329
  0
VERTEX
  8
0
 10
36.2301
 20
235.3549
  0
VERTEX
  8
0
 10
36.2723
 20
235.3735
  0
VERTEX
  8
0
 10
36.3193
 20
235.3846
  0
VERTEX
  8
0
 10
36.3711
 20
235.3883
  0
VERTEX
  8
0
 10
36.4216
 20
235.3846
  0
VERTEX
  8
0
 10
36.4673
 20
235.3736
  0
VERTEX
  8
0
 10
36.5084
 20
235.3551
  0
VERTEX
  8
0
 10
36.5448
 20
235.3293
  0
VERTEX
  8
0
 10
36.5765
 20
235.2961
  0
VERTEX
  8
0
 10
36.6059
 20
235.2505
  0
VERTEX
  8
0
 10
36.6268
 20
235.1985
  0
VERTEX
  8
0
 10
36.6394
 20
235.1402
  0
VERTEX
  8
0
 10
36.6436
 20
235.0754
  0
VERTEX
  8
0
 10
36.6435
 20
235.0613
  0
VERTEX
  8
0
 10
36.643
 20
235.0483
  0
VERTEX
  8
0
 10
36.1952
 20
235.0483
  0
VERTEX
  8
0
 10
36.2095
 20
234.9705
  0
VERTEX
  8
0
 10
36.2433
 20
234.9087
  0
VERTEX
  8
0
 10
36.28
 20
234.8752
  0
VERTEX
  8
0
 10
36.3245
 20
234.855
  0
VERTEX
  8
0
 10
36.3767
 20
234.8483
  0
VERTEX
  8
0
 10
36.4127
 20
234.8517
  0
VERTEX
  8
0
 10
36.4449
 20
234.8618
  0
VERTEX
  8
0
 10
36.4732
 20
234.8786
  0
VERTEX
  8
0
 10
36.4976
 20
234.9021
  0
VERTEX
  8
0
 10
36.5183
 20
234.9323
  0
VERTEX
  8
0
 10
36.535
 20
234.9693
  0
VERTEX
  8
0
 10
36.535
 20
234.9693
  0
SEQEND
  0
POLYLINE
  8
0
 66
     1
 10
0
 20
0
  0
VERTEX
  8
0
 10
36.2018
 20
235.1323
  0
VERTEX
  8
0
 10
36.5364
 20
235.1323
  0
VERTEX
  8
0
 10
36.5235
 20
235.1984
  0
VERTEX
  8
0
 10
36.498
 20
235.2457
  0
VERTEX
  8
0
 10
36.4625
 20
235.278
  0
VERTEX
  8
0
 10
36.4206
 20
235.2976
  0
VERTEX
  8
0
 10
36.3722
 20
235.3043
  0
VERTEX
  8
0
 10
36.3051
 20
235.2922
  0
VERTEX
  8
0
 10
36.2515
 20
235.2547
  0
VERTEX
  8
0
 10
36.2168
 20
235.2004
  0
VERTEX
  8
0
 10
36.2018
 20
235.1323
  0
VERTEX
  8
0
 10
36.2018
 20
235.1323
  0
SEQEND
  0
POLYLINE
  8
0
 66
     1
 10
0
 20
0
  0
VERTEX
  8
0
 10
37.2632
 20
235.0763
  0
VERTEX
  8
0
 10
37.2658
 20
235.1292
  0
VERTEX
  8
0
 10
37.2735
 20
235.1773
  0
VERTEX
  8
0
 10
37.2863
 20
235.2206
  0
VERTEX
  8
0
 10
37.3043
 20
235.2592
  0
VERTEX
  8
0
 10
37.3273
 20
235.293
  0
VERTEX
  8
0
 10
37.3555
 20
235.322
  0
VERTEX
  8
0
 10
37.4105
 20
235.3588
  0
VERTEX
  8
0
 10
37.4731
 20
235.381
  0
VERTEX
  8
0
 10
37.5435
 20
235.3883
  0
VERTEX
  8
0
 10
37.594
 20
235.3848
  0
VERTEX
  8
0
 10
37.64
 20
235.3744
  0
VERTEX
  8
0
 10
37.6815
 20
235.357
  0
VERTEX
  8
0
 10
37.7186
 20
235.3326
  0
VERTEX
  8
0
 10
37.7512
 20
235.3012
  0
VERTEX
  8
0
 10
37.7827
 20
235.2565
  0
VERTEX
  8
0
 10
37.8052
 20
235.2055
  0
VERTEX
  8
0
 10
37.8187
 20
235.1483
  0
VERTEX
  8
0
 10
37.8232
 20
235.0848
  0
VERTEX
  8
0
 10
37.8216
 20
235.0399
  0
VERTEX
  8
0
 10
37.8165
 20
234.9985
  0
VERTEX
  8
0
 10
37.8082
 20
234.9603
  0
VERTEX
  8
0
 10
37.7964
 20
234.9254
  0
VERTEX
  8
0
 10
37.7814
 20
234.8939
  0
VERTEX
  8
0
 10
37.763
 20
234.8656
  0
VERTEX
  8
0
 10
37.7412
 20
234.8407
  0
VERTEX
  8
0
 10
37.7161
 20
234.8192
  0
VERTEX
  8
0
 10
37.6876
 20
234.8009
  0
VERTEX
  8
0
 10
37.6187
 20
234.7737
  0
VERTEX
  8
0
 10
37.5435
 20
234.7643
  0
VERTEX
  8
0
 10
37.4913
 20
234.7677
  0
VERTEX
  8
0
 10
37.4441
 20
234.7784
  0
VERTEX
  8
0
 10
37.4019
 20
234.7962
  0
VERTEX
  8
0
 10
37.3647
 20
234.8213
  0
VERTEX
  8
0
 10
37.3325
 20
234.8537
  0
VERTEX
  8
0
 10
37.3022
 20
234.8988
  0
VERTEX
  8
0
 10
37.2805
 20
234.9509
  0
VERTEX
  8
0
 10
37.2676
 20
235.0101
  0
VERTEX
  8
0
 10
37.2632
 20
235.0763
  0
VERTEX
  8
0
 10
37.2632
 20
235.0763
  0
SEQEND
  0
POLYLINE
  8
0
 66
     1
 10
0
 20
0
  0
VERTEX
  8
0
 10
37.3672
 20
235.0766
  0
VERTEX
  8
0
 10
37.377
 20
234.9892
  0
VERTEX
  8
0
 10
37.4061
 20
234.9201
  0
VERTEX
  8
0
 10
37.432
 20
234.8889
  0
VERTEX
  8
0
 10
37.4636
 20
234.8666
  0
VERTEX
  8
0
 10
37.5007
 20
234.853
  0
VERTEX
  8
0
 10
37.5435
 20
234.8483
  0
VERTEX
  8
0
 10
37.5863
 20
234.8527
  0
VERTEX
  8
0
 10
37.6235
 20
234.8664
  0
VERTEX
  8
0
 10
37.655
 20
234.8895
  0
VERTEX
  8
0
 10
37.6809
 20
234.9218
  0
VERTEX
  8
0
 10
37.7097
 20
234.9922
  0
VERTEX
  8
0
 10
37.7192
 20
235.0799
  0
VERTEX
  8
0
 10
37.7092
 20
235.1649
  0
VERTEX
  8
0
 10
37.6792
 20
235.2336
  0
VERTEX
  8
0
 10
37.653
 20
235.2646
  0
VERTEX
  8
0
 10
37.6217
 20
235.2866
  0
VERTEX
  8
0
 10
37.5852
 20
235.2999
  0
VERTEX
  8
0
 10
37.5435
 20
235.3043
  0
VERTEX
  8
0
 10
37.5007
 20
235.2998
  0
VERTEX
  8
0
 10
37.4636
 20
235.2864
  0
VERTEX
  8
0
 10
37.432
 20
235.2639
  0
VERTEX
  8
0
 10
37.4061
 20
235.2325
  0
VERTEX
  8
0
 10
37.377
 20
235.1632
  0
VERTEX
  8
0
 10
37.3672
 20
235.0766
  0
VERTEX
  8
0
 10
37.3672
 20
235.0766
  0
SEQEND
  0
POLYLINE
  8
0
 66
     1
 10
0
 20
0
  0
VERTEX
  8
0
 10
37.9432
 20
234.7723
  0
VERTEX
  8
0
 10
37.9432
 20
235.3755
  0
VERTEX
  8
0
 10
38.0352
 20
235.3755
  0
VERTEX
  8
0
 10
38.0352
 20
235.2903
  0
VERTEX
  8
0
 10
38.064
 20
235.3254
  0
VERTEX
  8
0
 10
38.0975
 20
235.3528
  0
VERTEX
  8
0
 10
38.1357
 20
235.3724
  0
VERTEX
  8
0
 10
38.1786
 20
235.3842
  0
VERTEX
  8
0
 10
38.2262
 20
235.3883
  0
VERTEX
  8
0
 10
38.2773
 20
235.3834
  0
VERTEX
  8
0
 10
38.3256
 20
235.3684
  0
VERTEX
  8
0
 10
38.3621
 20
235.3476
  0
VERTEX
  8
0
 10
38.391
 20
235.3196
  0
VERTEX
  8
0
 10
38.4121
 20
235.2844
  0
VERTEX
  8
0
 10
38.4256
 20
235.242
  0
VERTEX
  8
0
 10
38.4298
 20
235.2038
  0
VERTEX
  8
0
 10
38.4312
 20
235.1427
  0
VERTEX
  8
0
 10
38.4312
 20
234.7723
  0
VERTEX
  8
0
 10
38.3312
 20
234.7723
  0
VERTEX
  8
0
 10
38.3312
 20
235.1391
  0
VERTEX
  8
0
 10
38.3292
 20
235.1858
  0
VERTEX
  8
0
 10
38.3232
 20
235.2191
  0
VERTEX
  8
0
 10
38.3058
 20
235.2552
  0
VERTEX
  8
0
 10
38.2763
 20
235.2816
  0
VERTEX
  8
0
 10
38.2432
 20
235.2956
  0
VERTEX
  8
0
 10
38.2047
 20
235.3003
  0
VERTEX
  8
0
 10
38.1789
 20
235.2989
  0
VERTEX
  8
0
 10
38.1553
 20
235.2948
  0
VERTEX
  8
0
 10
38.134
 20
235.2879
  0
VERTEX
  8
0
 10
38.115
 20
235.2782
  0
VERTEX
  8
0
 10
38.0982
 20
235.2658
  0
VERTEX
  8
0
 10
38.0836
 20
235.2506
  0
VERTEX
  8
0
 10
38.0713
 20
235.2327
  0
VERTEX
  8
0
 10
38.0612
 20
235.212
  0
VERTEX
  8
0
 10
38.0533
 20
235.1886
  0
VERTEX
  8
0
 10
38.0477
 20
235.1623
  0
VERTEX
  8
0
 10
38.0444
 20
235.1334
  0
VERTEX
  8
0
 10
38.0432
 20
235.1016
  0
VERTEX
  8
0
 10
38.0432
 20
234.7723
  0
VERTEX
  8
0
 10
37.9432
 20
234.7723
  0
SEQEND
  0
POLYLINE
  8
0
 66
     1
 10
0
 20
0
  0
VERTEX
  8
0
 10
39.5192
 20
235.1003
  0
VERTEX
  8
0
 10
39.5192
 20
235.1963
  0
VERTEX
  8
0
 10
39.8712
 20
235.1963
  0
VERTEX
  8
0
 10
39.8712
 20
234.8895
  0
VERTEX
  8
0
 10
39.817
 20
234.85
  0
VERTEX
  8
0
 10
39.7616
 20
234.8177
  0
VERTEX
  8
0
 10
39.7052
 20
234.7926
  0
VERTEX
  8
0
 10
39.6476
 20
234.7747
  0
VERTEX
  8
0
 10
39.589
 20
234.7639
  0
VERTEX
  8
0
 10
39.5292
 20
234.7603
  0
VERTEX
  8
0
 10
39.415
 20
234.7725
  0
VERTEX
  8
0
 10
39.3134
 20
234.8089
  0
VERTEX
  8
0
 10
39.2503
 20
234.8497
  0
VERTEX
  8
0
 10
39.1985
 20
234.9012
  0
VERTEX
  8
0
 10
39.1579
 20
234.9636
  0
VERTEX
  8
0
 10
39.1199
 20
235.0676
  0
VERTEX
  8
0
 10
39.1072
 20
235.1844
  0
VERTEX
  8
0
 10
39.1189
 20
235.2986
  0
VERTEX
  8
0
 10
39.154
 20
235.4029
  0
VERTEX
  8
0
 10
39.1937
 20
235.4701
  0
VERTEX
  8
0
 10
39.2433
 20
235.5244
  0
VERTEX
  8
0
 10
39.303
 20
235.5655
  0
VERTEX
  8
0
 10
39.405
 20
235.6036
  0
VERTEX
  8
0
 10
39.5214
 20
235.6163
  0
VERTEX
  8
0
 10
39.6063
 20
235.609
  0
VERTEX
  8
0
 10
39.6838
 20
235.5869
  0
VERTEX
  8
0
 10
39.7498
 20
235.5513
  0
VERTEX
  8
0
 10
39.8
 20
235.5034
  0
VERTEX
  8
0
 10
39.8339
 20
235.4461
  0
VERTEX
  8
0
 10
39.8599
 20
235.372
  0
VERTEX
  8
0
 10
39.761
 20
235.3451
  0
VERTEX
  8
0
 10
39.7411
 20
235.3996
  0
VERTEX
  8
0
 10
39.7175
 20
235.4401
  0
VERTEX
  8
0
 10
39.6824
 20
235.4753
  0
VERTEX
  8
0
 10
39.6359
 20
235.502
  0
VERTEX
  8
0
 10
39.5811
 20
235.5187
  0
VERTEX
  8
0
 10
39.5215
 20
235.5243
  0
VERTEX
  8
0
 10
39.452
 20
235.5185
  0
VERTEX
  8
0
 10
39.3915
 20
235.5011
  0
VERTEX
  8
0
 10
39.3459
 20
235.477
  0
VERTEX
  8
0
 10
39.3072
 20
235.4453
  0
VERTEX
  8
0
 10
39.2755
 20
235.4061
  0
VERTEX
  8
0
 10
39.2509
 20
235.3593
  0
VERTEX
  8
0
 10
39.2274
 20
235.2803
  0
VERTEX
  8
0
 10
39.2192
 20
235.1926
  0
VERTEX
  8
0
 10
39.2205
 20
235.1497
  0
VERTEX
  8
0
 10
39.2248
 20
235.1097
  0
VERTEX
  8
0
 10
39.2321
 20
235.0727
  0
VERTEX
  8
0
 10
39.2425
 20
235.0386
  0
VERTEX
  8
0
 10
39.2558
 20
235.0075
  0
VERTEX
  8
0
 10
39.2722
 20
234.9794
  0
VERTEX
  8
0
 10
39.2916
 20
234.9542
  0
VERTEX
  8
0
 10
39.314
 20
234.932
  0
VERTEX
  8
0
 10
39.3395
 20
234.9128
  0
VERTEX
  8
0
 10
39.3679
 20
234.8965
  0
VERTEX
  8
0
 10
39.4428
 20
234.8696
  0
VERTEX
  8
0
 10
39.5222
 20
234.8603
  0
VERTEX
  8
0
 10
39.5843
 20
234.8658
  0
VERTEX
  8
0
 10
39.65
 20
234.8834
  0
VERTEX
  8
0
 10
39.7135
 20
234.9113
  0
VERTEX
  8
0
 10
39.7632
 20
234.9461
  0
VERTEX
  8
0
 10
39.7632
 20
235.1003
  0
VERTEX
  8
0
 10
39.5192
 20
235.1003
  0
SEQEND
  0
POLYLINE
  8
0
 66
     1
 10
0
 20
0
  0
VERTEX
  8
0
 10
40.0192
 20
234.7723
  0
VERTEX
  8
0
 10
40.0192
 20
235.3755
  0
VERTEX
  8
0
 10
40.1112
 20
235.3755
  0
VERTEX
  8
0
 10
40.1112
 20
235.2847
  0
VERTEX
  8
0
 10
40.1377
 20
235.3276
  0
VERTEX
  8
0
 10
40.1619
 20
235.3564
  0
VERTEX
  8
0
 10
40.1982
 20
235.3803
  0
VERTEX
  8
0
 10
40.2407
 20
235.3883
  0
VERTEX
  8
0
 10
40.292
 20
235.3802
  0
VERTEX
  8
0
 10
40.3447
 20
235.3558
  0
VERTEX
  8
0
 10
40.3095
 20
235.2621
  0
VERTEX
  8
0
 10
40.272
 20
235.2788
  0
VERTEX
  8
0
 10
40.2345
 20
235.2843
  0
VERTEX
  8
0
 10
40.2016
 20
235.2785
  0
VERTEX
  8
0
 10
40.1709
 20
235.261
  0
VERTEX
  8
0
 10
40.1503
 20
235.2381
  0
VERTEX
  8
0
 10
40.1363
 20
235.2081
  0
VERTEX
  8
0
 10
40.1235
 20
235.1515
  0
VERTEX
  8
0
 10
40.1192
 20
235.0886
  0
VERTEX
  8
0
 10
40.1192
 20
234.7723
  0
VERTEX
  8
0
 10
40.0192
 20
234.7723
  0
SEQEND
  0
POLYLINE
  8
0
 66
     1
 10
0
 20
0
  0
VERTEX
  8
0
 10
40.815
 20
234.9693
  0
VERTEX
  8
0
 10
40.9202
 20
234.9564
  0
VERTEX
  8
0
 10
40.9105
 20
234.9257
  0
VERTEX
  8
0
 10
40.8985
 20
234.8977
  0
VERTEX
  8
0
 10
40.8843
 20
234.8724
  0
VERTEX
  8
0
 10
40.8679
 20
234.8497
  0
VERTEX
  8
0
 10
40.8492
 20
234.8297
  0
VERTEX
  8
0
 10
40.8284
 20
234.8123
  0
VERTEX
  8
0
 10
40.8053
 20
234.7977
  0
VERTEX
  8
0
 10
40.78
 20
234.7857
  0
VERTEX
  8
0
 10
40.7525
 20
234.7763
  0
VERTEX
  8
0
 10
40.7228
 20
234.7697
  0
VERTEX
  8
0
 10
40.6909
 20
234.7657
  0
VERTEX
  8
0
 10
40.6567
 20
234.7643
  0
VERTEX
  8
0
 10
40.5942
 20
234.7693
  0
VERTEX
  8
0
 10
40.5385
 20
234.7844
  0
VERTEX
  8
0
 10
40.4898
 20
234.8095
  0
VERTEX
  8
0
 10
40.448
 20
234.8447
  0
VERTEX
  8
0
 10
40.4204
 20
234.8795
  0
VERTEX
  8
0
 10
40.3989
 20
234.9195
  0
VERTEX
  8
0
 10
40.3835
 20
234.9648
  0
VERTEX
  8
0
 10
40.3743
 20
235.0154
  0
VERTEX
  8
0
 10
40.3712
 20
235.0713
  0
VERTEX
  8
0
 10
40.3755
 20
235.1374
  0
VERTEX
  8
0
 10
40.3884
 20
235.1968
  0
VERTEX
  8
0
 10
40.4099
 20
235.2495
  0
VERTEX
  8
0
 10
40.44
 20
235.2956
  0
VERTEX
  8
0
 10
40.4727
 20
235.329
  0
VERTEX
  8
0
 10
40.5101
 20
235.3549
  0
VERTEX
  8
0
 10
40.5523
 20
235.3735
  0
VERTEX
  8
0
 10
40.5993
 20
235.3846
  0
VERTEX
  8
0
 10
40.6511
 20
235.3883
  0
VERTEX
  8
0
 10
40.7016
 20
235.3846
  0
VERTEX
  8
0
 10
40.7473
 20
235.3736
  0
VERTEX
  8
0
 10
40.7884
 20
235.3551
  0
VERTEX
  8
0
 10
40.8248
 20
235.3293
  0
VERTEX
  8
0
 10
40.8565
 20
235.2961
  0
VERTEX
  8
0
 10
40.8859
 20
235.2505
  0
VERTEX
  8
0
 10
40.9068
 20
235.1985
  0
VERTEX
  8
0
 10
40.9194
 20
235.1402
  0
VERTEX
  8
0
 10
40.9236
 20
235.0754
  0
VERTEX
  8
0
 10
40.9235
 20
235.0613
  0
VERTEX
  8
0
 10
40.923
 20
235.0483
  0
VERTEX
  8
0
 10
40.4752
 20
235.0483
  0
VERTEX
  8
0
 10
40.4895
 20
234.9705
  0
VERTEX
  8
0
 10
40.5233
 20
234.9087
  0
VERTEX
  8
0
 10
40.56
 20
234.8752
  0
VERTEX
  8
0
 10
40.6045
 20
234.855
  0
VERTEX
  8
0
 10
40.6567
 20
234.8483
  0
VERTEX
  8
0
 10
40.6927
 20
234.8517
  0
VERTEX
  8
0
 10
40.7249
 20
234.8618
  0
VERTEX
  8
0
 10
40.7532
 20
234.8786
  0
VERTEX
  8
0
 10
40.7776
 20
234.9021
  0
VERTEX
  8
0
 10
40.7983
 20
234.9323
  0
VERTEX
  8
0
 10
40.815
 20
234.9693
  0
VERTEX
  8
0
 10
40.815
 20
234.9693
  0
SEQEND
  0
POLYLINE
  8
0
 66
     1
 10
0
 20
0
  0
VERTEX
  8
0
 10
40.4818
 20
235.1323
  0
VERTEX
  8
0
 10
40.8164
 20
235.1323
  0
VERTEX
  8
0
 10
40.8035
 20
235.1984
  0
VERTEX
  8
0
 10
40.778
 20
235.2457
  0
VERTEX
  8
0
 10
40.7425
 20
235.278
  0
VERTEX
  8
0
 10
40.7006
 20
235.2976
  0
VERTEX
  8
0
 10
40.6522
 20
235.3043
  0
VERTEX
  8
0
 10
40.5851
 20
235.2922
  0
VERTEX
  8
0
 10
40.5315
 20
235.2547
  0
VERTEX
  8
0
 10
40.4968
 20
235.2004
  0
VERTEX
  8
0
 10
40.4818
 20
235.1323
  0
VERTEX
  8
0
 10
40.4818
 20
235.1323
  0
SEQEND
  0
POLYLINE
  8
0
 66
     1
 10
0
 20
0
  0
VERTEX
  8
0
 10
41.459
 20
234.9693
  0
VERTEX
  8
0
 10
41.5642
 20
234.9564
  0
VERTEX
  8
0
 10
41.5545
 20
234.9257
  0
VERTEX
  8
0
 10
41.5425
 20
234.8977
  0
VERTEX
  8
0
 10
41.5283
 20
234.8724
  0
VERTEX
  8
0
 10
41.5119
 20
234.8497
  0
VERTEX
  8
0
 10
41.4932
 20
234.8297
  0
VERTEX
  8
0
 10
41.4724
 20
234.8123
  0
VERTEX
  8
0
 10
41.4493
 20
234.7977
  0
VERTEX
  8
0
 10
41.424
 20
234.7857
  0
VERTEX
  8
0
 10
41.3965
 20
234.7763
  0
VERTEX
  8
0
 10
41.3668
 20
234.7697
  0
VERTEX
  8
0
 10
41.3349
 20
234.7657
  0
VERTEX
  8
0
 10
41.3007
 20
234.7643
  0
VERTEX
  8
0
 10
41.2382
 20
234.7693
  0
VERTEX
  8
0
 10
41.1825
 20
234.7844
  0
VERTEX
  8
0
 10
41.1338
 20
234.8095
  0
VERTEX
  8
0
 10
41.092
 20
234.8447
  0
VERTEX
  8
0
 10
41.0644
 20
234.8795
  0
VERTEX
  8
0
 10
41.0429
 20
234.9195
  0
VERTEX
  8
0
 10
41.0275
 20
234.9648
  0
VERTEX
  8
0
 10
41.0183
 20
235.0154
  0
VERTEX
  8
0
 10
41.0152
 20
235.0713
  0
VERTEX
  8
0
 10
41.0195
 20
235.1374
  0
VERTEX
  8
0
 10
41.0324
 20
235.1968
  0
VERTEX
  8
0
 10
41.0539
 20
235.2495
  0
VERTEX
  8
0
 10
41.084
 20
235.2956
  0
VERTEX
  8
0
 10
41.1167
 20
235.329
  0
VERTEX
  8
0
 10
41.1541
 20
235.3549
  0
VERTEX
  8
0
 10
41.1963
 20
235.3735
  0
VERTEX
  8
0
 10
41.2433
 20
235.3846
  0
VERTEX
  8
0
 10
41.2951
 20
235.3883
  0
VERTEX
  8
0
 10
41.3456
 20
235.3846
  0
VERTEX
  8
0
 10
41.3913
 20
235.3736
  0
VERTEX
  8
0
 10
41.4324
 20
235.3551
  0
VERTEX
  8
0
 10
41.4688
 20
235.3293
  0
VERTEX
  8
0
 10
41.5005
 20
235.2961
  0
VERTEX
  8
0
 10
41.5299
 20
235.2505
  0
VERTEX
  8
0
 10
41.5508
 20
235.1985
  0
VERTEX
  8
0
 10
41.5634
 20
235.1402
  0
VERTEX
  8
0
 10
41.5676
 20
235.0754
  0
VERTEX
  8
0
 10
41.5675
 20
235.0613
  0
VERTEX
  8
0
 10
41.567
 20
235.0483
  0
VERTEX
  8
0
 10
41.1192
 20
235.0483
  0
VERTEX
  8
0
 10
41.1335
 20
234.9705
  0
VERTEX
  8
0
 10
41.1673
 20
234.9087
  0
VERTEX
  8
0
 10
41.204
 20
234.8752
  0
VERTEX
  8
0
 10
41.2485
 20
234.855
  0
VERTEX
  8
0
 10
41.3007
 20
234.8483
  0
VERTEX
  8
0
 10
41.3367
 20
234.8517
  0
VERTEX
  8
0
 10
41.3689
 20
234.8618
  0
VERTEX
  8
0
 10
41.3972
 20
234.8786
  0
VERTEX
  8
0
 10
41.4216
 20
234.9021
  0
VERTEX
  8
0
 10
41.4423
 20
234.9323
  0
VERTEX
  8
0
 10
41.459
 20
234.9693
  0
VERTEX
  8
0
 10
41.459
 20
234.9693
  0
SEQEND
  0
POLYLINE
  8
0
 66
     1
 10
0
 20
0
  0
VERTEX
  8
0
 10
41.1258
 20
235.1323
  0
VERTEX
  8
0
 10
41.4604
 20
235.1323
  0
VERTEX
  8
0
 10
41.4475
 20
235.1984
  0
VERTEX
  8
0
 10
41.422
 20
235.2457
  0
VERTEX
  8
0
 10
41.3865
 20
235.278
  0
VERTEX
  8
0
 10
41.3446
 20
235.2976
  0
VERTEX
  8
0
 10
41.2962
 20
235.3043
  0
VERTEX
  8
0
 10
41.2291
 20
235.2922
  0
VERTEX
  8
0
 10
41.1755
 20
235.2547
  0
VERTEX
  8
0
 10
41.1408
 20
235.2004
  0
VERTEX
  8
0
 10
41.1258
 20
235.1323
  0
VERTEX
  8
0
 10
41.1258
 20
235.1323
  0
SEQEND
  0
POLYLINE
  8
0
 66
     1
 10
0
 20
0
  0
VERTEX
  8
0
 10
41.6872
 20
234.7723
  0
VERTEX
  8
0
 10
41.6872
 20
235.3755
  0
VERTEX
  8
0
 10
41.7792
 20
235.3755
  0
VERTEX
  8
0
 10
41.7792
 20
235.2903
  0
VERTEX
  8
0
 10
41.808
 20
235.3254
  0
VERTEX
  8
0
 10
41.8415
 20
235.3528
  0
VERTEX
  8
0
 10
41.8797
 20
235.3724
  0
VERTEX
  8
0
 10
41.9226
 20
235.3842
  0
VERTEX
  8
0
 10
41.9702
 20
235.3883
  0
VERTEX
  8
0
 10
42.0213
 20
235.3834
  0
VERTEX
  8
0
 10
42.0696
 20
235.3684
  0
VERTEX
  8
0
 10
42.1061
 20
235.3476
  0
VERTEX
  8
0
 10
42.135
 20
235.3196
  0
VERTEX
  8
0
 10
42.1561
 20
235.2844
  0
VERTEX
  8
0
 10
42.1696
 20
235.242
  0
VERTEX
  8
0
 10
42.1738
 20
235.2038
  0
VERTEX
  8
0
 10
42.1752
 20
235.1427
  0
VERTEX
  8
0
 10
42.1752
 20
234.7723
  0
VERTEX
  8
0
 10
42.0752
 20
234.7723
  0
VERTEX
  8
0
 10
42.0752
 20
235.1391
  0
VERTEX
  8
0
 10
42.0732
 20
235.1858
  0
VERTEX
  8
0
 10
42.0672
 20
235.2191
  0
VERTEX
  8
0
 10
42.0498
 20
235.2552
  0
VERTEX
  8
0
 10
42.0203
 20
235.2816
  0
VERTEX
  8
0
 10
41.9872
 20
235.2956
  0
VERTEX
  8
0
 10
41.9487
 20
235.3003
  0
VERTEX
  8
0
 10
41.9229
 20
235.2989
  0
VERTEX
  8
0
 10
41.8993
 20
235.2948
  0
VERTEX
  8
0
 10
41.878
 20
235.2879
  0
VERTEX
  8
0
 10
41.859
 20
235.2782
  0
VERTEX
  8
0
 10
41.8422
 20
235.2658
  0
VERTEX
  8
0
 10
41.8276
 20
235.2506
  0
VERTEX
  8
0
 10
41.8153
 20
235.2327
  0
VERTEX
  8
0
 10
41.8052
 20
235.212
  0
VERTEX
  8
0
 10
41.7973
 20
235.1886
  0
VERTEX
  8
0
 10
41.7917
 20
235.1623
  0
VERTEX
  8
0
 10
41.7884
 20
235.1334
  0
VERTEX
  8
0
 10
41.7872
 20
235.1016
  0
VERTEX
  8
0
 10
41.7872
 20
234.7723
  0
VERTEX
  8
0
 10
41.6872
 20
234.7723
  0
SEQEND
  0
POLYLINE
  8
0
 66
     1
 10
0
 20
0
  0
VERTEX
  8
0
 10
42.3632
 20
235.2603
  0
VERTEX
  8
0
 10
42.3632
 20
235.3763
  0
VERTEX
  8
0
 10
42.4792
 20
235.3763
  0
VERTEX
  8
0
 10
42.4792
 20
235.2603
  0
VERTEX
  8
0
 10
42.3632
 20
235.2603
  0
SEQEND
  0
POLYLINE
  8
0
 66
     1
 10
0
 20
0
  0
VERTEX
  8
0
 10
42.3632
 20
234.7723
  0
VERTEX
  8
0
 10
42.3632
 20
234.8883
  0
VERTEX
  8
0
 10
42.4792
 20
234.8883
  0
VERTEX
  8
0
 10
42.4792
 20
234.774
  0
VERTEX
  8
0
 10
42.4766
 20
234.7361
  0
VERTEX
  8
0
 10
42.4686
 20
234.7025
  0
VERTEX
  8
0
 10
42.4554
 20
234.6734
  0
VERTEX
  8
0
 10
42.4368
 20
234.6486
  0
VERTEX
  8
0
 10
42.413
 20
234.6283
  0
VERTEX
  8
0
 10
42.3838
 20
234.6123
  0
VERTEX
  8
0
 10
42.3552
 20
234.6548
  0
VERTEX
  8
0
 10
42.3823
 20
234.6717
  0
VERTEX
  8
0
 10
42.4021
 20
234.6969
  0
VERTEX
  8
0
 10
42.4145
 20
234.7304
  0
VERTEX
  8
0
 10
42.4195
 20
234.7723
  0
VERTEX
  8
0
 10
42.3632
 20
234.7723
  0
SEQEND
  0
POLYLINE
  8
0
 66
     1
 10
0
 20
0
  0
VERTEX
  8
0
 10
19.9992
 20
233.1723
  0
VERTEX
  8
0
 10
19.9992
 20
234.0043
  0
VERTEX
  8
0
 10
20.1072
 20
234.0043
  0
VERTEX
  8
0
 10
20.1072
 20
233.6643
  0
VERTEX
  8
0
 10
20.5392
 20
233.6643
  0
VERTEX
  8
0
 10
20.5392
 20
234.0043
  0
VERTEX
  8
0
 10
20.6472
 20
234.0043
  0
VERTEX
  8
0
 10
20.6472
 20
233.1723
  0
VERTEX
  8
0
 10
20.5392
 20
233.1723
  0
VERTEX
  8
0
 10
20.5392
 20
233.5683
  0
VERTEX
  8
0
 10
20.1072
 20
233.5683
  0
VERTEX
  8
0
 10
20.1072
 20
233.1723
  0
VERTEX
  8
0
 10
19.9992
 20
233.1723
  0
SEQEND
  0
POLYLINE
  8
0
 66
     1
 10
0
 20
0
  0
VERTEX
  8
0
 10
20.7952
 20
233.5773
  0
VERTEX
  8
0
 10
20.798
 20
233.6393
  0
VERTEX
  8
0
 10
20.8064
 20
233.6972
  0
VERTEX
  8
0
 10
20.8204
 20
233.7511
  0
VERTEX
  8
0
 10
20.8399
 20
233.801
  0
VERTEX
  8
0
 10
20.8651
 20
233.8469
  0
VERTEX
  8
0
 10
20.8958
 20
233.8888
  0
VERTEX
  8
0
 10
20.9281
 20
233.9226
  0
VERTEX
  8
0
 10
20.9638
 20
233.9513
  0
VERTEX
  8
0
 10
21.0027
 20
233.9747
  0
VERTEX
  8
0
 10
21.045
 20
233.9929
  0
VERTEX
  8
0
 10
21.0906
 20
234.0059
  0
VERTEX
  8
0
 10
21.1396
 20
234.0137
  0
VERTEX
  8
0
 10
21.1918
 20
234.0163
  0
VERTEX
  8
0
 10
21.2997
 20
234.0031
  0
VERTEX
  8
0
 10
21.3963
 20
233.9633
  0
VERTEX
  8
0
 10
21.4533
 20
233.9218
  0
VERTEX
  8
0
 10
21.5007
 20
233.8703
  0
VERTEX
  8
0
 10
21.5387
 20
233.8087
  0
VERTEX
  8
0
 10
21.5748
 20
233.7047
  0
VERTEX
  8
0
 10
21.5872
 20
233.5869
  0
VERTEX
  8
0
 10
21.5757
 20
233.4728
  0
VERTEX
  8
0
 10
21.5409
 20
233.3708
  0
VERTEX
  8
0
 10
21.5018
 20
233.3059
  0
VERTEX
  8
0
 10
21.4523
 20
233.2527
  0
VERTEX
  8
0
 10
21.3924
 20
233.2111
  0
VERTEX
  8
0
 10
21.2957
 20
233.173
  0
VERTEX
  8
0
 10
21.1912
 20
233.1603
  0
VERTEX
  8
0
 10
21.0828
 20
233.1739
  0
VERTEX
  8
0
 10
20.9856
 20
233.2145
  0
VERTEX
  8
0
 10
20.9281
 20
233.2564
  0
VERTEX
  8
0
 10
20.8804
 20
233.3085
  0
VERTEX
  8
0
 10
20.8427
 20
233.3708
  0
VERTEX
  8
0
 10
20.8071
 20
233.4709
  0
VERTEX
  8
0
 10
20.7952
 20
233.5773
  0
VERTEX
  8
0
 10
20.7952
 20
233.5773
  0
SEQEND
  0
POLYLINE
  8
0
 66
     1
 10
0
 20
0
  0
VERTEX
  8
0
 10
20.9072
 20
233.5739
  0
VERTEX
  8
0
 10
20.9117
 20
233.5082
  0
VERTEX
  8
0
 10
20.9251
 20
233.4487
  0
VERTEX
  8
0
 10
20.9474
 20
233.3954
  0
VERTEX
  8
0
 10
20.9787
 20
233.3483
  0
VERTEX
  8
0
 10
21.012
 20
233.3137
  0
VERTEX
  8
0
 10
21.0499
 20
233.2869
  0
VERTEX
  8
0
 10
21.0923
 20
233.2677
  0
VERTEX
  8
0
 10
21.1392
 20
233.2562
  0
VERTEX
  8
0
 10
21.1907
 20
233.2523
  0
VERTEX
  8
0
 10
21.25
 20
233.2578
  0
VERTEX
  8
0
 10
21.3038
 20
233.274
  0
VERTEX
  8
0
 10
21.352
 20
233.3012
  0
VERTEX
  8
0
 10
21.3947
 20
233.3392
  0
VERTEX
  8
0
 10
21.4235
 20
233.3769
  0
VERTEX
  8
0
 10
21.446
 20
233.4203
  0
VERTEX
  8
0
 10
21.4621
 20
233.4697
  0
VERTEX
  8
0
 10
21.4718
 20
233.5248
  0
VERTEX
  8
0
 10
21.4752
 20
233.5858
  0
VERTEX
  8
0
 10
21.4736
 20
233.6305
  0
VERTEX
  8
0
 10
21.4686
 20
233.6722
  0
VERTEX
  8
0
 10
21.4602
 20
233.7108
  0
VERTEX
  8
0
 10
21.4486
 20
233.7464
  0
VERTEX
  8
0
 10
21.4336
 20
233.7789
  0
VERTEX
  8
0
 10
21.4153
 20
233.8084
  0
VERTEX
  8
0
 10
21.3936
 20
233.8349
  0
VERTEX
  8
0
 10
21.3686
 20
233.8582
  0
VERTEX
  8
0
 10
21.3403
 20
233.8786
  0
VERTEX
  8
0
 10
21.2704
 20
233.9096
  0
VERTEX
  8
0
 10
21.1924
 20
233.9203
  0
VERTEX
  8
0
 10
21.1456
 20
233.9176
  0
VERTEX
  8
0
 10
21.1029
 20
233.909
  0
VERTEX
  8
0
 10
21.0641
 20
233.8946
  0
VERTEX
  8
0
 10
21.0294
 20
233.8744
  0
VERTEX
  8
0
 10
20.9986
 20
233.8484
  0
VERTEX
  8
0
 10
20.9719
 20
233.8165
  0
VERTEX
  8
0
 10
20.9436
 20
233.7673
  0
VERTEX
  8
0
 10
20.9234
 20
233.7104
  0
VERTEX
  8
0
 10
20.9113
 20
233.646
  0
VERTEX
  8
0
 10
20.9072
 20
233.5739
  0
VERTEX
  8
0
 10
20.9072
 20
233.5739
  0
SEQEND
  0
POLYLINE
  8
0
 66
     1
 10
0
 20
0
  0
VERTEX
  8
0
 10
21.7312
 20
233.1723
  0
VERTEX
  8
0
 10
21.7312
 20
234.0043
  0
VERTEX
  8
0
 10
22.0973
 20
234.0043
  0
VERTEX
  8
0
 10
22.181
 20
234.0005
  0
VERTEX
  8
0
 10
22.2431
 20
233.989
  0
VERTEX
  8
0
 10
22.3093
 20
233.9561
  0
VERTEX
  8
0
 10
22.3569
 20
233.9028
  0
VERTEX
  8
0
 10
22.3824
 20
233.8433
  0
VERTEX
  8
0
 10
22.3912
 20
233.7773
  0
VERTEX
  8
0
 10
22.3902
 20
233.7506
  0
VERTEX
  8
0
 10
22.3868
 20
233.7254
  0
VERTEX
  8
0
 10
22.381
 20
233.7019
  0
VERTEX
  8
0
 10
22.3728
 20
233.6801
  0
VERTEX
  8
0
 10
22.3622
 20
233.6598
  0
VERTEX
  8
0
 10
22.3493
 20
233.6412
  0
VERTEX
  8
0
 10
22.3339
 20
233.6242
  0
VERTEX
  8
0
 10
22.3161
 20
233.6089
  0
VERTEX
  8
0
 10
22.296
 20
233.5951
  0
VERTEX
  8
0
 10
22.2735
 20
233.583
  0
VERTEX
  8
0
 10
22.2486
 20
233.5725
  0
VERTEX
  8
0
 10
22.2213
 20
233.5637
  0
VERTEX
  8
0
 10
22.1916
 20
233.5565
  0
VERTEX
  8
0
 10
22.1595
 20
233.5509
  0
VERTEX
  8
0
 10
22.198
 20
233.53
  0
VERTEX
  8
0
 10
22.2255
 20
233.5094
  0
VERTEX
  8
0
 10
22.2733
 20
233.4582
  0
VERTEX
  8
0
 10
22.3164
 20
233.3988
  0
VERTEX
  8
0
 10
22.4603
 20
233.1723
  0
VERTEX
  8
0
 10
22.3232
 20
233.1723
  0
VERTEX
  8
0
 10
22.2128
 20
233.3482
  0
VERTEX
  8
0
 10
22.1786
 20
233.4008
  0
VERTEX
  8
0
 10
22.1517
 20
233.4394
  0
VERTEX
  8
0
 10
22.1116
 20
233.4883
  0
VERTEX
  8
0
 10
22.0776
 20
233.5183
  0
VERTEX
  8
0
 10
22.0526
 20
233.532
  0
VERTEX
  8
0
 10
22.0277
 20
233.5404
  0
VERTEX
  8
0
 10
22.0037
 20
233.5433
  0
VERTEX
  8
0
 10
21.9666
 20
233.5443
  0
VERTEX
  8
0
 10
21.8392
 20
233.5443
  0
VERTEX
  8
0
 10
21.8392
 20
233.1723
  0
VERTEX
  8
0
 10
21.7312
 20
233.1723
  0
SEQEND
  0
POLYLINE
  8
0
 66
     1
 10
0
 20
0
  0
VERTEX
  8
0
 10
21.8392
 20
233.6403
  0
VERTEX
  8
0
 10
22.0751
 20
233.6403
  0
VERTEX
  8
0
 10
22.1272
 20
233.6429
  0
VERTEX
  8
0
 10
22.1715
 20
233.6506
  0
VERTEX
  8
0
 10
22.2079
 20
233.6635
  0
VERTEX
  8
0
 10
22.2365
 20
233.6816
  0
VERTEX
  8
0
 10
22.2572
 20
233.7048
  0
VERTEX
  8
0
 10
22.2737
 20
233.7404
  0
VERTEX
  8
0
 10
22.2792
 20
233.7788
  0
VERTEX
  8
0
 10
22.273
 20
233.8219
  0
VERTEX
  8
0
 10
22.2543
 20
233.8568
  0
VERTEX
  8
0
 10
22.2232
 20
233.8837
  0
VERTEX
  8
0
 10
22.1699
 20
233.9052
  0
VERTEX
  8
0
 10
22.1017
 20
233.9123
  0
VERTEX
  8
0
 10
21.8392
 20
233.9123
  0
VERTEX
  8
0
 10
21.8392
 20
233.6403
  0
SEQEND
  0
POLYLINE
  8
0
 66
     1
 10
0
 20
0
  0
VERTEX
  8
0
 10
22.5312
 20
233.442
  0
VERTEX
  8
0
 10
22.6351
 20
233.4511
  0
VERTEX
  8
0
 10
22.6441
 20
233.4056
  0
VERTEX
  8
0
 10
22.6605
 20
233.3662
  0
VERTEX
  8
0
 10
22.6841
 20
233.3329
  0
VERTEX
  8
0
 10
22.7149
 20
233.3057
  0
VERTEX
  8
0
 10
22.7531
 20
233.2846
  0
VERTEX
  8
0
 10
22.8125
 20
233.2667
  0
VERTEX
  8
0
 10
22.8807
 20
233.2603
  0
VERTEX
  8
0
 10
22.9298
 20
233.2629
  0
VERTEX
  8
0
 10
22.9726
 20
233.2711
  0
VERTEX
  8
0
 10
23.0091
 20
233.285
  0
VERTEX
  8
0
 10
23.0394
 20
233.3045
  0
VERTEX
  8
0
 10
23.0634
 20
233.3296
  0
VERTEX
  8
0
 10
23.0813
 20
233.3634
  0
VERTEX
  8
0
 10
23.0872
 20
233.4006
  0
VERTEX
  8
0
 10
23.0833
 20
233.4307
  0
VERTEX
  8
0
 10
23.0716
 20
233.4574
  0
VERTEX
  8
0
 10
23.0521
 20
233.4807
  0
VERTEX
  8
0
 10
23.0248
 20
233.5006
  0
VERTEX
  8
0
 10
22.9897
 20
233.5172
  0
VERTEX
  8
0
 10
22.9547
 20
233.5286
  0
VERTEX
  8
0
 10
22.9027
 20
233.5425
  0
VERTEX
  8
0
 10
22.8337
 20
233.5589
  0
VERTEX
  8
0
 10
22.7457
 20
233.5827
  0
VERTEX
  8
0
 10
22.6812
 20
233.609
  0
VERTEX
  8
0
 10
22.6451
 20
233.6312
  0
VERTEX
  8
0
 10
22.6157
 20
233.6565
  0
VERTEX
  8
0
 10
22.5927
 20
233.6849
  0
VERTEX
  8
0
 10
22.5763
 20
233.7165
  0
VERTEX
  8
0
 10
22.5665
 20
233.7511
  0
VERTEX
  8
0
 10
22.5632
 20
233.7888
  0
VERTEX
  8
0
 10
22.5728
 20
233.8528
  0
VERTEX
  8
0
 10
22.6016
 20
233.9098
  0
VERTEX
  8
0
 10
22.6454
 20
233.9553
  0
VERTEX
  8
0
 10
22.7025
 20
233.9881
  0
VERTEX
  8
0
 10
22.7737
 20
234.009
  0
VERTEX
  8
0
 10
22.8542
 20
234.0163
  0
VERTEX
  8
0
 10
22.9394
 20
234.0092
  0
VERTEX
  8
0
 10
23.016
 20
233.9866
  0
VERTEX
  8
0
 10
23.0493
 20
233.9703
  0
VERTEX
  8
0
 10
23.0784
 20
233.9509
  0
VERTEX
  8
0
 10
23.1032
 20
233.9285
  0
VERTEX
  8
0
 10
23.1239
 20
233.903
  0
VERTEX
  8
0
 10
23.1404
 20
233.8745
  0
VERTEX
  8
0
 10
23.1528
 20
233.8428
  0
VERTEX
  8
0
 10
23.1609
 20
233.8081
  0
VERTEX
  8
0
 10
23.1648
 20
233.7704
  0
VERTEX
  8
0
 10
23.0596
 20
233.7625
  0
VERTEX
  8
0
 10
23.0551
 20
233.7898
  0
VERTEX
  8
0
 10
23.0479
 20
233.8145
  0
VERTEX
  8
0
 10
23.0379
 20
233.8366
  0
VERTEX
  8
0
 10
23.0251
 20
233.8562
  0
VERTEX
  8
0
 10
23.0095
 20
233.8731
  0
VERTEX
  8
0
 10
22.9912
 20
233.8874
  0
VERTEX
  8
0
 10
22.97
 20
233.8992
  0
VERTEX
  8
0
 10
22.9461
 20
233.9084
  0
VERTEX
  8
0
 10
22.9195
 20
233.9149
  0
VERTEX
  8
0
 10
22.89
 20
233.9189
  0
VERTEX
  8
0
 10
22.8578
 20
233.9203
  0
VERTEX
  8
0
 10
22.789
 20
233.9145
  0
VERTEX
  8
0
 10
22.7328
 20
233.896
  0
VERTEX
  8
0
 10
22.6966
 20
233.8706
  0
VERTEX
  8
0
 10
22.6748
 20
233.8373
  0
VERTEX
  8
0
 10
22.6672
 20
233.796
  0
VERTEX
  8
0
 10
22.675
 20
233.7559
  0
VERTEX
  8
0
 10
22.6996
 20
233.7226
  0
VERTEX
  8
0
 10
22.7157
 20
233.7113
  0
VERTEX
  8
0
 10
22.74
 20
233.6997
  0
VERTEX
  8
0
 10
22.7726
 20
233.6877
  0
VERTEX
  8
0
 10
22.8133
 20
233.6754
  0
VERTEX
  8
0
 10
22.8623
 20
233.6626
  0
VERTEX
  8
0
 10
22.9105
 20
233.6508
  0
VERTEX
  8
0
 10
22.9519
 20
233.6403
  0
VERTEX
  8
0
 10
22.9865
 20
233.631
  0
VERTEX
  8
0
 10
23.0143
 20
233.623
  0
VERTEX
  8
0
 10
23.0353
 20
233.6162
  0
VERTEX
  8
0
 10
23.0495
 20
233.6107
  0
VERTEX
  8
0
 10
23.0868
 20
233.5908
  0
VERTEX
  8
0
 10
23.1185
 20
233.5679
  0
VERTEX
  8
0
 10
23.1444
 20
233.542
  0
VERTEX
  8
0
 10
23.1647
 20
233.5131
  0
VERTEX
  8
0
 10
23.1792
 20
233.4812
  0
VERTEX
  8
0
 10
23.1881
 20
233.4463
  0
VERTEX
  8
0
 10
23.1912
 20
233.4084
  0
VERTEX
  8
0
 10
23.1813
 20
233.3404
  0
VERTEX
  8
0
 10
23.1505
 20
233.279
  0
VERTEX
  8
0
 10
23.1041
 20
233.2297
  0
VERTEX
  8
0
 10
23.0442
 20
233.1925
  0
VERTEX
  8
0
 10
22.9695
 20
233.1684
  0
VERTEX
  8
0
 10
22.8847
 20
233.1603
  0
VERTEX
  8
0
 10
22.837
 20
233.1619
  0
VERTEX
  8
0
 10
22.7927
 20
233.1668
  0
VERTEX
  8
0
 10
22.7517
 20
233.175
  0
VERTEX
  8
0
 10
22.7141
 20
233.1863
  0
VERTEX
  8
0
 10
22.6798
 20
233.201
  0
VERTEX
  8
0
 10
22.6489
 20
233.2189
  0
VERTEX
  8
0
 10
22.6214
 20
233.24
  0
VERTEX
  8
0
 10
22.5973
 20
233.2644
  0
VERTEX
  8
0
 10
22.5765
 20
233.2921
  0
VERTEX
  8
0
 10
22.5442
 20
233.3616
  0
VERTEX
  8
0
 10
22.5312
 20
233.442
  0
VERTEX
  8
0
 10
22.5312
 20
233.442
  0
SEQEND
  0
POLYLINE
  8
0
 66
     1
 10
0
 20
0
  0
VERTEX
  8
0
 10
23.3392
 20
233.1723
  0
VERTEX
  8
0
 10
23.3392
 20
234.0043
  0
VERTEX
  8
0
 10
23.9373
 20
234.0043
  0
VERTEX
  8
0
 10
23.9373
 20
233.9083
  0
VERTEX
  8
0
 10
23.4472
 20
233.9083
  0
VERTEX
  8
0
 10
23.4472
 20
233.6523
  0
VERTEX
  8
0
 10
23.9063
 20
233.6523
  0
VERTEX
  8
0
 10
23.9063
 20
233.5563
  0
VERTEX
  8
0
 10
23.4472
 20
233.5563
  0
VERTEX
  8
0
 10
23.4472
 20
233.2683
  0
VERTEX
  8
0
 10
23.9565
 20
233.2683
  0
VERTEX
  8
0
 10
23.9565
 20
233.1723
  0
VERTEX
  8
0
 10
23.3392
 20
233.1723
  0
SEQEND
  0
POLYLINE
  8
0
 66
     1
 10
0
 20
0
  0
VERTEX
  8
0
 10
24.1272
 20
233.6603
  0
VERTEX
  8
0
 10
24.1272
 20
233.7763
  0
VERTEX
  8
0
 10
24.2432
 20
233.7763
  0
VERTEX
  8
0
 10
24.2432
 20
233.6603
  0
VERTEX
  8
0
 10
24.1272
 20
233.6603
  0
SEQEND
  0
POLYLINE
  8
0
 66
     1
 10
0
 20
0
  0
VERTEX
  8
0
 10
24.1272
 20
233.1723
  0
VERTEX
  8
0
 10
24.1272
 20
233.2883
  0
VERTEX
  8
0
 10
24.2432
 20
233.2883
  0
VERTEX
  8
0
 10
24.2432
 20
233.174
  0
VERTEX
  8
0
 10
24.2406
 20
233.1361
  0
VERTEX
  8
0
 10
24.2326
 20
233.1025
  0
VERTEX
  8
0
 10
24.2194
 20
233.0734
  0
VERTEX
  8
0
 10
24.2008
 20
233.0486
  0
VERTEX
  8
0
 10
24.177
 20
233.0283
  0
VERTEX
  8
0
 10
24.1478
 20
233.0123
  0
VERTEX
  8
0
 10
24.1192
 20
233.0548
  0
VERTEX
  8
0
 10
24.1463
 20
233.0717
  0
VERTEX
  8
0
 10
24.1661
 20
233.0969
  0
VERTEX
  8
0
 10
24.1785
 20
233.1304
  0
VERTEX
  8
0
 10
24.1836
 20
233.1723
  0
VERTEX
  8
0
 10
24.1272
 20
233.1723
  0
SEQEND
  0
POLYLINE
  8
0
 66
     1
 10
0
 20
0
  0
VERTEX
  8
0
 10
20.2712
 20
231.5723
  0
VERTEX
  8
0
 10
20.2712
 20
232.3083
  0
VERTEX
  8
0
 10
19.9992
 20
232.3083
  0
VERTEX
  8
0
 10
19.9992
 20
232.4043
  0
VERTEX
  8
0
 10
20.6549
 20
232.4043
  0
VERTEX
  8
0
 10
20.6549
 20
232.3083
  0
VERTEX
  8
0
 10
20.3792
 20
232.3083
  0
VERTEX
  8
0
 10
20.3792
 20
231.5723
  0
VERTEX
  8
0
 10
20.2712
 20
231.5723
  0
SEQEND
  0
POLYLINE
  8
0
 66
     1
 10
0
 20
0
  0
VERTEX
  8
0
 10
21.1487
 20
231.6503
  0
VERTEX
  8
0
 10
21.0966
 20
231.6129
  0
VERTEX
  8
0
 10
21.0425
 20
231.5861
  0
VERTEX
  8
0
 10
20.9863
 20
231.5699
  0
VERTEX
  8
0
 10
20.9281
 20
231.5643
  0
VERTEX
  8
0
 10
20.8482
 20
231.5741
  0
VERTEX
  8
0
 10
20.7847
 20
231.6048
  0
VERTEX
  8
0
 10
20.7508
 20
231.6395
  0
VERTEX
  8
0
 10
20.7303
 20
231.683
  0
VERTEX
  8
0
 10
20.7232
 20
231.7351
  0
VERTEX
  8
0
 10
20.7275
 20
231.7767
  0
VERTEX
  8
0
 10
20.7409
 20
231.8135
  0
VERTEX
  8
0
 10
20.7635
 20
231.8458
  0
VERTEX
  8
0
 10
20.7952
 20
231.8734
  0
VERTEX
  8
0
 10
20.8289
 20
231.8926
  0
VERTEX
  8
0
 10
20.8683
 20
231.9065
  0
VERTEX
  8
0
 10
20.9051
 20
231.9142
  0
VERTEX
  8
0
 10
20.9582
 20
231.9217
  0
VERTEX
  8
0
 10
21.0343
 20
231.9323
  0
VERTEX
  8
0
 10
21.0944
 20
231.9439
  0
VERTEX
  8
0
 10
21.1387
 20
231.9565
  0
VERTEX
  8
0
 10
21.1388
 20
231.9741
  0
VERTEX
  8
0
 10
21.1392
 20
231.9829
  0
VERTEX
  8
0
 10
21.1321
 20
232.0356
  0
VERTEX
  8
0
 10
21.1106
 20
232.0701
  0
VERTEX
  8
0
 10
21.0627
 20
232.0955
  0
VERTEX
  8
0
 10
20.9954
 20
232.1043
  0
VERTEX
  8
0
 10
20.9354
 20
232.0987
  0
VERTEX
  8
0
 10
20.8925
 20
232.0808
  0
VERTEX
  8
0
 10
20.8613
 20
232.0457
  0
VERTEX
  8
0
 10
20.8397
 20
231.991
  0
VERTEX
  8
0
 10
20.7407
 20
232.0045
  0
VERTEX
  8
0
 10
20.7546
 20
232.0504
  0
VERTEX
  8
0
 10
20.775
 20
232.0896
  0
VERTEX
  8
0
 10
20.8019
 20
232.1221
  0
VERTEX
  8
0
 10
20.8352
 20
232.1479
  0
VERTEX
  8
0
 10
20.8751
 20
232.1669
  0
VERTEX
  8
0
 10
20.9376
 20
232.1827
  0
VERTEX
  8
0
 10
21.0112
 20
232.1883
  0
VERTEX
  8
0
 10
21.0644
 20
232.1859
  0
VERTEX
  8
0
 10
21.1105
 20
232.1783
  0
VERTEX
  8
0
 10
21.1496
 20
232.1655
  0
VERTEX
  8
0
 10
21.1816
 20
232.1475
  0
VERTEX
  8
0
 10
21.2066
 20
232.1242
  0
VERTEX
  8
0
 10
21.2255
 20
232.0936
  0
VERTEX
  8
0
 10
21.2382
 20
232.055
  0
VERTEX
  8
0
 10
21.242
 20
232.0201
  0
VERTEX
  8
0
 10
21.2432
 20
231.9609
  0
VERTEX
  8
0
 10
21.2432
 20
231.8248
  0
VERTEX
  8
0
 10
21.2433
 20
231.7804
  0
VERTEX
  8
0
 10
21.2433
 20
231.7452
  0
VERTEX
  8
0
 10
21.2434
 20
231.7194
  0
VERTEX
  8
0
 10
21.2436
 20
231.7027
  0
VERTEX
  8
0
 10
21.2438
 20
231.6954
  0
VERTEX
  8
0
 10
21.2538
 20
231.6272
  0
VERTEX
  8
0
 10
21.2751
 20
231.5723
  0
VERTEX
  8
0
 10
21.169
 20
231.5723
  0
VERTEX
  8
0
 10
21.1563
 20
231.6085
  0
VERTEX
  8
0
 10
21.1487
 20
231.6503
  0
VERTEX
  8
0
 10
21.1487
 20
231.6503
  0
SEQEND
  0
POLYLINE
  8
0
 66
     1
 10
0
 20
0
  0
VERTEX
  8
0
 10
21.1392
 20
231.8771
  0
VERTEX
  8
0
 10
21.0703
 20
231.8566
  0
VERTEX
  8
0
 10
20.9737
 20
231.839
  0
VERTEX
  8
0
 10
20.9303
 20
231.832
  0
VERTEX
  8
0
 10
20.9027
 20
231.8256
  0
VERTEX
  8
0
 10
20.8684
 20
231.8092
  0
VERTEX
  8
0
 10
20.8453
 20
231.7859
  0
VERTEX
  8
0
 10
20.835
 20
231.7636
  0
VERTEX
  8
0
 10
20.8312
 20
231.7383
  0
VERTEX
  8
0
 10
20.8404
 20
231.6964
  0
VERTEX
  8
0
 10
20.869
 20
231.6656
  0
VERTEX
  8
0
 10
20.906
 20
231.6496
  0
VERTEX
  8
0
 10
20.9517
 20
231.6443
  0
VERTEX
  8
0
 10
20.9914
 20
231.647
  0
VERTEX
  8
0
 10
21.0266
 20
231.6549
  0
VERTEX
  8
0
 10
21.0573
 20
231.6681
  0
VERTEX
  8
0
 10
21.0836
 20
231.6866
  0
VERTEX
  8
0
 10
21.1055
 20
231.7104
  0
VERTEX
  8
0
 10
21.1229
 20
231.7394
  0
VERTEX
  8
0
 10
21.1352
 20
231.7817
  0
VERTEX
  8
0
 10
21.1392
 20
231.8401
  0
VERTEX
  8
0
 10
21.1392
 20
231.8771
  0
SEQEND
  0
POLYLINE
  8
0
 66
     1
 10
0
 20
0
  0
VERTEX
  8
0
 10
21.4952
 20
231.5723
  0
VERTEX
  8
0
 10
21.3992
 20
231.5723
  0
VERTEX
  8
0
 10
21.3992
 20
232.4043
  0
VERTEX
  8
0
 10
21.4992
 20
232.4043
  0
VERTEX
  8
0
 10
21.4992
 20
232.1084
  0
VERTEX
  8
0
 10
21.5338
 20
232.1431
  0
VERTEX
  8
0
 10
21.5728
 20
232.1681
  0
VERTEX
  8
0
 10
21.6162
 20
232.1831
  0
VERTEX
  8
0
 10
21.6642
 20
232.1883
  0
VERTEX
  8
0
 10
21.7198
 20
232.1832
  0
VERTEX
  8
0
 10
21.7693
 20
232.1675
  0
VERTEX
  8
0
 10
21.8127
 20
232.1409
  0
VERTEX
  8
0
 10
21.8501
 20
232.1037
  0
VERTEX
  8
0
 10
21.8801
 20
232.0581
  0
VERTEX
  8
0
 10
21.9017
 20
232.0065
  0
VERTEX
  8
0
 10
21.9147
 20
231.9489
  0
VERTEX
  8
0
 10
21.9192
 20
231.8853
  0
VERTEX
  8
0
 10
21.9124
 20
231.8024
  0
VERTEX
  8
0
 10
21.8917
 20
231.7292
  0
VERTEX
  8
0
 10
21.8574
 20
231.6655
  0
VERTEX
  8
0
 10
21.8269
 20
231.6293
  0
VERTEX
  8
0
 10
21.792
 20
231.601
  0
VERTEX
  8
0
 10
21.7527
 20
231.5808
  0
VERTEX
  8
0
 10
21.7091
 20
231.5685
  0
VERTEX
  8
0
 10
21.6611
 20
231.5643
  0
VERTEX
  8
0
 10
21.6113
 20
231.5696
  0
VERTEX
  8
0
 10
21.5671
 20
231.5858
  0
VERTEX
  8
0
 10
21.5284
 20
231.6131
  0
VERTEX
  8
0
 10
21.4952
 20
231.6514
  0
VERTEX
  8
0
 10
21.4952
 20
231.5723
  0
SEQEND
  0
POLYLINE
  8
0
 66
     1
 10
0
 20
0
  0
VERTEX
  8
0
 10
21.4952
 20
231.8808
  0
VERTEX
  8
0
 10
21.4985
 20
231.8161
  0
VERTEX
  8
0
 10
21.5082
 20
231.7645
  0
VERTEX
  8
0
 10
21.5243
 20
231.7262
  0
VERTEX
  8
0
 10
21.55
 20
231.6923
  0
VERTEX
  8
0
 10
21.58
 20
231.6681
  0
VERTEX
  8
0
 10
21.6143
 20
231.6534
  0
VERTEX
  8
0
 10
21.653
 20
231.6483
  0
VERTEX
  8
0
 10
21.6922
 20
231.6529
  0
VERTEX
  8
0
 10
21.7264
 20
231.6671
  0
VERTEX
  8
0
 10
21.7557
 20
231.691
  0
VERTEX
  8
0
 10
21.78
 20
231.7245
  0
VERTEX
  8
0
 10
21.8064
 20
231.794
  0
VERTEX
  8
0
 10
21.8152
 20
231.8769
  0
VERTEX
  8
0
 10
21.807
 20
231.9601
  0
VERTEX
  8
0
 10
21.7822
 20
232.0281
  0
VERTEX
  8
0
 10
21.7589
 20
232.0615
  0
VERTEX
  8
0
 10
21.7304
 20
232.0853
  0
VERTEX
  8
0
 10
21.6966
 20
232.0996
  0
VERTEX
  8
0
 10
21.6575
 20
232.1043
  0
VERTEX
  8
0
 10
21.619
 20
232.0997
  0
VERTEX
  8
0
 10
21.5853
 20
232.0857
  0
VERTEX
  8
0
 10
21.5564
 20
232.0624
  0
VERTEX
  8
0
 10
21.5322
 20
232.0298
  0
VERTEX
  8
0
 10
21.5045
 20
231.9615
  0
VERTEX
  8
0
 10
21.4952
 20
231.8808
  0
VERTEX
  8
0
 10
21.4952
 20
231.8808
  0
SEQEND
  0
POLYLINE
  8
0
 66
     1
 10
0
 20
0
  0
VERTEX
  8
0
 10
22.0392
 20
231.5723
  0
VERTEX
  8
0
 10
22.0392
 20
232.4043
  0
VERTEX
  8
0
 10
22.1392
 20
232.4043
  0
VERTEX
  8
0
 10
22.1392
 20
231.5723
  0
VERTEX
  8
0
 10
22.0392
 20
231.5723
  0
SEQEND
  0
POLYLINE
  8
0
 66
     1
 10
0
 20
0
  0
VERTEX
  8
0
 10
22.7071
 20
231.7693
  0
VERTEX
  8
0
 10
22.8122
 20
231.7564
  0
VERTEX
  8
0
 10
22.8025
 20
231.7257
  0
VERTEX
  8
0
 10
22.7905
 20
231.6977
  0
VERTEX
  8
0
 10
22.7763
 20
231.6724
  0
VERTEX
  8
0
 10
22.7599
 20
231.6497
  0
VERTEX
  8
0
 10
22.7412
 20
231.6297
  0
VERTEX
  8
0
 10
22.7204
 20
231.6123
  0
VERTEX
  8
0
 10
22.6973
 20
231.5977
  0
VERTEX
  8
0
 10
22.672
 20
231.5857
  0
VERTEX
  8
0
 10
22.6445
 20
231.5763
  0
VERTEX
  8
0
 10
22.6148
 20
231.5697
  0
VERTEX
  8
0
 10
22.5829
 20
231.5657
  0
VERTEX
  8
0
 10
22.5487
 20
231.5643
  0
VERTEX
  8
0
 10
22.4862
 20
231.5693
  0
VERTEX
  8
0
 10
22.4306
 20
231.5844
  0
VERTEX
  8
0
 10
22.3818
 20
231.6095
  0
VERTEX
  8
0
 10
22.34
 20
231.6447
  0
VERTEX
  8
0
 10
22.3124
 20
231.6795
  0
VERTEX
  8
0
 10
22.2909
 20
231.7195
  0
VERTEX
  8
0
 10
22.2755
 20
231.7648
  0
VERTEX
  8
0
 10
22.2663
 20
231.8154
  0
VERTEX
  8
0
 10
22.2632
 20
231.8713
  0
VERTEX
  8
0
 10
22.2675
 20
231.9374
  0
VERTEX
  8
0
 10
22.2804
 20
231.9968
  0
VERTEX
  8
0
 10
22.3019
 20
232.0495
  0
VERTEX
  8
0
 10
22.3321
 20
232.0956
  0
VERTEX
  8
0
 10
22.3647
 20
232.129
  0
VERTEX
  8
0
 10
22.4021
 20
232.1549
  0
VERTEX
  8
0
 10
22.4443
 20
232.1735
  0
VERTEX
  8
0
 10
22.4913
 20
232.1846
  0
VERTEX
  8
0
 10
22.5431
 20
232.1883
  0
VERTEX
  8
0
 10
22.5936
 20
232.1846
  0
VERTEX
  8
0
 10
22.6393
 20
232.1736
  0
VERTEX
  8
0
 10
22.6804
 20
232.1551
  0
VERTEX
  8
0
 10
22.7168
 20
232.1293
  0
VERTEX
  8
0
 10
22.7485
 20
232.0961
  0
VERTEX
  8
0
 10
22.7779
 20
232.0505
  0
VERTEX
  8
0
 10
22.7988
 20
231.9985
  0
VERTEX
  8
0
 10
22.8114
 20
231.9402
  0
VERTEX
  8
0
 10
22.8156
 20
231.8754
  0
VERTEX
  8
0
 10
22.8155
 20
231.8613
  0
VERTEX
  8
0
 10
22.8151
 20
231.8483
  0
VERTEX
  8
0
 10
22.3672
 20
231.8483
  0
VERTEX
  8
0
 10
22.3815
 20
231.7705
  0
VERTEX
  8
0
 10
22.4153
 20
231.7087
  0
VERTEX
  8
0
 10
22.452
 20
231.6752
  0
VERTEX
  8
0
 10
22.4965
 20
231.655
  0
VERTEX
  8
0
 10
22.5487
 20
231.6483
  0
VERTEX
  8
0
 10
22.5847
 20
231.6517
  0
VERTEX
  8
0
 10
22.6169
 20
231.6618
  0
VERTEX
  8
0
 10
22.6452
 20
231.6786
  0
VERTEX
  8
0
 10
22.6696
 20
231.7021
  0
VERTEX
  8
0
 10
22.6903
 20
231.7323
  0
VERTEX
  8
0
 10
22.7071
 20
231.7693
  0
VERTEX
  8
0
 10
22.7071
 20
231.7693
  0
SEQEND
  0
POLYLINE
  8
0
 66
     1
 10
0
 20
0
  0
VERTEX
  8
0
 10
22.3738
 20
231.9323
  0
VERTEX
  8
0
 10
22.7084
 20
231.9323
  0
VERTEX
  8
0
 10
22.6955
 20
231.9984
  0
VERTEX
  8
0
 10
22.6701
 20
232.0457
  0
VERTEX
  8
0
 10
22.6345
 20
232.078
  0
VERTEX
  8
0
 10
22.5926
 20
232.0976
  0
VERTEX
  8
0
 10
22.5442
 20
232.1043
  0
VERTEX
  8
0
 10
22.4771
 20
232.0922
  0
VERTEX
  8
0
 10
22.4235
 20
232.0547
  0
VERTEX
  8
0
 10
22.3888
 20
232.0004
  0
VERTEX
  8
0
 10
22.3738
 20
231.9323
  0
VERTEX
  8
0
 10
22.3738
 20
231.9323
  0
SEQEND
  0
POLYLINE
  8
0
 66
     1
 10
0
 20
0
  0
VERTEX
  8
0
 10
23.4352
 20
231.8763
  0
VERTEX
  8
0
 10
23.4378
 20
231.9292
  0
VERTEX
  8
0
 10
23.4455
 20
231.9773
  0
VERTEX
  8
0
 10
23.4583
 20
232.0206
  0
VERTEX
  8
0
 10
23.4763
 20
232.0592
  0
VERTEX
  8
0
 10
23.4993
 20
232.093
  0
VERTEX
  8
0
 10
23.5276
 20
232.122
  0
VERTEX
  8
0
 10
23.5825
 20
232.1588
  0
VERTEX
  8
0
 10
23.6451
 20
232.181
  0
VERTEX
  8
0
 10
23.7156
 20
232.1883
  0
VERTEX
  8
0
 10
23.766
 20
232.1848
  0
VERTEX
  8
0
 10
23.812
 20
232.1744
  0
VERTEX
  8
0
 10
23.8535
 20
232.157
  0
VERTEX
  8
0
 10
23.8906
 20
232.1326
  0
VERTEX
  8
0
 10
23.9232
 20
232.1012
  0
VERTEX
  8
0
 10
23.9547
 20
232.0565
  0
VERTEX
  8
0
 10
23.9772
 20
232.0055
  0
VERTEX
  8
0
 10
23.9907
 20
231.9483
  0
VERTEX
  8
0
 10
23.9952
 20
231.8848
  0
VERTEX
  8
0
 10
23.9936
 20
231.8399
  0
VERTEX
  8
0
 10
23.9885
 20
231.7985
  0
VERTEX
  8
0
 10
23.9802
 20
231.7603
  0
VERTEX
  8
0
 10
23.9684
 20
231.7254
  0
VERTEX
  8
0
 10
23.9534
 20
231.6939
  0
VERTEX
  8
0
 10
23.935
 20
231.6656
  0
VERTEX
  8
0
 10
23.9132
 20
231.6407
  0
VERTEX
  8
0
 10
23.8881
 20
231.6192
  0
VERTEX
  8
0
 10
23.8596
 20
231.6009
  0
VERTEX
  8
0
 10
23.7907
 20
231.5737
  0
VERTEX
  8
0
 10
23.7156
 20
231.5643
  0
VERTEX
  8
0
 10
23.6633
 20
231.5677
  0
VERTEX
  8
0
 10
23.6161
 20
231.5784
  0
VERTEX
  8
0
 10
23.5739
 20
231.5962
  0
VERTEX
  8
0
 10
23.5367
 20
231.6213
  0
VERTEX
  8
0
 10
23.5045
 20
231.6537
  0
VERTEX
  8
0
 10
23.4742
 20
231.6988
  0
VERTEX
  8
0
 10
23.4526
 20
231.7509
  0
VERTEX
  8
0
 10
23.4396
 20
231.8101
  0
VERTEX
  8
0
 10
23.4352
 20
231.8763
  0
VERTEX
  8
0
 10
23.4352
 20
231.8763
  0
SEQEND
  0
POLYLINE
  8
0
 66
     1
 10
0
 20
0
  0
VERTEX
  8
0
 10
23.5392
 20
231.8766
  0
VERTEX
  8
0
 10
23.549
 20
231.7892
  0
VERTEX
  8
0
 10
23.5781
 20
231.7201
  0
VERTEX
  8
0
 10
23.604
 20
231.6889
  0
VERTEX
  8
0
 10
23.6356
 20
231.6666
  0
VERTEX
  8
0
 10
23.6727
 20
231.653
  0
VERTEX
  8
0
 10
23.7156
 20
231.6483
  0
VERTEX
  8
0
 10
23.7583
 20
231.6527
  0
VERTEX
  8
0
 10
23.7955
 20
231.6664
  0
VERTEX
  8
0
 10
23.827
 20
231.6895
  0
VERTEX
  8
0
 10
23.8529
 20
231.7218
  0
VERTEX
  8
0
 10
23.8817
 20
231.7922
  0
VERTEX
  8
0
 10
23.8912
 20
231.8799
  0
VERTEX
  8
0
 10
23.8812
 20
231.9649
  0
VERTEX
  8
0
 10
23.8512
 20
232.0336
  0
VERTEX
  8
0
 10
23.825
 20
232.0646
  0
VERTEX
  8
0
 10
23.7937
 20
232.0866
  0
VERTEX
  8
0
 10
23.7572
 20
232.0999
  0
VERTEX
  8
0
 10
23.7156
 20
232.1043
  0
VERTEX
  8
0
 10
23.6727
 20
232.0998
  0
VERTEX
  8
0
 10
23.6356
 20
232.0864
  0
VERTEX
  8
0
 10
23.604
 20
232.0639
  0
VERTEX
  8
0
 10
23.5781
 20
232.0325
  0
VERTEX
  8
0
 10
23.549
 20
231.9632
  0
VERTEX
  8
0
 10
23.5392
 20
231.8766
  0
VERTEX
  8
0
 10
23.5392
 20
231.8766
  0
SEQEND
  0
POLYLINE
  8
0
 66
     1
 10
0
 20
0
  0
VERTEX
  8
0
 10
24.1352
 20
231.5723
  0
VERTEX
  8
0
 10
24.1352
 20
232.0963
  0
VERTEX
  8
0
 10
24.0472
 20
232.0963
  0
VERTEX
  8
0
 10
24.0472
 20
232.1763
  0
VERTEX
  8
0
 10
24.1352
 20
232.1763
  0
VERTEX
  8
0
 10
24.1352
 20
232.2395
  0
VERTEX
  8
0
 10
24.1379
 20
232.292
  0
VERTEX
  8
0
 10
24.1461
 20
232.3285
  0
VERTEX
  8
0
 10
24.1595
 20
232.355
  0
VERTEX
  8
0
 10
24.178
 20
232.3768
  0
VERTEX
  8
0
 10
24.2016
 20
232.3938
  0
VERTEX
  8
0
 10
24.2301
 20
232.4061
  0
VERTEX
  8
0
 10
24.2636
 20
232.4136
  0
VERTEX
  8
0
 10
24.3022
 20
232.4163
  0
VERTEX
  8
0
 10
24.3465
 20
232.4141
  0
VERTEX
  8
0
 10
24.3976
 20
232.4063
  0
VERTEX
  8
0
 10
24.3821
 20
232.3188
  0
VERTEX
  8
0
 10
24.3503
 20
232.3227
  0
VERTEX
  8
0
 10
24.3213
 20
232.3243
  0
VERTEX
  8
0
 10
24.2794
 20
232.319
  0
VERTEX
  8
0
 10
24.2524
 20
232.3019
  0
VERTEX
  8
0
 10
24.2395
 20
232.2739
  0
VERTEX
  8
0
 10
24.2352
 20
232.2313
  0
VERTEX
  8
0
 10
24.2352
 20
232.1763
  0
VERTEX
  8
0
 10
24.3552
 20
232.1763
  0
VERTEX
  8
0
 10
24.3552
 20
232.0963
  0
VERTEX
  8
0
 10
24.2352
 20
232.0963
  0
VERTEX
  8
0
 10
24.2352
 20
231.5723
  0
VERTEX
  8
0
 10
24.1352
 20
231.5723
  0
SEQEND
  0
POLYLINE
  8
0
 66
     1
 10
0
 20
0
  0
VERTEX
  8
0
 10
24.9712
 20
231.5723
  0
VERTEX
  8
0
 10
24.9712
 20
232.4043
  0
VERTEX
  8
0
 10
25.0712
 20
232.4043
  0
VERTEX
  8
0
 10
25.0712
 20
231.5723
  0
VERTEX
  8
0
 10
24.9712
 20
231.5723
  0
SEQEND
  0
POLYLINE
  8
0
 66
     1
 10
0
 20
0
  0
VERTEX
  8
0
 10
25.6391
 20
231.7693
  0
VERTEX
  8
0
 10
25.7442
 20
231.7564
  0
VERTEX
  8
0
 10
25.7345
 20
231.7257
  0
VERTEX
  8
0
 10
25.7225
 20
231.6977
  0
VERTEX
  8
0
 10
25.7083
 20
231.6724
  0
VERTEX
  8
0
 10
25.6919
 20
231.6497
  0
VERTEX
  8
0
 10
25.6732
 20
231.6297
  0
VERTEX
  8
0
 10
25.6524
 20
231.6123
  0
VERTEX
  8
0
 10
25.6293
 20
231.5977
  0
VERTEX
  8
0
 10
25.604
 20
231.5857
  0
VERTEX
  8
0
 10
25.5765
 20
231.5763
  0
VERTEX
  8
0
 10
25.5468
 20
231.5697
  0
VERTEX
  8
0
 10
25.5149
 20
231.5657
  0
VERTEX
  8
0
 10
25.4807
 20
231.5643
  0
VERTEX
  8
0
 10
25.4182
 20
231.5693
  0
VERTEX
  8
0
 10
25.3626
 20
231.5844
  0
VERTEX
  8
0
 10
25.3138
 20
231.6095
  0
VERTEX
  8
0
 10
25.272
 20
231.6447
  0
VERTEX
  8
0
 10
25.2444
 20
231.6795
  0
VERTEX
  8
0
 10
25.2229
 20
231.7195
  0
VERTEX
  8
0
 10
25.2075
 20
231.7648
  0
VERTEX
  8
0
 10
25.1983
 20
231.8154
  0
VERTEX
  8
0
 10
25.1952
 20
231.8713
  0
VERTEX
  8
0
 10
25.1995
 20
231.9374
  0
VERTEX
  8
0
 10
25.2124
 20
231.9968
  0
VERTEX
  8
0
 10
25.2339
 20
232.0495
  0
VERTEX
  8
0
 10
25.2641
 20
232.0956
  0
VERTEX
  8
0
 10
25.2967
 20
232.129
  0
VERTEX
  8
0
 10
25.3341
 20
232.1549
  0
VERTEX
  8
0
 10
25.3763
 20
232.1735
  0
VERTEX
  8
0
 10
25.4233
 20
232.1846
  0
VERTEX
  8
0
 10
25.4751
 20
232.1883
  0
VERTEX
  8
0
 10
25.5256
 20
232.1846
  0
VERTEX
  8
0
 10
25.5713
 20
232.1736
  0
VERTEX
  8
0
 10
25.6124
 20
232.1551
  0
VERTEX
  8
0
 10
25.6488
 20
232.1293
  0
VERTEX
  8
0
 10
25.6805
 20
232.0961
  0
VERTEX
  8
0
 10
25.7099
 20
232.0505
  0
VERTEX
  8
0
 10
25.7308
 20
231.9985
  0
VERTEX
  8
0
 10
25.7434
 20
231.9402
  0
VERTEX
  8
0
 10
25.7476
 20
231.8754
  0
VERTEX
  8
0
 10
25.7475
 20
231.8613
  0
VERTEX
  8
0
 10
25.7471
 20
231.8483
  0
VERTEX
  8
0
 10
25.2992
 20
231.8483
  0
VERTEX
  8
0
 10
25.3135
 20
231.7705
  0
VERTEX
  8
0
 10
25.3473
 20
231.7087
  0
VERTEX
  8
0
 10
25.384
 20
231.6752
  0
VERTEX
  8
0
 10
25.4285
 20
231.655
  0
VERTEX
  8
0
 10
25.4807
 20
231.6483
  0
VERTEX
  8
0
 10
25.5167
 20
231.6517
  0
VERTEX
  8
0
 10
25.5489
 20
231.6618
  0
VERTEX
  8
0
 10
25.5772
 20
231.6786
  0
VERTEX
  8
0
 10
25.6016
 20
231.7021
  0
VERTEX
  8
0
 10
25.6223
 20
231.7323
  0
VERTEX
  8
0
 10
25.6391
 20
231.7693
  0
VERTEX
  8
0
 10
25.6391
 20
231.7693
  0
SEQEND
  0
POLYLINE
  8
0
 66
     1
 10
0
 20
0
  0
VERTEX
  8
0
 10
25.3058
 20
231.9323
  0
VERTEX
  8
0
 10
25.6404
 20
231.9323
  0
VERTEX
  8
0
 10
25.6275
 20
231.9984
  0
VERTEX
  8
0
 10
25.6021
 20
232.0457
  0
VERTEX
  8
0
 10
25.5665
 20
232.078
  0
VERTEX
  8
0
 10
25.5246
 20
232.0976
  0
VERTEX
  8
0
 10
25.4762
 20
232.1043
  0
VERTEX
  8
0
 10
25.4091
 20
232.0922
  0
VERTEX
  8
0
 10
25.3555
 20
232.0547
  0
VERTEX
  8
0
 10
25.3208
 20
232.0004
  0
VERTEX
  8
0
 10
25.3058
 20
231.9323
  0
VERTEX
  8
0
 10
25.3058
 20
231.9323
  0
SEQEND
  0
POLYLINE
  8
0
 66
     1
 10
0
 20
0
  0
VERTEX
  8
0
 10
26.0929
 20
231.6671
  0
VERTEX
  8
0
 10
26.1075
 20
231.5774
  0
VERTEX
  8
0
 10
26.0669
 20
231.5709
  0
VERTEX
  8
0
 10
26.0313
 20
231.5683
  0
VERTEX
  8
0
 10
25.9855
 20
231.5718
  0
VERTEX
  8
0
 10
25.9489
 20
231.5836
  0
VERTEX
  8
0
 10
25.9216
 20
231.6034
  0
VERTEX
  8
0
 10
25.9036
 20
231.6315
  0
VERTEX
  8
0
 10
25.8967
 20
231.6579
  0
VERTEX
  8
0
 10
25.8926
 20
231.6979
  0
VERTEX
  8
0
 10
25.8912
 20
231.7516
  0
VERTEX
  8
0
 10
25.8912
 20
232.0963
  0
VERTEX
  8
0
 10
25.8152
 20
232.0963
  0
VERTEX
  8
0
 10
25.8152
 20
232.1763
  0
VERTEX
  8
0
 10
25.8912
 20
232.1763
  0
VERTEX
  8
0
 10
25.8912
 20
232.3238
  0
VERTEX
  8
0
 10
25.9912
 20
232.3843
  0
VERTEX
  8
0
 10
25.9912
 20
232.1763
  0
VERTEX
  8
0
 10
26.0912
 20
232.1763
  0
VERTEX
  8
0
 10
26.0912
 20
232.0963
  0
VERTEX
  8
0
 10
25.9912
 20
232.0963
  0
VERTEX
  8
0
 10
25.9912
 20
231.747
  0
VERTEX
  8
0
 10
25.9917
 20
231.72
  0
VERTEX
  8
0
 10
25.9929
 20
231.7054
  0
VERTEX
  8
0
 10
26.0001
 20
231.6854
  0
VERTEX
  8
0
 10
26.0137
 20
231.6716
  0
VERTEX
  8
0
 10
26.028
 20
231.6664
  0
VERTEX
  8
0
 10
26.0486
 20
231.6643
  0
VERTEX
  8
0
 10
26.0678
 20
231.6647
  0
VERTEX
  8
0
 10
26.0929
 20
231.6671
  0
VERTEX
  8
0
 10
26.0929
 20
231.6671
  0
SEQEND
  0
POLYLINE
  8
0
 66
     1
 10
0
 20
0
  0
VERTEX
  8
0
 10
26.4129
 20
231.6671
  0
VERTEX
  8
0
 10
26.4275
 20
231.5774
  0
VERTEX
  8
0
 10
26.3869
 20
231.5709
  0
VERTEX
  8
0
 10
26.3513
 20
231.5683
  0
VERTEX
  8
0
 10
26.3055
 20
231.5718
  0
VERTEX
  8
0
 10
26.2689
 20
231.5836
  0
VERTEX
  8
0
 10
26.2416
 20
231.6034
  0
VERTEX
  8
0
 10
26.2236
 20
231.6315
  0
VERTEX
  8
0
 10
26.2167
 20
231.6579
  0
VERTEX
  8
0
 10
26.2126
 20
231.6979
  0
VERTEX
  8
0
 10
26.2112
 20
231.7516
  0
VERTEX
  8
0
 10
26.2112
 20
232.0963
  0
VERTEX
  8
0
 10
26.1352
 20
232.0963
  0
VERTEX
  8
0
 10
26.1352
 20
232.1763
  0
VERTEX
  8
0
 10
26.2112
 20
232.1763
  0
VERTEX
  8
0
 10
26.2112
 20
232.3238
  0
VERTEX
  8
0
 10
26.3112
 20
232.3843
  0
VERTEX
  8
0
 10
26.3112
 20
232.1763
  0
VERTEX
  8
0
 10
26.4112
 20
232.1763
  0
VERTEX
  8
0
 10
26.4112
 20
232.0963
  0
VERTEX
  8
0
 10
26.3112
 20
232.0963
  0
VERTEX
  8
0
 10
26.3112
 20
231.747
  0
VERTEX
  8
0
 10
26.3117
 20
231.72
  0
VERTEX
  8
0
 10
26.3129
 20
231.7054
  0
VERTEX
  8
0
 10
26.3201
 20
231.6854
  0
VERTEX
  8
0
 10
26.3337
 20
231.6716
  0
VERTEX
  8
0
 10
26.348
 20
231.6664
  0
VERTEX
  8
0
 10
26.3686
 20
231.6643
  0
VERTEX
  8
0
 10
26.3878
 20
231.6647
  0
VERTEX
  8
0
 10
26.4129
 20
231.6671
  0
VERTEX
  8
0
 10
26.4129
 20
231.6671
  0
SEQEND
  0
POLYLINE
  8
0
 66
     1
 10
0
 20
0
  0
VERTEX
  8
0
 10
26.923
 20
231.7693
  0
VERTEX
  8
0
 10
27.0282
 20
231.7564
  0
VERTEX
  8
0
 10
27.0185
 20
231.7257
  0
VERTEX
  8
0
 10
27.0065
 20
231.6977
  0
VERTEX
  8
0
 10
26.9923
 20
231.6724
  0
VERTEX
  8
0
 10
26.9759
 20
231.6497
  0
VERTEX
  8
0
 10
26.9572
 20
231.6297
  0
VERTEX
  8
0
 10
26.9364
 20
231.6123
  0
VERTEX
  8
0
 10
26.9133
 20
231.5977
  0
VERTEX
  8
0
 10
26.888
 20
231.5857
  0
VERTEX
  8
0
 10
26.8605
 20
231.5763
  0
VERTEX
  8
0
 10
26.8308
 20
231.5697
  0
VERTEX
  8
0
 10
26.7989
 20
231.5657
  0
VERTEX
  8
0
 10
26.7647
 20
231.5643
  0
VERTEX
  8
0
 10
26.7022
 20
231.5693
  0
VERTEX
  8
0
 10
26.6466
 20
231.5844
  0
VERTEX
  8
0
 10
26.5978
 20
231.6095
  0
VERTEX
  8
0
 10
26.556
 20
231.6447
  0
VERTEX
  8
0
 10
26.5284
 20
231.6795
  0
VERTEX
  8
0
 10
26.5069
 20
231.7195
  0
VERTEX
  8
0
 10
26.4915
 20
231.7648
  0
VERTEX
  8
0
 10
26.4823
 20
231.8154
  0
VERTEX
  8
0
 10
26.4792
 20
231.8713
  0
VERTEX
  8
0
 10
26.4835
 20
231.9374
  0
VERTEX
  8
0
 10
26.4964
 20
231.9968
  0
VERTEX
  8
0
 10
26.5179
 20
232.0495
  0
VERTEX
  8
0
 10
26.5481
 20
232.0956
  0
VERTEX
  8
0
 10
26.5807
 20
232.129
  0
VERTEX
  8
0
 10
26.6181
 20
232.1549
  0
VERTEX
  8
0
 10
26.6603
 20
232.1735
  0
VERTEX
  8
0
 10
26.7073
 20
232.1846
  0
VERTEX
  8
0
 10
26.7591
 20
232.1883
  0
VERTEX
  8
0
 10
26.8096
 20
232.1846
  0
VERTEX
  8
0
 10
26.8553
 20
232.1736
  0
VERTEX
  8
0
 10
26.8964
 20
232.1551
  0
VERTEX
  8
0
 10
26.9328
 20
232.1293
  0
VERTEX
  8
0
 10
26.9645
 20
232.0961
  0
VERTEX
  8
0
 10
26.9939
 20
232.0505
  0
VERTEX
  8
0
 10
27.0148
 20
231.9985
  0
VERTEX
  8
0
 10
27.0274
 20
231.9402
  0
VERTEX
  8
0
 10
27.0316
 20
231.8754
  0
VERTEX
  8
0
 10
27.0315
 20
231.8613
  0
VERTEX
  8
0
 10
27.031
 20
231.8483
  0
VERTEX
  8
0
 10
26.5832
 20
231.8483
  0
VERTEX
  8
0
 10
26.5975
 20
231.7705
  0
VERTEX
  8
0
 10
26.6313
 20
231.7087
  0
VERTEX
  8
0
 10
26.668
 20
231.6752
  0
VERTEX
  8
0
 10
26.7125
 20
231.655
  0
VERTEX
  8
0
 10
26.7647
 20
231.6483
  0
VERTEX
  8
0
 10
26.8007
 20
231.6517
  0
VERTEX
  8
0
 10
26.8329
 20
231.6618
  0
VERTEX
  8
0
 10
26.8612
 20
231.6786
  0
VERTEX
  8
0
 10
26.8856
 20
231.7021
  0
VERTEX
  8
0
 10
26.9063
 20
231.7323
  0
VERTEX
  8
0
 10
26.923
 20
231.7693
  0
VERTEX
  8
0
 10
26.923
 20
231.7693
  0
SEQEND
  0
POLYLINE
  8
0
 66
     1
 10
0
 20
0
  0
VERTEX
  8
0
 10
26.5898
 20
231.9323
  0
VERTEX
  8
0
 10
26.9244
 20
231.9323
  0
VERTEX
  8
0
 10
26.9115
 20
231.9984
  0
VERTEX
  8
0
 10
26.886
 20
232.0457
  0
VERTEX
  8
0
 10
26.8505
 20
232.078
  0
VERTEX
  8
0
 10
26.8086
 20
232.0976
  0
VERTEX
  8
0
 10
26.7602
 20
232.1043
  0
VERTEX
  8
0
 10
26.6931
 20
232.0922
  0
VERTEX
  8
0
 10
26.6395
 20
232.0547
  0
VERTEX
  8
0
 10
26.6048
 20
232.0004
  0
VERTEX
  8
0
 10
26.5898
 20
231.9323
  0
VERTEX
  8
0
 10
26.5898
 20
231.9323
  0
SEQEND
  0
POLYLINE
  8
0
 66
     1
 10
0
 20
0
  0
VERTEX
  8
0
 10
27.1552
 20
231.5723
  0
VERTEX
  8
0
 10
27.1552
 20
232.1755
  0
VERTEX
  8
0
 10
27.2472
 20
232.1755
  0
VERTEX
  8
0
 10
27.2472
 20
232.0847
  0
VERTEX
  8
0
 10
27.2737
 20
232.1276
  0
VERTEX
  8
0
 10
27.2979
 20
232.1564
  0
VERTEX
  8
0
 10
27.3342
 20
232.1803
  0
VERTEX
  8
0
 10
27.3767
 20
232.1883
  0
VERTEX
  8
0
 10
27.428
 20
232.1802
  0
VERTEX
  8
0
 10
27.4807
 20
232.1558
  0
VERTEX
  8
0
 10
27.4455
 20
232.0621
  0
VERTEX
  8
0
 10
27.408
 20
232.0788
  0
VERTEX
  8
0
 10
27.3705
 20
232.0843
  0
VERTEX
  8
0
 10
27.3376
 20
232.0785
  0
VERTEX
  8
0
 10
27.3069
 20
232.061
  0
VERTEX
  8
0
 10
27.2863
 20
232.0381
  0
VERTEX
  8
0
 10
27.2723
 20
232.0081
  0
VERTEX
  8
0
 10
27.2595
 20
231.9515
  0
VERTEX
  8
0
 10
27.2552
 20
231.8886
  0
VERTEX
  8
0
 10
27.2552
 20
231.5723
  0
VERTEX
  8
0
 10
27.1552
 20
231.5723
  0
SEQEND
  0
POLYLINE
  8
0
 66
     1
 10
0
 20
0
  0
VERTEX
  8
0
 10
28.4687
 20
231.6503
  0
VERTEX
  8
0
 10
28.4166
 20
231.6129
  0
VERTEX
  8
0
 10
28.3625
 20
231.5861
  0
VERTEX
  8
0
 10
28.3063
 20
231.5699
  0
VERTEX
  8
0
 10
28.248
 20
231.5643
  0
VERTEX
  8
0
 10
28.1682
 20
231.5741
  0
VERTEX
  8
0
 10
28.1047
 20
231.6048
  0
VERTEX
  8
0
 10
28.0708
 20
231.6395
  0
VERTEX
  8
0
 10
28.0503
 20
231.683
  0
VERTEX
  8
0
 10
28.0432
 20
231.7351
  0
VERTEX
  8
0
 10
28.0475
 20
231.7767
  0
VERTEX
  8
0
 10
28.0609
 20
231.8135
  0
VERTEX
  8
0
 10
28.0835
 20
231.8458
  0
VERTEX
  8
0
 10
28.1152
 20
231.8734
  0
VERTEX
  8
0
 10
28.1489
 20
231.8926
  0
VERTEX
  8
0
 10
28.1883
 20
231.9065
  0
VERTEX
  8
0
 10
28.2251
 20
231.9142
  0
VERTEX
  8
0
 10
28.2782
 20
231.9217
  0
VERTEX
  8
0
 10
28.3543
 20
231.9323
  0
VERTEX
  8
0
 10
28.4144
 20
231.9439
  0
VERTEX
  8
0
 10
28.4587
 20
231.9565
  0
VERTEX
  8
0
 10
28.4588
 20
231.9741
  0
VERTEX
  8
0
 10
28.4592
 20
231.9829
  0
VERTEX
  8
0
 10
28.4521
 20
232.0356
  0
VERTEX
  8
0
 10
28.4305
 20
232.0701
  0
VERTEX
  8
0
 10
28.3827
 20
232.0955
  0
VERTEX
  8
0
 10
28.3154
 20
232.1043
  0
VERTEX
  8
0
 10
28.2554
 20
232.0987
  0
VERTEX
  8
0
 10
28.2125
 20
232.0808
  0
VERTEX
  8
0
 10
28.1813
 20
232.0457
  0
VERTEX
  8
0
 10
28.1597
 20
231.991
  0
VERTEX
  8
0
 10
28.0607
 20
232.0045
  0
VERTEX
  8
0
 10
28.0746
 20
232.0504
  0
VERTEX
  8
0
 10
28.095
 20
232.0896
  0
VERTEX
  8
0
 10
28.1219
 20
232.1221
  0
VERTEX
  8
0
 10
28.1552
 20
232.1479
  0
VERTEX
  8
0
 10
28.1951
 20
232.1669
  0
VERTEX
  8
0
 10
28.2576
 20
232.1827
  0
VERTEX
  8
0
 10
28.3312
 20
232.1883
  0
VERTEX
  8
0
 10
28.3843
 20
232.1859
  0
VERTEX
  8
0
 10
28.4305
 20
232.1783
  0
VERTEX
  8
0
 10
28.4695
 20
232.1655
  0
VERTEX
  8
0
 10
28.5016
 20
232.1475
  0
VERTEX
  8
0
 10
28.5265
 20
232.1242
  0
VERTEX
  8
0
 10
28.5455
 20
232.0936
  0
VERTEX
  8
0
 10
28.5582
 20
232.055
  0
VERTEX
  8
0
 10
28.562
 20
232.0201
  0
VERTEX
  8
0
 10
28.5632
 20
231.9609
  0
VERTEX
  8
0
 10
28.5632
 20
231.8248
  0
VERTEX
  8
0
 10
28.5633
 20
231.7804
  0
VERTEX
  8
0
 10
28.5633
 20
231.7452
  0
VERTEX
  8
0
 10
28.5634
 20
231.7194
  0
VERTEX
  8
0
 10
28.5636
 20
231.7027
  0
VERTEX
  8
0
 10
28.5638
 20
231.6954
  0
VERTEX
  8
0
 10
28.5738
 20
231.6272
  0
VERTEX
  8
0
 10
28.595
 20
231.5723
  0
VERTEX
  8
0
 10
28.489
 20
231.5723
  0
VERTEX
  8
0
 10
28.4763
 20
231.6085
  0
VERTEX
  8
0
 10
28.4687
 20
231.6503
  0
VERTEX
  8
0
 10
28.4687
 20
231.6503
  0
SEQEND
  0
POLYLINE
  8
0
 66
     1
 10
0
 20
0
  0
VERTEX
  8
0
 10
28.4592
 20
231.8771
  0
VERTEX
  8
0
 10
28.3903
 20
231.8566
  0
VERTEX
  8
0
 10
28.2937
 20
231.839
  0
VERTEX
  8
0
 10
28.2503
 20
231.832
  0
VERTEX
  8
0
 10
28.2227
 20
231.8256
  0
VERTEX
  8
0
 10
28.1884
 20
231.8092
  0
VERTEX
  8
0
 10
28.1653
 20
231.7859
  0
VERTEX
  8
0
 10
28.155
 20
231.7636
  0
VERTEX
  8
0
 10
28.1512
 20
231.7383
  0
VERTEX
  8
0
 10
28.1604
 20
231.6964
  0
VERTEX
  8
0
 10
28.189
 20
231.6656
  0
VERTEX
  8
0
 10
28.226
 20
231.6496
  0
VERTEX
  8
0
 10
28.2717
 20
231.6443
  0
VERTEX
  8
0
 10
28.3114
 20
231.647
  0
VERTEX
  8
0
 10
28.3466
 20
231.6549
  0
VERTEX
  8
0
 10
28.3773
 20
231.6681
  0
VERTEX
  8
0
 10
28.4036
 20
231.6866
  0
VERTEX
  8
0
 10
28.4255
 20
231.7104
  0
VERTEX
  8
0
 10
28.4429
 20
231.7394
  0
VERTEX
  8
0
 10
28.4552
 20
231.7817
  0
VERTEX
  8
0
 10
28.4592
 20
231.8401
  0
VERTEX
  8
0
 10
28.4592
 20
231.8771
  0
SEQEND
  0
POLYLINE
  8
0
 66
     1
 10
0
 20
0
  0
VERTEX
  8
0
 10
28.7152
 20
231.5723
  0
VERTEX
  8
0
 10
28.7152
 20
232.1755
  0
VERTEX
  8
0
 10
28.8072
 20
232.1755
  0
VERTEX
  8
0
 10
28.8072
 20
232.0903
  0
VERTEX
  8
0
 10
28.836
 20
232.1254
  0
VERTEX
  8
0
 10
28.8695
 20
232.1528
  0
VERTEX
  8
0
 10
28.9077
 20
232.1724
  0
VERTEX
  8
0
 10
28.9506
 20
232.1842
  0
VERTEX
  8
0
 10
28.9982
 20
232.1883
  0
VERTEX
  8
0
 10
29.0493
 20
232.1834
  0
VERTEX
  8
0
 10
29.0976
 20
232.1684
  0
VERTEX
  8
0
 10
29.1341
 20
232.1476
  0
VERTEX
  8
0
 10
29.163
 20
232.1196
  0
VERTEX
  8
0
 10
29.1841
 20
232.0844
  0
VERTEX
  8
0
 10
29.1976
 20
232.042
  0
VERTEX
  8
0
 10
29.2018
 20
232.0038
  0
VERTEX
  8
0
 10
29.2032
 20
231.9427
  0
VERTEX
  8
0
 10
29.2032
 20
231.5723
  0
VERTEX
  8
0
 10
29.1032
 20
231.5723
  0
VERTEX
  8
0
 10
29.1032
 20
231.9391
  0
VERTEX
  8
0
 10
29.1012
 20
231.9858
  0
VERTEX
  8
0
 10
29.0952
 20
232.0191
  0
VERTEX
  8
0
 10
29.0778
 20
232.0552
  0
VERTEX
  8
0
 10
29.0483
 20
232.0816
  0
VERTEX
  8
0
 10
29.0152
 20
232.0956
  0
VERTEX
  8
0
 10
28.9767
 20
232.1003
  0
VERTEX
  8
0
 10
28.9509
 20
232.0989
  0
VERTEX
  8
0
 10
28.9273
 20
232.0948
  0
VERTEX
  8
0
 10
28.906
 20
232.0879
  0
VERTEX
  8
0
 10
28.887
 20
232.0782
  0
VERTEX
  8
0
 10
28.8702
 20
232.0658
  0
VERTEX
  8
0
 10
28.8556
 20
232.0506
  0
VERTEX
  8
0
 10
28.8433
 20
232.0327
  0
VERTEX
  8
0
 10
28.8332
 20
232.012
  0
VERTEX
  8
0
 10
28.8253
 20
231.9886
  0
VERTEX
  8
0
 10
28.8197
 20
231.9623
  0
VERTEX
  8
0
 10
28.8164
 20
231.9334
  0
VERTEX
  8
0
 10
28.8152
 20
231.9016
  0
VERTEX
  8
0
 10
28.8152
 20
231.5723
  0
VERTEX
  8
0
 10
28.7152
 20
231.5723
  0
SEQEND
  0
POLYLINE
  8
0
 66
     1
 10
0
 20
0
  0
VERTEX
  8
0
 10
29.7472
 20
231.5723
  0
VERTEX
  8
0
 10
29.7472
 20
231.6519
  0
VERTEX
  8
0
 10
29.7226
 20
231.6206
  0
VERTEX
  8
0
 10
29.6935
 20
231.5961
  0
VERTEX
  8
0
 10
29.6601
 20
231.5786
  0
VERTEX
  8
0
 10
29.6224
 20
231.568
  0
VERTEX
  8
0
 10
29.5802
 20
231.5643
  0
VERTEX
  8
0
 10
29.5099
 20
231.5743
  0
VERTEX
  8
0
 10
29.4464
 20
231.6054
  0
VERTEX
  8
0
 10
29.3942
 20
231.6524
  0
VERTEX
  8
0
 10
29.3556
 20
231.7139
  0
VERTEX
  8
0
 10
29.3316
 20
231.7886
  0
VERTEX
  8
0
 10
29.3232
 20
231.8758
  0
VERTEX
  8
0
 10
29.3249
 20
231.9226
  0
VERTEX
  8
0
 10
29.3303
 20
231.9658
  0
VERTEX
  8
0
 10
29.3396
 20
232.0054
  0
VERTEX
  8
0
 10
29.3527
 20
232.0414
  0
VERTEX
  8
0
 10
29.3696
 20
232.0739
  0
VERTEX
  8
0
 10
29.3903
 20
232.1027
  0
VERTEX
  8
0
 10
29.4149
 20
232.1279
  0
VERTEX
  8
0
 10
29.4432
 20
232.1495
  0
VERTEX
  8
0
 10
29.5065
 20
232.1786
  0
VERTEX
  8
0
 10
29.5774
 20
232.1883
  0
VERTEX
  8
0
 10
29.6274
 20
232.1832
  0
VERTEX
  8
0
 10
29.6718
 20
232.1679
  0
VERTEX
  8
0
 10
29.7104
 20
232.1424
  0
VERTEX
  8
0
 10
29.7432
 20
232.1067
  0
VERTEX
  8
0
 10
29.7432
 20
232.4043
  0
VERTEX
  8
0
 10
29.8432
 20
232.4043
  0
VERTEX
  8
0
 10
29.8432
 20
231.5723
  0
VERTEX
  8
0
 10
29.7472
 20
231.5723
  0
SEQEND
  0
POLYLINE
  8
0
 66
     1
 10
0
 20
0
  0
VERTEX
  8
0
 10
29.4272
 20
231.8761
  0
VERTEX
  8
0
 10
29.4361
 20
231.7929
  0
VERTEX
  8
0
 10
29.4628
 20
231.7241
  0
VERTEX
  8
0
 10
29.4871
 20
231.6911
  0
VERTEX
  8
0
 10
29.5165
 20
231.6675
  0
VERTEX
  8
0
 10
29.5509
 20
231.6533
  0
VERTEX
  8
0
 10
29.5905
 20
231.6483
  0
VERTEX
  8
0
 10
29.6295
 20
231.6526
  0
VERTEX
  8
0
 10
29.6634
 20
231.666
  0
VERTEX
  8
0
 10
29.6922
 20
231.6885
  0
VERTEX
  8
0
 10
29.7159
 20
231.7201
  0
VERTEX
  8
0
 10
29.7418
 20
231.7867
  0
VERTEX
  8
0
 10
29.7504
 20
231.8676
  0
VERTEX
  8
0
 10
29.742
 20
231.955
  0
VERTEX
  8
0
 10
29.717
 20
232.0253
  0
VERTEX
  8
0
 10
29.6928
 20
232.0598
  0
VERTEX
  8
0
 10
29.6628
 20
232.0846
  0
VERTEX
  8
0
 10
29.6272
 20
232.0994
  0
VERTEX
  8
0
 10
29.586
 20
232.1043
  0
VERTEX
  8
0
 10
29.5459
 20
232.0996
  0
VERTEX
  8
0
 10
29.5114
 20
232.0854
  0
VERTEX
  8
0
 10
29.4826
 20
232.0617
  0
VERTEX
  8
0
 10
29.4594
 20
232.0286
  0
VERTEX
  8
0
 10
29.4353
 20
231.9607
  0
VERTEX
  8
0
 10
29.4272
 20
231.8761
  0
VERTEX
  8
0
 10
29.4272
 20
231.8761
  0
SEQEND
  0
POLYLINE
  8
0
 66
     1
 10
0
 20
0
  0
VERTEX
  8
0
 10
30.4952
 20
231.8763
  0
VERTEX
  8
0
 10
30.4978
 20
231.9292
  0
VERTEX
  8
0
 10
30.5055
 20
231.9773
  0
VERTEX
  8
0
 10
30.5183
 20
232.0206
  0
VERTEX
  8
0
 10
30.5363
 20
232.0592
  0
VERTEX
  8
0
 10
30.5593
 20
232.093
  0
VERTEX
  8
0
 10
30.5875
 20
232.122
  0
VERTEX
  8
0
 10
30.6425
 20
232.1588
  0
VERTEX
  8
0
 10
30.7051
 20
232.181
  0
VERTEX
  8
0
 10
30.7755
 20
232.1883
  0
VERTEX
  8
0
 10
30.826
 20
232.1848
  0
VERTEX
  8
0
 10
30.872
 20
232.1744
  0
VERTEX
  8
0
 10
30.9135
 20
232.157
  0
VERTEX
  8
0
 10
30.9506
 20
232.1326
  0
VERTEX
  8
0
 10
30.9832
 20
232.1012
  0
VERTEX
  8
0
 10
31.0147
 20
232.0565
  0
VERTEX
  8
0
 10
31.0372
 20
232.0055
  0
VERTEX
  8
0
 10
31.0507
 20
231.9483
  0
VERTEX
  8
0
 10
31.0552
 20
231.8848
  0
VERTEX
  8
0
 10
31.0536
 20
231.8399
  0
VERTEX
  8
0
 10
31.0485
 20
231.7985
  0
VERTEX
  8
0
 10
31.0402
 20
231.7603
  0
VERTEX
  8
0
 10
31.0284
 20
231.7254
  0
VERTEX
  8
0
 10
31.0134
 20
231.6939
  0
VERTEX
  8
0
 10
30.995
 20
231.6656
  0
VERTEX
  8
0
 10
30.9732
 20
231.6407
  0
VERTEX
  8
0
 10
30.9481
 20
231.6192
  0
VERTEX
  8
0
 10
30.9196
 20
231.6009
  0
VERTEX
  8
0
 10
30.8507
 20
231.5737
  0
VERTEX
  8
0
 10
30.7755
 20
231.5643
  0
VERTEX
  8
0
 10
30.7233
 20
231.5677
  0
VERTEX
  8
0
 10
30.6761
 20
231.5784
  0
VERTEX
  8
0
 10
30.6339
 20
231.5962
  0
VERTEX
  8
0
 10
30.5967
 20
231.6213
  0
VERTEX
  8
0
 10
30.5645
 20
231.6537
  0
VERTEX
  8
0
 10
30.5342
 20
231.6988
  0
VERTEX
  8
0
 10
30.5125
 20
231.7509
  0
VERTEX
  8
0
 10
30.4996
 20
231.8101
  0
VERTEX
  8
0
 10
30.4952
 20
231.8763
  0
VERTEX
  8
0
 10
30.4952
 20
231.8763
  0
SEQEND
  0
POLYLINE
  8
0
 66
     1
 10
0
 20
0
  0
VERTEX
  8
0
 10
30.5992
 20
231.8766
  0
VERTEX
  8
0
 10
30.609
 20
231.7892
  0
VERTEX
  8
0
 10
30.6381
 20
231.7201
  0
VERTEX
  8
0
 10
30.664
 20
231.6889
  0
VERTEX
  8
0
 10
30.6956
 20
231.6666
  0
VERTEX
  8
0
 10
30.7327
 20
231.653
  0
VERTEX
  8
0
 10
30.7755
 20
231.6483
  0
VERTEX
  8
0
 10
30.8183
 20
231.6527
  0
VERTEX
  8
0
 10
30.8555
 20
231.6664
  0
VERTEX
  8
0
 10
30.887
 20
231.6895
  0
VERTEX
  8
0
 10
30.9129
 20
231.7218
  0
VERTEX
  8
0
 10
30.9417
 20
231.7922
  0
VERTEX
  8
0
 10
30.9512
 20
231.8799
  0
VERTEX
  8
0
 10
30.9412
 20
231.9649
  0
VERTEX
  8
0
 10
30.9112
 20
232.0336
  0
VERTEX
  8
0
 10
30.885
 20
232.0646
  0
VERTEX
  8
0
 10
30.8537
 20
232.0866
  0
VERTEX
  8
0
 10
30.8172
 20
232.0999
  0
VERTEX
  8
0
 10
30.7755
 20
232.1043
  0
VERTEX
  8
0
 10
30.7327
 20
232.0998
  0
VERTEX
  8
0
 10
30.6956
 20
232.0864
  0
VERTEX
  8
0
 10
30.664
 20
232.0639
  0
VERTEX
  8
0
 10
30.6381
 20
232.0325
  0
VERTEX
  8
0
 10
30.609
 20
231.9632
  0
VERTEX
  8
0
 10
30.5992
 20
231.8766
  0
VERTEX
  8
0
 10
30.5992
 20
231.8766
  0
SEQEND
  0
POLYLINE
  8
0
 66
     1
 10
0
 20
0
  0
VERTEX
  8
0
 10
31.2712
 20
231.5723
  0
VERTEX
  8
0
 10
31.1752
 20
231.5723
  0
VERTEX
  8
0
 10
31.1752
 20
232.4043
  0
VERTEX
  8
0
 10
31.2752
 20
232.4043
  0
VERTEX
  8
0
 10
31.2752
 20
232.1084
  0
VERTEX
  8
0
 10
31.3098
 20
232.1431
  0
VERTEX
  8
0
 10
31.3488
 20
232.1681
  0
VERTEX
  8
0
 10
31.3922
 20
232.1831
  0
VERTEX
  8
0
 10
31.4402
 20
232.1883
  0
VERTEX
  8
0
 10
31.4958
 20
232.1832
  0
VERTEX
  8
0
 10
31.5453
 20
232.1675
  0
VERTEX
  8
0
 10
31.5887
 20
232.1409
  0
VERTEX
  8
0
 10
31.6261
 20
232.1037
  0
VERTEX
  8
0
 10
31.6561
 20
232.0581
  0
VERTEX
  8
0
 10
31.6777
 20
232.0065
  0
VERTEX
  8
0
 10
31.6907
 20
231.9489
  0
VERTEX
  8
0
 10
31.6952
 20
231.8853
  0
VERTEX
  8
0
 10
31.6884
 20
231.8024
  0
VERTEX
  8
0
 10
31.6677
 20
231.7292
  0
VERTEX
  8
0
 10
31.6334
 20
231.6655
  0
VERTEX
  8
0
 10
31.6029
 20
231.6293
  0
VERTEX
  8
0
 10
31.568
 20
231.601
  0
VERTEX
  8
0
 10
31.5287
 20
231.5808
  0
VERTEX
  8
0
 10
31.4851
 20
231.5685
  0
VERTEX
  8
0
 10
31.4371
 20
231.5643
  0
VERTEX
  8
0
 10
31.3873
 20
231.5696
  0
VERTEX
  8
0
 10
31.3431
 20
231.5858
  0
VERTEX
  8
0
 10
31.3044
 20
231.6131
  0
VERTEX
  8
0
 10
31.2712
 20
231.6514
  0
VERTEX
  8
0
 10
31.2712
 20
231.5723
  0
SEQEND
  0
POLYLINE
  8
0
 66
     1
 10
0
 20
0
  0
VERTEX
  8
0
 10
31.2712
 20
231.8808
  0
VERTEX
  8
0
 10
31.2745
 20
231.8161
  0
VERTEX
  8
0
 10
31.2842
 20
231.7645
  0
VERTEX
  8
0
 10
31.3003
 20
231.7262
  0
VERTEX
  8
0
 10
31.326
 20
231.6923
  0
VERTEX
  8
0
 10
31.356
 20
231.6681
  0
VERTEX
  8
0
 10
31.3903
 20
231.6534
  0
VERTEX
  8
0
 10
31.429
 20
231.6483
  0
VERTEX
  8
0
 10
31.4682
 20
231.6529
  0
VERTEX
  8
0
 10
31.5024
 20
231.6671
  0
VERTEX
  8
0
 10
31.5317
 20
231.691
  0
VERTEX
  8
0
 10
31.556
 20
231.7245
  0
VERTEX
  8
0
 10
31.5824
 20
231.794
  0
VERTEX
  8
0
 10
31.5912
 20
231.8769
  0
VERTEX
  8
0
 10
31.583
 20
231.9601
  0
VERTEX
  8
0
 10
31.5582
 20
232.0281
  0
VERTEX
  8
0
 10
31.5349
 20
232.0615
  0
VERTEX
  8
0
 10
31.5064
 20
232.0853
  0
VERTEX
  8
0
 10
31.4725
 20
232.0996
  0
VERTEX
  8
0
 10
31.4335
 20
232.1043
  0
VERTEX
  8
0
 10
31.395
 20
232.0997
  0
VERTEX
  8
0
 10
31.3613
 20
232.0857
  0
VERTEX
  8
0
 10
31.3324
 20
232.0624
  0
VERTEX
  8
0
 10
31.3082
 20
232.0298
  0
VERTEX
  8
0
 10
31.2805
 20
231.9615
  0
VERTEX
  8
0
 10
31.2712
 20
231.8808
  0
VERTEX
  8
0
 10
31.2712
 20
231.8808
  0
SEQEND
  0
POLYLINE
  8
0
 66
     1
 10
0
 20
0
  0
VERTEX
  8
0
 10
31.8272
 20
232.2883
  0
VERTEX
  8
0
 10
31.8272
 20
232.4043
  0
VERTEX
  8
0
 10
31.9272
 20
232.4043
  0
VERTEX
  8
0
 10
31.9272
 20
232.2883
  0
VERTEX
  8
0
 10
31.8272
 20
232.2883
  0
SEQEND
  0
POLYLINE
  8
0
 66
     1
 10
0
 20
0
  0
VERTEX
  8
0
 10
31.6952
 20
231.3431
  0
VERTEX
  8
0
 10
31.7149
 20
231.4302
  0
VERTEX
  8
0
 10
31.7428
 20
231.4231
  0
VERTEX
  8
0
 10
31.7641
 20
231.4203
  0
VERTEX
  8
0
 10
31.7912
 20
231.4251
  0
VERTEX
  8
0
 10
31.811
 20
231.4407
  0
VERTEX
  8
0
 10
31.82
 20
231.4615
  0
VERTEX
  8
0
 10
31.8254
 20
231.496
  0
VERTEX
  8
0
 10
31.8272
 20
231.5442
  0
VERTEX
  8
0
 10
31.8272
 20
232.1755
  0
VERTEX
  8
0
 10
31.9272
 20
232.1755
  0
VERTEX
  8
0
 10
31.9272
 20
231.5429
  0
VERTEX
  8
0
 10
31.924
 20
231.4769
  0
VERTEX
  8
0
 10
31.9143
 20
231.4255
  0
VERTEX
  8
0
 10
31.8982
 20
231.3888
  0
VERTEX
  8
0
 10
31.8682
 20
231.3577
  0
VERTEX
  8
0
 10
31.8272
 20
231.3388
  0
VERTEX
  8
0
 10
31.7754
 20
231.3323
  0
VERTEX
  8
0
 10
31.7349
 20
231.335
  0
VERTEX
  8
0
 10
31.6952
 20
231.3431
  0
VERTEX
  8
0
 10
31.6952
 20
231.3431
  0
SEQEND
  0
POLYLINE
  8
0
 66
     1
 10
0
 20
0
  0
VERTEX
  8
0
 10
32.483
 20
231.7693
  0
VERTEX
  8
0
 10
32.5882
 20
231.7564
  0
VERTEX
  8
0
 10
32.5785
 20
231.7257
  0
VERTEX
  8
0
 10
32.5665
 20
231.6977
  0
VERTEX
  8
0
 10
32.5523
 20
231.6724
  0
VERTEX
  8
0
 10
32.5359
 20
231.6497
  0
VERTEX
  8
0
 10
32.5172
 20
231.6297
  0
VERTEX
  8
0
 10
32.4964
 20
231.6123
  0
VERTEX
  8
0
 10
32.4733
 20
231.5977
  0
VERTEX
  8
0
 10
32.448
 20
231.5857
  0
VERTEX
  8
0
 10
32.4205
 20
231.5763
  0
VERTEX
  8
0
 10
32.3908
 20
231.5697
  0
VERTEX
  8
0
 10
32.3589
 20
231.5657
  0
VERTEX
  8
0
 10
32.3247
 20
231.5643
  0
VERTEX
  8
0
 10
32.2622
 20
231.5693
  0
VERTEX
  8
0
 10
32.2065
 20
231.5844
  0
VERTEX
  8
0
 10
32.1578
 20
231.6095
  0
VERTEX
  8
0
 10
32.116
 20
231.6447
  0
VERTEX
  8
0
 10
32.0884
 20
231.6795
  0
VERTEX
  8
0
 10
32.0669
 20
231.7195
  0
VERTEX
  8
0
 10
32.0515
 20
231.7648
  0
VERTEX
  8
0
 10
32.0423
 20
231.8154
  0
VERTEX
  8
0
 10
32.0392
 20
231.8713
  0
VERTEX
  8
0
 10
32.0435
 20
231.9374
  0
VERTEX
  8
0
 10
32.0564
 20
231.9968
  0
VERTEX
  8
0
 10
32.0779
 20
232.0495
  0
VERTEX
  8
0
 10
32.108
 20
232.0956
  0
VERTEX
  8
0
 10
32.1407
 20
232.129
  0
VERTEX
  8
0
 10
32.1781
 20
232.1549
  0
VERTEX
  8
0
 10
32.2203
 20
232.1735
  0
VERTEX
  8
0
 10
32.2673
 20
232.1846
  0
VERTEX
  8
0
 10
32.3191
 20
232.1883
  0
VERTEX
  8
0
 10
32.3696
 20
232.1846
  0
VERTEX
  8
0
 10
32.4153
 20
232.1736
  0
VERTEX
  8
0
 10
32.4564
 20
232.1551
  0
VERTEX
  8
0
 10
32.4928
 20
232.1293
  0
VERTEX
  8
0
 10
32.5245
 20
232.0961
  0
VERTEX
  8
0
 10
32.5539
 20
232.0505
  0
VERTEX
  8
0
 10
32.5748
 20
231.9985
  0
VERTEX
  8
0
 10
32.5874
 20
231.9402
  0
VERTEX
  8
0
 10
32.5916
 20
231.8754
  0
VERTEX
  8
0
 10
32.5915
 20
231.8613
  0
VERTEX
  8
0
 10
32.591
 20
231.8483
  0
VERTEX
  8
0
 10
32.1432
 20
231.8483
  0
VERTEX
  8
0
 10
32.1575
 20
231.7705
  0
VERTEX
  8
0
 10
32.1913
 20
231.7087
  0
VERTEX
  8
0
 10
32.228
 20
231.6752
  0
VERTEX
  8
0
 10
32.2725
 20
231.655
  0
VERTEX
  8
0
 10
32.3247
 20
231.6483
  0
VERTEX
  8
0
 10
32.3607
 20
231.6517
  0
VERTEX
  8
0
 10
32.3929
 20
231.6618
  0
VERTEX
  8
0
 10
32.4212
 20
231.6786
  0
VERTEX
  8
0
 10
32.4456
 20
231.7021
  0
VERTEX
  8
0
 10
32.4663
 20
231.7323
  0
VERTEX
  8
0
 10
32.483
 20
231.7693
  0
VERTEX
  8
0
 10
32.483
 20
231.7693
  0
SEQEND
  0
POLYLINE
  8
0
 66
     1
 10
0
 20
0
  0
VERTEX
  8
0
 10
32.1498
 20
231.9323
  0
VERTEX
  8
0
 10
32.4844
 20
231.9323
  0
VERTEX
  8
0
 10
32.4715
 20
231.9984
  0
VERTEX
  8
0
 10
32.446
 20
232.0457
  0
VERTEX
  8
0
 10
32.4105
 20
232.078
  0
VERTEX
  8
0
 10
32.3686
 20
232.0976
  0
VERTEX
  8
0
 10
32.3202
 20
232.1043
  0
VERTEX
  8
0
 10
32.2531
 20
232.0922
  0
VERTEX
  8
0
 10
32.1995
 20
232.0547
  0
VERTEX
  8
0
 10
32.1648
 20
232.0004
  0
VERTEX
  8
0
 10
32.1498
 20
231.9323
  0
VERTEX
  8
0
 10
32.1498
 20
231.9323
  0
SEQEND
  0
POLYLINE
  8
0
 66
     1
 10
0
 20
0
  0
VERTEX
  8
0
 10
33.1052
 20
231.7958
  0
VERTEX
  8
0
 10
33.2052
 20
231.7829
  0
VERTEX
  8
0
 10
33.1891
 20
231.7207
  0
VERTEX
  8
0
 10
33.162
 20
231.6678
  0
VERTEX
  8
0
 10
33.1239
 20
231.6243
  0
VERTEX
  8
0
 10
33.0754
 20
231.591
  0
VERTEX
  8
0
 10
33.0194
 20
231.571
  0
VERTEX
  8
0
 10
32.9558
 20
231.5643
  0
VERTEX
  8
0
 10
32.9044
 20
231.5679
  0
VERTEX
  8
0
 10
32.858
 20
231.5786
  0
VERTEX
  8
0
 10
32.8167
 20
231.5965
  0
VERTEX
  8
0
 10
32.7804
 20
231.6215
  0
VERTEX
  8
0
 10
32.7492
 20
231.6537
  0
VERTEX
  8
0
 10
32.7204
 20
231.6985
  0
VERTEX
  8
0
 10
32.6997
 20
231.7501
  0
VERTEX
  8
0
 10
32.6874
 20
231.8086
  0
VERTEX
  8
0
 10
32.6832
 20
231.8741
  0
VERTEX
  8
0
 10
32.6848
 20
231.9183
  0
VERTEX
  8
0
 10
32.6896
 20
231.9591
  0
VERTEX
  8
0
 10
32.6977
 20
231.9966
  0
VERTEX
  8
0
 10
32.7089
 20
232.0308
  0
VERTEX
  8
0
 10
32.7233
 20
232.0617
  0
VERTEX
  8
0
 10
32.7409
 20
232.0892
  0
VERTEX
  8
0
 10
32.7617
 20
232.1134
  0
VERTEX
  8
0
 10
32.7858
 20
232.1342
  0
VERTEX
  8
0
 10
32.813
 20
232.1518
  0
VERTEX
  8
0
 10
32.8818
 20
232.1789
  0
VERTEX
  8
0
 10
32.9563
 20
232.1883
  0
VERTEX
  8
0
 10
33.0436
 20
232.1766
  0
VERTEX
  8
0
 10
33.1146
 20
232.1403
  0
VERTEX
  8
0
 10
33.1515
 20
232.103
  0
VERTEX
  8
0
 10
33.1785
 20
232.0561
  0
VERTEX
  8
0
 10
33.1955
 20
231.9994
  0
VERTEX
  8
0
 10
33.0967
 20
231.9843
  0
VERTEX
  8
0
 10
33.0873
 20
232.0161
  0
VERTEX
  8
0
 10
33.0745
 20
232.0431
  0
VERTEX
  8
0
 10
33.0583
 20
232.0651
  0
VERTEX
  8
0
 10
33.0388
 20
232.0823
  0
VERTEX
  8
0
 10
33.0159
 20
232.0945
  0
VERTEX
  8
0
 10
32.9897
 20
232.1019
  0
VERTEX
  8
0
 10
32.96
 20
232.1043
  0
VERTEX
  8
0
 10
32.9168
 20
232.0999
  0
VERTEX
  8
0
 10
32.8796
 20
232.0865
  0
VERTEX
  8
0
 10
32.8484
 20
232.0643
  0
VERTEX
  8
0
 10
32.8234
 20
232.0332
  0
VERTEX
  8
0
 10
32.7963
 20
231.9647
  0
VERTEX
  8
0
 10
32.7872
 20
231.8769
  0
VERTEX
  8
0
 10
32.7881
 20
231.8455
  0
VERTEX
  8
0
 10
32.7906
 20
231.8165
  0
VERTEX
  8
0
 10
32.7949
 20
231.7898
  0
VERTEX
  8
0
 10
32.8009
 20
231.7654
  0
VERTEX
  8
0
 10
32.8086
 20
231.7433
  0
VERTEX
  8
0
 10
32.8179
 20
231.7235
  0
VERTEX
  8
0
 10
32.829
 20
231.706
  0
VERTEX
  8
0
 10
32.8418
 20
231.6909
  0
VERTEX
  8
0
 10
32.8563
 20
231.678
  0
VERTEX
  8
0
 10
32.8725
 20
231.6674
  0
VERTEX
  8
0
 10
32.8905
 20
231.6592
  0
VERTEX
  8
0
 10
32.9101
 20
231.6533
  0
VERTEX
  8
0
 10
32.9314
 20
231.6496
  0
VERTEX
  8
0
 10
32.9544
 20
231.6483
  0
VERTEX
  8
0
 10
32.9818
 20
231.65
  0
VERTEX
  8
0
 10
33.0066
 20
231.6554
  0
VERTEX
  8
0
 10
33.0287
 20
231.6645
  0
VERTEX
  8
0
 10
33.0481
 20
231.6772
  0
VERTEX
  8
0
 10
33.0648
 20
231.6936
  0
VERTEX
  8
0
 10
33.0789
 20
231.7136
  0
VERTEX
  8
0
 10
33.0904
 20
231.7374
  0
VERTEX
  8
0
 10
33.0991
 20
231.7648
  0
VERTEX
  8
0
 10
33.1052
 20
231.7958
  0
VERTEX
  8
0
 10
33.1052
 20
231.7958
  0
SEQEND
  0
POLYLINE
  8
0
 66
     1
 10
0
 20
0
  0
VERTEX
  8
0
 10
33.5129
 20
231.6671
  0
VERTEX
  8
0
 10
33.5275
 20
231.5774
  0
VERTEX
  8
0
 10
33.4869
 20
231.5709
  0
VERTEX
  8
0
 10
33.4513
 20
231.5683
  0
VERTEX
  8
0
 10
33.4055
 20
231.5718
  0
VERTEX
  8
0
 10
33.3689
 20
231.5836
  0
VERTEX
  8
0
 10
33.3416
 20
231.6034
  0
VERTEX
  8
0
 10
33.3235
 20
231.6315
  0
VERTEX
  8
0
 10
33.3167
 20
231.6579
  0
VERTEX
  8
0
 10
33.3126
 20
231.6979
  0
VERTEX
  8
0
 10
33.3112
 20
231.7516
  0
VERTEX
  8
0
 10
33.3112
 20
232.0963
  0
VERTEX
  8
0
 10
33.2352
 20
232.0963
  0
VERTEX
  8
0
 10
33.2352
 20
232.1763
  0
VERTEX
  8
0
 10
33.3112
 20
232.1763
  0
VERTEX
  8
0
 10
33.3112
 20
232.3238
  0
VERTEX
  8
0
 10
33.4112
 20
232.3843
  0
VERTEX
  8
0
 10
33.4112
 20
232.1763
  0
VERTEX
  8
0
 10
33.5112
 20
232.1763
  0
VERTEX
  8
0
 10
33.5112
 20
232.0963
  0
VERTEX
  8
0
 10
33.4112
 20
232.0963
  0
VERTEX
  8
0
 10
33.4112
 20
231.747
  0
VERTEX
  8
0
 10
33.4117
 20
231.72
  0
VERTEX
  8
0
 10
33.4129
 20
231.7054
  0
VERTEX
  8
0
 10
33.4201
 20
231.6854
  0
VERTEX
  8
0
 10
33.4337
 20
231.6716
  0
VERTEX
  8
0
 10
33.448
 20
231.6664
  0
VERTEX
  8
0
 10
33.4685
 20
231.6643
  0
VERTEX
  8
0
 10
33.4878
 20
231.6647
  0
VERTEX
  8
0
 10
33.5129
 20
231.6671
  0
VERTEX
  8
0
 10
33.5129
 20
231.6671
  0
SEQEND
  0
POLYLINE
  8
0
 66
     1
 10
0
 20
0
  0
VERTEX
  8
0
 10
34.1472
 20
231.5723
  0
VERTEX
  8
0
 10
34.1472
 20
232.4043
  0
VERTEX
  8
0
 10
34.2472
 20
232.4043
  0
VERTEX
  8
0
 10
34.2472
 20
231.5723
  0
VERTEX
  8
0
 10
34.1472
 20
231.5723
  0
SEQEND
  0
POLYLINE
  8
0
 66
     1
 10
0
 20
0
  0
VERTEX
  8
0
 10
34.815
 20
231.7693
  0
VERTEX
  8
0
 10
34.9202
 20
231.7564
  0
VERTEX
  8
0
 10
34.9105
 20
231.7257
  0
VERTEX
  8
0
 10
34.8985
 20
231.6977
  0
VERTEX
  8
0
 10
34.8843
 20
231.6724
  0
VERTEX
  8
0
 10
34.8679
 20
231.6497
  0
VERTEX
  8
0
 10
34.8492
 20
231.6297
  0
VERTEX
  8
0
 10
34.8284
 20
231.6123
  0
VERTEX
  8
0
 10
34.8053
 20
231.5977
  0
VERTEX
  8
0
 10
34.78
 20
231.5857
  0
VERTEX
  8
0
 10
34.7525
 20
231.5763
  0
VERTEX
  8
0
 10
34.7228
 20
231.5697
  0
VERTEX
  8
0
 10
34.6909
 20
231.5657
  0
VERTEX
  8
0
 10
34.6567
 20
231.5643
  0
VERTEX
  8
0
 10
34.5942
 20
231.5693
  0
VERTEX
  8
0
 10
34.5385
 20
231.5844
  0
VERTEX
  8
0
 10
34.4898
 20
231.6095
  0
VERTEX
  8
0
 10
34.448
 20
231.6447
  0
VERTEX
  8
0
 10
34.4204
 20
231.6795
  0
VERTEX
  8
0
 10
34.3989
 20
231.7195
  0
VERTEX
  8
0
 10
34.3835
 20
231.7648
  0
VERTEX
  8
0
 10
34.3743
 20
231.8154
  0
VERTEX
  8
0
 10
34.3712
 20
231.8713
  0
VERTEX
  8
0
 10
34.3755
 20
231.9374
  0
VERTEX
  8
0
 10
34.3884
 20
231.9968
  0
VERTEX
  8
0
 10
34.4099
 20
232.0495
  0
VERTEX
  8
0
 10
34.44
 20
232.0956
  0
VERTEX
  8
0
 10
34.4727
 20
232.129
  0
VERTEX
  8
0
 10
34.5101
 20
232.1549
  0
VERTEX
  8
0
 10
34.5523
 20
232.1735
  0
VERTEX
  8
0
 10
34.5993
 20
232.1846
  0
VERTEX
  8
0
 10
34.6511
 20
232.1883
  0
VERTEX
  8
0
 10
34.7016
 20
232.1846
  0
VERTEX
  8
0
 10
34.7473
 20
232.1736
  0
VERTEX
  8
0
 10
34.7884
 20
232.1551
  0
VERTEX
  8
0
 10
34.8248
 20
232.1293
  0
VERTEX
  8
0
 10
34.8565
 20
232.0961
  0
VERTEX
  8
0
 10
34.8859
 20
232.0505
  0
VERTEX
  8
0
 10
34.9068
 20
231.9985
  0
VERTEX
  8
0
 10
34.9194
 20
231.9402
  0
VERTEX
  8
0
 10
34.9236
 20
231.8754
  0
VERTEX
  8
0
 10
34.9235
 20
231.8613
  0
VERTEX
  8
0
 10
34.923
 20
231.8483
  0
VERTEX
  8
0
 10
34.4752
 20
231.8483
  0
VERTEX
  8
0
 10
34.4895
 20
231.7705
  0
VERTEX
  8
0
 10
34.5233
 20
231.7087
  0
VERTEX
  8
0
 10
34.56
 20
231.6752
  0
VERTEX
  8
0
 10
34.6045
 20
231.655
  0
VERTEX
  8
0
 10
34.6567
 20
231.6483
  0
VERTEX
  8
0
 10
34.6927
 20
231.6517
  0
VERTEX
  8
0
 10
34.7249
 20
231.6618
  0
VERTEX
  8
0
 10
34.7532
 20
231.6786
  0
VERTEX
  8
0
 10
34.7776
 20
231.7021
  0
VERTEX
  8
0
 10
34.7983
 20
231.7323
  0
VERTEX
  8
0
 10
34.815
 20
231.7693
  0
VERTEX
  8
0
 10
34.815
 20
231.7693
  0
SEQEND
  0
POLYLINE
  8
0
 66
     1
 10
0
 20
0
  0
VERTEX
  8
0
 10
34.4818
 20
231.9323
  0
VERTEX
  8
0
 10
34.8164
 20
231.9323
  0
VERTEX
  8
0
 10
34.8035
 20
231.9984
  0
VERTEX
  8
0
 10
34.778
 20
232.0457
  0
VERTEX
  8
0
 10
34.7425
 20
232.078
  0
VERTEX
  8
0
 10
34.7006
 20
232.0976
  0
VERTEX
  8
0
 10
34.6522
 20
232.1043
  0
VERTEX
  8
0
 10
34.5851
 20
232.0922
  0
VERTEX
  8
0
 10
34.5315
 20
232.0547
  0
VERTEX
  8
0
 10
34.4968
 20
232.0004
  0
VERTEX
  8
0
 10
34.4818
 20
231.9323
  0
VERTEX
  8
0
 10
34.4818
 20
231.9323
  0
SEQEND
  0
POLYLINE
  8
0
 66
     1
 10
0
 20
0
  0
VERTEX
  8
0
 10
35.0672
 20
231.5723
  0
VERTEX
  8
0
 10
35.0672
 20
232.0963
  0
VERTEX
  8
0
 10
34.9792
 20
232.0963
  0
VERTEX
  8
0
 10
34.9792
 20
232.1763
  0
VERTEX
  8
0
 10
35.0672
 20
232.1763
  0
VERTEX
  8
0
 10
35.0672
 20
232.2395
  0
VERTEX
  8
0
 10
35.0699
 20
232.292
  0
VERTEX
  8
0
 10
35.078
 20
232.3285
  0
VERTEX
  8
0
 10
35.0915
 20
232.355
  0
VERTEX
  8
0
 10
35.11
 20
232.3768
  0
VERTEX
  8
0
 10
35.1335
 20
232.3938
  0
VERTEX
  8
0
 10
35.1621
 20
232.4061
  0
VERTEX
  8
0
 10
35.1956
 20
232.4136
  0
VERTEX
  8
0
 10
35.2342
 20
232.4163
  0
VERTEX
  8
0
 10
35.2785
 20
232.4141
  0
VERTEX
  8
0
 10
35.3296
 20
232.4063
  0
VERTEX
  8
0
 10
35.3141
 20
232.3188
  0
VERTEX
  8
0
 10
35.2823
 20
232.3227
  0
VERTEX
  8
0
 10
35.2533
 20
232.3243
  0
VERTEX
  8
0
 10
35.2114
 20
232.319
  0
VERTEX
  8
0
 10
35.1844
 20
232.3019
  0
VERTEX
  8
0
 10
35.1715
 20
232.2739
  0
VERTEX
  8
0
 10
35.1672
 20
232.2313
  0
VERTEX
  8
0
 10
35.1672
 20
232.1763
  0
VERTEX
  8
0
 10
35.2872
 20
232.1763
  0
VERTEX
  8
0
 10
35.2872
 20
232.0963
  0
VERTEX
  8
0
 10
35.1672
 20
232.0963
  0
VERTEX
  8
0
 10
35.1672
 20
231.5723
  0
VERTEX
  8
0
 10
35.0672
 20
231.5723
  0
SEQEND
  0
POLYLINE
  8
0
 66
     1
 10
0
 20
0
  0
VERTEX
  8
0
 10
35.5889
 20
231.6671
  0
VERTEX
  8
0
 10
35.6035
 20
231.5774
  0
VERTEX
  8
0
 10
35.5629
 20
231.5709
  0
VERTEX
  8
0
 10
35.5273
 20
231.5683
  0
VERTEX
  8
0
 10
35.4815
 20
231.5718
  0
VERTEX
  8
0
 10
35.4449
 20
231.5836
  0
VERTEX
  8
0
 10
35.4176
 20
231.6034
  0
VERTEX
  8
0
 10
35.3995
 20
231.6315
  0
VERTEX
  8
0
 10
35.3927
 20
231.6579
  0
VERTEX
  8
0
 10
35.3886
 20
231.6979
  0
VERTEX
  8
0
 10
35.3872
 20
231.7516
  0
VERTEX
  8
0
 10
35.3872
 20
232.0963
  0
VERTEX
  8
0
 10
35.3112
 20
232.0963
  0
VERTEX
  8
0
 10
35.3112
 20
232.1763
  0
VERTEX
  8
0
 10
35.3872
 20
232.1763
  0
VERTEX
  8
0
 10
35.3872
 20
232.3238
  0
VERTEX
  8
0
 10
35.4872
 20
232.3843
  0
VERTEX
  8
0
 10
35.4872
 20
232.1763
  0
VERTEX
  8
0
 10
35.5872
 20
232.1763
  0
VERTEX
  8
0
 10
35.5872
 20
232.0963
  0
VERTEX
  8
0
 10
35.4872
 20
232.0963
  0
VERTEX
  8
0
 10
35.4872
 20
231.747
  0
VERTEX
  8
0
 10
35.4877
 20
231.72
  0
VERTEX
  8
0
 10
35.4889
 20
231.7054
  0
VERTEX
  8
0
 10
35.4961
 20
231.6854
  0
VERTEX
  8
0
 10
35.5097
 20
231.6716
  0
VERTEX
  8
0
 10
35.524
 20
231.6664
  0
VERTEX
  8
0
 10
35.5445
 20
231.6643
  0
VERTEX
  8
0
 10
35.5638
 20
231.6647
  0
VERTEX
  8
0
 10
35.5889
 20
231.6671
  0
VERTEX
  8
0
 10
35.5889
 20
231.6671
  0
SEQEND
  0
POLYLINE
  8
0
 66
     1
 10
0
 20
0
  0
VERTEX
  8
0
 10
35.6512
 20
231.7553
  0
VERTEX
  8
0
 10
35.7514
 20
231.7709
  0
VERTEX
  8
0
 10
35.7576
 20
231.7422
  0
VERTEX
  8
0
 10
35.7676
 20
231.7173
  0
VERTEX
  8
0
 10
35.7813
 20
231.6962
  0
VERTEX
  8
0
 10
35.7987
 20
231.679
  0
VERTEX
  8
0
 10
35.8199
 20
231.6656
  0
VERTEX
  8
0
 10
35.8449
 20
231.656
  0
VERTEX
  8
0
 10
35.8736
 20
231.6502
  0
VERTEX
  8
0
 10
35.906
 20
231.6483
  0
VERTEX
  8
0
 10
35.9558
 20
231.6534
  0
VERTEX
  8
0
 10
35.9971
 20
231.6685
  0
VERTEX
  8
0
 10
36.0317
 20
231.6996
  0
VERTEX
  8
0
 10
36.0432
 20
231.7432
  0
VERTEX
  8
0
 10
36.0358
 20
231.7738
  0
VERTEX
  8
0
 10
36.0134
 20
231.7971
  0
VERTEX
  8
0
 10
35.9928
 20
231.8069
  0
VERTEX
  8
0
 10
35.9582
 20
231.8183
  0
VERTEX
  8
0
 10
35.9096
 20
231.8313
  0
VERTEX
  8
0
 10
35.8538
 20
231.8455
  0
VERTEX
  8
0
 10
35.8134
 20
231.8568
  0
VERTEX
  8
0
 10
35.7884
 20
231.865
  0
VERTEX
  8
0
 10
35.7278
 20
231.8963
  0
VERTEX
  8
0
 10
35.6892
 20
231.9363
  0
VERTEX
  8
0
 10
35.6727
 20
231.974
  0
VERTEX
  8
0
 10
35.6672
 20
232.0166
  0
VERTEX
  8
0
 10
35.6748
 20
232.067
  0
VERTEX
  8
0
 10
35.6977
 20
232.1103
  0
VERTEX
  8
0
 10
35.7357
 20
232.1468
  0
VERTEX
  8
0
 10
35.8021
 20
232.1776
  0
VERTEX
  8
0
 10
35.8883
 20
232.1883
  0
VERTEX
  8
0
 10
35.9537
 20
232.1835
  0
VERTEX
  8
0
 10
36.0121
 20
232.1681
  0
VERTEX
  8
0
 10
36.0586
 20
232.1439
  0
VERTEX
  8
0
 10
36.0918
 20
232.1119
  0
VERTEX
  8
0
 10
36.1126
 20
232.0729
  0
VERTEX
  8
0
 10
36.1263
 20
232.0209
  0
VERTEX
  8
0
 10
36.0262
 20
232.0074
  0
VERTEX
  8
0
 10
36.0199
 20
232.033
  0
VERTEX
  8
0
 10
36.0093
 20
232.0546
  0
VERTEX
  8
0
 10
35.9947
 20
232.0724
  0
VERTEX
  8
0
 10
35.9758
 20
232.0862
  0
VERTEX
  8
0
 10
35.9528
 20
232.0962
  0
VERTEX
  8
0
 10
35.9255
 20
232.1022
  0
VERTEX
  8
0
 10
35.8941
 20
232.1043
  0
VERTEX
  8
0
 10
35.8597
 20
232.1029
  0
VERTEX
  8
0
 10
35.8305
 20
232.0983
  0
VERTEX
  8
0
 10
35.8065
 20
232.0905
  0
VERTEX
  8
0
 10
35.7878
 20
232.0795
  0
VERTEX
  8
0
 10
35.7744
 20
232.0653
  0
VERTEX
  8
0
 10
35.7662
 20
232.048
  0
VERTEX
  8
0
 10
35.7632
 20
232.0274
  0
VERTEX
  8
0
 10
35.7661
 20
232.0092
  0
VERTEX
  8
0
 10
35.7757
 20
231.9918
  0
VERTEX
  8
0
 10
35.792
 20
231.9765
  0
VERTEX
  8
0
 10
35.8148
 20
231.9651
  0
VERTEX
  8
0
 10
35.8303
 20
231.96
  0
VERTEX
  8
0
 10
35.8603
 20
231.9514
  0
VERTEX
  8
0
 10
35.9048
 20
231.9393
  0
VERTEX
  8
0
 10
35.9701
 20
231.9208
  0
VERTEX
  8
0
 10
36.0204
 20
231.9051
  0
VERTEX
  8
0
 10
36.0555
 20
231.8921
  0
VERTEX
  8
0
 10
36.0883
 20
231.8743
  0
VERTEX
  8
0
 10
36.1139
 20
231.8515
  0
VERTEX
  8
0
 10
36.1323
 20
231.8237
  0
VERTEX
  8
0
 10
36.1434
 20
231.7908
  0
VERTEX
  8
0
 10
36.1472
 20
231.7529
  0
VERTEX
  8
0
 10
36.1401
 20
231.7041
  0
VERTEX
  8
0
 10
36.1174
 20
231.6575
  0
VERTEX
  8
0
 10
36.0945
 20
231.6292
  0
VERTEX
  8
0
 10
36.0667
 20
231.606
  0
VERTEX
  8
0
 10
36.034
 20
231.5879
  0
VERTEX
  8
0
 10
35.9965
 20
231.5749
  0
VERTEX
  8
0
 10
35.954
 20
231.5671
  0
VERTEX
  8
0
 10
35.9065
 20
231.5643
  0
VERTEX
  8
0
 10
35.8737
 20
231.5653
  0
VERTEX
  8
0
 10
35.843
 20
231.5685
  0
VERTEX
  8
0
 10
35.8145
 20
231.5741
  0
VERTEX
  8
0
 10
35.7882
 20
231.5819
  0
VERTEX
  8
0
 10
35.7642
 20
231.592
  0
VERTEX
  8
0
 10
35.7423
 20
231.6044
  0
VERTEX
  8
0
 10
35.7227
 20
231.6191
  0
VERTEX
  8
0
 10
35.7052
 20
231.6361
  0
VERTEX
  8
0
 10
35.69
 20
231.6554
  0
VERTEX
  8
0
 10
35.677
 20
231.6769
  0
VERTEX
  8
0
 10
35.6662
 20
231.7007
  0
VERTEX
  8
0
 10
35.6576
 20
231.7269
  0
VERTEX
  8
0
 10
35.6512
 20
231.7553
  0
VERTEX
  8
0
 10
35.6512
 20
231.7553
  0
SEQEND
  0
POLYLINE
  8
0
 66
     1
 10
0
 20
0
  0
VERTEX
  8
0
 10
36.2992
 20
231.5723
  0
VERTEX
  8
0
 10
36.2992
 20
231.6923
  0
VERTEX
  8
0
 10
36.4152
 20
231.6923
  0
VERTEX
  8
0
 10
36.4152
 20
231.5723
  0
VERTEX
  8
0
 10
36.2992
 20
231.5723
  0
SEQEND
  0
LINE
  8
0
 10
20
 20
230.9
 11
20
 21
228.1
  0
LINE
  8
0
 10
20.8971
 20
230.196
 11
20.8988
 21
230.1997
  0
ARC
  8
0
 10
20.7228
 20
230.2755
 40
0.19155
 50
336.6854
 51
337.6696
  0
ARC
  8
0
 10
20.6619
 20
230.3006
 40
0.257415
 50
337.6641
 51
338.5131
  0
ARC
  8
0
 10
20.697
 20
230.2867
 40
0.219706
 50
338.5147
 51
340.6268
  0
ARC
  8
0
 10
20.8638
 20
230.2281
 40
0.0428985
 50
340.6298
 51
345.4107
  0
ARC
  8
0
 10
20.8515
 20
230.2313
 40
0.0555807
 50
345.4077
 51
356.8507
  0
ARC
  8
0
 10
20.5936
 20
230.2282
 40
0.313405
 50
0.0006
 51
2.6039
  0
LINE
  8
0
 10
20.9067
 20
230.2425
 11
20.9033
 21
230.2767
  0
ARC
  8
0
 10
20.5742
 20
230.2435
 40
0.330775
 50
5.7517
 51
10.3144
  0
ARC
  8
0
 10
20.8383
 20
230.2916
 40
0.0622985
 50
10.3147
 51
20.8403
  0
ARC
  8
0
 10
20.999
 20
230.3528
 40
0.109708
 50
187.4592
 51
200.8404
  0
ARC
  8
0
 10
20.8942
 20
230.3386
 40
0.00397654
 50
111.4939
 51
179.9986
  0
LINE
  8
0
 10
20.8928
 20
230.3423
 11
20.8958
 21
230.343
  0
ARC
  8
0
 10
20.8945
 20
230.3482
 40
0.00533803
 50
284.0384
 51
303.0938
  0
ARC
  8
0
 10
20.8935
 20
230.3497
 40
0.00719462
 50
303.0895
 51
319.4839
  0
ARC
  8
0
 10
20.8895
 20
230.3531
 40
0.0123668
 50
319.4889
 51
331.4281
  0
ARC
  8
0
 10
20.8939
 20
230.3507
 40
0.00740082
 50
331.4223
 51
346.8743
  0
ARC
  8
0
 10
20.8721
 20
230.355
 40
0.029602
 50
348.305
 51
359.9992
  0
ARC
  8
0
 10
20.8566
 20
230.3539
 40
0.0451061
 50
1.4291
 51
11.9883
  0
ARC
  8
0
 10
21.3348
 20
230.4555
 40
0.44376
 50
189.6098
 51
191.9882
  0
ARC
  8
0
 10
20.9242
 20
230.3857
 40
0.027301
 50
179.9979
 51
189.1782
  0
ARC
  8
0
 10
20.9297
 20
230.3855
 40
0.0327197
 50
166.2478
 51
179.5706
  0
ARC
  8
0
 10
21.1245
 20
230.3378
 40
0.233354
 50
161.2689
 51
166.2479
  0
ARC
  8
0
 10
20.9803
 20
230.3867
 40
0.08103
 50
153.7362
 51
161.2685
  0
ARC
  8
0
 10
20.9207
 20
230.4161
 40
0.0146357
 50
135.9553
 51
153.737
  0
LINE
  8
0
 10
20.9102
 20
230.4263
 11
20.9165
 21
230.4328
  0
LINE
  8
0
 10
20.9165
 20
230.4328
 11
20.9194
 21
230.4417
  0
ARC
  8
0
 10
20.9298
 20
230.4367
 40
0.0115518
 50
132.163
 51
154.3064
  0
ARC
  8
0
 10
20.9406
 20
230.4247
 40
0.0276547
 50
117.9042
 51
132.1634
  0
LINE
  8
0
 10
20.9277
 20
230.4492
 11
20.9415
 21
230.4565
  0
LINE
  8
0
 10
20.9415
 20
230.4565
 11
20.9542
 21
230.4638
  0
ARC
  8
0
 10
20.9983
 20
230.3862
 40
0.0892926
 50
116.5919
 51
119.6319
  0
ARC
  8
0
 10
22.5472
 20
227.2921
 40
3.54943
 50
116.1091
 51
116.5912
  0
ARC
  8
0
 10
20.8639
 20
230.7266
 40
0.275399
 50
296.1088
 51
299.8955
  0
ARC
  8
0
 10
20.9425
 20
230.59
 40
0.117805
 50
299.8967
 51
305.6878
  0
ARC
  8
0
 10
20.9439
 20
230.588
 40
0.115357
 50
305.6864
 51
310.9792
  0
ARC
  8
0
 10
20.7763
 20
230.7809
 40
0.370934
 50
310.9803
 51
313.9312
  0
ARC
  8
0
 10
21.1096
 20
230.4349
 40
0.109476
 50
125.7458
 51
133.931
  0
ARC
  8
0
 10
21.064
 20
230.4982
 40
0.0315161
 50
110.4574
 51
125.7452
  0
ARC
  8
0
 10
20.9851
 20
230.7097
 40
0.194202
 50
290.458
 51
296.0738
  0
ARC
  8
0
 10
21.0679
 20
230.5407
 40
0.00603043
 50
296.0727
 51
328.3539
  0
LINE
  8
0
 10
21.073
 20
230.5375
 11
21.0742
 21
230.5459
  0
ARC
  8
0
 10
21.0953
 20
230.5429
 40
0.0212662
 50
159.9573
 51
171.9032
  0
ARC
  8
0
 10
21.1285
 20
230.5308
 40
0.0566045
 50
152.6429
 51
159.957
  0
ARC
  8
0
 10
21.1289
 20
230.5306
 40
0.0570619
 50
144.4135
 51
152.6418
  0
ARC
  8
0
 10
21.1141
 20
230.5412
 40
0.0388216
 50
134.4363
 51
144.416
  0
ARC
  8
0
 10
21.136
 20
230.5188
 40
0.0701504
 50
129.1216
 51
134.434
  0
ARC
  8
0
 10
21.1467
 20
230.5056
 40
0.0871604
 50
124.3579
 51
129.1235
  0
ARC
  8
0
 10
21.1755
 20
230.4636
 40
0.138121
 50
119.597
 51
124.3566
  0
ARC
  8
0
 10
21.124
 20
230.5542
 40
0.0338259
 50
109.9719
 51
119.5979
  0
ARC
  8
0
 10
21.1212
 20
230.5618
 40
0.0257964
 50
93.3385
 51
109.9714
  0
ARC
  8
0
 10
21.1223
 20
230.5435
 40
0.0440826
 50
80.6334
 51
93.3386
  0
ARC
  8
0
 10
21.1186
 20
230.5214
 40
0.0665193
 50
75.2243
 51
80.6338
  0
ARC
  8
0
 10
21.1179
 20
230.5187
 40
0.0693436
 50
69.9251
 51
75.2233
  0
ARC
  8
0
 10
21.1196
 20
230.5233
 40
0.0644514
 50
63.5031
 51
69.9265
  0
ARC
  8
0
 10
21.1262
 20
230.5365
 40
0.0496261
 50
56.1797
 51
63.5011
  0
ARC
  8
0
 10
21.1383
 20
230.5545
 40
0.027963
 50
44.1314
 51
56.1803
  0
ARC
  8
0
 10
21.1483
 20
230.5642
 40
0.0140222
 50
27.0864
 51
44.1324
  0
LINE
  8
0
 10
21.1608
 20
230.5706
 11
21.1647
 21
230.5628
  0
ARC
  8
0
 10
21.184
 20
230.5727
 40
0.0216371
 50
207.0842
 51
218.093
  0
ARC
  8
0
 10
21.1771
 20
230.5673
 40
0.0128996
 50
218.0973
 51
232.3697
  0
ARC
  8
0
 10
21.0034
 20
230.342
 40
0.271565
 50
51.5458
 51
52.3666
  0
ARC
  8
0
 10
21.1663
 20
230.5471
 40
0.00972727
 50
47.2109
 51
51.5506
  0
ARC
  8
0
 10
21.1694
 20
230.5504
 40
0.00517054
 50
17.3483
 51
47.2003
  0
ARC
  8
0
 10
21.1659
 20
230.552
 40
0.00840469
 50
348.153
 51
360.0059
  0
ARC
  8
0
 10
21.1719
 20
230.5515
 40
0.00253367
 50
297.3926
 51
330.7887
  0
ARC
  8
0
 10
21.1638
 20
230.5671
 40
0.0201665
 50
285.7055
 51
297.3968
  0
ARC
  8
0
 10
21.1536
 20
230.6035
 40
0.0579627
 50
282.4534
 51
285.7032
  0
ARC
  8
0
 10
21.158
 20
230.5836
 40
0.0375334
 50
278.4168
 51
282.4558
  0
ARC
  8
0
 10
21.1738
 20
230.4765
 40
0.0707275
 50
98.4167
 51
103.4073
  0
ARC
  8
0
 10
21.1578
 20
230.5437
 40
0.0016278
 50
103.3983
 51
136.7508
  0
ARC
  8
0
 10
21.159
 20
230.5427
 40
0.00317261
 50
138.5215
 51
180.0018
  0
ARC
  8
0
 10
21.2221
 20
230.5447
 40
0.0663446
 50
181.76
 51
190.9945
  0
ARC
  8
0
 10
21.0132
 20
230.5247
 40
0.143989
 50
360
 51
362.9275
  0
ARC
  8
0
 10
21.1552
 20
230.525
 40
0.00202583
 50
285.4331
 51
351.9314
  0
LINE
  8
0
 10
21.1557
 20
230.5231
 11
21.1499
 21
230.5215
  0
ARC
  8
0
 10
21.1505
 20
230.5194
 40
0.00213461
 50
105.4333
 51
144.9436
  0
ARC
  8
0
 10
21.1844
 20
230.4956
 40
0.0434983
 50
144.9439
 51
153.5326
  0
ARC
  8
0
 10
21.1211
 20
230.5271
 40
0.027121
 50
323.8402
 51
333.5315
  0
ARC
  8
0
 10
21.1209
 20
230.5273
 40
0.0273576
 50
314.1943
 51
323.8433
  0
ARC
  8
0
 10
21.1174
 20
230.5309
 40
0.0323779
 50
305.022
 51
314.1925
  0
ARC
  8
0
 10
21.1121
 20
230.5385
 40
0.0416578
 50
296.9397
 51
305.0223
  0
LINE
  8
0
 10
21.131
 20
230.5013
 11
21.1223
 21
230.4969
  0
ARC
  8
0
 10
21.1312
 20
230.4794
 40
0.0196585
 50
116.9398
 51
143.8751
  0
ARC
  8
0
 10
21.1244
 20
230.4846
 40
0.0110959
 50
144.6122
 51
180.0007
  0
ARC
  8
0
 10
21.1246
 20
230.4847
 40
0.0112629
 50
180.737
 51
194.4253
  0
ARC
  8
0
 10
21.266
 20
230.5211
 40
0.157259
 50
194.4253
 51
198.0804
  0
ARC
  8
0
 10
21.0987
 20
230.4664
 40
0.0187339
 50
7.8104
 51
18.0806
  0
ARC
  8
0
 10
20.5125
 20
230.386
 40
0.610416
 50
6.0131
 51
7.81
  0
ARC
  8
0
 10
21.2112
 20
230.4597
 40
0.0922168
 50
186.0132
 51
192.7421
  0
ARC
  8
0
 10
21.2134
 20
230.4601
 40
0.0944648
 50
192.742
 51
199.3903
  0
ARC
  8
0
 10
21.1963
 20
230.4541
 40
0.0762894
 50
199.3898
 51
208.8829
  0
ARC
  8
0
 10
21.1444
 20
230.4255
 40
0.0170475
 50
208.884
 51
229.0471
  0
LINE
  8
0
 10
21.1332
 20
230.4126
 11
21.1451
 21
230.4024
  0
ARC
  8
0
 10
21.138
 20
230.3942
 40
0.0107792
 50
33.0769
 51
49.0443
  0
ARC
  8
0
 10
21.1441
 20
230.3982
 40
0.00350302
 50
4.8806
 51
33.0828
  0
LINE
  8
0
 10
21.1476
 20
230.3985
 11
21.1442
 21
230.3855
  0
LINE
  8
0
 10
21.1442
 20
230.3855
 11
21.144
 21
230.3581
  0
LINE
  8
0
 10
21.144
 20
230.3581
 11
21.1415
 21
230.338
  0
ARC
  8
0
 10
21.4452
 20
230.332
 40
0.303783
 50
178.8677
 51
180.001
  0
ARC
  8
0
 10
21.3699
 20
230.3446
 40
0.22886
 50
183.1562
 51
186.5022
  0
ARC
  8
0
 10
20.498
 20
230.2452
 40
0.64871
 50
6.0768
 51
6.5029
  0
LINE
  8
0
 10
21.1431
 20
230.3139
 11
21.1449
 21
230.2967
  0
ARC
  8
0
 10
21.3951
 20
230.3228
 40
0.251583
 50
185.953
 51
187.8473
  0
ARC
  8
0
 10
21.2343
 20
230.3006
 40
0.0892283
 50
187.8496
 51
191.0305
  0
ARC
  8
0
 10
21.0891
 20
230.2723
 40
0.058695
 50
1.2995
 51
11.0301
  0
ARC
  8
0
 10
21.1429
 20
230.2736
 40
0.00483373
 50
326.887
 51
359.9962
  0
ARC
  8
0
 10
21.1444
 20
230.2728
 40
0.00316103
 50
295.4641
 51
325.5934
  0
ARC
  8
0
 10
21.0868
 20
230.3936
 40
0.136959
 50
290.9373
 51
295.4628
  0
ARC
  8
0
 10
21.147
 20
230.2365
 40
0.0312701
 50
110.9369
 51
126.6142
  0
ARC
  8
0
 10
21.15
 20
230.2324
 40
0.0363271
 50
126.616
 51
141.1547
  0
ARC
  8
0
 10
21.2674
 20
230.1379
 40
0.187031
 50
141.1544
 51
143.2155
  0
ARC
  8
0
 10
21.3133
 20
230.1035
 40
0.24439
 50
143.2145
 51
145.0172
  0
ARC
  8
0
 10
21.1464
 20
230.2203
 40
0.0406984
 50
145.0175
 51
159.3255
  0
ARC
  8
0
 10
21.1143
 20
230.2347
 40
0.00602173
 50
180.0004
 51
202.7773
  0
LINE
  8
0
 10
21.1088
 20
230.2324
 11
21.1152
 21
230.2256
  0
ARC
  8
0
 10
21.1129
 20
230.2242
 40
0.0026431
 50
359.9944
 51
390.7931
  0
ARC
  8
0
 10
21.1027
 20
230.2271
 40
0.0131402
 50
329.1107
 51
347.35
  0
ARC
  8
0
 10
21.1017
 20
230.2277
 40
0.0143457
 50
316.6524
 51
329.1082
  0
ARC
  8
0
 10
21.1071
 20
230.2226
 40
0.00690137
 50
298.6553
 51
316.6532
  0
ARC
  8
0
 10
21.1005
 20
230.2348
 40
0.0207107
 50
282.9426
 51
298.6534
  0
ARC
  8
0
 10
21.0925
 20
230.2694
 40
0.0562645
 50
273.431
 51
282.944
  0
ARC
  8
0
 10
21.1738
 20
228.9139
 40
1.30167
 50
93.4301
 51
94.4296
  0
ARC
  8
0
 10
21.1025
 20
229.8341
 40
0.378689
 50
94.4307
 51
96.2837
  0
LINE
  8
0
 10
21.0611
 20
230.2105
 11
21.0259
 21
230.2067
  0
LINE
  8
0
 10
21.0259
 20
230.2067
 11
20.9918
 21
230.2049
  0
ARC
  8
0
 10
21.0177
 20
229.7204
 40
0.485186
 50
93.0629
 51
95.425
  0
ARC
  8
0
 10
21.0136
 20
229.7641
 40
0.441374
 50
95.4259
 51
97.9027
  0
ARC
  8
0
 10
20.5084
 20
233.4035
 40
3.23301
 50
277.4386
 51
277.902
  0
ARC
  8
0
 10
20.8747
 20
230.5981
 40
0.403766
 50
276.1284
 51
277.4401
  0
ARC
  8
0
 10
20.8906
 20
230.4502
 40
0.255033
 50
271.7712
 51
276.1269
  0
ARC
  8
0
 10
20.8984
 20
230.1969
 40
0.00154049
 50
213.2323
 51
271.7767
  0
LINE
  8
0
 10
20.8971
 20
230.196
 11
20.8971
 21
230.196
  0
LINE
  8
0
 10
21.3494
 20
230.382
 11
21.1577
 21
230.3721
  0
LINE
  8
0
 10
21.1577
 20
230.3721
 11
21.1577
 21
230.3547
  0
LINE
  8
0
 10
21.1577
 20
230.3547
 11
21.1606
 21
230.3137
  0
ARC
  8
0
 10
20.6398
 20
230.2198
 40
0.529207
 50
4.2261
 51
10.22
  0
ARC
  8
0
 10
21.1636
 20
230.2588
 40
0.00398964
 50
290.0175
 51
359.9993
  0
LINE
  8
0
 10
21.1649
 20
230.255
 11
21.1614
 21
230.254
  0
ARC
  8
0
 10
21.1697
 20
230.2246
 40
0.030632
 50
105.7912
 51
118.6532
  0
ARC
  8
0
 10
21.1752
 20
230.2146
 40
0.0419848
 50
118.6555
 51
129.6353
  0
ARC
  8
0
 10
21.2536
 20
230.12
 40
0.164869
 50
129.6338
 51
133.5652
  0
ARC
  8
0
 10
21.1525
 20
230.2262
 40
0.0182808
 50
133.5663
 51
145.3917
  0
ARC
  8
0
 10
21.1486
 20
230.2289
 40
0.0134788
 50
145.3894
 51
167.384
  0
ARC
  8
0
 10
21.1761
 20
230.224
 40
0.0414118
 50
169.106
 51
180.0009
  0
ARC
  8
0
 10
19.1311
 20
230.224
 40
2.00358
 50
359.6455
 51
360.0007
  0
ARC
  8
0
 10
21.128
 20
230.2118
 40
0.00663745
 50
337.6452
 51
357.9207
  0
ARC
  8
0
 10
21.1262
 20
230.2126
 40
0.00859036
 50
310.3556
 51
337.648
  0
ARC
  8
0
 10
21.1193
 20
230.2207
 40
0.0192366
 50
292.2154
 51
310.3577
  0
ARC
  8
0
 10
21.0838
 20
230.3076
 40
0.113076
 50
279.1364
 51
292.2147
  0
ARC
  8
0
 10
21.0704
 20
230.391
 40
0.197609
 50
269.2522
 51
279.1361
  0
ARC
  8
0
 10
21.067
 20
230.1302
 40
0.0632493
 50
89.2527
 51
96.4759
  0
ARC
  8
0
 10
21.8416
 20
223.3061
 40
6.93118
 50
96.4757
 51
97.165
  0
LINE
  8
0
 10
20.9771
 20
230.1831
 11
20.8765
 21
230.1705
  0
LINE
  8
0
 10
20.8765
 20
230.1705
 11
20.8861
 21
230.2055
  0
ARC
  8
0
 10
20.7829
 20
230.2348
 40
0.10728
 50
344.1286
 51
357.1126
  0
ARC
  8
0
 10
20.3399
 20
230.2294
 40
0.550205
 50
0.0003
 51
3.5247
  0
ARC
  8
0
 10
28.4468
 20
231.1126
 40
7.6053
 50
186.1279
 51
186.4118
  0
ARC
  8
0
 10
20.9959
 20
230.3126
 40
0.111629
 50
183.7806
 51
186.13
  0
ARC
  8
0
 10
20.7483
 20
230.2963
 40
0.13652
 50
3.778
 51
17.5283
  0
ARC
  8
0
 10
20.8742
 20
230.3361
 40
0.00450529
 50
17.5279
 51
99.9685
  0
LINE
  8
0
 10
20.8734
 20
230.3405
 11
20.8584
 21
230.3379
  0
ARC
  8
0
 10
20.8554
 20
230.3553
 40
0.0177137
 50
264.3439
 51
279.9682
  0
ARC
  8
0
 10
20.8986
 20
230.7916
 40
0.456153
 50
261.2754
 51
264.3451
  0
ARC
  8
0
 10
20.8265
 20
230.3218
 40
0.0191991
 50
81.275
 51
89.5783
  0
ARC
  8
0
 10
20.8031
 20
227.1527
 40
3.18835
 50
89.578
 51
90.2221
  0
ARC
  8
0
 10
20.7923
 20
229.949
 40
0.391979
 50
90.2229
 51
92.7059
  0
ARC
  8
0
 10
20.789
 20
230.0194
 40
0.321532
 50
92.7049
 51
95.4464
  0
ARC
  8
0
 10
20.7705
 20
230.2133
 40
0.126789
 50
95.4472
 51
104.2325
  0
ARC
  8
0
 10
20.7604
 20
230.2532
 40
0.0855973
 50
104.232
 51
114.9293
  0
ARC
  8
0
 10
20.7748
 20
230.222
 40
0.119976
 50
114.9297
 51
123.0551
  0
ARC
  8
0
 10
20.7881
 20
230.2017
 40
0.144222
 50
123.055
 51
130.465
  0
ARC
  8
0
 10
21.0796
 20
229.8599
 40
0.593453
 50
130.4654
 51
132.6004
  0
ARC
  8
0
 10
21.3917
 20
229.5205
 40
1.05454
 50
132.5997
 51
134.2015
  0
ARC
  8
0
 10
20.4585
 20
230.4801
 40
0.284016
 50
310.4972
 51
314.2021
  0
ARC
  8
0
 10
20.5968
 20
230.3181
 40
0.0709899
 50
303.0822
 51
310.4965
  0
ARC
  8
0
 10
20.6116
 20
230.2955
 40
0.0440049
 50
299.2153
 51
303.0823
  0
ARC
  8
0
 10
20.1412
 20
231.1366
 40
1.00767
 50
298.4079
 51
299.2157
  0
ARC
  8
0
 10
20.7329
 20
230.0427
 40
0.235998
 50
118.4083
 51
122.224
  0
ARC
  8
0
 10
20.8291
 20
229.89
 40
0.416422
 50
122.2233
 51
125.0957
  0
ARC
  8
0
 10
20.7657
 20
229.9802
 40
0.306272
 50
125.0957
 51
129.4358
  0
ARC
  8
0
 10
20.6518
 20
230.1187
 40
0.126897
 50
129.4364
 51
136.1813
  0
ARC
  8
0
 10
20.6575
 20
230.1132
 40
0.134826
 50
136.1807
 51
141.6981
  0
ARC
  8
0
 10
20.7193
 20
230.0644
 40
0.213578
 50
141.6985
 51
146.0816
  0
ARC
  8
0
 10
20.9009
 20
229.9423
 40
0.432342
 50
146.0815
 51
148.4396
  0
ARC
  8
0
 10
20.9555
 20
229.9088
 40
0.496503
 50
148.4395
 51
150.6399
  0
ARC
  8
0
 10
19.9267
 20
230.4875
 40
0.683992
 50
328.219
 51
330.6398
  0
ARC
  8
0
 10
20.4852
 20
230.1415
 40
0.0269921
 50
316.0111
 51
328.2197
  0
LINE
  8
0
 10
20.5046
 20
230.1228
 11
20.4789
 21
230.0961
  0
ARC
  8
0
 10
20.2771
 20
230.2909
 40
0.280453
 50
311.2947
 51
316.0105
  0
ARC
  8
0
 10
20.4454
 20
230.0992
 40
0.0253299
 50
295.5579
 51
311.2945
  0
ARC
  8
0
 10
21.0238
 20
228.8898
 40
1.31524
 50
115.5575
 51
116.3408
  0
ARC
  8
0
 10
20.4502
 20
230.0482
 40
0.0226322
 50
116.3459
 51
122.3183
  0
LINE
  8
0
 10
20.4381
 20
230.0674
 11
20.434
 21
230.0609
  0
LINE
  8
0
 10
20.434
 20
230.0609
 11
20.4573
 21
230.0555
  0
LINE
  8
0
 10
20.4573
 20
230.0555
 11
20.475
 21
230.0558
  0
ARC
  8
0
 10
20.4689
 20
230.0528
 40
0.00681656
 50
0.0002
 51
25.9219
  0
ARC
  8
0
 10
20.3519
 20
230.0894
 40
0.129056
 50
334.7764
 51
343.528
  0
ARC
  8
0
 10
20.3715
 20
230.0802
 40
0.10739
 50
324.931
 51
334.7765
  0
ARC
  8
0
 10
20.4219
 20
230.0448
 40
0.0457885
 50
309.8278
 51
324.9309
  0
LINE
  8
0
 10
20.4513
 20
230.0096
 11
20.4333
 21
229.9947
  0
ARC
  8
0
 10
20.1277
 20
230.3611
 40
0.477098
 50
307.3703
 51
309.8279
  0
ARC
  8
0
 10
20.4064
 20
229.9962
 40
0.0179659
 50
294.6813
 51
307.3707
  0
ARC
  8
0
 10
20.4594
 20
229.8808
 40
0.108977
 50
114.6805
 51
119.6267
  0
ARC
  8
0
 10
20.4067
 20
229.9735
 40
0.0023183
 50
119.6276
 51
154.0442
  0
LINE
  8
0
 10
20.4046
 20
229.9745
 11
20.4
 21
229.9651
  0
LINE
  8
0
 10
20.4
 20
229.9651
 11
20.4042
 21
229.9655
  0
ARC
  8
0
 10
20.3562
 20
230.1794
 40
0.219169
 50
282.668
 51
286.2825
  0
ARC
  8
0
 10
20.4112
 20
229.9908
 40
0.0226939
 50
286.2828
 51
297.5315
  0
LINE
  8
0
 10
20.4217
 20
229.9706
 11
20.4443
 21
229.9824
  0
ARC
  8
0
 10
20.0579
 20
230.7237
 40
0.836007
 50
297.5314
 51
298.8462
  0
ARC
  8
0
 10
20.4472
 20
230.0169
 40
0.0290143
 50
298.8457
 51
305.9076
  0
ARC
  8
0
 10
20.4392
 20
230.0279
 40
0.0426298
 50
305.908
 51
312.6984
  0
ARC
  8
0
 10
20.1922
 20
230.2957
 40
0.406953
 50
312.6982
 51
314.8947
  0
ARC
  8
0
 10
20.6402
 20
229.846
 40
0.227796
 50
131.7967
 51
134.8948
  0
ARC
  8
0
 10
20.6211
 20
229.8673
 40
0.199195
 50
128.4837
 51
131.7969
  0
ARC
  8
0
 10
20.4074
 20
230.1362
 40
0.144279
 50
308.4836
 51
313.4725
  0
ARC
  8
0
 10
20.5024
 20
230.0359
 40
0.00612349
 50
313.4729
 51
337.865
  0
LINE
  8
0
 10
20.5081
 20
230.0336
 11
20.5158
 21
230.0525
  0
LINE
  8
0
 10
20.5158
 20
230.0525
 11
20.5194
 21
230.0559
  0
LINE
  8
0
 10
20.5194
 20
230.0559
 11
20.523
 21
230.0489
  0
LINE
  8
0
 10
20.523
 20
230.0489
 11
20.5312
 21
230.0566
  0
ARC
  8
0
 10
20.5195
 20
230.0638
 40
0.0136847
 50
328.229
 51
336.8941
  0
ARC
  8
0
 10
19.5846
 20
230.4627
 40
1.03016
 50
336.8948
 51
337.8928
  0
LINE
  8
0
 10
20.539
 20
230.075
 11
20.5483
 21
230.0979
  0
LINE
  8
0
 10
20.5483
 20
230.0979
 11
20.5534
 21
230.0932
  0
ARC
  8
0
 10
20.5537
 20
230.0971
 40
0.00394901
 50
264.885
 51
309.85
  0
ARC
  8
0
 10
20.5533
 20
230.0977
 40
0.00469877
 50
309.8497
 51
350.8939
  0
LINE
  8
0
 10
20.5579
 20
230.097
 11
20.5559
 21
230.1189
  0
LINE
  8
0
 10
20.5559
 20
230.1189
 11
20.5598
 21
230.1377
  0
LINE
  8
0
 10
20.5598
 20
230.1377
 11
20.5662
 21
230.1306
  0
LINE
  8
0
 10
20.5662
 20
230.1306
 11
20.5711
 21
230.1571
  0
ARC
  8
0
 10
20.6234
 20
230.152
 40
0.0526077
 50
159.2493
 51
174.5288
  0
ARC
  8
0
 10
20.6454
 20
230.1437
 40
0.076048
 50
146.5524
 51
159.2492
  0
ARC
  8
0
 10
20.9194
 20
229.9627
 40
0.404537
 50
143.0789
 51
146.5524
  0
ARC
  8
0
 10
20.625
 20
230.1839
 40
0.0362554
 50
131.4579
 51
143.0789
  0
LINE
  8
0
 10
20.601
 20
230.2111
 11
20.6147
 21
230.2232
  0
LINE
  8
0
 10
20.6147
 20
230.2232
 11
20.6127
 21
230.2151
  0
ARC
  8
0
 10
20.8724
 20
230.1322
 40
0.272603
 50
162.3009
 51
164.1704
  0
ARC
  8
0
 10
21.158
 20
230.0512
 40
0.569426
 50
164.1703
 51
165.4637
  0
ARC
  8
0
 10
21.3339
 20
230.0056
 40
0.751145
 50
165.4637
 51
167.3298
  0
ARC
  8
0
 10
21.0557
 20
230.0681
 40
0.466029
 50
167.3298
 51
169.6991
  0
ARC
  8
0
 10
20.7212
 20
230.1289
 40
0.126018
 50
169.6992
 51
179.1608
  0
ARC
  8
0
 10
20.6788
 20
230.1308
 40
0.0835954
 50
180
 51
190.8149
  0
ARC
  8
0
 10
20.6633
 20
230.1288
 40
0.0680332
 50
191.654
 51
200.6203
  0
ARC
  8
0
 10
20.7321
 20
230.1547
 40
0.141548
 50
200.6205
 51
206.8333
  0
ARC
  8
0
 10
20.7514
 20
230.1645
 40
0.163139
 50
206.8333
 51
212.6193
  0
ARC
  8
0
 10
20.7311
 20
230.1515
 40
0.139101
 50
212.6192
 51
218.8857
  0
ARC
  8
0
 10
20.6827
 20
230.1125
 40
0.0769155
 50
218.8857
 51
229.3445
  0
ARC
  8
0
 10
20.687
 20
230.1175
 40
0.0835005
 50
229.3446
 51
239.3814
  0
ARC
  8
0
 10
20.5932
 20
229.959
 40
0.100687
 50
50.4847
 51
59.3813
  0
ARC
  8
0
 10
20.6475
 20
230.0248
 40
0.0153531
 50
27.5719
 51
50.4846
  0
ARC
  8
0
 10
20.6536
 20
230.028
 40
0.00849444
 50
4.9481
 51
27.5718
  0
ARC
  8
0
 10
20.6056
 20
230.0287
 40
0.0564052
 50
354.9079
 51
360.0001
  0
ARC
  8
0
 10
20.6024
 20
230.0342
 40
0.0604014
 50
340.1199
 51
349.9594
  0
ARC
  8
0
 10
20.5653
 20
230.0476
 40
0.0997761
 50
332.4682
 51
340.1202
  0
LINE
  8
0
 10
20.6538
 20
230.0015
 11
20.6364
 21
229.9681
  0
ARC
  8
0
 10
20.5195
 20
230.0291
 40
0.13182
 50
325.6391
 51
332.468
  0
ARC
  8
0
 10
20.606
 20
229.9699
 40
0.0270099
 50
310.518
 51
325.6391
  0
ARC
  8
0
 10
20.7445
 20
229.8078
 40
0.186188
 50
130.518
 51
137.8383
  0
ARC
  8
0
 10
20.6117
 20
229.9294
 40
0.00616812
 50
146.9831
 51
180
  0
LINE
  8
0
 10
20.6055
 20
229.9294
 11
20.6126
 21
229.8857
  0
ARC
  8
0
 10
20.6131
 20
229.8858
 40
0.000540426
 50
189.1369
 51
215.8293
  0
ARC
  8
0
 10
20.6148
 20
229.887
 40
0.00261658
 50
215.8416
 51
227.885
  0
ARC
  8
0
 10
20.2549
 20
229.489
 40
0.533967
 50
43.4062
 51
47.8809
  0
ARC
  8
0
 10
20.5704
 20
229.7874
 40
0.0997015
 50
33.0391
 51
43.4062
  0
LINE
  8
0
 10
20.654
 20
229.8418
 11
20.6875
 21
229.7902
  0
ARC
  8
0
 10
20.6941
 20
229.7945
 40
0.00783137
 50
213.0382
 51
228.3264
  0
ARC
  8
0
 10
20.6951
 20
229.7956
 40
0.00937417
 50
228.3283
 51
242.2952
  0
LINE
  8
0
 10
20.6908
 20
229.7873
 11
20.7035
 21
229.7806
  0
LINE
  8
0
 10
20.7035
 20
229.7806
 11
20.7076
 21
229.7767
  0
ARC
  8
0
 10
20.6692
 20
229.737
 40
0.0551542
 50
42.2539
 51
45.9338
  0
ARC
  8
0
 10
20.6751
 20
229.7424
 40
0.0472045
 50
38.2754
 51
42.2533
  0
ARC
  8
0
 10
20.6966
 20
229.7593
 40
0.0198221
 50
27.9699
 51
38.2758
  0
ARC
  8
0
 10
20.7068
 20
229.7647
 40
0.0083273
 50
12.0396
 51
27.9698
  0
ARC
  8
0
 10
20.7079
 20
229.765
 40
0.00720007
 50
5.3083
 51
12.0406
  0
ARC
  8
0
 10
20.3911
 20
229.7355
 40
0.325361
 50
4.3063
 51
5.3073
  0
ARC
  8
0
 10
20.7392
 20
229.7617
 40
0.0237263
 50
184.3054
 51
190.5602
  0
ARC
  8
0
 10
20.7664
 20
229.7668
 40
0.0514793
 50
190.5617
 51
194.8068
  0
ARC
  8
0
 10
20.6994
 20
229.7491
 40
0.0179159
 50
0
 51
14.8061
  0
ARC
  8
0
 10
20.7146
 20
229.7491
 40
0.00265101
 50
320.8598
 51
360.0002
  0
LINE
  8
0
 10
20.7167
 20
229.7474
 11
20.71
 21
229.7392
  0
LINE
  8
0
 10
20.71
 20
229.7392
 11
20.7265
 21
229.719
  0
LINE
  8
0
 10
20.7265
 20
229.719
 11
20.7337
 21
229.7164
  0
ARC
  8
0
 10
20.734
 20
229.7172
 40
0.000830235
 50
250.2205
 51
327.0114
  0
ARC
  8
0
 10
20.7239
 20
229.7238
 40
0.0129325
 50
327.0122
 51
345.12
  0
ARC
  8
0
 10
20.7736
 20
229.7106
 40
0.0385634
 50
161.4122
 51
165.1184
  0
ARC
  8
0
 10
20.947
 20
229.6523
 40
0.221475
 50
159.8668
 51
161.4132
  0
ARC
  8
0
 10
20.6406
 20
229.7646
 40
0.104873
 50
339.8668
 51
345.8221
  0
ARC
  8
0
 10
20.7056
 20
229.7482
 40
0.0378615
 50
345.8218
 51
355.741
  0
LINE
  8
0
 10
20.7433
 20
229.7454
 11
20.7443
 21
229.7587
  0
ARC
  8
0
 10
20.0114
 20
229.8133
 40
0.734944
 50
355.7412
 51
356.4497
  0
ARC
  8
0
 10
20.7302
 20
229.7678
 40
0.0147712
 50
0.003
 51
2.5845
  0
ARC
  8
0
 10
20.7331
 20
229.7672
 40
0.0119072
 50
6.1316
 51
23.8791
  0
ARC
  8
0
 10
20.6409
 20
229.7264
 40
0.112698
 50
23.8794
 51
29.6276
  0
ARC
  8
0
 10
20.6957
 20
229.7575
 40
0.0496534
 50
29.6279
 51
39.2694
  0
ARC
  8
0
 10
20.7155
 20
229.7737
 40
0.0240844
 50
39.2687
 51
53.1297
  0
LINE
  8
0
 10
20.73
 20
229.793
 11
20.7206
 21
229.8
  0
ARC
  8
0
 10
20.7236
 20
229.8041
 40
0.00504378
 50
210.3563
 51
233.1297
  0
ARC
  8
0
 10
20.9389
 20
229.9302
 40
0.254539
 50
207.1716
 51
210.3568
  0
LINE
  8
0
 10
20.7124
 20
229.8139
 11
20.6987
 21
229.8406
  0
ARC
  8
0
 10
20.7564
 20
229.8702
 40
0.0648374
 50
202.163
 51
207.1715
  0
ARC
  8
0
 10
21.074
 20
229.9996
 40
0.407756
 50
200.1662
 51
202.1629
  0
ARC
  8
0
 10
20.4715
 20
229.7783
 40
0.234092
 50
20.1661
 51
24.997
  0
ARC
  8
0
 10
20.6167
 20
229.846
 40
0.0738637
 50
24.9969
 51
33.6024
  0
ARC
  8
0
 10
20.7468
 20
229.9325
 40
0.0823577
 50
203.0514
 51
213.6024
  0
ARC
  8
0
 10
20.7401
 20
229.9002
 40
0.069085
 50
177.209
 51
179.9999
  0
ARC
  8
0
 10
20.6719
 20
229.9032
 40
0.00086672
 50
120.9022
 51
154.154
  0
ARC
  8
0
 10
20.9104
 20
229.5048
 40
0.465197
 50
119.4903
 51
120.9055
  0
ARC
  8
0
 10
20.6779
 20
229.9159
 40
0.00703796
 50
299.4901
 51
317.1691
  0
ARC
  8
0
 10
20.3346
 20
230.2341
 40
0.475158
 50
317.1693
 51
319.3125
  0
LINE
  8
0
 10
20.6949
 20
229.9244
 11
20.715
 21
229.9477
  0
LINE
  8
0
 10
20.715
 20
229.9477
 11
20.7387
 21
229.9794
  0
LINE
  8
0
 10
20.7387
 20
229.9794
 11
20.7562
 21
230.0021
  0
ARC
  8
0
 10
20.6704
 20
230.0599
 40
0.10345
 50
326.0615
 51
330.4962
  0
ARC
  8
0
 10
20.2388
 20
230.3041
 40
0.599326
 50
330.4958
 51
332.3378
  0
ARC
  8
0
 10
19.9131
 20
230.4748
 40
0.967038
 50
332.3379
 51
333.2979
  0
ARC
  8
0
 10
20.424
 20
230.2179
 40
0.395202
 50
333.2976
 51
334.7997
  0
ARC
  8
0
 10
20.7146
 20
230.0811
 40
0.0740104
 50
334.7998
 51
345.9637
  0
ARC
  8
0
 10
20.7156
 20
230.0809
 40
0.0729924
 50
345.9638
 51
357.2056
  0
ARC
  8
0
 10
20.9191
 20
230.0709
 40
0.130749
 50
169.5497
 51
177.2058
  0
ARC
  8
0
 10
20.7938
 20
230.094
 40
0.00338383
 50
120.5082
 51
169.5469
  0
ARC
  8
0
 10
20.7938
 20
230.094
 40
0.00339402
 50
72.6453
 51
120.5101
  0
ARC
  8
0
 10
20.7632
 20
229.9961
 40
0.105976
 50
64.3199
 51
72.6462
  0
ARC
  8
0
 10
20.8475
 20
230.1713
 40
0.0883712
 50
244.3199
 51
253.4563
  0
ARC
  8
0
 10
20.9092
 20
230.3791
 40
0.305194
 50
253.4559
 51
258.3686
  0
ARC
  8
0
 10
21.0814
 20
231.2157
 40
1.15932
 50
258.3688
 51
259.648
  0
ARC
  8
0
 10
21.0022
 20
230.7819
 40
0.718379
 50
259.6478
 51
261.273
  0
ARC
  8
0
 10
20.9611
 20
230.5145
 40
0.447778
 50
261.2731
 51
264.1001
  0
ARC
  8
0
 10
20.96
 20
230.5032
 40
0.436444
 50
264.1004
 51
266.9639
  0
ARC
  8
0
 10
20.9751
 20
230.7887
 40
0.722371
 50
266.9639
 51
268.9655
  0
ARC
  8
0
 10
20.9854
 20
231.3609
 40
1.29461
 50
268.9651
 51
270.4603
  0
ARC
  8
0
 10
20.9935
 20
230.3539
 40
0.287561
 50
270.4607
 51
277.722
  0
ARC
  8
0
 10
21.0195
 20
230.1626
 40
0.0945625
 50
277.7216
 51
290.4015
  0
ARC
  8
0
 10
21.1079
 20
229.9247
 40
0.159286
 50
100.1378
 51
110.4018
  0
ARC
  8
0
 10
21.0808
 20
230.0766
 40
0.00491931
 50
38.9429
 51
100.1382
  0
ARC
  8
0
 10
21.0829
 20
230.0783
 40
0.00219429
 50
2.5238
 51
38.946
  0
ARC
  8
0
 10
20.5153
 20
230.0652
 40
0.569938
 50
359.9995
 51
361.3312
  0
ARC
  8
0
 10
21.1255
 20
230.0652
 40
0.0402143
 50
179.9995
 51
192.1646
  0
ARC
  8
0
 10
21.1029
 20
230.0607
 40
0.0172481
 50
193.3542
 51
213.7237
  0
ARC
  8
0
 10
21.0099
 20
229.9986
 40
0.0946469
 50
28.0091
 51
33.7227
  0
ARC
  8
0
 10
21.0897
 20
230.0411
 40
0.00416825
 50
0.5323
 51
28.0099
  0
ARC
  8
0
 10
21.0921
 20
230.0411
 40
0.00182842
 50
336.6659
 51
359.9941
  0
ARC
  8
0
 10
21.0615
 20
230.0547
 40
0.035296
 50
330.7488
 51
336.1409
  0
ARC
  8
0
 10
21.17
 20
229.9939
 40
0.0891012
 50
150.7473
 51
159.5682
  0
ARC
  8
0
 10
21.1424
 20
230.0042
 40
0.0596732
 50
159.5693
 51
170.3532
  0
LINE
  8
0
 10
21.0836
 20
230.0142
 11
21.0779
 21
229.9803
  0
LINE
  8
0
 10
21.0779
 20
229.9803
 11
21.0685
 21
229.9495
  0
LINE
  8
0
 10
21.0685
 20
229.9495
 11
21.0613
 21
229.916
  0
ARC
  8
0
 10
23.2436
 20
229.2746
 40
2.27464
 50
163.6234
 51
164.4016
  0
ARC
  8
0
 10
21.0584
 20
229.8849
 40
0.00581282
 50
166.5774
 51
179.9949
  0
LINE
  8
0
 10
21.0526
 20
229.8849
 11
21.0533
 21
229.8663
  0
ARC
  8
0
 10
20.9383
 20
229.8663
 40
0.114999
 50
356.0993
 51
360.0012
  0
ARC
  8
0
 10
20.7232
 20
229.8936
 40
0.331696
 50
350.5735
 51
353.916
  0
ARC
  8
0
 10
20.903
 20
229.8637
 40
0.1494
 50
345.2569
 51
350.5744
  0
ARC
  8
0
 10
21.0165
 20
229.8339
 40
0.0321053
 50
333.7697
 51
345.2556
  0
LINE
  8
0
 10
21.0453
 20
229.8197
 11
21.0405
 21
229.81
  0
LINE
  8
0
 10
21.0405
 20
229.81
 11
21.0386
 21
229.7989
  0
ARC
  8
0
 10
21.0136
 20
229.8045
 40
0.0256654
 50
338.5168
 51
347.3105
  0
ARC
  8
0
 10
21.021
 20
229.8016
 40
0.0176894
 50
327.9149
 51
338.512
  0
ARC
  8
0
 10
21.0097
 20
229.8087
 40
0.0310079
 50
321.7283
 51
327.9153
  0
ARC
  8
0
 10
20.9839
 20
229.829
 40
0.0639331
 50
317.4243
 51
321.732
  0
ARC
  8
0
 10
21.0953
 20
229.7267
 40
0.0873634
 50
137.423
 51
145.851
  0
ARC
  8
0
 10
21.0319
 20
229.7697
 40
0.0107661
 50
145.8502
 51
170.0153
  0
ARC
  8
0
 10
21.1297
 20
229.7715
 40
0.108415
 50
180.0017
 51
182.4501
  0
ARC
  8
0
 10
21.162
 20
229.7979
 40
0.144027
 50
192.4321
 51
198.8423
  0
ARC
  8
0
 10
20.99
 20
229.7392
 40
0.0377382
 50
6.3408
 51
18.8433
  0
ARC
  8
0
 10
20.7177
 20
229.7434
 40
0.309839
 50
358.6448
 51
359.9993
  0
LINE
  8
0
 10
21.0274
 20
229.7361
 11
21.0274
 21
229.7275
  0
ARC
  8
0
 10
21.0295
 20
229.7278
 40
0.00211562
 50
187.4913
 51
249.7436
  0
LINE
  8
0
 10
21.0288
 20
229.7258
 11
21.0662
 21
229.712
  0
LINE
  8
0
 10
21.0662
 20
229.712
 11
21.0685
 21
229.7196
  0
ARC
  8
0
 10
21.0514
 20
229.7183
 40
0.017187
 50
4.6069
 51
13.4413
  0
ARC
  8
0
 10
20.8759
 20
229.6763
 40
0.197609
 50
13.4413
 51
16.0442
  0
ARC
  8
0
 10
21.1044
 20
229.742
 40
0.0401365
 50
188.2127
 51
196.0453
  0
ARC
  8
0
 10
21.2612
 20
229.7647
 40
0.198527
 50
184.6915
 51
188.2112
  0
LINE
  8
0
 10
21.0633
 20
229.7484
 11
21.062
 21
229.7649
  0
ARC
  8
0
 10
21.2518
 20
229.7804
 40
0.190445
 50
180.0005
 51
184.6924
  0
ARC
  8
0
 10
21.1046
 20
229.7804
 40
0.0432698
 50
170.1463
 51
179.9991
  0
ARC
  8
0
 10
21.1031
 20
229.7807
 40
0.0417257
 50
161.0825
 51
170.1466
  0
ARC
  8
0
 10
21.2625
 20
229.7261
 40
0.210233
 50
157.0486
 51
161.0834
  0
ARC
  8
0
 10
20.7669
 20
229.936
 40
0.327972
 50
337.0481
 51
339.1998
  0
ARC
  8
0
 10
21.0362
 20
229.8337
 40
0.03993
 50
339.2012
 51
345.3704
  0
LINE
  8
0
 10
21.0748
 20
229.8236
 11
21.0792
 21
229.8405
  0
ARC
  8
0
 10
21.1826
 20
229.8135
 40
0.106867
 50
161.5384
 51
165.3695
  0
ARC
  8
0
 10
21.6386
 20
229.6612
 40
0.587593
 50
159.9044
 51
161.5381
  0
ARC
  8
0
 10
21.686
 20
229.6612
 40
0.632302
 50
156.1791
 51
161.3773
  0
ARC
  8
0
 10
21.1593
 20
229.8962
 40
0.0556395
 50
151.0767
 51
158.5225
  0
LINE
  8
0
 10
21.1106
 20
229.9231
 11
21.1267
 21
229.9522
  0
ARC
  8
0
 10
20.9915
 20
230.0269
 40
0.154478
 50
331.0767
 51
336.2482
  0
ARC
  8
0
 10
20.9782
 20
230.0327
 40
0.168908
 50
336.2477
 51
341.1932
  0
ARC
  8
0
 10
20.4095
 20
230.2264
 40
0.769739
 50
341.1934
 51
342.0517
  0
ARC
  8
0
 10
20.1222
 20
230.3194
 40
1.07171
 50
342.0521
 51
342.7791
  0
ARC
  8
0
 10
18.8325
 20
230.7192
 40
2.42197
 50
342.7788
 51
343.3009
  0
ARC
  8
0
 10
21.1155
 20
230.0343
 40
0.0384033
 50
343.2952
 51
347.4467
  0
LINE
  8
0
 10
21.153
 20
230.0259
 11
21.1581
 21
230.0486
  0
ARC
  8
0
 10
21.2184
 20
230.0352
 40
0.0618038
 50
154.8129
 51
167.4525
  0
ARC
  8
0
 10
21.1648
 20
230.0604
 40
0.00256861
 50
89.449
 51
154.8091
  0
ARC
  8
0
 10
21.1648
 20
230.0611
 40
0.00181533
 50
30.7541
 51
89.4526
  0
ARC
  8
0
 10
21.0768
 20
230.0088
 40
0.104194
 50
23.3358
 51
30.7544
  0
LINE
  8
0
 10
21.1725
 20
230.0501
 11
21.181
 21
230.0304
  0
ARC
  8
0
 10
21.1359
 20
230.0109
 40
0.0491039
 50
15.5417
 51
23.3354
  0
ARC
  8
0
 10
20.854
 20
229.9325
 40
0.341737
 50
12.5899
 51
15.5422
  0
ARC
  8
0
 10
20.8944
 20
229.9416
 40
0.300318
 50
9.7474
 51
12.59
  0
ARC
  8
0
 10
20.9106
 20
229.9443
 40
0.283899
 50
6.8231
 51
9.7468
  0
ARC
  8
0
 10
21.8835
 20
230.0608
 40
0.696027
 50
186.8233
 51
188.5863
  0
ARC
  8
0
 10
21.2444
 20
229.9643
 40
0.0496358
 50
188.5874
 51
195.1924
  0
ARC
  8
0
 10
21.2513
 20
229.9661
 40
0.0568332
 50
195.191
 51
201.0576
  0
ARC
  8
0
 10
21.5772
 20
230.0916
 40
0.406055
 50
201.0583
 51
203.2522
  0
ARC
  8
0
 10
21.1569
 20
229.911
 40
0.0514918
 50
8.4486
 51
23.2521
  0
ARC
  8
0
 10
21.154
 20
229.9186
 40
0.053838
 50
351.6648
 51
359.9998
  0
ARC
  8
0
 10
21.1994
 20
229.9131
 40
0.00820937
 50
323.1282
 51
343.2147
  0
ARC
  8
0
 10
21.202
 20
229.9111
 40
0.00489399
 50
297.0251
 51
323.1316
  0
ARC
  8
0
 10
21.1933
 20
229.9282
 40
0.0240373
 50
282.0722
 51
297.023
  0
ARC
  8
0
 10
21.176
 20
230.0091
 40
0.106821
 50
274.9965
 51
282.0729
  0
ARC
  8
0
 10
21.1894
 20
229.8561
 40
0.0468469
 50
94.9963
 51
105.9312
  0
ARC
  8
0
 10
21.1959
 20
229.8334
 40
0.0704344
 50
105.9312
 51
114.8447
  0
ARC
  8
0
 10
20.9676
 20
230.3263
 40
0.472754
 50
292.9635
 51
294.8445
  0
ARC
  8
0
 10
21.1465
 20
229.9042
 40
0.0143487
 50
282.1532
 51
292.9657
  0
ARC
  8
0
 10
21.1486
 20
229.8945
 40
0.0044006
 50
255.2776
 51
282.1508
  0
ARC
  8
0
 10
21.2288
 20
230.1999
 40
0.320207
 50
252.1559
 51
255.2779
  0
LINE
  8
0
 10
21.1307
 20
229.8951
 11
21.1203
 21
229.8985
  0
LINE
  8
0
 10
21.1203
 20
229.8985
 11
21.1085
 21
229.8658
  0
LINE
  8
0
 10
21.1085
 20
229.8658
 11
21.1078
 21
229.8651
  0
LINE
  8
0
 10
21.1078
 20
229.8651
 11
21.1224
 21
229.8678
  0
ARC
  8
0
 10
21.1609
 20
229.6593
 40
0.211999
 50
98.1907
 51
100.4515
  0
ARC
  8
0
 10
21.1312
 20
229.8654
 40
0.00382538
 50
81.3017
 51
98.1911
  0
LINE
  8
0
 10
21.1318
 20
229.8692
 11
21.1448
 21
229.8672
  0
ARC
  8
0
 10
21.1469
 20
229.8811
 40
0.0140496
 50
261.3009
 51
274.8206
  0
ARC
  8
0
 10
21.1402
 20
229.9608
 40
0.0940875
 50
274.8208
 51
280.0349
  0
ARC
  8
0
 10
21.0432
 20
230.5088
 40
0.650598
 50
280.0351
 51
280.7998
  0
ARC
  8
0
 10
21.0008
 20
230.7315
 40
0.877263
 50
280.7991
 51
281.4579
  0
ARC
  8
0
 10
20.8069
 20
231.6881
 40
1.85336
 50
281.4586
 51
281.9149
  0
ARC
  8
0
 10
20.6456
 20
232.4522
 40
2.63426
 50
281.9147
 51
282.2971
  0
ARC
  8
0
 10
21.639
 20
227.8952
 40
2.02968
 50
101.7333
 51
102.2973
  0
ARC
  8
0
 10
21.2979
 20
229.5375
 40
0.35238
 50
100.379
 51
101.7319
  0
ARC
  8
0
 10
21.2193
 20
229.9664
 40
0.08361
 50
280.3801
 51
287.575
  0
ARC
  8
0
 10
21.2362
 20
229.913
 40
0.0276452
 50
287.5755
 51
300.1049
  0
ARC
  8
0
 10
21.2423
 20
229.9025
 40
0.0154933
 50
300.1054
 51
321.9155
  0
ARC
  8
0
 10
21.2368
 20
229.9068
 40
0.0224594
 50
321.9138
 51
339.9944
  0
ARC
  8
0
 10
21.23
 20
229.9093
 40
0.0297761
 50
339.9947
 51
358.8135
  0
ARC
  8
0
 10
21.239
 20
229.9087
 40
0.0207734
 50
0.0006
 51
21.4216
  0
LINE
  8
0
 10
21.2583
 20
229.9163
 11
21.2536
 21
229.9275
  0
ARC
  8
0
 10
21.2975
 20
229.9458
 40
0.0475747
 50
192.2767
 51
202.6079
  0
ARC
  8
0
 10
21.284
 20
229.9429
 40
0.0337335
 50
179.9989
 51
192.2748
  0
LINE
  8
0
 10
21.2503
 20
229.9429
 11
21.2503
 21
229.9579
  0
LINE
  8
0
 10
21.2503
 20
229.9579
 11
21.2471
 21
229.9875
  0
LINE
  8
0
 10
21.2471
 20
229.9875
 11
21.246
 21
230.0296
  0
LINE
  8
0
 10
21.246
 20
230.0296
 11
21.2448
 21
230.0689
  0
ARC
  8
0
 10
21.4176
 20
230.0703
 40
0.172734
 50
180.0027
 51
180.4648
  0
ARC
  8
0
 10
25.055
 20
229.9875
 40
3.8111
 50
178.5057
 51
178.7551
  0
ARC
  8
0
 10
20.6899
 20
230.0869
 40
0.555316
 50
0.0006
 51
1.4199
  0
ARC
  8
0
 10
21.1857
 20
230.0976
 40
0.0594669
 50
2.913
 51
10.5618
  0
ARC
  8
0
 10
21.435
 20
230.1441
 40
0.194191
 50
185.4312
 51
190.5625
  0
ARC
  8
0
 10
21.2695
 20
230.1257
 40
0.0278154
 50
170.7923
 51
180.0014
  0
ARC
  8
0
 10
21.2505
 20
230.128
 40
0.00875655
 50
145.1332
 51
165.36
  0
ARC
  8
0
 10
21.3256
 20
230.0756
 40
0.100297
 50
139.1837
 51
145.1318
  0
ARC
  8
0
 10
21.1222
 20
230.2513
 40
0.16848
 50
319.1839
 51
323.4174
  0
ARC
  8
0
 10
21.0373
 20
230.3144
 40
0.274274
 50
323.4179
 51
326.7357
  0
ARC
  8
0
 10
20.9548
 20
230.3685
 40
0.37294
 50
326.736
 51
328.9634
  0
ARC
  8
0
 10
20.975
 20
230.3563
 40
0.349322
 50
328.9623
 51
331.2637
  0
ARC
  8
0
 10
21.0451
 20
230.3179
 40
0.26942
 50
331.2638
 51
334.5135
  0
ARC
  8
0
 10
21.1449
 20
230.2703
 40
0.158793
 50
334.5146
 51
338.7479
  0
ARC
  8
0
 10
21.1504
 20
230.2682
 40
0.152983
 50
338.7478
 51
341.9644
  0
ARC
  8
0
 10
20.8142
 20
230.3776
 40
0.506504
 50
341.9636
 51
343.7312
  0
ARC
  8
0
 10
20.4591
 20
230.4813
 40
0.876444
 50
343.7317
 51
344.6638
  0
ARC
  8
0
 10
21.1791
 20
230.2838
 40
0.129797
 50
344.6627
 51
347.085
  0
LINE
  8
0
 10
21.3057
 20
230.2548
 11
21.3124
 21
230.2844
  0
ARC
  8
0
 10
21.4219
 20
230.2593
 40
0.112267
 50
160.7896
 51
167.0861
  0
ARC
  8
0
 10
21.5112
 20
230.2281
 40
0.20691
 50
156.1522
 51
160.7891
  0
ARC
  8
0
 10
21.4804
 20
230.2418
 40
0.173153
 50
150.4723
 51
156.1526
  0
ARC
  8
0
 10
21.452
 20
230.2578
 40
0.140597
 50
144.1675
 51
150.4719
  0
ARC
  8
0
 10
21.1272
 20
230.4924
 40
0.260097
 50
324.1678
 51
328.1457
  0
ARC
  8
0
 10
21.3213
 20
230.3718
 40
0.0315255
 50
328.1452
 51
339.5878
  0
ARC
  8
0
 10
21.4719
 20
230.3157
 40
0.129137
 50
149.5499
 51
159.588
  0
ARC
  8
0
 10
21.3649
 20
230.3786
 40
0.00500665
 50
96.7915
 51
149.5508
  0
LINE
  8
0
 10
21.3643
 20
230.3836
 11
21.54
 21
230.4045
  0
LINE
  8
0
 10
21.54
 20
230.4045
 11
21.554
 21
230.4065
  0
LINE
  8
0
 10
21.554
 20
230.4065
 11
21.5688
 21
230.4042
  0
ARC
  8
0
 10
21.5678
 20
230.4244
 40
0.0202166
 50
272.6076
 51
296.167
  0
ARC
  8
0
 10
21.5723
 20
230.4154
 40
0.0101921
 50
296.1666
 51
329.5844
  0
LINE
  8
0
 10
21.581
 20
230.4102
 11
21.5894
 21
230.4245
  0
LINE
  8
0
 10
21.5894
 20
230.4245
 11
21.5949
 21
230.4306
  0
ARC
  8
0
 10
21.5748
 20
230.4459
 40
0.0252908
 50
322.7252
 51
354.7816
  0
ARC
  8
0
 10
21.5833
 20
230.4436
 40
0.0166622
 50
359.9998
 51
394.9251
  0
LINE
  8
0
 10
21.597
 20
230.4532
 11
21.591
 21
230.4576
  0
LINE
  8
0
 10
21.591
 20
230.4576
 11
21.5748
 21
230.4709
  0
LINE
  8
0
 10
21.5748
 20
230.4709
 11
21.5562
 21
230.4847
  0
ARC
  8
0
 10
21.5246
 20
230.453
 40
0.044824
 50
45.1433
 51
52.5168
  0
ARC
  8
0
 10
21.5498
 20
230.4858
 40
0.00340061
 50
52.5147
 51
79.5161
  0
ARC
  8
0
 10
21.5495
 20
230.4844
 40
0.00489787
 50
79.5173
 51
117.5914
  0
ARC
  8
0
 10
21.5575
 20
230.469
 40
0.0221804
 50
117.5939
 51
135.2275
  0
ARC
  8
0
 10
21.5816
 20
230.4452
 40
0.0560279
 50
135.226
 51
144.4759
  0
ARC
  8
0
 10
21.5687
 20
230.4544
 40
0.0402408
 50
144.4774
 51
155.3966
  0
LINE
  8
0
 10
21.5321
 20
230.4711
 11
21.5238
 21
230.453
  0
ARC
  8
0
 10
21.6189
 20
230.4095
 40
0.104554
 50
155.3959
 51
165.5632
  0
ARC
  8
0
 10
21.5222
 20
230.4355
 40
0.00458134
 50
180.0008
 51
217.9704
  0
LINE
  8
0
 10
21.5186
 20
230.4327
 11
21.5342
 21
230.4207
  0
ARC
  8
0
 10
21.5309
 20
230.4184
 40
0.00406587
 50
359.9991
 51
395.0521
  0
ARC
  8
0
 10
21.5327
 20
230.4191
 40
0.00236477
 50
276.7137
 51
342.6463
  0
LINE
  8
0
 10
21.533
 20
230.4167
 11
21.3821
 21
230.399
  0
ARC
  8
0
 10
21.3818
 20
230.4017
 40
0.00278286
 50
209.4225
 51
276.7155
  0
ARC
  8
0
 10
21.3949
 20
230.4051
 40
0.0162991
 50
179.9995
 51
196.8069
  0
ARC
  8
0
 10
21.3932
 20
230.4018
 40
0.0148885
 50
137.5913
 51
167.3856
  0
ARC
  8
0
 10
21.4053
 20
230.3907
 40
0.0313418
 50
117.1799
 51
137.5926
  0
ARC
  8
0
 10
21.3589
 20
230.4811
 40
0.0702285
 50
297.1791
 51
306.5644
  0
ARC
  8
0
 10
21.384
 20
230.4473
 40
0.0281251
 50
306.5648
 51
321.4205
  0
ARC
  8
0
 10
21.7064
 20
230.1901
 40
0.384211
 50
138.2722
 51
141.4201
  0
ARC
  8
0
 10
21.423
 20
230.4428
 40
0.00455254
 50
109.0416
 51
138.2746
  0
ARC
  8
0
 10
21.4227
 20
230.4438
 40
0.00351915
 50
80.6477
 51
109.0343
  0
ARC
  8
0
 10
21.4043
 20
230.3324
 40
0.11646
 50
75.7684
 51
80.6541
  0
ARC
  8
0
 10
21.444
 20
230.4889
 40
0.0450649
 50
255.7675
 51
262.8048
  0
ARC
  8
0
 10
21.4858
 20
230.8199
 40
0.378716
 50
262.8047
 51
265.2309
  0
ARC
  8
0
 10
21.842
 20
235.0898
 40
4.66341
 50
265.2321
 51
265.5274
  0
ARC
  8
0
 10
21.4948
 20
230.6514
 40
0.211407
 50
265.524
 51
266.9084
  0
ARC
  8
0
 10
21.4855
 20
230.4798
 40
0.0395956
 50
266.9109
 51
283.1545
  0
ARC
  8
0
 10
21.4925
 20
230.4502
 40
0.00920376
 50
283.1542
 51
317.2333
  0
ARC
  8
0
 10
21.4937
 20
230.449
 40
0.00746921
 50
317.2299
 51
340.2694
  0
ARC
  8
0
 10
21.3863
 20
230.4875
 40
0.121558
 50
340.2738
 51
345.9488
  0
ARC
  8
0
 10
21.553
 20
230.4458
 40
0.0502862
 50
154.3232
 51
165.9479
  0
ARC
  8
0
 10
21.6273
 20
230.4101
 40
0.132664
 50
147.1738
 51
154.3231
  0
ARC
  8
0
 10
21.5759
 20
230.4433
 40
0.0714696
 50
139.0728
 51
147.1737
  0
ARC
  8
0
 10
21.5425
 20
230.4723
 40
0.0272703
 50
125.9411
 51
139.073
  0
ARC
  8
0
 10
21.4563
 20
230.5912
 40
0.119585
 50
305.9409
 51
310.2
  0
ARC
  8
0
 10
21.5323
 20
230.5012
 40
0.00175437
 50
310.1995
 51
345.934
  0
ARC
  8
0
 10
21.5271
 20
230.5007
 40
0.00691969
 50
0.0002
 51
22.5932
  0
ARC
  8
0
 10
21.475
 20
230.4599
 40
0.0728973
 50
36.6584
 51
46.8989
  0
LINE
  8
0
 10
21.5248
 20
230.5131
 11
21.5077
 21
230.5291
  0
ARC
  8
0
 10
21.5017
 20
230.5227
 40
0.0087926
 50
46.8955
 51
52.8033
  0
ARC
  8
0
 10
19.1151
 20
227.3778
 40
3.95666
 50
52.8068
 51
53.0855
  0
ARC
  8
0
 10
21.1815
 20
230.1284
 40
0.516401
 50
53.0869
 51
53.8483
  0
ARC
  8
0
 10
21.3205
 20
230.3187
 40
0.280755
 50
53.8455
 51
54.8781
  0
ARC
  8
0
 10
21.4141
 20
230.4518
 40
0.118073
 50
54.8793
 51
57.3891
  0
ARC
  8
0
 10
21.4607
 20
230.5246
 40
0.0316046
 50
57.3904
 51
62.2424
  0
LINE
  8
0
 10
21.4754
 20
230.5526
 11
21.443
 21
230.5696
  0
LINE
  8
0
 10
21.443
 20
230.5696
 11
21.4362
 21
230.5797
  0
ARC
  8
0
 10
21.3998
 20
230.5536
 40
0.0448096
 50
35.5291
 51
46.8071
  0
ARC
  8
0
 10
21.394
 20
230.5475
 40
0.0532048
 50
46.8072
 51
57.1545
  0
ARC
  8
0
 10
21.3969
 20
230.5519
 40
0.0479697
 50
57.1535
 51
69.9346
  0
ARC
  8
0
 10
21.3965
 20
230.551
 40
0.0489064
 50
69.9363
 51
82.5937
  0
ARC
  8
0
 10
21.3971
 20
230.5555
 40
0.0443686
 50
82.5926
 51
94.3838
  0
ARC
  8
0
 10
21.3939
 20
230.5979
 40
0.00187173
 50
94.3862
 51
154.399
  0
ARC
  8
0
 10
21.4039
 20
230.5987
 40
0.0117468
 50
179.9996
 51
187.1617
  0
ARC
  8
0
 10
21.4627
 20
230.6426
 40
0.083798
 50
212.7657
 51
220.2582
  0
ARC
  8
0
 10
21.3549
 20
230.5512
 40
0.0575354
 50
31.9108
 51
40.2569
  0
ARC
  8
0
 10
21.333
 20
230.5376
 40
0.0833599
 50
24.9804
 51
31.9124
  0
LINE
  8
0
 10
21.4085
 20
230.5728
 11
21.4127
 21
230.5624
  0
LINE
  8
0
 10
21.4127
 20
230.5624
 11
21.3999
 21
230.5641
  0
LINE
  8
0
 10
21.3999
 20
230.5641
 11
21.3898
 21
230.5604
  0
LINE
  8
0
 10
21.3898
 20
230.5604
 11
21.3963
 21
230.554
  0
LINE
  8
0
 10
21.3963
 20
230.554
 11
21.384
 21
230.5528
  0
ARC
  8
0
 10
21.3775
 20
230.4677
 40
0.0852774
 50
85.6708
 51
92.519
  0
ARC
  8
0
 10
21.3759
 20
230.5051
 40
0.0478915
 50
92.5201
 51
101.6625
  0
ARC
  8
0
 10
21.3695
 20
230.536
 40
0.0163663
 50
101.6633
 51
116.2128
  0
ARC
  8
0
 10
21.3629
 20
230.5495
 40
0.00128418
 50
116.2121
 51
169.957
  0
LINE
  8
0
 10
21.3616
 20
230.5497
 11
21.3676
 21
230.5462
  0
LINE
  8
0
 10
21.3676
 20
230.5462
 11
21.3726
 21
230.5433
  0
LINE
  8
0
 10
21.3726
 20
230.5433
 11
21.3689
 21
230.542
  0
LINE
  8
0
 10
21.3689
 20
230.542
 11
21.3562
 21
230.5393
  0
LINE
  8
0
 10
21.3562
 20
230.5393
 11
21.3424
 21
230.5335
  0
ARC
  8
0
 10
21.3523
 20
230.5008
 40
0.0342546
 50
106.8855
 51
117.7467
  0
ARC
  8
0
 10
21.3381
 20
230.5279
 40
0.0036125
 50
117.7485
 51
151.6364
  0
ARC
  8
0
 10
21.3576
 20
230.5267
 40
0.0229373
 50
172.7238
 51
180.0015
  0
ARC
  8
0
 10
21.3391
 20
230.5284
 40
0.00476125
 50
201.0864
 51
242.9947
  0
LINE
  8
0
 10
21.337
 20
230.5242
 11
21.3407
 21
230.5223
  0
LINE
  8
0
 10
21.3407
 20
230.5223
 11
21.321
 21
230.5158
  0
LINE
  8
0
 10
21.321
 20
230.5158
 11
21.3001
 21
230.5082
  0
ARC
  8
0
 10
21.3103
 20
230.4767
 40
0.0330967
 50
107.9462
 51
118.8093
  0
ARC
  8
0
 10
21.295
 20
230.5046
 40
0.00124329
 50
118.8187
 51
177.2878
  0
ARC
  8
0
 10
21.2954
 20
230.5047
 40
0.00166689
 50
180.0051
 51
225.5766
  0
ARC
  8
0
 10
21.3006
 20
230.5106
 40
0.00955938
 50
228.2882
 51
247.9235
  0
LINE
  8
0
 10
21.297
 20
230.5018
 11
21.3034
 21
230.4992
  0
LINE
  8
0
 10
21.3034
 20
230.4992
 11
21.2911
 21
230.4954
  0
ARC
  8
0
 10
20.9542
 20
232.0445
 40
1.58527
 50
281.2835
 51
282.2698
  0
ARC
  8
0
 10
21.2622
 20
230.501
 40
0.0114022
 50
269.6268
 51
281.2765
  0
ARC
  8
0
 10
21.2619
 20
230.4599
 40
0.0296771
 50
89.6346
 51
103.3353
  0
ARC
  8
0
 10
21.2576
 20
230.4782
 40
0.01094
 50
103.3316
 51
125.9905
  0
ARC
  8
0
 10
21.2545
 20
230.4824
 40
0.00568873
 50
125.9919
 51
161.3223
  0
ARC
  8
0
 10
21.2568
 20
230.4842
 40
0.00768175
 50
180.0021
 51
197.136
  0
ARC
  8
0
 10
21.2516
 20
230.4835
 40
0.00266977
 50
215.8128
 51
263.5836
  0
ARC
  8
0
 10
21.2571
 20
230.5321
 40
0.0515685
 50
263.5807
 51
274.1531
  0
ARC
  8
0
 10
21.2654
 20
230.4171
 40
0.0637171
 50
83.9074
 51
94.1537
  0
ARC
  8
0
 10
21.272
 20
230.4791
 40
0.00144965
 50
11.3054
 51
83.9112
  0
ARC
  8
0
 10
21.2724
 20
230.4793
 40
0.0010996
 50
303.3676
 51
359.994
  0
ARC
  8
0
 10
21.2126
 20
230.6273
 40
0.16068
 50
286.8566
 51
292.0718
  0
LINE
  8
0
 10
21.2592
 20
230.4736
 11
21.2354
 21
230.4663
  0
ARC
  8
0
 10
21.2466
 20
230.4293
 40
0.0387551
 50
106.857
 51
122.0441
  0
ARC
  8
0
 10
21.236
 20
230.4462
 40
0.0187091
 50
122.0418
 51
143.9695
  0
ARC
  8
0
 10
21.2259
 20
230.4536
 40
0.00626719
 50
143.969
 51
171.8039
  0
ARC
  8
0
 10
21.2227
 20
230.4545
 40
0.00298589
 50
180.0035
 51
213.4835
  0
ARC
  8
0
 10
21.2218
 20
230.4542
 40
0.00215537
 50
221.67
 51
259.9721
  0
ARC
  8
0
 10
21.2278
 20
230.4881
 40
0.0365651
 50
259.9761
 51
269.1131
  0
LINE
  8
0
 10
21.2273
 20
230.4516
 11
21.2331
 21
230.4503
  0
LINE
  8
0
 10
21.2331
 20
230.4503
 11
21.2242
 21
230.4431
  0
ARC
  8
0
 10
21.2142
 20
230.4556
 40
0.0159661
 50
278.9979
 51
308.6877
  0
ARC
  8
0
 10
21.2054
 20
230.5114
 40
0.0724623
 50
265.1834
 51
278.998
  0
ARC
  8
0
 10
21.1958
 20
230.3976
 40
0.0417013
 50
85.1831
 51
100.0759
  0
ARC
  8
0
 10
21.193
 20
230.4134
 40
0.0256919
 50
100.0762
 51
119.0833
  0
ARC
  8
0
 10
21.1852
 20
230.4274
 40
0.00968339
 50
119.0832
 51
139.4471
  0
ARC
  8
0
 10
21.1805
 20
230.4324
 40
0.00289638
 50
153.796
 51
179.9964
  0
LINE
  8
0
 10
21.1776
 20
230.4324
 11
21.1855
 21
230.4284
  0
ARC
  8
0
 10
21.1787
 20
230.4146
 40
0.0154451
 50
46.4084
 51
63.7593
  0
ARC
  8
0
 10
21.1877
 20
230.4242
 40
0.00227395
 50
359.9977
 51
403.317
  0
LINE
  8
0
 10
21.1899
 20
230.4242
 11
21.1732
 21
230.4152
  0
LINE
  8
0
 10
21.1732
 20
230.4152
 11
21.1652
 21
230.4071
  0
LINE
  8
0
 10
21.1652
 20
230.4071
 11
21.1712
 21
230.4055
  0
LINE
  8
0
 10
21.1712
 20
230.4055
 11
21.1639
 21
230.3964
  0
ARC
  8
0
 10
21.2048
 20
230.3899
 40
0.0413952
 50
170.9428
 51
180.0005
  0
ARC
  8
0
 10
21.1661
 20
230.3907
 40
0.00282613
 50
195.2536
 51
272.7171
  0
LINE
  8
0
 10
21.1663
 20
230.3878
 11
21.3601
 21
230.397
  0
LINE
  8
0
 10
21.3601
 20
230.397
 11
21.3494
 21
230.382
  0
LINE
  8
0
 10
21.3494
 20
230.382
 11
21.3494
 21
230.382
  0
LINE
  8
0
 10
20.8822
 20
229.7001
 11
20.8537
 21
229.7184
  0
ARC
  8
0
 10
20.8549
 20
229.7196
 40
0.00163438
 50
180.006
 51
226.4499
  0
ARC
  8
0
 10
20.8659
 20
229.7172
 40
0.0128731
 50
149.9495
 51
169.2139
  0
ARC
  8
0
 10
20.796
 20
229.7576
 40
0.067818
 50
329.9504
 51
338.2496
  0
ARC
  8
0
 10
20.8437
 20
229.7385
 40
0.0164548
 50
338.2525
 51
355.1472
  0
ARC
  8
0
 10
20.8027
 20
229.7372
 40
0.0574613
 50
359.9985
 51
363.4958
  0
ARC
  8
0
 10
20.7497
 20
229.7245
 40
0.111554
 50
8.3527
 51
13.2262
  0
ARC
  8
0
 10
21.0922
 20
229.805
 40
0.240288
 50
190.7849
 51
193.2263
  0
ARC
  8
0
 10
20.9297
 20
229.774
 40
0.0748949
 50
186.4097
 51
190.7831
  0
ARC
  8
0
 10
20.6227
 20
229.7395
 40
0.234064
 50
6.4107
 51
9.0646
  0
ARC
  8
0
 10
20.8474
 20
229.7754
 40
0.00649112
 50
9.0659
 51
25.0531
  0
ARC
  8
0
 10
20.8342
 20
229.7692
 40
0.0210797
 50
25.0514
 51
49.1481
  0
ARC
  8
0
 10
20.7589
 20
229.6821
 40
0.1362
 50
49.1488
 51
58.5696
  0
ARC
  8
0
 10
20.9095
 20
229.9285
 40
0.152559
 50
233.7711
 51
238.5698
  0
ARC
  8
0
 10
21.1072
 20
230.1984
 40
0.487095
 50
231.0856
 51
233.7706
  0
ARC
  8
0
 10
21.7987
 20
231.0549
 40
1.58799
 50
230.0798
 51
231.0853
  0
ARC
  8
0
 10
21.4349
 20
230.6201
 40
1.021
 50
228.8269
 51
230.0807
  0
ARC
  8
0
 10
20.9386
 20
230.0527
 40
0.267156
 50
225.1275
 51
228.8266
  0
ARC
  8
0
 10
20.9259
 20
230.04
 40
0.249238
 50
221.2976
 51
225.1274
  0
ARC
  8
0
 10
20.7808
 20
229.9125
 40
0.0560804
 50
210.6792
 51
221.2977
  0
ARC
  8
0
 10
20.7471
 20
229.8925
 40
0.0168596
 50
191.2477
 51
210.6791
  0
ARC
  8
0
 10
20.7776
 20
229.8937
 40
0.0472721
 50
180.0005
 51
185.4577
  0
ARC
  8
0
 10
20.7811
 20
229.8885
 40
0.0510477
 50
164.9387
 51
174.2093
  0
LINE
  8
0
 10
20.7318
 20
229.9018
 11
20.7345
 21
229.9116
  0
LINE
  8
0
 10
20.7345
 20
229.9116
 11
20.7382
 21
229.9258
  0
ARC
  8
0
 10
20.2674
 20
230.0613
 40
0.489924
 50
343.9441
 51
345.4877
  0
ARC
  8
0
 10
20.7104
 20
229.9467
 40
0.0323742
 50
345.4869
 51
351.4942
  0
ARC
  8
0
 10
21.4728
 20
229.8326
 40
0.738567
 50
170.3889
 51
171.4949
  0
ARC
  8
0
 10
20.7526
 20
229.9546
 40
0.00812245
 50
159.8275
 51
170.386
  0
ARC
  8
0
 10
20.7571
 20
229.953
 40
0.0128573
 50
145.8604
 51
159.8313
  0
ARC
  8
0
 10
20.8433
 20
229.8945
 40
0.117037
 50
141.2389
 51
145.8593
  0
ARC
  8
0
 10
20.5994
 20
230.0903
 40
0.195797
 50
321.2397
 51
325.3634
  0
ARC
  8
0
 10
20.6732
 20
230.0393
 40
0.106039
 50
325.3619
 51
330.9665
  0
LINE
  8
0
 10
20.7659
 20
229.9879
 11
20.779
 21
230.0114
  0
LINE
  8
0
 10
20.779
 20
230.0114
 11
20.7919
 21
230.0334
  0
ARC
  8
0
 10
20.9923
 20
229.9427
 40
0.219909
 50
153.0182
 51
155.64
  0
ARC
  8
0
 10
20.8489
 20
230.0157
 40
0.0590143
 50
147.9544
 51
153.0167
  0
ARC
  8
0
 10
20.8072
 20
230.0417
 40
0.00986314
 50
128.9292
 51
147.957
  0
ARC
  8
0
 10
20.8026
 20
230.0475
 40
0.0024499
 50
90.187
 51
128.9262
  0
ARC
  8
0
 10
20.8026
 20
230.0465
 40
0.00348721
 50
50.2343
 51
90.1892
  0
ARC
  8
0
 10
20.797
 20
230.0398
 40
0.0121306
 50
29.1235
 51
50.2332
  0
ARC
  8
0
 10
20.7654
 20
230.0222
 40
0.0484104
 50
17.4539
 51
29.1231
  0
ARC
  8
0
 10
20.7438
 20
230.0154
 40
0.0710235
 50
7.8269
 51
17.4557
  0
ARC
  8
0
 10
20.1078
 20
229.928
 40
0.712969
 50
6.3676
 51
7.8265
  0
ARC
  8
0
 10
20.7159
 20
229.9958
 40
0.101103
 50
2.4913
 51
6.366
  0
ARC
  8
0
 10
20.1105
 20
229.9914
 40
0.706429
 50
359.9997
 51
360.7177
  0
ARC
  8
0
 10
20.6056
 20
229.9979
 40
0.21146
 50
355.0265
 51
358.2258
  0
ARC
  8
0
 10
20.5462
 20
230.0031
 40
0.271056
 50
351.9213
 51
355.0259
  0
ARC
  8
0
 10
20.7432
 20
229.9751
 40
0.0721074
 50
345.9011
 51
351.9225
  0
LINE
  8
0
 10
20.8131
 20
229.9576
 11
20.8075
 21
229.9349
  0
ARC
  8
0
 10
20.5979
 20
229.9876
 40
0.216053
 50
342.2733
 51
345.9003
  0
ARC
  8
0
 10
20.7893
 20
229.9264
 40
0.0151792
 50
328.5593
 51
342.2731
  0
LINE
  8
0
 10
20.8022
 20
229.9185
 11
20.7976
 21
229.911
  0
ARC
  8
0
 10
20.8
 20
229.9095
 40
0.00280223
 50
148.551
 51
171.7909
  0
ARC
  8
0
 10
21.0654
 20
229.8713
 40
0.270889
 50
171.8
 51
174.1476
  0
ARC
  8
0
 10
20.8522
 20
229.8931
 40
0.0566008
 50
174.1459
 51
179.9991
  0
ARC
  8
0
 10
20.8316
 20
229.8932
 40
0.0360025
 50
180.0012
 51
187.342
  0
ARC
  8
0
 10
20.8219
 20
229.8919
 40
0.0262147
 50
187.3391
 51
196.9493
  0
ARC
  8
0
 10
20.8514
 20
229.9009
 40
0.0570245
 50
196.9521
 51
203.4638
  0
ARC
  8
0
 10
20.8667
 20
229.9075
 40
0.0737557
 50
203.4616
 51
208.5421
  0
ARC
  8
0
 10
20.8169
 20
229.8805
 40
0.0170787
 50
208.5456
 51
219.1152
  0
LINE
  8
0
 10
20.8037
 20
229.8697
 11
20.821
 21
229.854
  0
LINE
  8
0
 10
20.821
 20
229.854
 11
20.8431
 21
229.8337
  0
ARC
  8
0
 10
20.9244
 20
229.9223
 40
0.120262
 50
227.4478
 51
231.0893
  0
ARC
  8
0
 10
21.0991
 20
230.1387
 40
0.398433
 50
231.0895
 51
233.09
  0
ARC
  8
0
 10
20.6949
 20
229.6006
 40
0.274642
 50
52.0602
 51
53.089
  0
ARC
  8
0
 10
20.7813
 20
229.7114
 40
0.134175
 50
50.5905
 51
52.0623
  0
ARC
  8
0
 10
20.839
 20
229.7816
 40
0.0433003
 50
41.7788
 51
50.5892
  0
ARC
  8
0
 10
20.8529
 20
229.794
 40
0.0246289
 50
30.0885
 51
41.7792
  0
ARC
  8
0
 10
20.8331
 20
229.7825
 40
0.0475537
 50
24.9248
 51
30.0873
  0
ARC
  8
0
 10
20.8135
 20
229.7734
 40
0.0691367
 50
20.6454
 51
24.9265
  0
ARC
  8
0
 10
20.6221
 20
229.7013
 40
0.273656
 50
18.485
 51
20.6443
  0
ARC
  8
0
 10
20.8668
 20
229.7831
 40
0.01568
 50
9.4571
 51
18.487
  0
ARC
  8
0
 10
20.8639
 20
229.7831
 40
0.0184826
 50
0.0006
 51
7.8774
  0
ARC
  8
0
 10
20.7958
 20
229.7855
 40
0.0866312
 50
354.1191
 51
358.4212
  0
ARC
  8
0
 10
20.9791
 20
229.7667
 40
0.0976031
 50
174.1192
 51
178.21
  0
ARC
  8
0
 10
20.8942
 20
229.7697
 40
0.0127033
 50
180.0002
 51
189.7069
  0
LINE
  8
0
 10
20.8817
 20
229.7676
 11
20.8834
 21
229.7592
  0
ARC
  8
0
 10
20.8674
 20
229.7559
 40
0.0163889
 50
0.002
 51
11.4985
  0
ARC
  8
0
 10
20.794
 20
229.7559
 40
0.0897168
 50
355.0923
 51
359.9992
  0
ARC
  8
0
 10
21.6597
 20
229.6816
 40
0.779135
 50
175.0919
 51
175.5317
  0
ARC
  8
0
 10
21.0974
 20
229.7255
 40
0.215143
 50
175.5353
 51
176.3719
  0
ARC
  8
0
 10
21.0523
 20
229.7392
 40
0.169595
 50
180.0016
 51
182.2771
  0
ARC
  8
0
 10
20.8949
 20
229.7337
 40
0.0121407
 50
185.9034
 51
203.3714
  0
LINE
  8
0
 10
20.8838
 20
229.7288
 11
20.8874
 21
229.7205
  0
ARC
  8
0
 10
20.8856
 20
229.7199
 40
0.00184421
 50
0.0103
 51
17.3047
  0
ARC
  8
0
 10
20.418
 20
229.7699
 40
0.472163
 50
352.5198
 51
353.92
  0
ARC
  8
0
 10
20.8612
 20
229.7117
 40
0.0251073
 50
345.1729
 51
352.5195
  0
ARC
  8
0
 10
20.8638
 20
229.711
 40
0.022464
 50
337.4067
 51
345.1742
  0
ARC
  8
0
 10
20.8783
 20
229.705
 40
0.00676732
 50
314.5633
 51
337.4067
  0
ARC
  8
0
 10
20.8825
 20
229.7007
 40
0.000679863
 50
237.2284
 51
314.5624
  0
LINE
  8
0
 10
20.8822
 20
229.7001
 11
20.8822
 21
229.7001
  0
LINE
  8
0
 10
20.978
 20
230.2302
 11
20.978
 21
230.2443
  0
LINE
  8
0
 10
20.978
 20
230.2443
 11
20.9413
 21
230.2443
  0
ARC
  8
0
 10
21.254
 20
230.11
 40
0.340331
 50
155.6405
 51
156.7529
  0
ARC
  8
0
 10
21.0212
 20
230.2154
 40
0.0847798
 50
153.4134
 51
155.6424
  0
ARC
  8
0
 10
21.0257
 20
230.2131
 40
0.0898121
 50
149.5322
 51
153.4099
  0
ARC
  8
0
 10
21.0582
 20
230.194
 40
0.127492
 50
146.2819
 51
149.5363
  0
ARC
  8
0
 10
21.0658
 20
230.1889
 40
0.136628
 50
142.0042
 51
146.2799
  0
ARC
  8
0
 10
20.9966
 20
230.243
 40
0.048886
 50
134.8536
 51
142.0046
  0
LINE
  8
0
 10
20.9622
 20
230.2776
 11
20.9691
 21
230.2845
  0
ARC
  8
0
 10
20.9297
 20
230.3241
 40
0.0558534
 50
314.8504
 51
317.5417
  0
ARC
  8
0
 10
20.9492
 20
230.3063
 40
0.0294239
 50
317.5493
 51
321.2575
  0
ARC
  8
0
 10
20.9516
 20
230.3044
 40
0.026373
 50
321.2541
 51
328.9887
  0
ARC
  8
0
 10
20.9507
 20
230.3049
 40
0.0274366
 50
328.9861
 51
336.5694
  0
ARC
  8
0
 10
20.951
 20
230.3048
 40
0.0270477
 50
336.5724
 51
342.4004
  0
ARC
  8
0
 10
20.9527
 20
230.3043
 40
0.0253223
 50
342.3975
 51
348.4207
  0
ARC
  8
0
 10
20.9525
 20
230.3043
 40
0.0255066
 50
348.4235
 51
354.4739
  0
ARC
  8
0
 10
20.9474
 20
230.3047
 40
0.0305939
 50
354.6657
 51
359.9987
  0
ARC
  8
0
 10
20.9488
 20
230.3046
 40
0.029186
 50
0.1953
 51
11.0506
  0
ARC
  8
0
 10
20.9513
 20
230.3051
 40
0.0266717
 50
11.0489
 51
22.4065
  0
ARC
  8
0
 10
20.9516
 20
230.3052
 40
0.0263475
 50
22.4079
 51
34.0078
  0
ARC
  8
0
 10
20.951
 20
230.3048
 40
0.0270803
 50
34.0071
 51
45.4486
  0
ARC
  8
0
 10
20.9508
 20
230.3046
 40
0.0273745
 50
45.4496
 51
56.6765
  0
ARC
  8
0
 10
20.95
 20
230.3034
 40
0.0288037
 50
56.6756
 51
67.6192
  0
ARC
  8
0
 10
20.9501
 20
230.3036
 40
0.0285581
 50
67.6208
 51
78.5782
  0
ARC
  8
0
 10
20.9507
 20
230.3063
 40
0.0257639
 50
78.5753
 51
90.1138
  0
ARC
  8
0
 10
20.9507
 20
230.3064
 40
0.0257462
 50
90.1168
 51
101.5399
  0
ARC
  8
0
 10
20.9512
 20
230.3035
 40
0.0286144
 50
101.5372
 51
112.3708
  0
ARC
  8
0
 10
20.9513
 20
230.3033
 40
0.0288716
 50
112.3742
 51
123.3262
  0
ARC
  8
0
 10
20.9504
 20
230.3048
 40
0.0271002
 50
123.3222
 51
134.6273
  0
ARC
  8
0
 10
20.9504
 20
230.3048
 40
0.0271455
 50
134.6305
 51
146.0516
  0
ARC
  8
0
 10
20.9514
 20
230.304
 40
0.0284197
 50
146.0492
 51
157.2106
  0
ARC
  8
0
 10
20.9511
 20
230.3042
 40
0.0280847
 50
157.2083
 51
163.2606
  0
ARC
  8
0
 10
20.9411
 20
230.3072
 40
0.017614
 50
163.2682
 51
170.9127
  0
ARC
  8
0
 10
20.9513
 20
230.3056
 40
0.0279151
 50
170.907
 51
175.0121
  0
ARC
  8
0
 10
20.9999
 20
230.3013
 40
0.0767229
 50
175.0145
 51
177.4905
  0
LINE
  8
0
 10
20.9233
 20
230.3047
 11
20.9374
 21
230.3047
  0
ARC
  8
0
 10
20.968
 20
230.3043
 40
0.0306176
 50
176.0793
 51
179.3395
  0
ARC
  8
0
 10
20.9449
 20
230.3059
 40
0.00744714
 50
169.4735
 51
176.0885
  0
ARC
  8
0
 10
20.9454
 20
230.3058
 40
0.00803208
 50
161.5714
 51
169.4731
  0
ARC
  8
0
 10
20.9515
 20
230.3038
 40
0.0143856
 50
155.6581
 51
161.5606
  0
ARC
  8
0
 10
20.954
 20
230.3026
 40
0.0172098
 50
146.4166
 51
155.6609
  0
ARC
  8
0
 10
20.9509
 20
230.3047
 40
0.0133987
 50
135.9404
 51
146.4204
  0
ARC
  8
0
 10
20.9506
 20
230.305
 40
0.0130126
 50
124.1104
 51
135.9343
  0
ARC
  8
0
 10
20.9505
 20
230.3051
 40
0.0128913
 50
112.239
 51
124.1187
  0
ARC
  8
0
 10
20.9505
 20
230.3052
 40
0.0128097
 50
100.9156
 51
112.2345
  0
ARC
  8
0
 10
20.9506
 20
230.3048
 40
0.0131792
 50
89.7576
 51
100.916
  0
ARC
  8
0
 10
20.9506
 20
230.3047
 40
0.0132991
 50
78.3118
 51
89.7586
  0
ARC
  8
0
 10
20.9506
 20
230.3049
 40
0.0131092
 50
66.7798
 51
78.3102
  0
ARC
  8
0
 10
20.9506
 20
230.3049
 40
0.0131454
 50
55.7569
 51
66.7791
  0
ARC
  8
0
 10
20.9501
 20
230.3041
 40
0.0140588
 50
45.102
 51
55.7599
  0
ARC
  8
0
 10
20.9502
 20
230.3042
 40
0.0139232
 50
33.9102
 51
45.1041
  0
ARC
  8
0
 10
20.9517
 20
230.3052
 40
0.0121065
 50
21.8947
 51
33.9023
  0
ARC
  8
0
 10
20.9515
 20
230.3051
 40
0.012314
 50
10.764
 51
21.8969
  0
ARC
  8
0
 10
20.9473
 20
230.3043
 40
0.0165127
 50
1.1573
 51
10.7676
  0
ARC
  8
0
 10
20.9364
 20
230.3047
 40
0.0274606
 50
356.5513
 51
359.996
  0
ARC
  8
0
 10
20.9511
 20
230.3041
 40
0.0127583
 50
348.8704
 51
355.4039
  0
ARC
  8
0
 10
20.9516
 20
230.304
 40
0.0122562
 50
342.5178
 51
348.872
  0
ARC
  8
0
 10
20.9515
 20
230.304
 40
0.0123609
 50
336.1791
 51
342.5064
  0
ARC
  8
0
 10
20.9521
 20
230.3037
 40
0.011646
 50
329.3028
 51
336.1874
  0
ARC
  8
0
 10
20.9541
 20
230.3025
 40
0.0093147
 50
321.5983
 51
329.2975
  0
ARC
  8
0
 10
20.9537
 20
230.3028
 40
0.00984374
 50
317.1827
 51
321.609
  0
ARC
  8
0
 10
20.9422
 20
230.3136
 40
0.0256104
 50
314.4261
 51
317.17
  0
LINE
  8
0
 10
20.9601
 20
230.2953
 11
20.9493
 21
230.2846
  0
ARC
  8
0
 10
20.9799
 20
230.2534
 40
0.0437336
 50
134.4302
 51
144.6084
  0
ARC
  8
0
 10
21.075
 20
230.1859
 40
0.160392
 50
144.6094
 51
149.9191
  0
ARC
  8
0
 10
21.0285
 20
230.2128
 40
0.10666
 50
149.9187
 51
156.1916
  0
ARC
  8
0
 10
21.02
 20
230.2165
 40
0.0974214
 50
156.1917
 51
162.7556
  0
ARC
  8
0
 10
21.0099
 20
230.2197
 40
0.0867823
 50
162.7538
 51
166.1833
  0
ARC
  8
0
 10
21.2654
 20
230.1568
 40
0.34996
 50
166.1858
 51
167.8934
  0
LINE
  8
0
 10
20.9233
 20
230.2302
 11
20.978
 21
230.2302
  0
LINE
  8
0
 10
20.978
 20
230.2302
 11
20.978
 21
230.2302
  0
POLYLINE
  8
0
 66
     1
 10
0
 20
0
  0
VERTEX
  8
0
 10
20.9472
 20
228.5963
  0
VERTEX
  8
0
 10
20.9472
 20
228.5003
  0
VERTEX
  8
0
 10
20.4032
 20
228.5003
  0
VERTEX
  8
0
 10
20.4073
 20
228.5443
  0
VERTEX
  8
0
 10
20.4217
 20
228.5893
  0
VERTEX
  8
0
 10
20.4464
 20
228.6352
  0
VERTEX
  8
0
 10
20.4814
 20
228.6822
  0
VERTEX
  8
0
 10
20.538
 20
228.7416
  0
VERTEX
  8
0
 10
20.6142
 20
228.8084
  0
VERTEX
  8
0
 10
20.675
 20
228.8598
  0
VERTEX
  8
0
 10
20.723
 20
228.9034
  0
VERTEX
  8
0
 10
20.7583
 20
228.9391
  0
VERTEX
  8
0
 10
20.7955
 20
228.9846
  0
VERTEX
  8
0
 10
20.822
 20
229.0279
  0
VERTEX
  8
0
 10
20.8379
 20
229.069
  0
VERTEX
  8
0
 10
20.8432
 20
229.1079
  0
VERTEX
  8
0
 10
20.8317
 20
229.1666
  0
VERTEX
  8
0
 10
20.7971
 20
229.2131
  0
VERTEX
  8
0
 10
20.7479
 20
229.2422
  0
VERTEX
  8
0
 10
20.688
 20
229.2523
  0
VERTEX
  8
0
 10
20.6207
 20
229.2414
  0
VERTEX
  8
0
 10
20.5698
 20
229.2073
  0
VERTEX
  8
0
 10
20.5376
 20
229.1539
  0
VERTEX
  8
0
 10
20.5265
 20
229.0849
  0
VERTEX
  8
0
 10
20.4224
 20
229.0957
  0
VERTEX
  8
0
 10
20.4312
 20
229.1507
  0
VERTEX
  8
0
 10
20.4476
 20
229.1988
  0
VERTEX
  8
0
 10
20.4715
 20
229.2401
  0
VERTEX
  8
0
 10
20.5029
 20
229.2744
  0
VERTEX
  8
0
 10
20.5549
 20
229.3088
  0
VERTEX
  8
0
 10
20.6174
 20
229.3294
  0
VERTEX
  8
0
 10
20.6902
 20
229.3363
  0
VERTEX
  8
0
 10
20.7587
 20
229.3297
  0
VERTEX
  8
0
 10
20.8189
 20
229.3097
  0
VERTEX
  8
0
 10
20.8707
 20
229.2765
  0
VERTEX
  8
0
 10
20.9042
 20
229.2418
  0
VERTEX
  8
0
 10
20.9281
 20
229.2016
  0
VERTEX
  8
0
 10
20.9425
 20
229.1558
  0
VERTEX
  8
0
 10
20.9472
 20
229.1044
  0
VERTEX
  8
0
 10
20.9418
 20
229.0545
  0
VERTEX
  8
0
 10
20.9253
 20
229.0045
  0
VERTEX
  8
0
 10
20.8979
 20
228.9543
  0
VERTEX
  8
0
 10
20.8596
 20
228.9039
  0
VERTEX
  8
0
 10
20.8208
 20
228.8631
  0
VERTEX
  8
0
 10
20.7689
 20
228.8141
  0
VERTEX
  8
0
 10
20.7039
 20
228.7569
  0
VERTEX
  8
0
 10
20.6619
 20
228.7211
  0
VERTEX
  8
0
 10
20.6332
 20
228.6962
  0
VERTEX
  8
0
 10
20.6179
 20
228.6823
  0
VERTEX
  8
0
 10
20.5759
 20
228.6386
  0
VERTEX
  8
0
 10
20.5443
 20
228.5963
  0
VERTEX
  8
0
 10
20.9472
 20
228.5963
  0
SEQEND
  0
POLYLINE
  8
0
 66
     1
 10
0
 20
0
  0
VERTEX
  8
0
 10
21.1112
 20
228.5003
  0
VERTEX
  8
0
 10
21.1112
 20
228.6203
  0
VERTEX
  8
0
 10
21.2272
 20
228.6203
  0
VERTEX
  8
0
 10
21.2272
 20
228.5003
  0
VERTEX
  8
0
 10
21.1112
 20
228.5003
  0
SEQEND
  0
POLYLINE
  8
0
 66
     1
 10
0
 20
0
  0
VERTEX
  8
0
 10
21.3792
 20
228.912
  0
VERTEX
  8
0
 10
21.3804
 20
228.9656
  0
VERTEX
  8
0
 10
21.384
 20
229.0157
  0
VERTEX
  8
0
 10
21.39
 20
229.0622
  0
VERTEX
  8
0
 10
21.3984
 20
229.1051
  0
VERTEX
  8
0
 10
21.4092
 20
229.1444
  0
VERTEX
  8
0
 10
21.4223
 20
229.1802
  0
VERTEX
  8
0
 10
21.4379
 20
229.2124
  0
VERTEX
  8
0
 10
21.4559
 20
229.2411
  0
VERTEX
  8
0
 10
21.4762
 20
229.2661
  0
VERTEX
  8
0
 10
21.499
 20
229.2876
  0
VERTEX
  8
0
 10
21.5659
 20
229.3239
  0
VERTEX
  8
0
 10
21.6492
 20
229.3363
  0
VERTEX
  8
0
 10
21.7109
 20
229.3298
  0
VERTEX
  8
0
 10
21.7662
 20
229.3091
  0
VERTEX
  8
0
 10
21.8019
 20
229.2849
  0
VERTEX
  8
0
 10
21.8332
 20
229.2527
  0
VERTEX
  8
0
 10
21.8601
 20
229.2125
  0
VERTEX
  8
0
 10
21.8826
 20
229.1643
  0
VERTEX
  8
0
 10
21.9006
 20
229.108
  0
VERTEX
  8
0
 10
21.9146
 20
229.0233
  0
VERTEX
  8
0
 10
21.9192
 20
228.912
  0
VERTEX
  8
0
 10
21.918
 20
228.8585
  0
VERTEX
  8
0
 10
21.9144
 20
228.8085
  0
VERTEX
  8
0
 10
21.9085
 20
228.7622
  0
VERTEX
  8
0
 10
21.9001
 20
228.7193
  0
VERTEX
  8
0
 10
21.8893
 20
228.68
  0
VERTEX
  8
0
 10
21.8761
 20
228.6443
  0
VERTEX
  8
0
 10
21.8606
 20
228.6122
  0
VERTEX
  8
0
 10
21.8426
 20
228.5835
  0
VERTEX
  8
0
 10
21.8222
 20
228.5585
  0
VERTEX
  8
0
 10
21.7995
 20
228.537
  0
VERTEX
  8
0
 10
21.7326
 20
228.5008
  0
VERTEX
  8
0
 10
21.6492
 20
228.4883
  0
VERTEX
  8
0
 10
21.6281
 20
228.4889
  0
VERTEX
  8
0
 10
21.6078
 20
228.4909
  0
VERTEX
  8
0
 10
21.5884
 20
228.4942
  0
VERTEX
  8
0
 10
21.5699
 20
228.4989
  0
VERTEX
  8
0
 10
21.5522
 20
228.5049
  0
VERTEX
  8
0
 10
21.5354
 20
228.5123
  0
VERTEX
  8
0
 10
21.5194
 20
228.5211
  0
VERTEX
  8
0
 10
21.5043
 20
228.5312
  0
VERTEX
  8
0
 10
21.4901
 20
228.5427
  0
VERTEX
  8
0
 10
21.4767
 20
228.5556
  0
VERTEX
  8
0
 10
21.4642
 20
228.5698
  0
VERTEX
  8
0
 10
21.4525
 20
228.5854
  0
VERTEX
  8
0
 10
21.4417
 20
228.6023
  0
VERTEX
  8
0
 10
21.4318
 20
228.6206
  0
VERTEX
  8
0
 10
21.4227
 20
228.6403
  0
VERTEX
  8
0
 10
21.4145
 20
228.6613
  0
VERTEX
  8
0
 10
21.4071
 20
228.6837
  0
VERTEX
  8
0
 10
21.4006
 20
228.7075
  0
VERTEX
  8
0
 10
21.395
 20
228.7326
  0
VERTEX
  8
0
 10
21.3902
 20
228.7591
  0
VERTEX
  8
0
 10
21.3863
 20
228.787
  0
VERTEX
  8
0
 10
21.3832
 20
228.8162
  0
VERTEX
  8
0
 10
21.381
 20
228.8468
  0
VERTEX
  8
0
 10
21.3797
 20
228.8787
  0
VERTEX
  8
0
 10
21.3792
 20
228.912
  0
VERTEX
  8
0
 10
21.3792
 20
228.912
  0
SEQEND
  0
POLYLINE
  8
0
 66
     1
 10
0
 20
0
  0
VERTEX
  8
0
 10
21.4832
 20
228.9123
  0
VERTEX
  8
0
 10
21.4857
 20
228.8271
  0
VERTEX
  8
0
 10
21.4931
 20
228.7564
  0
VERTEX
  8
0
 10
21.5054
 20
228.7004
  0
VERTEX
  8
0
 10
21.5176
 20
228.6665
  0
VERTEX
  8
0
 10
21.5326
 20
228.6379
  0
VERTEX
  8
0
 10
21.5504
 20
228.6144
  0
VERTEX
  8
0
 10
21.5709
 20
228.5961
  0
VERTEX
  8
0
 10
21.5943
 20
228.583
  0
VERTEX
  8
0
 10
21.6204
 20
228.5751
  0
VERTEX
  8
0
 10
21.6492
 20
228.5723
  0
VERTEX
  8
0
 10
21.6663
 20
228.5732
  0
VERTEX
  8
0
 10
21.6823
 20
228.5759
  0
VERTEX
  8
0
 10
21.6975
 20
228.5805
  0
VERTEX
  8
0
 10
21.7118
 20
228.587
  0
VERTEX
  8
0
 10
21.7251
 20
228.5954
  0
VERTEX
  8
0
 10
21.7375
 20
228.6057
  0
VERTEX
  8
0
 10
21.749
 20
228.6179
  0
VERTEX
  8
0
 10
21.7596
 20
228.632
  0
VERTEX
  8
0
 10
21.7693
 20
228.648
  0
VERTEX
  8
0
 10
21.778
 20
228.6659
  0
VERTEX
  8
0
 10
21.7858
 20
228.6857
  0
VERTEX
  8
0
 10
21.7927
 20
228.7074
  0
VERTEX
  8
0
 10
21.7987
 20
228.731
  0
VERTEX
  8
0
 10
21.8037
 20
228.7565
  0
VERTEX
  8
0
 10
21.8079
 20
228.7839
  0
VERTEX
  8
0
 10
21.8111
 20
228.8131
  0
VERTEX
  8
0
 10
21.8134
 20
228.8443
  0
VERTEX
  8
0
 10
21.8148
 20
228.8774
  0
VERTEX
  8
0
 10
21.8152
 20
228.9123
  0
VERTEX
  8
0
 10
21.8128
 20
228.9976
  0
VERTEX
  8
0
 10
21.8054
 20
229.0682
  0
VERTEX
  8
0
 10
21.7931
 20
229.1243
  0
VERTEX
  8
0
 10
21.7807
 20
229.1581
  0
VERTEX
  8
0
 10
21.7656
 20
229.1868
  0
VERTEX
  8
0
 10
21.7476
 20
229.2102
  0
VERTEX
  8
0
 10
21.7269
 20
229.2285
  0
VERTEX
  8
0
 10
21.7034
 20
229.2416
  0
VERTEX
  8
0
 10
21.6772
 20
229.2496
  0
VERTEX
  8
0
 10
21.6481
 20
229.2523
  0
VERTEX
  8
0
 10
21.6044
 20
229.246
  0
VERTEX
  8
0
 10
21.567
 20
229.2261
  0
VERTEX
  8
0
 10
21.5359
 20
229.1928
  0
VERTEX
  8
0
 10
21.5219
 20
229.1688
  0
VERTEX
  8
0
 10
21.5101
 20
229.1394
  0
VERTEX
  8
0
 10
21.5004
 20
229.1047
  0
VERTEX
  8
0
 10
21.4929
 20
229.0646
  0
VERTEX
  8
0
 10
21.4875
 20
229.0192
  0
VERTEX
  8
0
 10
21.4843
 20
228.9684
  0
VERTEX
  8
0
 10
21.4832
 20
228.9123
  0
VERTEX
  8
0
 10
21.4832
 20
228.9123
  0
SEQEND
  0
LINE
  8
0
 10
22.3204
 20
230.9
 11
22.3204
 21
228.1
  0
LINE
  8
0
 10
22.3204
 20
230.9
 11
20
 21
230.9
  0
LINE
  8
0
 10
22.3204
 20
228.1
 11
20
 21
228.1
  0
LINE
  8
0
 10
30.2854
 20
252.7679
 11
30.3126
 21
252.8294
  0
ARC
  8
0
 10
27.3808
 20
254.093
 40
3.1925
 50
336.6853
 51
337.6696
  0
ARC
  8
0
 10
26.3655
 20
254.5104
 40
4.29026
 50
337.6641
 51
338.5131
  0
ARC
  8
0
 10
26.9503
 20
254.2801
 40
3.66176
 50
338.5147
 51
340.6268
  0
ARC
  8
0
 10
29.7302
 20
253.3026
 40
0.714974
 50
340.6298
 51
345.4106
  0
ARC
  8
0
 10
29.5257
 20
253.3559
 40
0.926345
 50
345.4077
 51
356.8507
  0
ARC
  8
0
 10
25.2272
 20
253.3049
 40
5.22341
 50
0.0006
 51
2.6039
  0
LINE
  8
0
 10
30.4452
 20
253.5422
 11
30.3878
 21
254.1123
  0
ARC
  8
0
 10
24.9026
 20
253.5599
 40
5.51292
 50
5.7517
 51
10.3144
  0
ARC
  8
0
 10
29.3049
 20
254.361
 40
1.03831
 50
10.3147
 51
20.8403
  0
ARC
  8
0
 10
31.9841
 20
255.3809
 40
1.82847
 50
187.4592
 51
200.8404
  0
ARC
  8
0
 10
30.2374
 20
255.1436
 40
0.0662757
 50
111.4939
 51
179.9986
  0
LINE
  8
0
 10
30.2131
 20
255.2052
 11
30.2629
 21
255.2177
  0
ARC
  8
0
 10
30.2413
 20
255.304
 40
0.0889672
 50
284.0383
 51
303.0938
  0
ARC
  8
0
 10
30.2244
 20
255.3299
 40
0.11991
 50
303.0895
 51
319.4839
  0
ARC
  8
0
 10
30.1588
 20
255.3859
 40
0.206113
 50
319.4889
 51
331.4281
  0
ARC
  8
0
 10
30.2315
 20
255.3463
 40
0.123347
 50
331.4223
 51
346.8743
  0
ARC
  8
0
 10
29.8685
 20
255.4183
 40
0.493366
 50
348.305
 51
359.9992
  0
ARC
  8
0
 10
29.6104
 20
255.3996
 40
0.751769
 50
1.4291
 51
11.9883
  0
ARC
  8
0
 10
37.5804
 20
257.0919
 40
7.396
 50
189.6098
 51
191.9882
  0
ARC
  8
0
 10
30.7374
 20
255.9298
 40
0.455017
 50
179.9979
 51
189.1782
  0
ARC
  8
0
 10
30.8277
 20
255.9258
 40
0.545328
 50
166.2478
 51
179.5706
  0
ARC
  8
0
 10
34.0758
 20
255.1309
 40
3.88924
 50
161.2689
 51
166.2479
  0
ARC
  8
0
 10
31.6715
 20
255.9461
 40
1.3505
 50
153.7362
 51
161.2685
  0
ARC
  8
0
 10
30.6792
 20
256.4358
 40
0.243928
 50
135.9553
 51
153.737
  0
LINE
  8
0
 10
30.5038
 20
256.6054
 11
30.6086
 21
256.7137
  0
LINE
  8
0
 10
30.6086
 20
256.7137
 11
30.6572
 21
256.8623
  0
ARC
  8
0
 10
30.8306
 20
256.7788
 40
0.19253
 50
132.163
 51
154.3064
  0
ARC
  8
0
 10
31.0108
 20
256.5799
 40
0.460911
 50
117.9042
 51
132.1634
  0
LINE
  8
0
 10
30.7951
 20
256.9872
 11
31.0254
 21
257.1092
  0
LINE
  8
0
 10
31.0254
 20
257.1092
 11
31.2361
 21
257.2311
  0
ARC
  8
0
 10
31.972
 20
255.9375
 40
1.48821
 50
116.5919
 51
119.6319
  0
ARC
  8
0
 10
57.7858
 20
204.3686
 40
59.1572
 50
116.1091
 51
116.5912
  0
ARC
  8
0
 10
29.7319
 20
261.6109
 40
4.58999
 50
296.1088
 51
299.8955
  0
ARC
  8
0
 10
31.041
 20
259.3338
 40
1.96341
 50
299.8967
 51
305.6878
  0
ARC
  8
0
 10
31.0648
 20
259.3007
 40
1.92262
 50
305.6864
 51
310.9792
  0
ARC
  8
0
 10
28.2713
 20
262.5164
 40
6.18223
 50
310.9803
 51
313.9312
  0
ARC
  8
0
 10
33.8264
 20
256.7501
 40
1.82461
 50
125.7458
 51
133.931
  0
ARC
  8
0
 10
33.0673
 20
257.8046
 40
0.525269
 50
110.4574
 51
125.7452
  0
ARC
  8
0
 10
31.7525
 20
261.3293
 40
3.2367
 50
290.458
 51
296.0738
  0
ARC
  8
0
 10
33.1309
 20
258.5123
 40
0.100507
 50
296.0726
 51
328.3539
  0
LINE
  8
0
 10
33.2165
 20
258.4596
 11
33.2372
 21
258.5993
  0
ARC
  8
0
 10
33.5881
 20
258.5494
 40
0.354437
 50
159.9573
 51
171.9032
  0
ARC
  8
0
 10
34.1414
 20
258.3475
 40
0.943408
 50
152.6429
 51
159.957
  0
ARC
  8
0
 10
34.1482
 20
258.344
 40
0.951032
 50
144.4135
 51
152.6418
  0
ARC
  8
0
 10
33.9009
 20
258.5209
 40
0.647027
 50
134.4363
 51
144.416
  0
ARC
  8
0
 10
34.2665
 20
258.1481
 40
1.16917
 50
129.1216
 51
134.434
  0
ARC
  8
0
 10
34.4454
 20
257.9282
 40
1.45267
 50
124.3579
 51
129.1235
  0
ARC
  8
0
 10
34.9247
 20
257.227
 40
2.30201
 50
119.597
 51
124.3566
  0
ARC
  8
0
 10
34.0662
 20
258.7384
 40
0.563765
 50
109.9719
 51
119.5979
  0
ARC
  8
0
 10
34.0205
 20
258.8642
 40
0.42994
 50
93.3385
 51
109.9714
  0
ARC
  8
0
 10
34.0382
 20
258.5599
 40
0.734711
 50
80.6334
 51
93.3386
  0
ARC
  8
0
 10
33.9774
 20
258.191
 40
1.10865
 50
75.2243
 51
80.6338
  0
ARC
  8
0
 10
33.9653
 20
258.1455
 40
1.15573
 50
69.9251
 51
75.2233
  0
ARC
  8
0
 10
33.9933
 20
258.222
 40
1.07419
 50
63.5031
 51
69.9265
  0
ARC
  8
0
 10
34.1036
 20
258.4432
 40
0.827101
 50
56.1797
 51
63.5011
  0
ARC
  8
0
 10
34.3045
 20
258.7431
 40
0.46605
 50
44.1314
 51
56.1803
  0
ARC
  8
0
 10
34.4713
 20
258.9049
 40
0.233703
 50
27.0864
 51
44.1324
  0
LINE
  8
0
 10
34.6794
 20
259.0113
 11
34.7457
 21
258.8817
  0
ARC
  8
0
 10
35.0667
 20
259.0459
 40
0.360618
 50
207.0841
 51
218.093
  0
ARC
  8
0
 10
34.9521
 20
258.956
 40
0.214994
 50
218.0973
 51
232.3697
  0
ARC
  8
0
 10
32.0572
 20
255.2014
 40
4.52608
 50
51.5458
 51
52.3666
  0
ARC
  8
0
 10
34.7711
 20
258.6189
 40
0.162121
 50
47.2109
 51
51.5506
  0
ARC
  8
0
 10
34.8227
 20
258.6746
 40
0.0861757
 50
17.3483
 51
47.2003
  0
ARC
  8
0
 10
34.7649
 20
258.7003
 40
0.140078
 50
348.1529
 51
360.0058
  0
ARC
  8
0
 10
34.8651
 20
258.6921
 40
0.0422279
 50
297.3926
 51
330.7886
  0
ARC
  8
0
 10
34.7299
 20
258.953
 40
0.336108
 50
285.7055
 51
297.3968
  0
ARC
  8
0
 10
34.5594
 20
259.5595
 40
0.966046
 50
282.4534
 51
285.7032
  0
ARC
  8
0
 10
34.6328
 20
259.227
 40
0.625557
 50
278.4168
 51
282.4558
  0
ARC
  8
0
 10
34.8969
 20
257.4421
 40
1.17879
 50
98.4167
 51
103.4073
  0
ARC
  8
0
 10
34.6298
 20
258.5624
 40
0.02713
 50
103.3983
 51
136.7508
  0
ARC
  8
0
 10
34.6497
 20
258.5459
 40
0.0528769
 50
138.5215
 51
180.0018
  0
ARC
  8
0
 10
35.702
 20
258.5799
 40
1.10574
 50
181.76
 51
190.9945
  0
ARC
  8
0
 10
32.2199
 20
258.2464
 40
2.39982
 50
359.9999
 51
362.9275
  0
ARC
  8
0
 10
34.5863
 20
258.2512
 40
0.0337639
 50
285.4331
 51
351.9314
  0
LINE
  8
0
 10
34.5953
 20
258.2186
 11
34.4988
 21
258.192
  0
ARC
  8
0
 10
34.5083
 20
258.1577
 40
0.0355769
 50
105.4333
 51
144.9436
  0
ARC
  8
0
 10
35.0726
 20
257.7617
 40
0.724972
 50
144.9439
 51
153.5326
  0
ARC
  8
0
 10
34.019
 20
258.2863
 40
0.452016
 50
323.8402
 51
333.5315
  0
ARC
  8
0
 10
34.0158
 20
258.2886
 40
0.455959
 50
314.1943
 51
323.8433
  0
ARC
  8
0
 10
33.9575
 20
258.3486
 40
0.539631
 50
305.022
 51
314.1925
  0
ARC
  8
0
 10
33.8687
 20
258.4753
 40
0.694297
 50
296.9397
 51
305.0223
  0
LINE
  8
0
 10
34.1832
 20
257.8563
 11
34.0388
 21
257.7829
  0
ARC
  8
0
 10
34.1872
 20
257.4908
 40
0.327642
 50
116.9398
 51
143.8751
  0
ARC
  8
0
 10
34.0733
 20
257.5769
 40
0.184931
 50
144.6122
 51
180.0007
  0
ARC
  8
0
 10
34.0761
 20
257.5793
 40
0.187715
 50
180.737
 51
194.4253
  0
ARC
  8
0
 10
36.4327
 20
258.1855
 40
2.62099
 50
194.4253
 51
198.0804
  0
ARC
  8
0
 10
33.6443
 20
257.2751
 40
0.312231
 50
7.8104
 51
18.0806
  0
ARC
  8
0
 10
23.8744
 20
255.9351
 40
10.1736
 50
6.0131
 51
7.81
  0
ARC
  8
0
 10
35.5205
 20
257.1618
 40
1.53695
 50
186.0132
 51
192.7421
  0
ARC
  8
0
 10
35.557
 20
257.1701
 40
1.57441
 50
192.742
 51
199.3903
  0
ARC
  8
0
 10
35.2713
 20
257.0695
 40
1.27149
 50
199.3898
 51
208.8828
  0
ARC
  8
0
 10
34.4068
 20
256.5926
 40
0.284125
 50
208.884
 51
229.0471
  0
LINE
  8
0
 10
34.2205
 20
256.378
 11
34.4177
 21
256.2069
  0
ARC
  8
0
 10
34.2999
 20
256.0712
 40
0.179653
 50
33.0769
 51
49.0443
  0
ARC
  8
0
 10
34.4015
 20
256.1374
 40
0.0583836
 50
4.8806
 51
33.0828
  0
LINE
  8
0
 10
34.4597
 20
256.1424
 11
34.4041
 21
255.9257
  0
LINE
  8
0
 10
34.4041
 20
255.9257
 11
34.3999
 21
255.4687
  0
LINE
  8
0
 10
34.3999
 20
255.4687
 11
34.3579
 21
255.1348
  0
ARC
  8
0
 10
39.4199
 20
255.0347
 40
5.06305
 50
178.8677
 51
180.001
  0
ARC
  8
0
 10
38.1654
 20
255.2446
 40
3.81433
 50
183.1562
 51
186.5022
  0
ARC
  8
0
 10
23.6334
 20
253.5882
 40
10.8118
 50
6.0768
 51
6.5029
  0
LINE
  8
0
 10
34.3845
 20
254.7328
 11
34.4147
 21
254.4457
  0
ARC
  8
0
 10
38.5852
 20
254.8805
 40
4.19305
 50
185.953
 51
187.8473
  0
ARC
  8
0
 10
35.9046
 20
254.5111
 40
1.48714
 50
187.8496
 51
191.0305
  0
ARC
  8
0
 10
33.4847
 20
254.0394
 40
0.97825
 50
1.2995
 51
11.0301
  0
ARC
  8
0
 10
34.3822
 20
254.0616
 40
0.0805622
 50
326.887
 51
359.9962
  0
ARC
  8
0
 10
34.4062
 20
254.0474
 40
0.0526838
 50
295.4641
 51
325.5934
  0
ARC
  8
0
 10
33.4475
 20
256.0607
 40
2.28264
 50
290.9373
 51
295.4628
  0
ARC
  8
0
 10
34.4494
 20
253.4421
 40
0.521169
 50
110.9369
 51
126.6142
  0
ARC
  8
0
 10
34.4997
 20
253.3744
 40
0.605452
 50
126.616
 51
141.1547
  0
ARC
  8
0
 10
36.4559
 20
251.799
 40
3.11718
 50
141.1544
 51
143.2155
  0
ARC
  8
0
 10
37.2215
 20
251.2265
 40
4.07317
 50
143.2145
 51
145.0172
  0
ARC
  8
0
 10
34.44
 20
253.1729
 40
0.678306
 50
145.0175
 51
159.3255
  0
ARC
  8
0
 10
33.9058
 20
253.4124
 40
0.100362
 50
180.0004
 51
202.7773
  0
LINE
  8
0
 10
33.8132
 20
253.3735
 11
33.9198
 21
253.261
  0
ARC
  8
0
 10
33.8819
 20
253.2385
 40
0.0440517
 50
359.9944
 51
390.7931
  0
ARC
  8
0
 10
33.7123
 20
253.2864
 40
0.219003
 50
329.1107
 51
347.35
  0
ARC
  8
0
 10
33.6951
 20
253.2967
 40
0.239096
 50
316.6524
 51
329.1082
  0
ARC
  8
0
 10
33.7853
 20
253.2116
 40
0.115023
 50
298.6553
 51
316.6532
  0
ARC
  8
0
 10
33.6749
 20
253.4136
 40
0.345178
 50
282.9426
 51
298.6534
  0
ARC
  8
0
 10
33.5422
 20
253.9911
 40
0.937742
 50
273.431
 51
282.944
  0
ARC
  8
0
 10
34.8963
 20
231.3993
 40
21.6945
 50
93.4301
 51
94.4296
  0
ARC
  8
0
 10
33.7084
 20
246.7364
 40
6.31148
 50
94.4307
 51
96.2837
  0
LINE
  8
0
 10
33.0175
 20
253.01
 11
32.4314
 21
252.9455
  0
LINE
  8
0
 10
32.4314
 20
252.9455
 11
31.8631
 21
252.9165
  0
ARC
  8
0
 10
32.2952
 20
244.8416
 40
8.08643
 50
93.0629
 51
95.425
  0
ARC
  8
0
 10
32.2262
 20
245.5685
 40
7.35623
 50
95.4259
 51
97.9027
  0
ARC
  8
0
 10
23.807
 20
306.2267
 40
53.8834
 50
277.4385
 51
277.902
  0
ARC
  8
0
 10
29.9115
 20
259.4695
 40
6.72943
 50
276.1283
 51
277.4401
  0
ARC
  8
0
 10
30.1763
 20
257.0048
 40
4.25055
 50
271.7712
 51
276.1269
  0
ARC
  8
0
 10
30.3068
 20
252.7819
 40
0.0256749
 50
213.2323
 51
271.7767
  0
LINE
  8
0
 10
30.2854
 20
252.7679
 11
30.2854
 21
252.7679
  0
LINE
  8
0
 10
37.8236
 20
255.8673
 11
34.6284
 21
255.7033
  0
LINE
  8
0
 10
34.6284
 20
255.7033
 11
34.6284
 21
255.4132
  0
LINE
  8
0
 10
34.6284
 20
255.4132
 11
34.6764
 21
254.7288
  0
ARC
  8
0
 10
25.9962
 20
253.1639
 40
8.82012
 50
4.2261
 51
10.22
  0
ARC
  8
0
 10
34.7259
 20
253.8139
 40
0.0664941
 50
290.0175
 51
359.9993
  0
LINE
  8
0
 10
34.7486
 20
253.7514
 11
34.69
 21
253.7348
  0
ARC
  8
0
 10
34.8289
 20
253.2435
 40
0.510534
 50
105.7912
 51
118.6532
  0
ARC
  8
0
 10
34.9197
 20
253.0775
 40
0.699747
 50
118.6555
 51
129.6353
  0
ARC
  8
0
 10
36.2261
 20
251.5002
 40
2.74782
 50
129.6338
 51
133.5652
  0
ARC
  8
0
 10
34.5423
 20
253.2705
 40
0.30468
 50
133.5663
 51
145.3917
  0
ARC
  8
0
 10
34.4765
 20
253.3159
 40
0.224646
 50
145.3894
 51
167.384
  0
ARC
  8
0
 10
34.935
 20
253.2346
 40
0.690196
 50
169.106
 51
180.0009
  0
ARC
  8
0
 10
0.8518
 20
253.2342
 40
33.393
 50
359.6455
 51
360.0007
  0
ARC
  8
0
 10
34.1336
 20
253.0315
 40
0.110624
 50
337.6452
 51
357.9207
  0
ARC
  8
0
 10
34.1035
 20
253.0439
 40
0.143173
 50
310.3556
 51
337.648
  0
ARC
  8
0
 10
33.9886
 20
253.1791
 40
0.32061
 50
292.2154
 51
310.3577
  0
ARC
  8
0
 10
33.3973
 20
254.627
 40
1.8846
 50
279.1364
 51
292.2147
  0
ARC
  8
0
 10
33.1736
 20
256.018
 40
3.29348
 50
269.2522
 51
279.1361
  0
ARC
  8
0
 10
33.1169
 20
251.6708
 40
1.05416
 50
89.2527
 51
96.4759
  0
ARC
  8
0
 10
46.0265
 20
137.9355
 40
115.52
 50
96.4757
 51
97.165
  0
LINE
  8
0
 10
31.618
 20
252.5531
 11
29.9414
 21
252.3424
  0
LINE
  8
0
 10
29.9414
 20
252.3424
 11
30.1018
 21
252.9261
  0
ARC
  8
0
 10
28.382
 20
253.4151
 40
1.788
 50
344.1286
 51
357.1126
  0
ARC
  8
0
 10
20.9976
 20
253.325
 40
9.17009
 50
0.0003
 51
3.5247
  0
ARC
  8
0
 10
156.1126
 20
268.0439
 40
126.755
 50
186.1279
 51
186.4118
  0
ARC
  8
0
 10
31.9316
 20
254.7118
 40
1.86048
 50
183.7806
 51
186.13
  0
ARC
  8
0
 10
27.8048
 20
254.4392
 40
2.27534
 50
3.778
 51
17.5283
  0
ARC
  8
0
 10
29.9029
 20
255.1018
 40
0.0750881
 50
17.5279
 51
99.9685
  0
LINE
  8
0
 10
29.8899
 20
255.1758
 11
29.6406
 21
255.132
  0
ARC
  8
0
 10
29.5895
 20
255.4228
 40
0.295228
 50
264.3438
 51
279.9682
  0
ARC
  8
0
 10
30.3096
 20
262.6945
 40
7.60256
 50
261.2754
 51
264.3451
  0
ARC
  8
0
 10
29.1078
 20
254.8637
 40
0.319984
 50
81.275
 51
89.5783
  0
ARC
  8
0
 10
28.7188
 20
202.0459
 40
53.1392
 50
89.578
 51
90.2221
  0
ARC
  8
0
 10
28.5383
 20
248.6517
 40
6.53299
 50
90.2229
 51
92.7059
  0
ARC
  8
0
 10
28.4827
 20
249.8245
 40
5.35887
 50
92.7049
 51
95.4464
  0
ARC
  8
0
 10
28.1747
 20
253.0556
 40
2.11315
 50
95.4472
 51
104.2325
  0
ARC
  8
0
 10
28.0059
 20
253.7211
 40
1.42662
 50
104.232
 51
114.9293
  0
ARC
  8
0
 10
28.2474
 20
253.2015
 40
1.9996
 50
114.9297
 51
123.0551
  0
ARC
  8
0
 10
28.4678
 20
252.8628
 40
2.40369
 50
123.055
 51
130.465
  0
ARC
  8
0
 10
33.3269
 20
247.1666
 40
9.89088
 50
130.4654
 51
132.6004
  0
ARC
  8
0
 10
38.5284
 20
241.5097
 40
17.5756
 50
132.5997
 51
134.2015
  0
ARC
  8
0
 10
22.9748
 20
257.503
 40
4.7336
 50
310.4972
 51
314.2021
  0
ARC
  8
0
 10
25.2805
 20
254.8031
 40
1.18317
 50
303.0821
 51
310.4964
  0
ARC
  8
0
 10
25.526
 20
254.4263
 40
0.733415
 50
299.2153
 51
303.0823
  0
ARC
  8
0
 10
17.6865
 20
268.4443
 40
16.7946
 50
298.4079
 51
299.2157
  0
ARC
  8
0
 10
27.5477
 20
250.2124
 40
3.9333
 50
118.4083
 51
122.224
  0
ARC
  8
0
 10
29.1511
 20
247.6685
 40
6.94037
 50
122.2233
 51
125.0957
  0
ARC
  8
0
 10
28.0956
 20
249.1705
 40
5.10453
 50
125.0957
 51
129.4358
  0
ARC
  8
0
 10
26.1966
 20
251.4795
 40
2.11495
 50
129.4364
 51
136.1813
  0
ARC
  8
0
 10
26.292
 20
251.388
 40
2.2471
 50
136.1807
 51
141.6981
  0
ARC
  8
0
 10
27.322
 20
250.5745
 40
3.55964
 50
141.6985
 51
146.0816
  0
ARC
  8
0
 10
30.3476
 20
248.54
 40
7.20571
 50
146.0815
 51
148.4396
  0
ARC
  8
0
 10
31.2588
 20
247.9802
 40
8.27505
 50
148.4395
 51
150.6399
  0
ARC
  8
0
 10
14.111
 20
257.6268
 40
11.3999
 50
328.219
 51
330.6398
  0
ARC
  8
0
 10
23.4192
 20
251.8597
 40
0.449868
 50
316.0111
 51
328.2197
  0
LINE
  8
0
 10
23.7429
 20
251.5473
 11
23.3143
 21
251.1033
  0
ARC
  8
0
 10
19.9513
 20
254.3496
 40
4.67422
 50
311.2947
 51
316.0105
  0
ARC
  8
0
 10
22.7574
 20
251.155
 40
0.422165
 50
295.5579
 51
311.2945
  0
ARC
  8
0
 10
32.3965
 20
230.9983
 40
21.9207
 50
115.5575
 51
116.3408
  0
ARC
  8
0
 10
22.8375
 20
250.305
 40
0.377203
 50
116.3459
 51
122.3183
  0
LINE
  8
0
 10
22.6358
 20
250.6237
 11
22.5666
 21
250.5154
  0
LINE
  8
0
 10
22.5666
 20
250.5154
 11
22.9549
 21
250.4254
  0
LINE
  8
0
 10
22.9549
 20
250.4254
 11
23.2498
 21
250.4313
  0
ARC
  8
0
 10
23.1476
 20
250.3817
 40
0.113609
 50
0.0002
 51
25.9219
  0
ARC
  8
0
 10
21.1985
 20
250.9915
 40
2.15093
 50
334.7764
 51
343.528
  0
ARC
  8
0
 10
21.5252
 20
250.8377
 40
1.78984
 50
324.9309
 51
334.7765
  0
ARC
  8
0
 10
22.3655
 20
250.2478
 40
0.763142
 50
309.8278
 51
324.9309
  0
LINE
  8
0
 10
22.8543
 20
249.6617
 11
22.5547
 21
249.4119
  0
ARC
  8
0
 10
17.4618
 20
255.5185
 40
7.95164
 50
307.3703
 51
309.8279
  0
ARC
  8
0
 10
22.1064
 20
249.4371
 40
0.299432
 50
294.6812
 51
307.3707
  0
ARC
  8
0
 10
22.9899
 20
247.5146
 40
1.81629
 50
114.6805
 51
119.6267
  0
ARC
  8
0
 10
22.1111
 20
249.0599
 40
0.0386383
 50
119.6276
 51
154.0442
  0
LINE
  8
0
 10
22.0764
 20
249.0768
 11
22
 21
248.9199
  0
LINE
  8
0
 10
22
 20
248.9199
 11
22.0705
 21
248.9264
  0
ARC
  8
0
 10
21.2694
 20
252.4903
 40
3.65282
 50
282.668
 51
286.2825
  0
ARC
  8
0
 10
22.1875
 20
249.3471
 40
0.378232
 50
286.2828
 51
297.5315
  0
LINE
  8
0
 10
22.3623
 20
249.0117
 11
22.7383
 21
249.2076
  0
ARC
  8
0
 10
16.2977
 20
261.5632
 40
13.9335
 50
297.5314
 51
298.8462
  0
ARC
  8
0
 10
22.7868
 20
249.7822
 40
0.483573
 50
298.8457
 51
305.9075
  0
ARC
  8
0
 10
22.6537
 20
249.966
 40
0.710497
 50
305.908
 51
312.6984
  0
ARC
  8
0
 10
18.536
 20
254.4286
 40
6.78254
 50
312.6982
 51
314.8947
  0
ARC
  8
0
 10
26.0028
 20
246.9343
 40
3.7966
 50
131.7967
 51
134.8948
  0
ARC
  8
0
 10
25.6851
 20
247.2897
 40
3.31992
 50
128.4837
 51
131.7969
  0
ARC
  8
0
 10
22.1228
 20
251.7708
 40
2.40466
 50
308.4836
 51
313.4725
  0
ARC
  8
0
 10
23.707
 20
250.0998
 40
0.102058
 50
313.4729
 51
337.865
  0
LINE
  8
0
 10
23.8015
 20
250.0613
 11
23.9294
 21
250.3757
  0
LINE
  8
0
 10
23.9294
 20
250.3757
 11
23.9892
 21
250.4331
  0
LINE
  8
0
 10
23.9892
 20
250.4331
 11
24.0508
 21
250.3159
  0
LINE
  8
0
 10
24.0508
 20
250.3159
 11
24.1863
 21
250.4449
  0
ARC
  8
0
 10
23.9924
 20
250.565
 40
0.228078
 50
328.229
 51
336.8941
  0
ARC
  8
0
 10
8.4102
 20
257.2131
 40
17.1693
 50
336.8948
 51
337.8928
  0
LINE
  8
0
 10
24.3172
 20
250.7516
 11
24.4723
 21
251.1335
  0
LINE
  8
0
 10
24.4723
 20
251.1335
 11
24.5564
 21
251.0541
  0
ARC
  8
0
 10
24.5622
 20
251.1197
 40
0.0658168
 50
264.885
 51
309.85
  0
ARC
  8
0
 10
24.5542
 20
251.1293
 40
0.0783128
 50
309.8497
 51
350.8939
  0
LINE
  8
0
 10
24.6315
 20
251.1169
 11
24.5984
 21
251.4828
  0
LINE
  8
0
 10
24.5984
 20
251.4828
 11
24.6629
 21
251.7953
  0
LINE
  8
0
 10
24.6629
 20
251.7953
 11
24.7701
 21
251.6781
  0
LINE
  8
0
 10
24.7701
 20
251.6781
 11
24.8512
 21
252.1186
  0
ARC
  8
0
 10
25.724
 20
252.035
 40
0.876794
 50
159.2493
 51
174.5288
  0
ARC
  8
0
 10
26.0893
 20
251.8966
 40
1.26747
 50
146.5524
 51
159.2492
  0
ARC
  8
0
 10
30.6574
 20
248.879
 40
6.74229
 50
143.0789
 51
146.5524
  0
ARC
  8
0
 10
25.7503
 20
252.5662
 40
0.604257
 50
131.4579
 51
143.0789
  0
LINE
  8
0
 10
25.3503
 20
253.0191
 11
25.5788
 21
253.2209
  0
LINE
  8
0
 10
25.5788
 20
253.2209
 11
25.5456
 21
253.0854
  0
ARC
  8
0
 10
29.874
 20
251.7041
 40
4.54338
 50
162.3009
 51
164.1704
  0
ARC
  8
0
 10
34.6334
 20
250.3546
 40
9.49043
 50
164.1703
 51
165.4637
  0
ARC
  8
0
 10
37.5651
 20
249.5945
 40
12.5191
 50
165.4637
 51
167.3298
  0
ARC
  8
0
 10
32.9289
 20
250.6367
 40
7.76714
 50
167.3298
 51
169.6991
  0
ARC
  8
0
 10
27.3534
 20
251.6501
 40
2.10029
 50
169.6992
 51
179.1608
  0
ARC
  8
0
 10
26.6465
 20
251.6808
 40
1.39326
 50
180
 51
190.8148
  0
ARC
  8
0
 10
26.3885
 20
251.6485
 40
1.13389
 50
191.654
 51
200.6203
  0
ARC
  8
0
 10
27.5353
 20
252.08
 40
2.35914
 50
200.6205
 51
206.8333
  0
ARC
  8
0
 10
27.8564
 20
252.2424
 40
2.71898
 50
206.8333
 51
212.6193
  0
ARC
  8
0
 10
27.519
 20
252.0264
 40
2.31836
 50
212.6192
 51
218.8857
  0
ARC
  8
0
 10
26.7122
 20
251.3758
 40
1.28193
 50
218.8857
 51
229.3445
  0
ARC
  8
0
 10
26.7837
 20
251.4591
 40
1.39168
 50
229.3446
 51
239.3814
  0
ARC
  8
0
 10
25.2202
 20
248.8173
 40
1.67812
 50
50.4847
 51
59.3813
  0
ARC
  8
0
 10
26.1251
 20
249.9145
 40
0.255885
 50
27.5719
 51
50.4846
  0
ARC
  8
0
 10
26.2265
 20
249.9674
 40
0.141574
 50
4.9481
 51
27.5718
  0
ARC
  8
0
 10
25.4274
 20
249.9796
 40
0.940087
 50
354.9079
 51
360.0001
  0
ARC
  8
0
 10
25.3725
 20
250.0716
 40
1.00669
 50
340.1199
 51
349.9594
  0
ARC
  8
0
 10
24.7554
 20
250.2948
 40
1.66294
 50
332.4682
 51
340.1201
  0
LINE
  8
0
 10
26.23
 20
249.5261
 11
25.9399
 21
248.9696
  0
ARC
  8
0
 10
23.9917
 20
249.9852
 40
2.19701
 50
325.6391
 51
332.468
  0
ARC
  8
0
 10
25.4337
 20
248.9992
 40
0.450165
 50
310.518
 51
325.6391
  0
ARC
  8
0
 10
27.7423
 20
246.298
 40
3.10313
 50
130.518
 51
137.8383
  0
ARC
  8
0
 10
25.5282
 20
248.3249
 40
0.102802
 50
146.9831
 51
180
  0
LINE
  8
0
 10
25.4254
 20
248.3249
 11
25.5427
 21
247.5967
  0
ARC
  8
0
 10
25.5516
 20
247.5981
 40
0.0090071
 50
189.1369
 51
215.8293
  0
ARC
  8
0
 10
25.5796
 20
247.6184
 40
0.0436097
 50
215.8415
 51
227.8849
  0
ARC
  8
0
 10
19.5817
 20
240.9849
 40
8.89946
 50
43.4062
 51
47.8809
  0
ARC
  8
0
 10
24.84
 20
245.9584
 40
1.66169
 50
33.0391
 51
43.4062
  0
LINE
  8
0
 10
26.233
 20
246.8644
 11
26.7924
 21
246.0042
  0
ARC
  8
0
 10
26.9018
 20
246.0753
 40
0.130523
 50
213.0382
 51
228.3264
  0
ARC
  8
0
 10
26.9189
 20
246.0945
 40
0.156236
 50
228.3283
 51
242.2952
  0
LINE
  8
0
 10
26.8463
 20
245.9562
 11
27.0582
 21
245.8449
  0
LINE
  8
0
 10
27.0582
 20
245.8449
 11
27.1263
 21
245.7786
  0
ARC
  8
0
 10
26.487
 20
245.1181
 40
0.919238
 50
42.2539
 51
45.9338
  0
ARC
  8
0
 10
26.5851
 20
245.2072
 40
0.786741
 50
38.2754
 51
42.2533
  0
ARC
  8
0
 10
26.9433
 20
245.4899
 40
0.330368
 50
27.9699
 51
38.2758
  0
ARC
  8
0
 10
27.1125
 20
245.5798
 40
0.138788
 50
12.0396
 51
27.9698
  0
ARC
  8
0
 10
27.1309
 20
245.5837
 40
0.120001
 50
5.3083
 51
12.0406
  0
ARC
  8
0
 10
21.851
 20
245.0932
 40
5.42269
 50
4.3063
 51
5.3073
  0
ARC
  8
0
 10
27.6527
 20
245.53
 40
0.395439
 50
184.3054
 51
190.5601
  0
ARC
  8
0
 10
28.1074
 20
245.6148
 40
0.857988
 50
190.5617
 51
194.8068
  0
ARC
  8
0
 10
26.9892
 20
245.3193
 40
0.298598
 50
360
 51
374.8061
  0
ARC
  8
0
 10
27.2436
 20
245.3193
 40
0.0441834
 50
320.8598
 51
360.0002
  0
LINE
  8
0
 10
27.2779
 20
245.2914
 11
27.1666
 21
245.1546
  0
LINE
  8
0
 10
27.1666
 20
245.1546
 11
27.4419
 21
244.8178
  0
LINE
  8
0
 10
27.4419
 20
244.8178
 11
27.5621
 21
244.7745
  0
ARC
  8
0
 10
27.5667
 20
244.7876
 40
0.0138372
 50
250.2205
 51
327.0114
  0
ARC
  8
0
 10
27.3975
 20
244.8974
 40
0.215542
 50
327.0122
 51
345.12
  0
ARC
  8
0
 10
28.227
 20
244.677
 40
0.642724
 50
161.4122
 51
165.1184
  0
ARC
  8
0
 10
31.1166
 20
243.7053
 40
3.69125
 50
159.8668
 51
161.4132
  0
ARC
  8
0
 10
26.0098
 20
245.5775
 40
1.74788
 50
339.8668
 51
345.8221
  0
ARC
  8
0
 10
27.0926
 20
245.3039
 40
0.631026
 50
345.8218
 51
355.741
  0
LINE
  8
0
 10
27.7219
 20
245.257
 11
27.7385
 21
245.4796
  0
ARC
  8
0
 10
15.5232
 20
246.3893
 40
12.2491
 50
355.7412
 51
356.4497
  0
ARC
  8
0
 10
27.5026
 20
245.6308
 40
0.246187
 50
0.003
 51
2.5845
  0
ARC
  8
0
 10
27.5512
 20
245.6207
 40
0.198454
 50
6.1316
 51
23.8791
  0
ARC
  8
0
 10
26.0152
 20
244.9406
 40
1.87829
 50
23.8794
 51
29.6276
  0
ARC
  8
0
 10
26.9285
 20
245.4601
 40
0.827557
 50
29.6279
 51
39.2694
  0
ARC
  8
0
 10
27.2585
 20
245.7298
 40
0.401407
 50
39.2687
 51
53.1297
  0
LINE
  8
0
 10
27.4993
 20
246.0509
 11
27.343
 21
246.1682
  0
ARC
  8
0
 10
27.3934
 20
246.2354
 40
0.0840629
 50
210.3562
 51
233.1297
  0
ARC
  8
0
 10
30.9816
 20
248.3369
 40
4.24231
 50
207.1715
 51
210.3568
  0
LINE
  8
0
 10
27.2074
 20
246.3996
 11
26.9789
 21
246.8448
  0
ARC
  8
0
 10
27.9403
 20
247.3383
 40
1.08062
 50
202.163
 51
207.1715
  0
ARC
  8
0
 10
33.2333
 20
249.4944
 40
6.79594
 50
200.1662
 51
202.1629
  0
ARC
  8
0
 10
23.1916
 20
245.8065
 40
3.90154
 50
20.1661
 51
24.997
  0
ARC
  8
0
 10
25.612
 20
246.935
 40
1.23106
 50
24.9969
 51
33.6024
  0
ARC
  8
0
 10
27.7806
 20
248.3759
 40
1.37263
 50
203.0514
 51
213.6024
  0
ARC
  8
0
 10
27.669
 20
247.8384
 40
1.15142
 50
177.209
 51
179.9999
  0
ARC
  8
0
 10
26.5319
 20
247.8882
 40
0.0144453
 50
120.9022
 51
154.154
  0
ARC
  8
0
 10
30.5068
 20
241.2482
 40
7.75329
 50
119.4903
 51
120.9055
  0
ARC
  8
0
 10
26.6323
 20
248.099
 40
0.117299
 50
299.4901
 51
317.1691
  0
ARC
  8
0
 10
20.9105
 20
253.4031
 40
7.9193
 50
317.1692
 51
319.3125
  0
LINE
  8
0
 10
26.9156
 20
248.2402
 11
27.2495
 21
248.6286
  0
LINE
  8
0
 10
27.2495
 20
248.6286
 11
27.6449
 21
249.1579
  0
LINE
  8
0
 10
27.6449
 20
249.1579
 11
27.9368
 21
249.5368
  0
ARC
  8
0
 10
26.5064
 20
250.4994
 40
1.72417
 50
326.0615
 51
330.4961
  0
ARC
  8
0
 10
19.3135
 20
254.5696
 40
9.98876
 50
330.4958
 51
332.3378
  0
ARC
  8
0
 10
13.8855
 20
257.4148
 40
16.1173
 50
332.3379
 51
333.2978
  0
ARC
  8
0
 10
22.3997
 20
253.1322
 40
6.58669
 50
333.2976
 51
334.7996
  0
ARC
  8
0
 10
27.2434
 20
250.8529
 40
1.23351
 50
334.7998
 51
345.9637
  0
ARC
  8
0
 10
27.2599
 20
250.8488
 40
1.21654
 50
345.9638
 51
357.2056
  0
ARC
  8
0
 10
30.6515
 20
250.6833
 40
2.17915
 50
169.5497
 51
177.2058
  0
ARC
  8
0
 10
28.564
 20
251.0683
 40
0.0563972
 50
120.5082
 51
169.5469
  0
ARC
  8
0
 10
28.5641
 20
251.0682
 40
0.056567
 50
72.6453
 51
120.5101
  0
ARC
  8
0
 10
28.0541
 20
249.4363
 40
1.76627
 50
64.3199
 51
72.6462
  0
ARC
  8
0
 10
29.4578
 20
252.3555
 40
1.47285
 50
244.3199
 51
253.4563
  0
ARC
  8
0
 10
30.4868
 20
255.8196
 40
5.08657
 50
253.4559
 51
258.3686
  0
ARC
  8
0
 10
33.3568
 20
269.7628
 40
19.3221
 50
258.3688
 51
259.648
  0
ARC
  8
0
 10
32.0363
 20
262.5333
 40
11.973
 50
259.6478
 51
261.273
  0
ARC
  8
0
 10
31.352
 20
258.0755
 40
7.46296
 50
261.273
 51
264.1001
  0
ARC
  8
0
 10
31.3325
 20
257.8876
 40
7.27407
 50
264.1004
 51
266.9639
  0
ARC
  8
0
 10
31.5849
 20
262.6464
 40
12.0395
 50
266.9639
 51
268.9655
  0
ARC
  8
0
 10
31.7573
 20
272.1821
 40
21.5768
 50
268.9651
 51
270.4603
  0
ARC
  8
0
 10
31.8921
 20
255.3985
 40
4.79268
 50
270.4607
 51
277.722
  0
ARC
  8
0
 10
32.3243
 20
252.211
 40
1.57604
 50
277.7216
 51
290.4015
  0
ARC
  8
0
 10
33.7991
 20
248.2456
 40
2.65476
 50
100.1378
 51
110.4018
  0
ARC
  8
0
 10
33.3463
 20
250.7782
 40
0.0819885
 50
38.9429
 51
100.1382
  0
ARC
  8
0
 10
33.3816
 20
250.8068
 40
0.0365714
 50
2.5238
 51
38.946
  0
ARC
  8
0
 10
23.9217
 20
250.5877
 40
9.49897
 50
359.9995
 51
361.3312
  0
ARC
  8
0
 10
34.091
 20
250.5876
 40
0.670239
 50
179.9995
 51
192.1646
  0
ARC
  8
0
 10
33.7155
 20
250.5128
 40
0.287469
 50
193.3542
 51
213.7236
  0
ARC
  8
0
 10
32.1643
 20
249.4774
 40
1.57745
 50
28.0091
 51
33.7227
  0
ARC
  8
0
 10
33.4957
 20
250.1856
 40
0.0694709
 50
0.5323
 51
28.0099
  0
ARC
  8
0
 10
33.5347
 20
250.1862
 40
0.0304736
 50
336.6659
 51
359.9941
  0
ARC
  8
0
 10
33.0247
 20
250.4121
 40
0.588267
 50
330.7488
 51
336.1409
  0
ARC
  8
0
 10
34.8336
 20
249.399
 40
1.48502
 50
150.7473
 51
159.5682
  0
ARC
  8
0
 10
34.374
 20
249.5702
 40
0.994554
 50
159.5693
 51
170.3532
  0
LINE
  8
0
 10
33.3935
 20
249.7369
 11
33.2976
 21
249.1727
  0
LINE
  8
0
 10
33.2976
 20
249.1727
 11
33.1425
 21
248.66
  0
LINE
  8
0
 10
33.1425
 20
248.66
 11
33.0211
 21
248.1005
  0
ARC
  8
0
 10
69.3937
 20
237.4116
 40
37.9107
 50
163.6234
 51
164.4016
  0
ARC
  8
0
 10
32.9735
 20
247.5831
 40
0.0968804
 50
166.5774
 51
179.9949
  0
LINE
  8
0
 10
32.8766
 20
247.5831
 11
32.8885
 21
247.2723
  0
ARC
  8
0
 10
30.9718
 20
247.2722
 40
1.91665
 50
356.0993
 51
360.0012
  0
ARC
  8
0
 10
27.3869
 20
247.7278
 40
5.52826
 50
350.5735
 51
353.916
  0
ARC
  8
0
 10
30.3841
 20
247.2301
 40
2.49001
 50
345.2568
 51
350.5743
  0
ARC
  8
0
 10
32.2747
 20
246.7326
 40
0.535088
 50
333.7697
 51
345.2556
  0
LINE
  8
0
 10
32.7547
 20
246.4961
 11
32.6748
 21
246.3339
  0
LINE
  8
0
 10
32.6748
 20
246.3339
 11
32.6434
 21
246.1486
  0
ARC
  8
0
 10
32.2261
 20
246.2426
 40
0.427756
 50
338.5168
 51
347.3105
  0
ARC
  8
0
 10
32.3498
 20
246.1939
 40
0.294823
 50
327.9149
 51
338.512
  0
ARC
  8
0
 10
32.1617
 20
246.3118
 40
0.516798
 50
321.7283
 51
327.9153
  0
ARC
  8
0
 10
31.7309
 20
246.6517
 40
1.06555
 50
317.4243
 51
321.732
  0
ARC
  8
0
 10
33.5877
 20
244.9456
 40
1.45606
 50
137.423
 51
145.851
  0
ARC
  8
0
 10
32.5312
 20
245.6623
 40
0.179435
 50
145.8502
 51
170.0153
  0
ARC
  8
0
 10
34.1614
 20
245.6934
 40
1.80691
 50
180.0016
 51
182.4501
  0
ARC
  8
0
 10
34.7003
 20
246.1329
 40
2.40045
 50
192.4321
 51
198.8423
  0
ARC
  8
0
 10
31.8332
 20
245.1545
 40
0.628969
 50
6.3408
 51
18.8433
  0
ARC
  8
0
 10
27.2944
 20
245.2241
 40
5.16399
 50
358.6448
 51
359.9993
  0
LINE
  8
0
 10
32.4569
 20
245.1019
 11
32.4566
 21
244.9593
  0
ARC
  8
0
 10
32.4916
 20
244.9639
 40
0.0352603
 50
187.4913
 51
249.7436
  0
LINE
  8
0
 10
32.4794
 20
244.9308
 11
33.1034
 21
244.7005
  0
LINE
  8
0
 10
33.1034
 20
244.7005
 11
33.1425
 21
244.8284
  0
ARC
  8
0
 10
32.8569
 20
244.8054
 40
0.286449
 50
4.6069
 51
13.4413
  0
ARC
  8
0
 10
29.9323
 20
244.1064
 40
3.29349
 50
13.4413
 51
16.0442
  0
ARC
  8
0
 10
33.7404
 20
245.2016
 40
0.668942
 50
188.2127
 51
196.0453
  0
ARC
  8
0
 10
36.3531
 20
245.5786
 40
3.30879
 50
184.6915
 51
188.2112
  0
LINE
  8
0
 10
33.0554
 20
245.308
 11
33.0329
 21
245.5821
  0
ARC
  8
0
 10
36.1964
 20
245.8417
 40
3.17408
 50
180.0005
 51
184.6924
  0
ARC
  8
0
 10
33.7435
 20
245.8417
 40
0.721164
 50
170.1463
 51
179.9991
  0
ARC
  8
0
 10
33.7181
 20
245.8461
 40
0.695428
 50
161.0825
 51
170.1466
  0
ARC
  8
0
 10
36.3749
 20
244.9356
 40
3.50389
 50
157.0486
 51
161.0834
  0
ARC
  8
0
 10
28.1149
 20
248.4336
 40
5.46621
 50
337.0481
 51
339.1998
  0
ARC
  8
0
 10
32.6027
 20
246.7288
 40
0.665501
 50
339.2012
 51
345.3704
  0
LINE
  8
0
 10
33.2467
 20
246.5607
 11
33.3201
 21
246.8419
  0
ARC
  8
0
 10
35.0434
 20
246.392
 40
1.78112
 50
161.5384
 51
165.3695
  0
ARC
  8
0
 10
42.6432
 20
243.8548
 40
9.79321
 50
159.9044
 51
161.5381
  0
ARC
  8
0
 10
43.4328
 20
243.8543
 40
10.5384
 50
156.1791
 51
161.3773
  0
ARC
  8
0
 10
34.6551
 20
247.771
 40
0.927325
 50
151.0767
 51
158.5225
  0
LINE
  8
0
 10
33.8434
 20
248.2195
 11
34.111
 21
248.7038
  0
ARC
  8
0
 10
31.8575
 20
249.949
 40
2.57464
 50
331.0767
 51
336.2481
  0
ARC
  8
0
 10
31.6374
 20
250.0459
 40
2.81513
 50
336.2477
 51
341.1932
  0
ARC
  8
0
 10
22.1582
 20
253.2741
 40
12.829
 50
341.1934
 51
342.0517
  0
ARC
  8
0
 10
17.3702
 20
254.8249
 40
17.8619
 50
342.052
 51
342.7791
  0
ARC
  8
0
 10
-4.1253
 20
261.4877
 40
40.3662
 50
342.7788
 51
343.3009
  0
ARC
  8
0
 10
33.9255
 20
250.0725
 40
0.640055
 50
343.2952
 51
347.4467
  0
LINE
  8
0
 10
34.5503
 20
249.9334
 11
34.6344
 21
250.3111
  0
ARC
  8
0
 10
35.6398
 20
250.0874
 40
1.03006
 50
154.8129
 51
167.4525
  0
ARC
  8
0
 10
34.7464
 20
250.5075
 40
0.0428102
 50
89.449
 51
154.8091
  0
ARC
  8
0
 10
34.7466
 20
250.5201
 40
0.0302554
 50
30.7541
 51
89.4526
  0
ARC
  8
0
 10
33.2802
 20
249.6475
 40
1.73656
 50
23.3358
 51
30.7544
  0
LINE
  8
0
 10
34.8747
 20
250.3354
 11
35.0162
 21
250.0074
  0
ARC
  8
0
 10
34.2648
 20
249.6833
 40
0.818399
 50
15.5417
 51
23.3354
  0
ARC
  8
0
 10
29.5659
 20
248.3764
 40
5.69562
 50
12.5899
 51
15.5422
  0
ARC
  8
0
 10
30.2396
 20
248.5269
 40
5.00531
 50
9.7474
 51
12.59
  0
ARC
  8
0
 10
30.5093
 20
248.5732
 40
4.73164
 50
6.8231
 51
9.7468
  0
ARC
  8
0
 10
46.7257
 20
250.5136
 40
11.6005
 50
186.8233
 51
188.5863
  0
ARC
  8
0
 10
36.0733
 20
248.9052
 40
0.827263
 50
188.5874
 51
195.1924
  0
ARC
  8
0
 10
36.1891
 20
248.9366
 40
0.94722
 50
195.191
 51
201.0576
  0
ARC
  8
0
 10
41.6207
 20
251.028
 40
6.76758
 50
201.0583
 51
203.2522
  0
ARC
  8
0
 10
34.6143
 20
248.0175
 40
0.858197
 50
8.4486
 51
23.2521
  0
ARC
  8
0
 10
34.5659
 20
248.1436
 40
0.8973
 50
351.6648
 51
359.9998
  0
ARC
  8
0
 10
35.3227
 20
248.053
 40
0.136823
 50
323.1282
 51
343.2147
  0
ARC
  8
0
 10
35.3669
 20
248.0199
 40
0.0815665
 50
297.0251
 51
323.1316
  0
ARC
  8
0
 10
35.222
 20
248.3041
 40
0.400622
 50
282.0722
 51
297.023
  0
ARC
  8
0
 10
34.9334
 20
249.6533
 40
1.78036
 50
274.9964
 51
282.0729
  0
ARC
  8
0
 10
35.1564
 20
247.1019
 40
0.780782
 50
94.9963
 51
105.9312
  0
ARC
  8
0
 10
35.2643
 20
246.7239
 40
1.17391
 50
105.9312
 51
114.8447
  0
ARC
  8
0
 10
31.4606
 20
254.9392
 40
7.87924
 50
292.9635
 51
294.8445
  0
ARC
  8
0
 10
34.4413
 20
247.9045
 40
0.239144
 50
282.1532
 51
292.9657
  0
ARC
  8
0
 10
34.4762
 20
247.7424
 40
0.0733433
 50
255.2776
 51
282.1507
  0
ARC
  8
0
 10
35.8138
 20
252.8331
 40
5.33678
 50
252.1559
 51
255.2779
  0
LINE
  8
0
 10
34.1785
 20
247.753
 11
34.0056
 21
247.8087
  0
LINE
  8
0
 10
34.0056
 20
247.8087
 11
33.8091
 21
247.2646
  0
LINE
  8
0
 10
33.8091
 20
247.2646
 11
33.7966
 21
247.2528
  0
LINE
  8
0
 10
33.7966
 20
247.2528
 11
34.0406
 21
247.2977
  0
ARC
  8
0
 10
34.6815
 20
243.823
 40
3.53332
 50
98.1907
 51
100.4515
  0
ARC
  8
0
 10
34.1872
 20
247.2572
 40
0.0637564
 50
81.3017
 51
98.1911
  0
LINE
  8
0
 10
34.1969
 20
247.3202
 11
34.4135
 21
247.2871
  0
ARC
  8
0
 10
34.449
 20
247.5186
 40
0.23416
 50
261.3009
 51
274.8206
  0
ARC
  8
0
 10
34.3368
 20
248.8478
 40
1.56813
 50
274.8208
 51
280.0349
  0
ARC
  8
0
 10
32.7206
 20
257.9811
 40
10.8433
 50
280.0351
 51
280.7998
  0
ARC
  8
0
 10
32.0129
 20
261.6919
 40
14.621
 50
280.7991
 51
281.4578
  0
ARC
  8
0
 10
28.7809
 20
277.6359
 40
30.8893
 50
281.4586
 51
281.9149
  0
ARC
  8
0
 10
26.0941
 20
290.3706
 40
43.9044
 50
281.9146
 51
282.2971
  0
ARC
  8
0
 10
42.6497
 20
214.4217
 40
33.8281
 50
101.7333
 51
102.2973
  0
ARC
  8
0
 10
36.9647
 20
241.7926
 40
5.873
 50
100.379
 51
101.7319
  0
ARC
  8
0
 10
35.6555
 20
248.9402
 40
1.3935
 50
280.3801
 51
287.575
  0
ARC
  8
0
 10
35.9372
 20
248.051
 40
0.460753
 50
287.5755
 51
300.1049
  0
ARC
  8
0
 10
36.0388
 20
247.8758
 40
0.258221
 50
300.1054
 51
321.9154
  0
ARC
  8
0
 10
35.9474
 20
247.9474
 40
0.374323
 50
321.9138
 51
339.9944
  0
ARC
  8
0
 10
35.8328
 20
247.9891
 40
0.496269
 50
339.9947
 51
358.8135
  0
ARC
  8
0
 10
35.9827
 20
247.9788
 40
0.346223
 50
0.0006
 51
21.4216
  0
LINE
  8
0
 10
36.305
 20
248.1053
 11
36.2269
 21
248.2929
  0
ARC
  8
0
 10
36.9589
 20
248.5977
 40
0.792912
 50
192.2767
 51
202.6079
  0
ARC
  8
0
 10
36.7335
 20
248.5487
 40
0.562226
 50
179.9989
 51
192.2748
  0
LINE
  8
0
 10
36.1713
 20
248.5487
 11
36.1713
 21
248.7985
  0
LINE
  8
0
 10
36.1713
 20
248.7985
 11
36.1186
 21
249.2929
  0
LINE
  8
0
 10
36.1186
 20
249.2929
 11
36.1002
 21
249.9938
  0
LINE
  8
0
 10
36.1002
 20
249.9938
 11
36.0807
 21
250.6492
  0
ARC
  8
0
 10
38.9595
 20
250.6725
 40
2.87891
 50
180.0027
 51
180.4648
  0
ARC
  8
0
 10
99.5839
 20
249.2924
 40
63.5183
 50
178.5057
 51
178.7551
  0
ARC
  8
0
 10
26.8319
 20
250.9487
 40
9.25526
 50
0.0006
 51
1.4199
  0
ARC
  8
0
 10
35.0945
 20
251.1276
 40
0.991115
 50
2.913
 51
10.5618
  0
ARC
  8
0
 10
39.2505
 20
251.9026
 40
3.23651
 50
185.4312
 51
190.5625
  0
ARC
  8
0
 10
36.4921
 20
251.5962
 40
0.463589
 50
170.7923
 51
180.0014
  0
ARC
  8
0
 10
36.1757
 20
251.6335
 40
0.145943
 50
145.1332
 51
165.36
  0
ARC
  8
0
 10
37.4275
 20
250.7613
 40
1.67162
 50
139.1837
 51
145.1318
  0
ARC
  8
0
 10
34.0373
 20
253.6894
 40
2.80799
 50
319.1838
 51
323.4174
  0
ARC
  8
0
 10
32.6213
 20
254.7402
 40
4.57124
 50
323.4179
 51
326.7357
  0
ARC
  8
0
 10
31.2463
 20
255.6421
 40
6.21567
 50
326.736
 51
328.9634
  0
ARC
  8
0
 10
31.5837
 20
255.4393
 40
5.82203
 50
328.9623
 51
331.2637
  0
ARC
  8
0
 10
32.7514
 20
254.799
 40
4.49034
 50
331.2638
 51
334.5135
  0
ARC
  8
0
 10
34.4157
 20
254.0056
 40
2.64655
 50
334.5146
 51
338.7479
  0
ARC
  8
0
 10
34.506
 20
253.9705
 40
2.54971
 50
338.7478
 51
341.9644
  0
ARC
  8
0
 10
28.9035
 20
255.7948
 40
8.44173
 50
341.9636
 51
343.7312
  0
ARC
  8
0
 10
22.9847
 20
257.522
 40
14.6074
 50
343.7317
 51
344.6638
  0
ARC
  8
0
 10
34.9857
 20
254.2308
 40
2.16329
 50
344.6627
 51
347.085
  0
LINE
  8
0
 10
37.0942
 20
253.7472
 11
37.2073
 21
254.2404
  0
ARC
  8
0
 10
39.0311
 20
253.8222
 40
1.87112
 50
160.7896
 51
167.0861
  0
ARC
  8
0
 10
40.5206
 20
253.3032
 40
3.44851
 50
156.1522
 51
160.7891
  0
ARC
  8
0
 10
40.006
 20
253.5307
 40
2.88588
 50
150.4723
 51
156.1526
  0
ARC
  8
0
 10
39.5339
 20
253.7981
 40
2.34329
 50
144.1675
 51
150.4719
  0
ARC
  8
0
 10
34.1196
 20
257.7076
 40
4.33495
 50
324.1678
 51
328.1457
  0
ARC
  8
0
 10
37.3554
 20
255.6971
 40
0.525425
 50
328.1452
 51
339.5878
  0
ARC
  8
0
 10
39.865
 20
254.7632
 40
2.15228
 50
149.5499
 51
159.588
  0
ARC
  8
0
 10
38.0815
 20
255.8117
 40
0.0834442
 50
96.7915
 51
149.5508
  0
LINE
  8
0
 10
38.0716
 20
255.8945
 11
40.9998
 21
256.2432
  0
LINE
  8
0
 10
40.9998
 20
256.2432
 11
41.233
 21
256.2764
  0
LINE
  8
0
 10
41.233
 20
256.2764
 11
41.4793
 21
256.2373
  0
ARC
  8
0
 10
41.464
 20
256.5739
 40
0.336943
 50
272.6076
 51
296.167
  0
ARC
  8
0
 10
41.5377
 20
256.4239
 40
0.169868
 50
296.1666
 51
329.5844
  0
LINE
  8
0
 10
41.6842
 20
256.3379
 11
41.8239
 21
256.5759
  0
LINE
  8
0
 10
41.8239
 20
256.5759
 11
41.9156
 21
256.6778
  0
ARC
  8
0
 10
41.5802
 20
256.933
 40
0.421513
 50
322.7251
 51
354.7816
  0
ARC
  8
0
 10
41.7223
 20
256.8947
 40
0.277704
 50
359.9998
 51
394.9251
  0
LINE
  8
0
 10
41.95
 20
257.0537
 11
41.8493
 21
257.1277
  0
LINE
  8
0
 10
41.8493
 20
257.1277
 11
41.58
 21
257.3485
  0
LINE
  8
0
 10
41.58
 20
257.3485
 11
41.2703
 21
257.58
  0
ARC
  8
0
 10
40.7434
 20
257.0504
 40
0.747067
 50
45.1433
 51
52.5168
  0
ARC
  8
0
 10
41.1635
 20
257.5983
 40
0.0566768
 50
52.5147
 51
79.5161
  0
ARC
  8
0
 10
41.159
 20
257.5737
 40
0.0816312
 50
79.5173
 51
117.5914
  0
ARC
  8
0
 10
41.2924
 20
257.3185
 40
0.369674
 50
117.5939
 51
135.2275
  0
ARC
  8
0
 10
41.6929
 20
256.9211
 40
0.933799
 50
135.226
 51
144.4759
  0
ARC
  8
0
 10
41.4787
 20
257.074
 40
0.670681
 50
144.4774
 51
155.3966
  0
LINE
  8
0
 10
40.869
 20
257.3533
 11
40.7304
 21
257.0507
  0
ARC
  8
0
 10
42.3148
 20
256.3252
 40
1.74256
 50
155.3959
 51
165.5632
  0
ARC
  8
0
 10
40.7036
 20
256.7597
 40
0.0763556
 50
180.0008
 51
217.9703
  0
LINE
  8
0
 10
40.6434
 20
256.7127
 11
40.9033
 21
256.5126
  0
ARC
  8
0
 10
40.8478
 20
256.4737
 40
0.0677645
 50
359.9991
 51
395.0521
  0
ARC
  8
0
 10
40.878
 20
256.4854
 40
0.0394129
 50
276.7137
 51
342.6463
  0
LINE
  8
0
 10
40.8826
 20
256.4463
 11
38.3682
 21
256.1503
  0
ARC
  8
0
 10
38.3628
 20
256.1963
 40
0.046381
 50
209.4225
 51
276.7154
  0
ARC
  8
0
 10
38.5825
 20
256.2521
 40
0.271652
 50
179.9995
 51
196.8069
  0
ARC
  8
0
 10
38.553
 20
256.1979
 40
0.248142
 50
137.5913
 51
167.3856
  0
ARC
  8
0
 10
38.7555
 20
256.013
 40
0.522363
 50
117.1799
 51
137.5926
  0
ARC
  8
0
 10
37.9822
 20
257.5189
 40
1.17047
 50
297.1791
 51
306.5644
  0
ARC
  8
0
 10
38.4002
 20
256.9553
 40
0.468751
 50
306.5648
 51
321.4205
  0
ARC
  8
0
 10
43.7726
 20
252.6697
 40
6.40352
 50
138.2722
 51
141.4201
  0
ARC
  8
0
 10
39.0501
 20
256.8813
 40
0.0758757
 50
109.0416
 51
138.2746
  0
ARC
  8
0
 10
39.0445
 20
256.8976
 40
0.0586526
 50
80.6477
 51
109.0343
  0
ARC
  8
0
 10
38.7388
 20
255.0402
 40
1.94099
 50
75.7684
 51
80.6541
  0
ARC
  8
0
 10
39.4007
 20
257.6497
 40
0.751081
 50
255.7675
 51
262.8048
  0
ARC
  8
0
 10
40.0972
 20
263.1668
 40
6.31194
 50
262.8047
 51
265.2309
  0
ARC
  8
0
 10
46.0328
 20
334.3312
 40
77.7235
 50
265.2321
 51
265.5274
  0
ARC
  8
0
 10
40.2467
 20
260.3571
 40
3.52345
 50
265.5239
 51
266.9084
  0
ARC
  8
0
 10
40.0923
 20
257.4978
 40
0.659926
 50
266.9109
 51
283.1545
  0
ARC
  8
0
 10
40.2075
 20
257.0045
 40
0.153396
 50
283.1542
 51
317.2332
  0
ARC
  8
0
 10
40.2288
 20
256.9849
 40
0.124487
 50
317.2299
 51
340.2693
  0
ARC
  8
0
 10
38.4389
 20
257.6267
 40
2.02596
 50
340.2738
 51
345.9488
  0
ARC
  8
0
 10
41.2172
 20
256.9313
 40
0.838104
 50
154.3232
 51
165.9479
  0
ARC
  8
0
 10
42.4546
 20
256.3364
 40
2.21107
 50
147.1738
 51
154.3231
  0
ARC
  8
0
 10
41.5976
 20
256.8893
 40
1.19116
 50
139.0728
 51
147.1737
  0
ARC
  8
0
 10
41.041
 20
257.3719
 40
0.454505
 50
125.9411
 51
139.073
  0
ARC
  8
0
 10
39.6044
 20
259.3535
 40
1.99309
 50
305.9409
 51
310.2
  0
ARC
  8
0
 10
40.872
 20
257.8535
 40
0.0292395
 50
310.1995
 51
345.934
  0
ARC
  8
0
 10
40.785
 20
257.8464
 40
0.115328
 50
0.0002
 51
22.5932
  0
ARC
  8
0
 10
39.9168
 20
257.1653
 40
1.21495
 50
36.6584
 51
46.8989
  0
LINE
  8
0
 10
40.747
 20
258.0524
 11
40.461
 21
258.32
  0
ARC
  8
0
 10
40.3609
 20
258.213
 40
0.146543
 50
46.8955
 51
52.8033
  0
ARC
  8
0
 10
0.5858
 20
205.7984
 40
65.9443
 50
52.8068
 51
53.0855
  0
ARC
  8
0
 10
35.0243
 20
251.6416
 40
8.60669
 50
53.0869
 51
53.8483
  0
ARC
  8
0
 10
37.341
 20
254.813
 40
4.67925
 50
53.8455
 51
54.8781
  0
ARC
  8
0
 10
38.9009
 20
257.0307
 40
1.96788
 50
54.8793
 51
57.3891
  0
ARC
  8
0
 10
39.6776
 20
258.2446
 40
0.526744
 50
57.3904
 51
62.2424
  0
LINE
  8
0
 10
39.9229
 20
258.7108
 11
39.383
 21
258.9949
  0
LINE
  8
0
 10
39.383
 20
258.9949
 11
39.2705
 21
259.1619
  0
ARC
  8
0
 10
38.6627
 20
258.7279
 40
0.746828
 50
35.5291
 51
46.8071
  0
ARC
  8
0
 10
38.5669
 20
258.6259
 40
0.886747
 50
46.8072
 51
57.1545
  0
ARC
  8
0
 10
38.6143
 20
258.6992
 40
0.799495
 50
57.1535
 51
69.9346
  0
ARC
  8
0
 10
38.6089
 20
258.6845
 40
0.815107
 50
69.9363
 51
82.5937
  0
ARC
  8
0
 10
38.6187
 20
258.7595
 40
0.739477
 50
82.5926
 51
94.3838
  0
ARC
  8
0
 10
38.5645
 20
259.4657
 40
0.0311955
 50
94.3862
 51
154.399
  0
ARC
  8
0
 10
38.7322
 20
259.4792
 40
0.19578
 50
179.9996
 51
187.1617
  0
ARC
  8
0
 10
39.7123
 20
260.2107
 40
1.39663
 50
212.7657
 51
220.2582
  0
ARC
  8
0
 10
37.9147
 20
258.6884
 40
0.958923
 50
31.9108
 51
40.2569
  0
ARC
  8
0
 10
37.5494
 20
258.4609
 40
1.38933
 50
24.9804
 51
31.9124
  0
LINE
  8
0
 10
38.8087
 20
259.0476
 11
38.878
 21
258.8748
  0
LINE
  8
0
 10
38.878
 20
258.8748
 11
38.6643
 21
258.902
  0
LINE
  8
0
 10
38.6643
 20
258.902
 11
38.4973
 21
258.8416
  0
LINE
  8
0
 10
38.4973
 20
258.8416
 11
38.6045
 21
258.735
  0
LINE
  8
0
 10
38.6045
 20
258.735
 11
38.3996
 21
258.7137
  0
ARC
  8
0
 10
38.2923
 20
257.2965
 40
1.42129
 50
85.6708
 51
92.519
  0
ARC
  8
0
 10
38.265
 20
257.919
 40
0.798191
 50
92.5201
 51
101.6625
  0
ARC
  8
0
 10
38.1588
 20
258.4336
 40
0.272772
 50
101.6633
 51
116.2128
  0
ARC
  8
0
 10
38.0477
 20
258.6591
 40
0.0214029
 50
116.2121
 51
169.957
  0
LINE
  8
0
 10
38.0267
 20
258.6628
 11
38.1261
 21
258.6042
  0
LINE
  8
0
 10
38.1261
 20
258.6042
 11
38.2102
 21
258.5562
  0
LINE
  8
0
 10
38.2102
 20
258.5562
 11
38.1486
 21
258.5338
  0
LINE
  8
0
 10
38.1486
 20
258.5338
 11
37.9367
 21
258.4899
  0
LINE
  8
0
 10
37.9367
 20
258.4899
 11
37.7064
 21
258.3934
  0
ARC
  8
0
 10
37.8722
 20
257.8471
 40
0.570909
 50
106.8855
 51
117.7467
  0
ARC
  8
0
 10
37.6344
 20
258.2991
 40
0.0602083
 50
117.7485
 51
151.6364
  0
ARC
  8
0
 10
37.9607
 20
258.2793
 40
0.382288
 50
172.7238
 51
180.0015
  0
ARC
  8
0
 10
37.6524
 20
258.3078
 40
0.0793541
 50
201.0864
 51
242.9947
  0
LINE
  8
0
 10
37.6164
 20
258.2371
 11
37.6779
 21
258.2058
  0
LINE
  8
0
 10
37.6779
 20
258.2058
 11
37.35
 21
258.0974
  0
LINE
  8
0
 10
37.35
 20
258.0974
 11
37.0025
 21
257.9713
  0
ARC
  8
0
 10
37.1724
 20
257.4466
 40
0.551611
 50
107.9462
 51
118.8093
  0
ARC
  8
0
 10
36.9166
 20
257.9117
 40
0.0207215
 50
118.8187
 51
177.2878
  0
ARC
  8
0
 10
36.9237
 20
257.9127
 40
0.0277814
 50
180.0051
 51
225.5766
  0
ARC
  8
0
 10
37.0102
 20
258.0118
 40
0.159323
 50
228.2882
 51
247.9235
  0
LINE
  8
0
 10
36.9504
 20
257.8642
 11
37.0569
 21
257.821
  0
LINE
  8
0
 10
37.0569
 20
257.821
 11
36.8521
 21
257.7576
  0
ARC
  8
0
 10
31.2372
 20
283.5753
 40
26.4212
 50
281.2834
 51
282.2698
  0
ARC
  8
0
 10
36.3696
 20
257.8511
 40
0.190037
 50
269.6267
 51
281.2765
  0
ARC
  8
0
 10
36.3652
 20
257.1665
 40
0.494619
 50
89.6346
 51
103.3353
  0
ARC
  8
0
 10
36.2932
 20
257.4704
 40
0.182333
 50
103.3316
 51
125.9905
  0
ARC
  8
0
 10
36.2418
 20
257.5412
 40
0.0948122
 50
125.9919
 51
161.3223
  0
ARC
  8
0
 10
36.28
 20
257.5715
 40
0.128029
 50
180.0021
 51
197.136
  0
ARC
  8
0
 10
36.1937
 20
257.5599
 40
0.0444962
 50
215.8128
 51
263.5836
  0
ARC
  8
0
 10
36.2848
 20
258.3697
 40
0.859474
 50
263.5807
 51
274.1531
  0
ARC
  8
0
 10
36.424
 20
256.4533
 40
1.06195
 50
83.9074
 51
94.1537
  0
ARC
  8
0
 10
36.5341
 20
257.4853
 40
0.0241609
 50
11.3054
 51
83.9112
  0
ARC
  8
0
 10
36.5395
 20
257.49
 40
0.0183267
 50
303.3675
 51
359.994
  0
ARC
  8
0
 10
35.5433
 20
259.9564
 40
2.678
 50
286.8566
 51
292.0718
  0
LINE
  8
0
 10
36.3198
 20
257.3935
 11
35.9232
 21
257.2733
  0
ARC
  8
0
 10
36.1105
 20
256.6552
 40
0.645918
 50
106.857
 51
122.0441
  0
ARC
  8
0
 10
35.9332
 20
256.9384
 40
0.311818
 50
122.0418
 51
143.9695
  0
ARC
  8
0
 10
35.7655
 20
257.0603
 40
0.104453
 50
143.969
 51
171.8039
  0
ARC
  8
0
 10
35.7119
 20
257.0752
 40
0.0497648
 50
180.0034
 51
213.4835
  0
ARC
  8
0
 10
35.6972
 20
257.0717
 40
0.0359229
 50
221.67
 51
259.9721
  0
ARC
  8
0
 10
35.7971
 20
257.6364
 40
0.609418
 50
259.9761
 51
269.1131
  0
LINE
  8
0
 10
35.7876
 20
257.0271
 11
35.8853
 21
257.0057
  0
LINE
  8
0
 10
35.8853
 20
257.0057
 11
35.7367
 21
256.8867
  0
ARC
  8
0
 10
35.5704
 20
257.0945
 40
0.266101
 50
278.9979
 51
308.6877
  0
ARC
  8
0
 10
35.4231
 20
258.0245
 40
1.2077
 50
265.1834
 51
278.998
  0
ARC
  8
0
 10
35.2633
 20
256.1285
 40
0.695022
 50
85.1831
 51
100.0759
  0
ARC
  8
0
 10
35.2167
 20
256.3912
 40
0.428198
 50
100.0762
 51
119.0833
  0
ARC
  8
0
 10
35.087
 20
256.6243
 40
0.16139
 50
119.0832
 51
139.4471
  0
ARC
  8
0
 10
35.0077
 20
256.7079
 40
0.0482731
 50
153.796
 51
179.9964
  0
LINE
  8
0
 10
34.9594
 20
256.708
 11
35.0914
 21
256.6416
  0
ARC
  8
0
 10
34.9776
 20
256.4108
 40
0.257419
 50
46.4084
 51
63.7593
  0
ARC
  8
0
 10
35.1275
 20
256.5712
 40
0.0378991
 50
359.9977
 51
403.317
  0
LINE
  8
0
 10
35.1654
 20
256.5712
 11
34.8872
 21
256.4208
  0
LINE
  8
0
 10
34.8872
 20
256.4208
 11
34.7534
 21
256.2852
  0
LINE
  8
0
 10
34.7534
 20
256.2852
 11
34.854
 21
256.2598
  0
LINE
  8
0
 10
34.854
 20
256.2598
 11
34.732
 21
256.1082
  0
ARC
  8
0
 10
35.4134
 20
255.9996
 40
0.68992
 50
170.9428
 51
180.0005
  0
ARC
  8
0
 10
34.7689
 20
256.012
 40
0.0471021
 50
195.2536
 51
272.7171
  0
LINE
  8
0
 10
34.7711
 20
255.965
 11
38.0012
 21
256.1183
  0
LINE
  8
0
 10
38.0012
 20
256.1183
 11
37.8236
 21
255.8673
  0
LINE
  8
0
 10
37.8236
 20
255.8673
 11
37.8236
 21
255.8673
  0
LINE
  8
0
 10
30.0361
 20
244.5028
 11
29.5625
 21
244.8077
  0
ARC
  8
0
 10
29.5813
 20
244.8274
 40
0.0272397
 50
180.006
 51
226.4499
  0
ARC
  8
0
 10
29.7648
 20
244.7873
 40
0.214552
 50
149.9495
 51
169.2139
  0
ARC
  8
0
 10
28.6007
 20
245.4607
 40
1.1303
 50
329.9504
 51
338.2496
  0
ARC
  8
0
 10
29.3958
 20
245.1435
 40
0.274247
 50
338.2525
 51
355.1472
  0
ARC
  8
0
 10
28.7114
 20
245.1203
 40
0.957689
 50
359.9985
 51
363.4958
  0
ARC
  8
0
 10
27.8278
 20
244.9086
 40
1.85923
 50
8.3527
 51
13.2262
  0
ARC
  8
0
 10
33.5363
 20
246.2503
 40
4.0048
 50
190.7849
 51
193.2262
  0
ARC
  8
0
 10
30.8284
 20
245.7344
 40
1.24825
 50
186.4097
 51
190.7831
  0
ARC
  8
0
 10
25.7113
 20
245.1595
 40
3.90107
 50
6.4107
 51
9.0646
  0
ARC
  8
0
 10
29.4568
 20
245.7571
 40
0.108185
 50
9.0659
 51
25.0531
  0
ARC
  8
0
 10
29.2365
 20
245.6541
 40
0.351328
 50
25.0514
 51
49.1481
  0
ARC
  8
0
 10
27.9815
 20
244.2028
 40
2.27
 50
49.1488
 51
58.5696
  0
ARC
  8
0
 10
30.4911
 20
248.3093
 40
2.54266
 50
233.7711
 51
238.5698
  0
ARC
  8
0
 10
33.7865
 20
252.8069
 40
8.11826
 50
231.0856
 51
233.7706
  0
ARC
  8
0
 10
45.3122
 20
267.0833
 40
26.4665
 50
230.0798
 51
231.0853
  0
ARC
  8
0
 10
39.2478
 20
259.836
 40
17.0166
 50
228.8269
 51
230.0806
  0
ARC
  8
0
 10
30.9765
 20
250.3788
 40
4.4526
 50
225.1275
 51
228.8266
  0
ARC
  8
0
 10
30.7658
 20
250.1671
 40
4.15396
 50
221.2976
 51
225.1274
  0
ARC
  8
0
 10
28.3471
 20
248.0425
 40
0.934673
 50
210.6792
 51
221.2977
  0
ARC
  8
0
 10
27.785
 20
247.709
 40
0.280994
 50
191.2477
 51
210.6791
  0
ARC
  8
0
 10
28.2937
 20
247.7291
 40
0.787869
 50
180.0005
 51
185.4577
  0
ARC
  8
0
 10
28.3522
 20
247.6432
 40
0.850795
 50
164.9387
 51
174.2093
  0
LINE
  8
0
 10
27.5307
 20
247.8643
 11
27.5745
 21
248.0271
  0
LINE
  8
0
 10
27.5745
 20
248.0271
 11
27.6372
 21
248.2645
  0
ARC
  8
0
 10
19.7904
 20
250.5229
 40
8.1654
 50
343.9441
 51
345.4877
  0
ARC
  8
0
 10
27.1729
 20
248.6119
 40
0.539571
 50
345.4869
 51
351.4942
  0
ARC
  8
0
 10
39.8806
 20
246.7116
 40
12.3095
 50
170.3889
 51
171.4949
  0
ARC
  8
0
 10
27.8774
 20
248.7441
 40
0.135374
 50
159.8275
 51
170.386
  0
ARC
  8
0
 10
27.9515
 20
248.7169
 40
0.214289
 50
145.8604
 51
159.8313
  0
ARC
  8
0
 10
29.3886
 20
247.7425
 40
1.95061
 50
141.2389
 51
145.8593
  0
ARC
  8
0
 10
25.3229
 20
251.0067
 40
3.26328
 50
321.2397
 51
325.3634
  0
ARC
  8
0
 10
26.5538
 20
250.1565
 40
1.76731
 50
325.3619
 51
330.9665
  0
LINE
  8
0
 10
28.099
 20
249.2988
 11
28.3169
 21
249.6913
  0
LINE
  8
0
 10
28.3169
 20
249.6913
 11
28.5324
 21
250.0572
  0
ARC
  8
0
 10
31.8712
 20
248.5454
 40
3.66514
 50
153.0182
 51
155.64
  0
ARC
  8
0
 10
29.4815
 20
249.762
 40
0.983572
 50
147.9544
 51
153.0167
  0
ARC
  8
0
 10
28.7872
 20
250.1967
 40
0.164386
 50
128.9292
 51
147.957
  0
ARC
  8
0
 10
28.7095
 20
250.2928
 40
0.0408317
 50
90.187
 51
128.9262
  0
ARC
  8
0
 10
28.7096
 20
250.2755
 40
0.0581201
 50
50.2343
 51
90.1892
  0
ARC
  8
0
 10
28.6174
 20
250.1648
 40
0.202176
 50
29.1235
 51
50.2332
  0
ARC
  8
0
 10
28.0892
 20
249.8705
 40
0.80684
 50
17.4539
 51
29.1231
  0
ARC
  8
0
 10
27.7297
 20
249.7574
 40
1.18372
 50
7.8269
 51
17.4557
  0
ARC
  8
0
 10
17.1303
 20
248.3005
 40
11.8828
 50
6.3676
 51
7.8265
  0
ARC
  8
0
 10
27.2651
 20
249.4316
 40
1.68506
 50
2.4913
 51
6.366
  0
ARC
  8
0
 10
17.1757
 20
249.3573
 40
11.7738
 50
359.9997
 51
360.7177
  0
ARC
  8
0
 10
25.4268
 20
249.4664
 40
3.52434
 50
355.0265
 51
358.2258
  0
ARC
  8
0
 10
24.4373
 20
249.5525
 40
4.51761
 50
351.9213
 51
355.0259
  0
ARC
  8
0
 10
27.7202
 20
249.0865
 40
1.20179
 50
345.9011
 51
351.9225
  0
LINE
  8
0
 10
28.8858
 20
248.7938
 11
28.7911
 21
248.4167
  0
ARC
  8
0
 10
25.2987
 20
249.2939
 40
3.60088
 50
342.2733
 51
345.9003
  0
ARC
  8
0
 10
28.4876
 20
248.2745
 40
0.252987
 50
328.5592
 51
342.2731
  0
LINE
  8
0
 10
28.7035
 20
248.1426
 11
28.6271
 21
248.0176
  0
ARC
  8
0
 10
28.6669
 20
247.9933
 40
0.0467038
 50
148.551
 51
171.7909
  0
ARC
  8
0
 10
33.0894
 20
247.356
 40
4.51481
 50
171.8
 51
174.1476
  0
ARC
  8
0
 10
29.5365
 20
247.7201
 40
0.943346
 50
174.1459
 51
179.9991
  0
ARC
  8
0
 10
29.1932
 20
247.7202
 40
0.600042
 50
180.0012
 51
187.342
  0
ARC
  8
0
 10
29.0314
 20
247.6993
 40
0.436911
 50
187.3391
 51
196.9493
  0
ARC
  8
0
 10
29.5226
 20
247.849
 40
0.950409
 50
196.952
 51
203.4638
  0
ARC
  8
0
 10
29.7784
 20
247.96
 40
1.22926
 50
203.4615
 51
208.5421
  0
ARC
  8
0
 10
28.9486
 20
247.5087
 40
0.284645
 50
208.5456
 51
219.1152
  0
LINE
  8
0
 10
28.7277
 20
247.3291
 11
29.0167
 21
247.0674
  0
LINE
  8
0
 10
29.0167
 20
247.0674
 11
29.3849
 21
246.7294
  0
ARC
  8
0
 10
30.7404
 20
248.2059
 40
2.00436
 50
227.4478
 51
231.0893
  0
ARC
  8
0
 10
33.6524
 20
251.8135
 40
6.64055
 50
231.0895
 51
233.0899
  0
ARC
  8
0
 10
26.9153
 20
242.8439
 40
4.57737
 50
52.0602
 51
53.089
  0
ARC
  8
0
 10
28.3547
 20
244.6902
 40
2.23625
 50
50.5905
 51
52.0623
  0
ARC
  8
0
 10
29.3163
 20
245.8604
 40
0.721672
 50
41.7788
 51
50.5892
  0
ARC
  8
0
 10
29.5483
 20
246.0678
 40
0.410481
 50
30.0885
 51
41.7792
  0
ARC
  8
0
 10
29.2177
 20
245.8762
 40
0.792561
 50
24.9248
 51
30.0873
  0
ARC
  8
0
 10
28.8915
 20
245.7246
 40
1.15228
 50
20.6454
 51
24.9265
  0
ARC
  8
0
 10
25.7018
 20
244.5228
 40
4.56093
 50
18.485
 51
20.6443
  0
ARC
  8
0
 10
29.7795
 20
245.886
 40
0.261334
 50
9.4571
 51
18.487
  0
ARC
  8
0
 10
29.7322
 20
245.8868
 40
0.308044
 50
0.0006
 51
7.8774
  0
ARC
  8
0
 10
28.5969
 20
245.9266
 40
1.44385
 50
354.119
 51
358.4212
  0
ARC
  8
0
 10
31.6513
 20
245.6119
 40
1.62672
 50
174.1192
 51
178.21
  0
ARC
  8
0
 10
30.2371
 20
245.6628
 40
0.211722
 50
180.0002
 51
189.7069
  0
LINE
  8
0
 10
30.0284
 20
245.6271
 11
30.0568
 21
245.4873
  0
ARC
  8
0
 10
29.7892
 20
245.4329
 40
0.273148
 50
0.002
 51
11.4985
  0
ARC
  8
0
 10
28.567
 20
245.4329
 40
1.49528
 50
355.0923
 51
359.9992
  0
ARC
  8
0
 10
42.9948
 20
244.194
 40
12.9856
 50
175.0919
 51
175.5317
  0
ARC
  8
0
 10
33.6235
 20
244.9265
 40
3.58571
 50
175.5353
 51
176.3719
  0
ARC
  8
0
 10
32.8716
 20
245.1535
 40
2.82659
 50
180.0015
 51
182.2771
  0
ARC
  8
0
 10
30.2485
 20
245.062
 40
0.202345
 50
185.9034
 51
203.3714
  0
LINE
  8
0
 10
30.0628
 20
244.9818
 11
30.1231
 21
244.842
  0
ARC
  8
0
 10
30.0938
 20
244.8329
 40
0.0307368
 50
0.0103
 51
17.3047
  0
ARC
  8
0
 10
22.2994
 20
245.6664
 40
7.86939
 50
352.5198
 51
353.92
  0
ARC
  8
0
 10
29.6869
 20
244.6964
 40
0.418455
 50
345.1729
 51
352.5195
  0
ARC
  8
0
 10
29.7295
 20
244.6851
 40
0.3744
 50
337.4067
 51
345.1742
  0
ARC
  8
0
 10
29.9711
 20
244.5846
 40
0.112789
 50
314.5633
 51
337.4067
  0
ARC
  8
0
 10
30.0423
 20
244.5123
 40
0.011331
 50
237.2284
 51
314.5624
  0
LINE
  8
0
 10
30.0361
 20
244.5028
 11
30.0361
 21
244.5028
  0
LINE
  8
0
 10
31.6338
 20
253.3381
 11
31.6338
 21
253.5726
  0
LINE
  8
0
 10
31.6338
 20
253.5726
 11
31.0217
 21
253.5726
  0
ARC
  8
0
 10
36.2333
 20
251.3338
 40
5.67218
 50
155.6405
 51
156.7529
  0
ARC
  8
0
 10
32.3533
 20
253.0906
 40
1.413
 50
153.4134
 51
155.6424
  0
ARC
  8
0
 10
32.4283
 20
253.0529
 40
1.49687
 50
149.5322
 51
153.4099
  0
ARC
  8
0
 10
32.9696
 20
252.7346
 40
2.12486
 50
146.2819
 51
149.5363
  0
ARC
  8
0
 10
33.0963
 20
252.65
 40
2.27713
 50
142.0042
 51
146.2799
  0
ARC
  8
0
 10
31.9438
 20
253.5503
 40
0.814766
 50
134.8536
 51
142.0046
  0
LINE
  8
0
 10
31.3692
 20
254.1279
 11
31.4852
 21
254.2433
  0
ARC
  8
0
 10
30.8287
 20
254.9033
 40
0.930891
 50
314.8503
 51
317.5417
  0
ARC
  8
0
 10
31.1536
 20
254.6059
 40
0.490399
 50
317.5493
 51
321.2574
  0
ARC
  8
0
 10
31.1933
 20
254.5741
 40
0.43955
 50
321.2541
 51
328.9887
  0
ARC
  8
0
 10
31.1781
 20
254.5832
 40
0.457277
 50
328.9861
 51
336.5694
  0
ARC
  8
0
 10
31.1841
 20
254.5806
 40
0.450795
 50
336.5724
 51
342.4004
  0
ARC
  8
0
 10
31.2115
 20
254.572
 40
0.422038
 50
342.3975
 51
348.4207
  0
ARC
  8
0
 10
31.2085
 20
254.5726
 40
0.425109
 50
348.4235
 51
354.4739
  0
ARC
  8
0
 10
31.1239
 20
254.579
 40
0.509898
 50
354.6657
 51
359.9987
  0
ARC
  8
0
 10
31.1474
 20
254.5774
 40
0.486434
 50
0.1953
 51
11.0506
  0
ARC
  8
0
 10
31.1885
 20
254.5854
 40
0.444529
 50
11.0489
 51
22.4065
  0
ARC
  8
0
 10
31.1935
 20
254.5874
 40
0.439126
 50
22.4079
 51
34.0078
  0
ARC
  8
0
 10
31.1834
 20
254.5806
 40
0.451339
 50
34.0071
 51
45.4486
  0
ARC
  8
0
 10
31.1799
 20
254.5771
 40
0.456242
 50
45.4496
 51
56.6765
  0
ARC
  8
0
 10
31.1669
 20
254.5572
 40
0.480062
 50
56.6756
 51
67.6192
  0
ARC
  8
0
 10
31.1684
 20
254.561
 40
0.475969
 50
67.6208
 51
78.5782
  0
ARC
  8
0
 10
31.1776
 20
254.6067
 40
0.429399
 50
78.5753
 51
90.1138
  0
ARC
  8
0
 10
31.1776
 20
254.6069
 40
0.429103
 50
90.1168
 51
101.5399
  0
ARC
  8
0
 10
31.1872
 20
254.5601
 40
0.476907
 50
101.5372
 51
112.3708
  0
ARC
  8
0
 10
31.1888
 20
254.5562
 40
0.481194
 50
112.3742
 51
123.3262
  0
ARC
  8
0
 10
31.1726
 20
254.5808
 40
0.451671
 50
123.3222
 51
134.6273
  0
ARC
  8
0
 10
31.1731
 20
254.5803
 40
0.452426
 50
134.6305
 51
146.0516
  0
ARC
  8
0
 10
31.1908
 20
254.5684
 40
0.473661
 50
146.0492
 51
157.2106
  0
ARC
  8
0
 10
31.1856
 20
254.5706
 40
0.468078
 50
157.2083
 51
163.2606
  0
ARC
  8
0
 10
31.0185
 20
254.6209
 40
0.293567
 50
163.2682
 51
170.9127
  0
ARC
  8
0
 10
31.188
 20
254.5937
 40
0.465252
 50
170.907
 51
175.0121
  0
ARC
  8
0
 10
31.9984
 20
254.523
 40
1.27872
 50
175.0145
 51
177.4905
  0
LINE
  8
0
 10
30.7209
 20
254.579
 11
30.9559
 21
254.579
  0
ARC
  8
0
 10
31.4662
 20
254.5731
 40
0.510294
 50
176.0793
 51
179.3395
  0
ARC
  8
0
 10
31.0809
 20
254.5995
 40
0.124119
 50
169.4735
 51
176.0885
  0
ARC
  8
0
 10
31.0905
 20
254.5978
 40
0.133868
 50
161.5714
 51
169.4731
  0
ARC
  8
0
 10
31.191
 20
254.5643
 40
0.239759
 50
155.6581
 51
161.5606
  0
ARC
  8
0
 10
31.2339
 20
254.5449
 40
0.28683
 50
146.4166
 51
155.6609
  0
ARC
  8
0
 10
31.181
 20
254.58
 40
0.223312
 50
135.9404
 51
146.4204
  0
ARC
  8
0
 10
31.1763
 20
254.5845
 40
0.216877
 50
124.1104
 51
135.9343
  0
ARC
  8
0
 10
31.1752
 20
254.5862
 40
0.214856
 50
112.239
 51
124.1187
  0
ARC
  8
0
 10
31.1747
 20
254.5874
 40
0.213495
 50
100.9156
 51
112.2345
  0
ARC
  8
0
 10
31.1758
 20
254.5814
 40
0.219654
 50
89.7576
 51
100.916
  0
ARC
  8
0
 10
31.1758
 20
254.5794
 40
0.221651
 50
78.3118
 51
89.7586
  0
ARC
  8
0
 10
31.1765
 20
254.5825
 40
0.218487
 50
66.7798
 51
78.3102
  0
ARC
  8
0
 10
31.1762
 20
254.5819
 40
0.21909
 50
55.7569
 51
66.7791
  0
ARC
  8
0
 10
31.1677
 20
254.5693
 40
0.234313
 50
45.102
 51
55.7599
  0
ARC
  8
0
 10
31.1693
 20
254.5709
 40
0.232053
 50
33.9102
 51
45.1041
  0
ARC
  8
0
 10
31.1944
 20
254.5878
 40
0.201775
 50
21.8947
 51
33.9023
  0
ARC
  8
0
 10
31.1912
 20
254.5865
 40
0.205234
 50
10.764
 51
21.8969
  0
ARC
  8
0
 10
31.1224
 20
254.5734
 40
0.275212
 50
1.1573
 51
10.7676
  0
ARC
  8
0
 10
30.9399
 20
254.579
 40
0.457677
 50
356.5513
 51
359.996
  0
ARC
  8
0
 10
31.1848
 20
254.5685
 40
0.212639
 50
348.8704
 51
355.4039
  0
ARC
  8
0
 10
31.193
 20
254.5669
 40
0.20427
 50
342.5178
 51
348.872
  0
ARC
  8
0
 10
31.1914
 20
254.5675
 40
0.206016
 50
336.179
 51
342.5064
  0
ARC
  8
0
 10
31.2023
 20
254.5627
 40
0.1941
 50
329.3028
 51
336.1873
  0
ARC
  8
0
 10
31.2357
 20
254.5428
 40
0.155245
 50
321.5983
 51
329.2975
  0
ARC
  8
0
 10
31.2287
 20
254.5483
 40
0.164062
 50
317.1826
 51
321.609
  0
ARC
  8
0
 10
31.0361
 20
254.727
 40
0.42684
 50
314.4261
 51
317.1699
  0
LINE
  8
0
 10
31.3348
 20
254.4221
 11
31.1543
 21
254.2451
  0
ARC
  8
0
 10
31.6645
 20
253.7246
 40
0.728893
 50
134.4302
 51
144.6084
  0
ARC
  8
0
 10
33.2496
 20
252.5986
 40
2.6732
 50
144.6094
 51
149.9191
  0
ARC
  8
0
 10
32.4747
 20
253.0474
 40
1.77767
 50
149.9187
 51
156.1916
  0
ARC
  8
0
 10
32.3338
 20
253.1096
 40
1.62369
 50
156.1917
 51
162.7556
  0
ARC
  8
0
 10
32.1644
 20
253.1621
 40
1.44637
 50
162.7538
 51
166.1833
  0
ARC
  8
0
 10
36.4239
 20
252.1148
 40
5.83267
 50
166.1858
 51
167.8934
  0
LINE
  8
0
 10
30.7209
 20
253.3381
 11
31.6338
 21
253.3381
  0
LINE
  8
0
 10
31.6338
 20
253.3381
 11
31.6338
 21
253.3381
  0
ENDSEC
  0
EOF