  0
SECTION
  2
HEADER
  9
$ACADVER
  1
AC1009
  0
ENDSEC
  0
SECTION
  2
TABLES
  0
TABLE
  2
STYLE
 70
   1
  0
STYLE
  2
STANDARD
 70
    64
 40
0.0
 41
1.0
 50
0.0
 71
     0
 42
1.0
  3
txt
  4

  0
ENDTAB
  0
ENDSEC
  0
SECTION
  2
ENTITIES
  0
ARC
  8
0
 10
21.5
 20
241.5
 40
1.5
 50
180
 51
270
  0
ARC
  8
0
 10
48.5
 20
241.5
 40
1.5
 50
270
 51
360
  0
ARC
  8
0
 10
48.5
 20
268.5
 40
1.5
 50
0
 51
90
  0
ARC
  8
0
 10
21.5
 20
268.5
 40
1.5
 50
90
 51
180
  0
POLYLINE
  8
0
 66
     1
 10
0
 20
0
  0
VERTEX
  8
0
 10
21.5
 20
240
  0
VERTEX
  8
0
 10
48.5
 20
240
  0
SEQEND
  0
POLYLINE
  8
0
 66
     1
 10
0
 20
0
  0
VERTEX
  8
0
 10
50
 20
241.5
  0
VERTEX
  8
0
 10
50
 20
268.5
  0
SEQEND
  0
POLYLINE
  8
0
 66
     1
 10
0
 20
0
  0
VERTEX
  8
0
 10
48.5
 20
270
  0
VERTEX
  8
0
 10
21.5
 20
270
  0
SEQEND
  0
POLYLINE
  8
0
 66
     1
 10
0
 20
0
  0
VERTEX
  8
0
 10
20
 20
268.5
  0
VERTEX
  8
0
 10
20
 20
241.5
  0
SEQEND
  0
ARC
  8
0
 10
21.5
 20
241.5
 40
1.5
 50
180
 51
270
  0
ARC
  8
0
 10
21.5
 20
241.5
 40
1
 50
180
 51
270
  0
ARC
  8
0
 10
48.5
 20
241.5
 40
1.5
 50
270
 51
360
  0
ARC
  8
0
 10
48.5
 20
241.5
 40
1
 50
270
 51
360
  0
ARC
  8
0
 10
48.5
 20
268.5
 40
1.5
 50
0
 51
90
  0
ARC
  8
0
 10
48.5
 20
268.5
 40
1
 50
0
 51
90
  0
ARC
  8
0
 10
21.5
 20
268.5
 40
1.5
 50
90
 51
180
  0
ARC
  8
0
 10
21.5
 20
268.5
 40
1
 50
90
 51
180
  0
POLYLINE
  8
0
 66
     1
 10
0
 20
0
  0
VERTEX
  8
0
 10
21.5
 20
240.5
  0
VERTEX
  8
0
 10
48.5
 20
240.5
  0
SEQEND
  0
POLYLINE
  8
0
 66
     1
 10
0
 20
0
  0
VERTEX
  8
0
 10
48.5
 20
240
  0
VERTEX
  8
0
 10
21.5
 20
240
  0
SEQEND
  0
POLYLINE
  8
0
 66
     1
 10
0
 20
0
  0
VERTEX
  8
0
 10
49.5
 20
241.5
  0
VERTEX
  8
0
 10
49.5
 20
268.5
  0
SEQEND
  0
POLYLINE
  8
0
 66
     1
 10
0
 20
0
  0
VERTEX
  8
0
 10
50
 20
268.5
  0
VERTEX
  8
0
 10
50
 20
241.5
  0
SEQEND
  0
POLYLINE
  8
0
 66
     1
 10
0
 20
0
  0
VERTEX
  8
0
 10
48.5
 20
269.5
  0
VERTEX
  8
0
 10
21.5
 20
269.5
  0
SEQEND
  0
POLYLINE
  8
0
 66
     1
 10
0
 20
0
  0
VERTEX
  8
0
 10
21.5
 20
270
  0
VERTEX
  8
0
 10
48.5
 20
270
  0
SEQEND
  0
POLYLINE
  8
0
 66
     1
 10
0
 20
0
  0
VERTEX
  8
0
 10
20.5
 20
268.5
  0
VERTEX
  8
0
 10
20.5
 20
241.5
  0
SEQEND
  0
POLYLINE
  8
0
 66
     1
 10
0
 20
0
  0
VERTEX
  8
0
 10
20
 20
241.5
  0
VERTEX
  8
0
 10
20
 20
268.5
  0
SEQEND
  0
POLYLINE
  8
0
 66
     1
 10
0
 20
0
  0
VERTEX
  8
0
 10
51.6834
 20
266.4347
  0
VERTEX
  8
0
 10
51.6743
 20
266.5412
  0
VERTEX
  8
0
 10
51.7074
 20
266.5478
  0
VERTEX
  8
0
 10
51.7366
 20
266.5572
  0
VERTEX
  8
0
 10
51.7619
 20
266.5693
  0
VERTEX
  8
0
 10
51.7833
 20
266.5842
  0
VERTEX
  8
0
 10
51.8008
 20
266.6019
  0
VERTEX
  8
0
 10
51.8145
 20
266.6223
  0
VERTEX
  8
0
 10
51.8242
 20
266.6454
  0
VERTEX
  8
0
 10
51.83
 20
266.6714
  0
VERTEX
  8
0
 10
51.832
 20
266.7
  0
VERTEX
  8
0
 10
51.825
 20
266.7505
  0
VERTEX
  8
0
 10
51.8042
 20
266.7937
  0
VERTEX
  8
0
 10
51.7695
 20
266.8296
  0
VERTEX
  8
0
 10
51.7059
 20
266.8634
  0
VERTEX
  8
0
 10
51.6286
 20
266.8747
  0
VERTEX
  8
0
 10
51.5526
 20
266.863
  0
VERTEX
  8
0
 10
51.4925
 20
266.8279
  0
VERTEX
  8
0
 10
51.4636
 20
266.7927
  0
VERTEX
  8
0
 10
51.4461
 20
266.7496
  0
VERTEX
  8
0
 10
51.44
 20
266.6984
  0
VERTEX
  8
0
 10
51.4449
 20
266.6526
  0
VERTEX
  8
0
 10
51.4601
 20
266.6123
  0
VERTEX
  8
0
 10
51.4856
 20
266.5774
  0
VERTEX
  8
0
 10
51.5214
 20
266.5479
  0
VERTEX
  8
0
 10
51.509
 20
266.4527
  0
VERTEX
  8
0
 10
51.084
 20
266.5329
  0
VERTEX
  8
0
 10
51.084
 20
266.9442
  0
VERTEX
  8
0
 10
51.18
 20
266.9442
  0
VERTEX
  8
0
 10
51.18
 20
266.6165
  0
VERTEX
  8
0
 10
51.4036
 20
266.5703
  0
VERTEX
  8
0
 10
51.3652
 20
266.6464
  0
VERTEX
  8
0
 10
51.352
 20
266.7261
  0
VERTEX
  8
0
 10
51.3566
 20
266.7799
  0
VERTEX
  8
0
 10
51.3712
 20
266.8288
  0
VERTEX
  8
0
 10
51.3957
 20
266.8728
  0
VERTEX
  8
0
 10
51.43
 20
266.9118
  0
VERTEX
  8
0
 10
51.4706
 20
266.9428
  0
VERTEX
  8
0
 10
51.5159
 20
266.9649
  0
VERTEX
  8
0
 10
51.5659
 20
266.9782
  0
VERTEX
  8
0
 10
51.6207
 20
266.9827
  0
VERTEX
  8
0
 10
51.6921
 20
266.9754
  0
VERTEX
  8
0
 10
51.7569
 20
266.9536
  0
VERTEX
  8
0
 10
51.8153
 20
266.9173
  0
VERTEX
  8
0
 10
51.8514
 20
266.8832
  0
VERTEX
  8
0
 10
51.8795
 20
266.8444
  0
VERTEX
  8
0
 10
51.8996
 20
266.801
  0
VERTEX
  8
0
 10
51.9118
 20
266.7529
  0
VERTEX
  8
0
 10
51.916
 20
266.7002
  0
VERTEX
  8
0
 10
51.9092
 20
266.6312
  0
VERTEX
  8
0
 10
51.8889
 20
266.5707
  0
VERTEX
  8
0
 10
51.8551
 20
266.5187
  0
VERTEX
  8
0
 10
51.8083
 20
266.4767
  0
VERTEX
  8
0
 10
51.751
 20
266.4487
  0
VERTEX
  8
0
 10
51.6834
 20
266.4347
  0
VERTEX
  8
0
 10
51.6834
 20
266.4347
  0
SEQEND
  0
POLYLINE
  8
0
 66
     1
 10
0
 20
0
  0
VERTEX
  8
0
 10
51.904
 20
267.1307
  0
VERTEX
  8
0
 10
51.784
 20
267.1307
  0
VERTEX
  8
0
 10
51.784
 20
267.2467
  0
VERTEX
  8
0
 10
51.904
 20
267.2467
  0
VERTEX
  8
0
 10
51.904
 20
267.1307
  0
SEQEND
  0
POLYLINE
  8
0
 66
     1
 10
0
 20
0
  0
VERTEX
  8
0
 10
51.2483
 20
267.9487
  0
VERTEX
  8
0
 10
51.2562
 20
267.8477
  0
VERTEX
  8
0
 10
51.2176
 20
267.8333
  0
VERTEX
  8
0
 10
51.1873
 20
267.807
  0
VERTEX
  8
0
 10
51.1611
 20
267.7584
  0
VERTEX
  8
0
 10
51.152
 20
267.697
  0
VERTEX
  8
0
 10
51.1585
 20
267.6402
  0
VERTEX
  8
0
 10
51.1792
 20
267.596
  0
VERTEX
  8
0
 10
51.2
 20
267.5722
  0
VERTEX
  8
0
 10
51.2254
 20
267.5514
  0
VERTEX
  8
0
 10
51.2553
 20
267.5338
  0
VERTEX
  8
0
 10
51.2898
 20
267.5192
  0
VERTEX
  8
0
 10
51.3289
 20
267.5077
  0
VERTEX
  8
0
 10
51.3725
 20
267.4992
  0
VERTEX
  8
0
 10
51.4207
 20
267.4939
  0
VERTEX
  8
0
 10
51.4734
 20
267.4917
  0
VERTEX
  8
0
 10
51.44
 20
267.5173
  0
VERTEX
  8
0
 10
51.4126
 20
267.546
  0
VERTEX
  8
0
 10
51.3913
 20
267.5781
  0
VERTEX
  8
0
 10
51.3761
 20
267.6133
  0
VERTEX
  8
0
 10
51.367
 20
267.6517
  0
VERTEX
  8
0
 10
51.364
 20
267.6934
  0
VERTEX
  8
0
 10
51.369
 20
267.7455
  0
VERTEX
  8
0
 10
51.3842
 20
267.7928
  0
VERTEX
  8
0
 10
51.4095
 20
267.835
  0
VERTEX
  8
0
 10
51.4449
 20
267.8724
  0
VERTEX
  8
0
 10
51.4999
 20
267.9089
  0
VERTEX
  8
0
 10
51.5625
 20
267.931
  0
VERTEX
  8
0
 10
51.6326
 20
267.9387
  0
VERTEX
  8
0
 10
51.7054
 20
267.931
  0
VERTEX
  8
0
 10
51.7735
 20
267.907
  0
VERTEX
  8
0
 10
51.835
 20
267.8666
  0
VERTEX
  8
0
 10
51.8804
 20
267.8124
  0
VERTEX
  8
0
 10
51.9071
 20
267.7499
  0
VERTEX
  8
0
 10
51.916
 20
267.6788
  0
VERTEX
  8
0
 10
51.9153
 20
267.6553
  0
VERTEX
  8
0
 10
51.9132
 20
267.6329
  0
VERTEX
  8
0
 10
51.9097
 20
267.6114
  0
VERTEX
  8
0
 10
51.9048
 20
267.5909
  0
VERTEX
  8
0
 10
51.8985
 20
267.5714
  0
VERTEX
  8
0
 10
51.8908
 20
267.5529
  0
VERTEX
  8
0
 10
51.8817
 20
267.5355
  0
VERTEX
  8
0
 10
51.8712
 20
267.519
  0
VERTEX
  8
0
 10
51.8593
 20
267.5035
  0
VERTEX
  8
0
 10
51.8461
 20
267.489
  0
VERTEX
  8
0
 10
51.8314
 20
267.4755
  0
VERTEX
  8
0
 10
51.8153
 20
267.463
  0
VERTEX
  8
0
 10
51.7978
 20
267.4515
  0
VERTEX
  8
0
 10
51.7789
 20
267.441
  0
VERTEX
  8
0
 10
51.7587
 20
267.4314
  0
VERTEX
  8
0
 10
51.737
 20
267.4229
  0
VERTEX
  8
0
 10
51.7139
 20
267.4154
  0
VERTEX
  8
0
 10
51.6894
 20
267.4089
  0
VERTEX
  8
0
 10
51.6636
 20
267.4034
  0
VERTEX
  8
0
 10
51.6363
 20
267.3988
  0
VERTEX
  8
0
 10
51.6076
 20
267.3953
  0
VERTEX
  8
0
 10
51.5776
 20
267.3928
  0
VERTEX
  8
0
 10
51.5461
 20
267.3912
  0
VERTEX
  8
0
 10
51.5132
 20
267.3907
  0
VERTEX
  8
0
 10
51.4471
 20
267.3925
  0
VERTEX
  8
0
 10
51.3864
 20
267.3979
  0
VERTEX
  8
0
 10
51.331
 20
267.4069
  0
VERTEX
  8
0
 10
51.281
 20
267.4196
  0
VERTEX
  8
0
 10
51.2364
 20
267.4359
  0
VERTEX
  8
0
 10
51.1971
 20
267.4557
  0
VERTEX
  8
0
 10
51.1632
 20
267.4792
  0
VERTEX
  8
0
 10
51.1289
 20
267.5129
  0
VERTEX
  8
0
 10
51.1022
 20
267.5522
  0
VERTEX
  8
0
 10
51.0832
 20
267.597
  0
VERTEX
  8
0
 10
51.0718
 20
267.6473
  0
VERTEX
  8
0
 10
51.068
 20
267.7032
  0
VERTEX
  8
0
 10
51.0796
 20
267.7907
  0
VERTEX
  8
0
 10
51.1146
 20
267.8646
  0
VERTEX
  8
0
 10
51.1525
 20
267.9068
  0
VERTEX
  8
0
 10
51.197
 20
267.9348
  0
VERTEX
  8
0
 10
51.2483
 20
267.9487
  0
VERTEX
  8
0
 10
51.2483
 20
267.9487
  0
SEQEND
  0
POLYLINE
  8
0
 66
     1
 10
0
 20
0
  0
VERTEX
  8
0
 10
51.632
 20
267.5067
  0
VERTEX
  8
0
 10
51.6829
 20
267.5117
  0
VERTEX
  8
0
 10
51.7309
 20
267.5277
  0
VERTEX
  8
0
 10
51.7749
 20
267.5551
  0
VERTEX
  8
0
 10
51.807
 20
267.5919
  0
VERTEX
  8
0
 10
51.8254
 20
267.6327
  0
VERTEX
  8
0
 10
51.832
 20
267.6767
  0
VERTEX
  8
0
 10
51.8254
 20
267.7232
  0
VERTEX
  8
0
 10
51.805
 20
267.7628
  0
VERTEX
  8
0
 10
51.7706
 20
267.7954
  0
VERTEX
  8
0
 10
51.7099
 20
267.8246
  0
VERTEX
  8
0
 10
51.6377
 20
267.8347
  0
VERTEX
  8
0
 10
51.566
 20
267.8247
  0
VERTEX
  8
0
 10
51.5077
 20
267.7937
  0
VERTEX
  8
0
 10
51.477
 20
267.7606
  0
VERTEX
  8
0
 10
51.4584
 20
267.7202
  0
VERTEX
  8
0
 10
51.452
 20
267.6727
  0
VERTEX
  8
0
 10
51.4577
 20
267.6261
  0
VERTEX
  8
0
 10
51.4755
 20
267.5857
  0
VERTEX
  8
0
 10
51.5054
 20
267.5516
  0
VERTEX
  8
0
 10
51.5626
 20
267.5182
  0
VERTEX
  8
0
 10
51.632
 20
267.5067
  0
VERTEX
  8
0
 10
51.632
 20
267.5067
  0
SEQEND
  0
LINE
  8
0
 10
51.5
 20
268.145
 11
51.5
 21
270
  0
LINE
  8
0
 10
51.6789
 20
269.6422
 11
51.5
 21
270
  0
LINE
  8
0
 10
51.3211
 20
269.6422
 11
51.5
 21
270
  0
LINE
  8
0
 10
51.7
 20
270
 11
50.5
 21
270
  0
LINE
  8
0
 10
51.5
 20
266.2288
 11
51.5
 21
264.3738
  0
LINE
  8
0
 10
51.3211
 20
264.7315
 11
51.5
 21
264.3738
  0
LINE
  8
0
 10
51.6789
 20
264.7315
 11
51.5
 21
264.3738
  0
LINE
  8
0
 10
51.7
 20
264.3738
 11
50.5
 21
264.3738
  0
POLYLINE
  8
0
 66
     1
 10
0
 20
0
  0
VERTEX
  8
0
 10
51.904
 20
254.2747
  0
VERTEX
  8
0
 10
51.904
 20
254.1747
  0
VERTEX
  8
0
 10
51.2529
 20
254.1747
  0
VERTEX
  8
0
 10
51.3216
 20
254.0834
  0
VERTEX
  8
0
 10
51.3753
 20
253.9707
  0
VERTEX
  8
0
 10
51.2766
 20
253.9707
  0
VERTEX
  8
0
 10
51.2477
 20
254.0264
  0
VERTEX
  8
0
 10
51.2164
 20
254.0757
  0
VERTEX
  8
0
 10
51.1828
 20
254.1187
  0
VERTEX
  8
0
 10
51.1469
 20
254.1553
  0
VERTEX
  8
0
 10
51.1086
 20
254.1855
  0
VERTEX
  8
0
 10
51.068
 20
254.2094
  0
VERTEX
  8
0
 10
51.068
 20
254.2747
  0
VERTEX
  8
0
 10
51.904
 20
254.2747
  0
SEQEND
  0
POLYLINE
  8
0
 66
     1
 10
0
 20
0
  0
VERTEX
  8
0
 10
51.4515
 20
254.6841
  0
VERTEX
  8
0
 10
51.4369
 20
254.6508
  0
VERTEX
  8
0
 10
51.4192
 20
254.6227
  0
VERTEX
  8
0
 10
51.3982
 20
254.5996
  0
VERTEX
  8
0
 10
51.374
 20
254.5817
  0
VERTEX
  8
0
 10
51.3466
 20
254.5689
  0
VERTEX
  8
0
 10
51.3159
 20
254.5612
  0
VERTEX
  8
0
 10
51.2821
 20
254.5587
  0
VERTEX
  8
0
 10
51.2353
 20
254.5631
  0
VERTEX
  8
0
 10
51.1933
 20
254.5765
  0
VERTEX
  8
0
 10
51.1562
 20
254.5988
  0
VERTEX
  8
0
 10
51.124
 20
254.63
  0
VERTEX
  8
0
 10
51.0931
 20
254.6781
  0
VERTEX
  8
0
 10
51.0745
 20
254.7338
  0
VERTEX
  8
0
 10
51.068
 20
254.7972
  0
VERTEX
  8
0
 10
51.0743
 20
254.8608
  0
VERTEX
  8
0
 10
51.0934
 20
254.9171
  0
VERTEX
  8
0
 10
51.1252
 20
254.9661
  0
VERTEX
  8
0
 10
51.1581
 20
254.9979
  0
VERTEX
  8
0
 10
51.1957
 20
255.0205
  0
VERTEX
  8
0
 10
51.238
 20
255.0341
  0
VERTEX
  8
0
 10
51.2849
 20
255.0387
  0
VERTEX
  8
0
 10
51.3176
 20
255.0362
  0
VERTEX
  8
0
 10
51.3473
 20
255.0287
  0
VERTEX
  8
0
 10
51.3741
 20
255.0161
  0
VERTEX
  8
0
 10
51.3979
 20
254.9986
  0
VERTEX
  8
0
 10
51.4187
 20
254.9761
  0
VERTEX
  8
0
 10
51.4366
 20
254.9485
  0
VERTEX
  8
0
 10
51.4515
 20
254.916
  0
VERTEX
  8
0
 10
51.4641
 20
254.9483
  0
VERTEX
  8
0
 10
51.4794
 20
254.9769
  0
VERTEX
  8
0
 10
51.4976
 20
255.0017
  0
VERTEX
  8
0
 10
51.5185
 20
255.0226
  0
VERTEX
  8
0
 10
51.5421
 20
255.0398
  0
VERTEX
  8
0
 10
51.5686
 20
255.0532
  0
VERTEX
  8
0
 10
51.5978
 20
255.0628
  0
VERTEX
  8
0
 10
51.6297
 20
255.0686
  0
VERTEX
  8
0
 10
51.6645
 20
255.0707
  0
VERTEX
  8
0
 10
51.7187
 20
255.0658
  0
VERTEX
  8
0
 10
51.7674
 20
255.0508
  0
VERTEX
  8
0
 10
51.8107
 20
255.0256
  0
VERTEX
  8
0
 10
51.8485
 20
254.9902
  0
VERTEX
  8
0
 10
51.886
 20
254.9348
  0
VERTEX
  8
0
 10
51.9085
 20
254.871
  0
VERTEX
  8
0
 10
51.916
 20
254.7987
  0
VERTEX
  8
0
 10
51.9084
 20
254.7252
  0
VERTEX
  8
0
 10
51.8858
 20
254.661
  0
VERTEX
  8
0
 10
51.848
 20
254.606
  0
VERTEX
  8
0
 10
51.8098
 20
254.5715
  0
VERTEX
  8
0
 10
51.766
 20
254.5468
  0
VERTEX
  8
0
 10
51.7166
 20
254.5318
  0
VERTEX
  8
0
 10
51.6617
 20
254.5267
  0
VERTEX
  8
0
 10
51.6294
 20
254.5281
  0
VERTEX
  8
0
 10
51.5996
 20
254.5328
  0
VERTEX
  8
0
 10
51.5723
 20
254.5406
  0
VERTEX
  8
0
 10
51.5475
 20
254.5516
  0
VERTEX
  8
0
 10
51.5253
 20
254.5657
  0
VERTEX
  8
0
 10
51.5055
 20
254.5831
  0
VERTEX
  8
0
 10
51.4882
 20
254.6036
  0
VERTEX
  8
0
 10
51.4735
 20
254.6272
  0
VERTEX
  8
0
 10
51.4612
 20
254.6541
  0
VERTEX
  8
0
 10
51.4515
 20
254.6841
  0
VERTEX
  8
0
 10
51.4515
 20
254.6841
  0
SEQEND
  0
POLYLINE
  8
0
 66
     1
 10
0
 20
0
  0
VERTEX
  8
0
 10
51.2786
 20
254.6627
  0
VERTEX
  8
0
 10
51.3313
 20
254.6718
  0
VERTEX
  8
0
 10
51.3741
 20
254.7002
  0
VERTEX
  8
0
 10
51.4025
 20
254.7442
  0
VERTEX
  8
0
 10
51.412
 20
254.7998
  0
VERTEX
  8
0
 10
51.4031
 20
254.8525
  0
VERTEX
  8
0
 10
51.3764
 20
254.8957
  0
VERTEX
  8
0
 10
51.3356
 20
254.9246
  0
VERTEX
  8
0
 10
51.2842
 20
254.9347
  0
VERTEX
  8
0
 10
51.2335
 20
254.9253
  0
VERTEX
  8
0
 10
51.191
 20
254.896
  0
VERTEX
  8
0
 10
51.162
 20
254.852
  0
VERTEX
  8
0
 10
51.152
 20
254.7987
  0
VERTEX
  8
0
 10
51.1616
 20
254.7445
  0
VERTEX
  8
0
 10
51.1915
 20
254.6991
  0
VERTEX
  8
0
 10
51.2314
 20
254.6721
  0
VERTEX
  8
0
 10
51.2786
 20
254.6627
  0
VERTEX
  8
0
 10
51.2786
 20
254.6627
  0
SEQEND
  0
POLYLINE
  8
0
 66
     1
 10
0
 20
0
  0
VERTEX
  8
0
 10
51.6623
 20
254.6307
  0
VERTEX
  8
0
 10
51.701
 20
254.6338
  0
VERTEX
  8
0
 10
51.7351
 20
254.6435
  0
VERTEX
  8
0
 10
51.7646
 20
254.6598
  0
VERTEX
  8
0
 10
51.7895
 20
254.6827
  0
VERTEX
  8
0
 10
51.8099
 20
254.7123
  0
VERTEX
  8
0
 10
51.8265
 20
254.7541
  0
VERTEX
  8
0
 10
51.832
 20
254.7995
  0
VERTEX
  8
0
 10
51.8203
 20
254.8658
  0
VERTEX
  8
0
 10
51.7853
 20
254.9194
  0
VERTEX
  8
0
 10
51.7321
 20
254.9548
  0
VERTEX
  8
0
 10
51.6657
 20
254.9667
  0
VERTEX
  8
0
 10
51.5986
 20
254.9546
  0
VERTEX
  8
0
 10
51.5444
 20
254.9183
  0
VERTEX
  8
0
 10
51.5084
 20
254.8635
  0
VERTEX
  8
0
 10
51.496
 20
254.7961
  0
VERTEX
  8
0
 10
51.5074
 20
254.7305
  0
VERTEX
  8
0
 10
51.5426
 20
254.6777
  0
VERTEX
  8
0
 10
51.5962
 20
254.6427
  0
VERTEX
  8
0
 10
51.6623
 20
254.6307
  0
VERTEX
  8
0
 10
51.6623
 20
254.6307
  0
SEQEND
  0
POLYLINE
  8
0
 66
     1
 10
0
 20
0
  0
VERTEX
  8
0
 10
51.904
 20
255.2267
  0
VERTEX
  8
0
 10
51.784
 20
255.2267
  0
VERTEX
  8
0
 10
51.784
 20
255.3427
  0
VERTEX
  8
0
 10
51.904
 20
255.3427
  0
VERTEX
  8
0
 10
51.904
 20
255.2267
  0
SEQEND
  0
POLYLINE
  8
0
 66
     1
 10
0
 20
0
  0
VERTEX
  8
0
 10
51.4515
 20
255.6481
  0
VERTEX
  8
0
 10
51.4369
 20
255.6148
  0
VERTEX
  8
0
 10
51.4192
 20
255.5867
  0
VERTEX
  8
0
 10
51.3982
 20
255.5636
  0
VERTEX
  8
0
 10
51.374
 20
255.5457
  0
VERTEX
  8
0
 10
51.3466
 20
255.5329
  0
VERTEX
  8
0
 10
51.3159
 20
255.5252
  0
VERTEX
  8
0
 10
51.2821
 20
255.5227
  0
VERTEX
  8
0
 10
51.2353
 20
255.5271
  0
VERTEX
  8
0
 10
51.1933
 20
255.5405
  0
VERTEX
  8
0
 10
51.1562
 20
255.5628
  0
VERTEX
  8
0
 10
51.124
 20
255.594
  0
VERTEX
  8
0
 10
51.0931
 20
255.6421
  0
VERTEX
  8
0
 10
51.0745
 20
255.6978
  0
VERTEX
  8
0
 10
51.068
 20
255.7612
  0
VERTEX
  8
0
 10
51.0743
 20
255.8248
  0
VERTEX
  8
0
 10
51.0934
 20
255.8811
  0
VERTEX
  8
0
 10
51.1252
 20
255.9301
  0
VERTEX
  8
0
 10
51.1581
 20
255.9619
  0
VERTEX
  8
0
 10
51.1957
 20
255.9845
  0
VERTEX
  8
0
 10
51.238
 20
255.9981
  0
VERTEX
  8
0
 10
51.2849
 20
256.0027
  0
VERTEX
  8
0
 10
51.3176
 20
256.0002
  0
VERTEX
  8
0
 10
51.3473
 20
255.9927
  0
VERTEX
  8
0
 10
51.3741
 20
255.9801
  0
VERTEX
  8
0
 10
51.3979
 20
255.9626
  0
VERTEX
  8
0
 10
51.4187
 20
255.9401
  0
VERTEX
  8
0
 10
51.4366
 20
255.9125
  0
VERTEX
  8
0
 10
51.4515
 20
255.88
  0
VERTEX
  8
0
 10
51.4641
 20
255.9123
  0
VERTEX
  8
0
 10
51.4794
 20
255.9409
  0
VERTEX
  8
0
 10
51.4976
 20
255.9657
  0
VERTEX
  8
0
 10
51.5185
 20
255.9866
  0
VERTEX
  8
0
 10
51.5421
 20
256.0038
  0
VERTEX
  8
0
 10
51.5686
 20
256.0172
  0
VERTEX
  8
0
 10
51.5978
 20
256.0268
  0
VERTEX
  8
0
 10
51.6297
 20
256.0326
  0
VERTEX
  8
0
 10
51.6645
 20
256.0347
  0
VERTEX
  8
0
 10
51.7187
 20
256.0298
  0
VERTEX
  8
0
 10
51.7674
 20
256.0148
  0
VERTEX
  8
0
 10
51.8107
 20
255.9896
  0
VERTEX
  8
0
 10
51.8485
 20
255.9542
  0
VERTEX
  8
0
 10
51.886
 20
255.8988
  0
VERTEX
  8
0
 10
51.9085
 20
255.835
  0
VERTEX
  8
0
 10
51.916
 20
255.7627
  0
VERTEX
  8
0
 10
51.9084
 20
255.6892
  0
VERTEX
  8
0
 10
51.8858
 20
255.625
  0
VERTEX
  8
0
 10
51.848
 20
255.57
  0
VERTEX
  8
0
 10
51.8098
 20
255.5355
  0
VERTEX
  8
0
 10
51.766
 20
255.5108
  0
VERTEX
  8
0
 10
51.7166
 20
255.4958
  0
VERTEX
  8
0
 10
51.6617
 20
255.4907
  0
VERTEX
  8
0
 10
51.6294
 20
255.4921
  0
VERTEX
  8
0
 10
51.5996
 20
255.4968
  0
VERTEX
  8
0
 10
51.5723
 20
255.5046
  0
VERTEX
  8
0
 10
51.5475
 20
255.5156
  0
VERTEX
  8
0
 10
51.5253
 20
255.5297
  0
VERTEX
  8
0
 10
51.5055
 20
255.5471
  0
VERTEX
  8
0
 10
51.4882
 20
255.5676
  0
VERTEX
  8
0
 10
51.4735
 20
255.5912
  0
VERTEX
  8
0
 10
51.4612
 20
255.6181
  0
VERTEX
  8
0
 10
51.4515
 20
255.6481
  0
VERTEX
  8
0
 10
51.4515
 20
255.6481
  0
SEQEND
  0
POLYLINE
  8
0
 66
     1
 10
0
 20
0
  0
VERTEX
  8
0
 10
51.2786
 20
255.6267
  0
VERTEX
  8
0
 10
51.3313
 20
255.6358
  0
VERTEX
  8
0
 10
51.3741
 20
255.6642
  0
VERTEX
  8
0
 10
51.4025
 20
255.7082
  0
VERTEX
  8
0
 10
51.412
 20
255.7638
  0
VERTEX
  8
0
 10
51.4031
 20
255.8165
  0
VERTEX
  8
0
 10
51.3764
 20
255.8597
  0
VERTEX
  8
0
 10
51.3356
 20
255.8886
  0
VERTEX
  8
0
 10
51.2842
 20
255.8987
  0
VERTEX
  8
0
 10
51.2335
 20
255.8893
  0
VERTEX
  8
0
 10
51.191
 20
255.86
  0
VERTEX
  8
0
 10
51.162
 20
255.816
  0
VERTEX
  8
0
 10
51.152
 20
255.7627
  0
VERTEX
  8
0
 10
51.1616
 20
255.7085
  0
VERTEX
  8
0
 10
51.1915
 20
255.6631
  0
VERTEX
  8
0
 10
51.2314
 20
255.6361
  0
VERTEX
  8
0
 10
51.2786
 20
255.6267
  0
VERTEX
  8
0
 10
51.2786
 20
255.6267
  0
SEQEND
  0
POLYLINE
  8
0
 66
     1
 10
0
 20
0
  0
VERTEX
  8
0
 10
51.6623
 20
255.5947
  0
VERTEX
  8
0
 10
51.701
 20
255.5978
  0
VERTEX
  8
0
 10
51.7351
 20
255.6075
  0
VERTEX
  8
0
 10
51.7646
 20
255.6238
  0
VERTEX
  8
0
 10
51.7895
 20
255.6467
  0
VERTEX
  8
0
 10
51.8099
 20
255.6763
  0
VERTEX
  8
0
 10
51.8265
 20
255.7181
  0
VERTEX
  8
0
 10
51.832
 20
255.7635
  0
VERTEX
  8
0
 10
51.8203
 20
255.8298
  0
VERTEX
  8
0
 10
51.7853
 20
255.8834
  0
VERTEX
  8
0
 10
51.7321
 20
255.9188
  0
VERTEX
  8
0
 10
51.6657
 20
255.9307
  0
VERTEX
  8
0
 10
51.5986
 20
255.9186
  0
VERTEX
  8
0
 10
51.5444
 20
255.8823
  0
VERTEX
  8
0
 10
51.5084
 20
255.8275
  0
VERTEX
  8
0
 10
51.496
 20
255.7601
  0
VERTEX
  8
0
 10
51.5074
 20
255.6945
  0
VERTEX
  8
0
 10
51.5426
 20
255.6417
  0
VERTEX
  8
0
 10
51.5962
 20
255.6067
  0
VERTEX
  8
0
 10
51.6623
 20
255.5947
  0
VERTEX
  8
0
 10
51.6623
 20
255.5947
  0
SEQEND
  0
LINE
  8
0
 10
51.5
 20
256.2325
 11
51.5
 21
264.3738
  0
LINE
  8
0
 10
51.6789
 20
264.016
 11
51.5
 21
264.3738
  0
LINE
  8
0
 10
51.3211
 20
264.016
 11
51.5
 21
264.3738
  0
LINE
  8
0
 10
51.5
 20
253.7675
 11
51.5
 21
245.6263
  0
LINE
  8
0
 10
51.3211
 20
245.984
 11
51.5
 21
245.6263
  0
LINE
  8
0
 10
51.6789
 20
245.984
 11
51.5
 21
245.6263
  0
LINE
  8
0
 10
51.7
 20
245.6263
 11
50.5
 21
245.6263
  0
POLYLINE
  8
0
 66
     1
 10
0
 20
0
  0
VERTEX
  8
0
 10
21.036
 20
238.1947
  0
VERTEX
  8
0
 10
21.036
 20
238.0987
  0
VERTEX
  8
0
 10
20.492
 20
238.0987
  0
VERTEX
  8
0
 10
20.496
 20
238.1426
  0
VERTEX
  8
0
 10
20.5104
 20
238.1876
  0
VERTEX
  8
0
 10
20.5351
 20
238.2336
  0
VERTEX
  8
0
 10
20.5702
 20
238.2805
  0
VERTEX
  8
0
 10
20.6267
 20
238.3399
  0
VERTEX
  8
0
 10
20.703
 20
238.4067
  0
VERTEX
  8
0
 10
20.7637
 20
238.4581
  0
VERTEX
  8
0
 10
20.8118
 20
238.5017
  0
VERTEX
  8
0
 10
20.847
 20
238.5375
  0
VERTEX
  8
0
 10
20.8842
 20
238.583
  0
VERTEX
  8
0
 10
20.9107
 20
238.6263
  0
VERTEX
  8
0
 10
20.9267
 20
238.6674
  0
VERTEX
  8
0
 10
20.932
 20
238.7063
  0
VERTEX
  8
0
 10
20.9205
 20
238.765
  0
VERTEX
  8
0
 10
20.8859
 20
238.8114
  0
VERTEX
  8
0
 10
20.8366
 20
238.8406
  0
VERTEX
  8
0
 10
20.7767
 20
238.8507
  0
VERTEX
  8
0
 10
20.7095
 20
238.8397
  0
VERTEX
  8
0
 10
20.6585
 20
238.8057
  0
VERTEX
  8
0
 10
20.6263
 20
238.7523
  0
VERTEX
  8
0
 10
20.6152
 20
238.6832
  0
VERTEX
  8
0
 10
20.5112
 20
238.694
  0
VERTEX
  8
0
 10
20.52
 20
238.749
  0
VERTEX
  8
0
 10
20.5363
 20
238.7972
  0
VERTEX
  8
0
 10
20.5602
 20
238.8384
  0
VERTEX
  8
0
 10
20.5916
 20
238.8728
  0
VERTEX
  8
0
 10
20.6437
 20
238.9072
  0
VERTEX
  8
0
 10
20.7061
 20
238.9278
  0
VERTEX
  8
0
 10
20.7789
 20
238.9347
  0
VERTEX
  8
0
 10
20.8475
 20
238.928
  0
VERTEX
  8
0
 10
20.9077
 20
238.9081
  0
VERTEX
  8
0
 10
20.9595
 20
238.8749
  0
VERTEX
  8
0
 10
20.993
 20
238.8402
  0
VERTEX
  8
0
 10
21.0169
 20
238.7999
  0
VERTEX
  8
0
 10
21.0312
 20
238.7541
  0
VERTEX
  8
0
 10
21.036
 20
238.7028
  0
VERTEX
  8
0
 10
21.0305
 20
238.6529
  0
VERTEX
  8
0
 10
21.0141
 20
238.6028
  0
VERTEX
  8
0
 10
20.9867
 20
238.5526
  0
VERTEX
  8
0
 10
20.9483
 20
238.5023
  0
VERTEX
  8
0
 10
20.9095
 20
238.4614
  0
VERTEX
  8
0
 10
20.8577
 20
238.4124
  0
VERTEX
  8
0
 10
20.7927
 20
238.3553
  0
VERTEX
  8
0
 10
20.7506
 20
238.3194
  0
VERTEX
  8
0
 10
20.722
 20
238.2945
  0
VERTEX
  8
0
 10
20.7067
 20
238.2807
  0
VERTEX
  8
0
 10
20.6647
 20
238.237
  0
VERTEX
  8
0
 10
20.633
 20
238.1947
  0
VERTEX
  8
0
 10
21.036
 20
238.1947
  0
SEQEND
  0
POLYLINE
  8
0
 66
     1
 10
0
 20
0
  0
VERTEX
  8
0
 10
21.2
 20
238.0987
  0
VERTEX
  8
0
 10
21.2
 20
238.2187
  0
VERTEX
  8
0
 10
21.316
 20
238.2187
  0
VERTEX
  8
0
 10
21.316
 20
238.0987
  0
VERTEX
  8
0
 10
21.2
 20
238.0987
  0
SEQEND
  0
POLYLINE
  8
0
 66
     1
 10
0
 20
0
  0
VERTEX
  8
0
 10
21.464
 20
238.3192
  0
VERTEX
  8
0
 10
21.5705
 20
238.3284
  0
VERTEX
  8
0
 10
21.5771
 20
238.2953
  0
VERTEX
  8
0
 10
21.5865
 20
238.2661
  0
VERTEX
  8
0
 10
21.5986
 20
238.2408
  0
VERTEX
  8
0
 10
21.6135
 20
238.2193
  0
VERTEX
  8
0
 10
21.6312
 20
238.2018
  0
VERTEX
  8
0
 10
21.6516
 20
238.1882
  0
VERTEX
  8
0
 10
21.6748
 20
238.1785
  0
VERTEX
  8
0
 10
21.7007
 20
238.1726
  0
VERTEX
  8
0
 10
21.7294
 20
238.1707
  0
VERTEX
  8
0
 10
21.7798
 20
238.1776
  0
VERTEX
  8
0
 10
21.823
 20
238.1984
  0
VERTEX
  8
0
 10
21.8589
 20
238.2332
  0
VERTEX
  8
0
 10
21.8927
 20
238.2968
  0
VERTEX
  8
0
 10
21.904
 20
238.374
  0
VERTEX
  8
0
 10
21.8923
 20
238.4501
  0
VERTEX
  8
0
 10
21.8572
 20
238.5101
  0
VERTEX
  8
0
 10
21.8221
 20
238.5391
  0
VERTEX
  8
0
 10
21.7789
 20
238.5566
  0
VERTEX
  8
0
 10
21.7277
 20
238.5627
  0
VERTEX
  8
0
 10
21.6819
 20
238.5578
  0
VERTEX
  8
0
 10
21.6416
 20
238.5426
  0
VERTEX
  8
0
 10
21.6067
 20
238.5171
  0
VERTEX
  8
0
 10
21.5772
 20
238.4812
  0
VERTEX
  8
0
 10
21.482
 20
238.4937
  0
VERTEX
  8
0
 10
21.5622
 20
238.9187
  0
VERTEX
  8
0
 10
21.9735
 20
238.9187
  0
VERTEX
  8
0
 10
21.9735
 20
238.8227
  0
VERTEX
  8
0
 10
21.6459
 20
238.8227
  0
VERTEX
  8
0
 10
21.5996
 20
238.599
  0
VERTEX
  8
0
 10
21.6757
 20
238.6375
  0
VERTEX
  8
0
 10
21.7554
 20
238.6507
  0
VERTEX
  8
0
 10
21.8092
 20
238.646
  0
VERTEX
  8
0
 10
21.8581
 20
238.6314
  0
VERTEX
  8
0
 10
21.9021
 20
238.607
  0
VERTEX
  8
0
 10
21.9411
 20
238.5726
  0
VERTEX
  8
0
 10
21.9721
 20
238.5321
  0
VERTEX
  8
0
 10
21.9943
 20
238.4868
  0
VERTEX
  8
0
 10
22.0076
 20
238.4367
  0
VERTEX
  8
0
 10
22.012
 20
238.382
  0
VERTEX
  8
0
 10
22.0047
 20
238.3106
  0
VERTEX
  8
0
 10
21.9829
 20
238.2457
  0
VERTEX
  8
0
 10
21.9466
 20
238.1874
  0
VERTEX
  8
0
 10
21.9125
 20
238.1513
  0
VERTEX
  8
0
 10
21.8737
 20
238.1232
  0
VERTEX
  8
0
 10
21.8303
 20
238.103
  0
VERTEX
  8
0
 10
21.7822
 20
238.0909
  0
VERTEX
  8
0
 10
21.7295
 20
238.0867
  0
VERTEX
  8
0
 10
21.6605
 20
238.0934
  0
VERTEX
  8
0
 10
21.6
 20
238.1137
  0
VERTEX
  8
0
 10
21.548
 20
238.1475
  0
VERTEX
  8
0
 10
21.5061
 20
238.1944
  0
VERTEX
  8
0
 10
21.4781
 20
238.2516
  0
VERTEX
  8
0
 10
21.464
 20
238.3192
  0
VERTEX
  8
0
 10
21.464
 20
238.3192
  0
SEQEND
  0
LINE
  8
0
 10
22.5
 20
238.3
 11
22.5
 21
239.5
  0
LINE
  8
0
 10
20
 20
238.3
 11
20
 21
239.5
  0
POLYLINE
  8
0
 66
     1
 10
0
 20
0
  0
VERTEX
  8
0
 10
34.948
 20
238.1947
  0
VERTEX
  8
0
 10
34.948
 20
238.0987
  0
VERTEX
  8
0
 10
34.404
 20
238.0987
  0
VERTEX
  8
0
 10
34.408
 20
238.1426
  0
VERTEX
  8
0
 10
34.4224
 20
238.1876
  0
VERTEX
  8
0
 10
34.4471
 20
238.2336
  0
VERTEX
  8
0
 10
34.4822
 20
238.2805
  0
VERTEX
  8
0
 10
34.5387
 20
238.3399
  0
VERTEX
  8
0
 10
34.615
 20
238.4067
  0
VERTEX
  8
0
 10
34.6757
 20
238.4581
  0
VERTEX
  8
0
 10
34.7238
 20
238.5017
  0
VERTEX
  8
0
 10
34.759
 20
238.5375
  0
VERTEX
  8
0
 10
34.7962
 20
238.583
  0
VERTEX
  8
0
 10
34.8227
 20
238.6263
  0
VERTEX
  8
0
 10
34.8387
 20
238.6674
  0
VERTEX
  8
0
 10
34.844
 20
238.7063
  0
VERTEX
  8
0
 10
34.8325
 20
238.765
  0
VERTEX
  8
0
 10
34.7979
 20
238.8114
  0
VERTEX
  8
0
 10
34.7486
 20
238.8406
  0
VERTEX
  8
0
 10
34.6887
 20
238.8507
  0
VERTEX
  8
0
 10
34.6215
 20
238.8397
  0
VERTEX
  8
0
 10
34.5705
 20
238.8057
  0
VERTEX
  8
0
 10
34.5383
 20
238.7523
  0
VERTEX
  8
0
 10
34.5272
 20
238.6832
  0
VERTEX
  8
0
 10
34.4232
 20
238.694
  0
VERTEX
  8
0
 10
34.432
 20
238.749
  0
VERTEX
  8
0
 10
34.4483
 20
238.7972
  0
VERTEX
  8
0
 10
34.4722
 20
238.8384
  0
VERTEX
  8
0
 10
34.5036
 20
238.8728
  0
VERTEX
  8
0
 10
34.5557
 20
238.9072
  0
VERTEX
  8
0
 10
34.6181
 20
238.9278
  0
VERTEX
  8
0
 10
34.6909
 20
238.9347
  0
VERTEX
  8
0
 10
34.7595
 20
238.928
  0
VERTEX
  8
0
 10
34.8197
 20
238.9081
  0
VERTEX
  8
0
 10
34.8715
 20
238.8749
  0
VERTEX
  8
0
 10
34.905
 20
238.8402
  0
VERTEX
  8
0
 10
34.9289
 20
238.7999
  0
VERTEX
  8
0
 10
34.9432
 20
238.7541
  0
VERTEX
  8
0
 10
34.948
 20
238.7028
  0
VERTEX
  8
0
 10
34.9425
 20
238.6529
  0
VERTEX
  8
0
 10
34.9261
 20
238.6028
  0
VERTEX
  8
0
 10
34.8987
 20
238.5526
  0
VERTEX
  8
0
 10
34.8603
 20
238.5023
  0
VERTEX
  8
0
 10
34.8215
 20
238.4614
  0
VERTEX
  8
0
 10
34.7697
 20
238.4124
  0
VERTEX
  8
0
 10
34.7047
 20
238.3553
  0
VERTEX
  8
0
 10
34.6626
 20
238.3194
  0
VERTEX
  8
0
 10
34.634
 20
238.2945
  0
VERTEX
  8
0
 10
34.6187
 20
238.2807
  0
VERTEX
  8
0
 10
34.5767
 20
238.237
  0
VERTEX
  8
0
 10
34.545
 20
238.1947
  0
VERTEX
  8
0
 10
34.948
 20
238.1947
  0
SEQEND
  0
POLYLINE
  8
0
 66
     1
 10
0
 20
0
  0
VERTEX
  8
0
 10
35.052
 20
238.3192
  0
VERTEX
  8
0
 10
35.1585
 20
238.3284
  0
VERTEX
  8
0
 10
35.1651
 20
238.2953
  0
VERTEX
  8
0
 10
35.1745
 20
238.2661
  0
VERTEX
  8
0
 10
35.1866
 20
238.2408
  0
VERTEX
  8
0
 10
35.2015
 20
238.2193
  0
VERTEX
  8
0
 10
35.2192
 20
238.2018
  0
VERTEX
  8
0
 10
35.2396
 20
238.1882
  0
VERTEX
  8
0
 10
35.2628
 20
238.1785
  0
VERTEX
  8
0
 10
35.2887
 20
238.1726
  0
VERTEX
  8
0
 10
35.3174
 20
238.1707
  0
VERTEX
  8
0
 10
35.3678
 20
238.1776
  0
VERTEX
  8
0
 10
35.411
 20
238.1984
  0
VERTEX
  8
0
 10
35.4469
 20
238.2332
  0
VERTEX
  8
0
 10
35.4807
 20
238.2968
  0
VERTEX
  8
0
 10
35.492
 20
238.374
  0
VERTEX
  8
0
 10
35.4803
 20
238.4501
  0
VERTEX
  8
0
 10
35.4452
 20
238.5101
  0
VERTEX
  8
0
 10
35.4101
 20
238.5391
  0
VERTEX
  8
0
 10
35.3669
 20
238.5566
  0
VERTEX
  8
0
 10
35.3157
 20
238.5627
  0
VERTEX
  8
0
 10
35.2699
 20
238.5578
  0
VERTEX
  8
0
 10
35.2296
 20
238.5426
  0
VERTEX
  8
0
 10
35.1947
 20
238.5171
  0
VERTEX
  8
0
 10
35.1652
 20
238.4812
  0
VERTEX
  8
0
 10
35.07
 20
238.4937
  0
VERTEX
  8
0
 10
35.1502
 20
238.9187
  0
VERTEX
  8
0
 10
35.5615
 20
238.9187
  0
VERTEX
  8
0
 10
35.5615
 20
238.8227
  0
VERTEX
  8
0
 10
35.2339
 20
238.8227
  0
VERTEX
  8
0
 10
35.1876
 20
238.599
  0
VERTEX
  8
0
 10
35.2637
 20
238.6375
  0
VERTEX
  8
0
 10
35.3434
 20
238.6507
  0
VERTEX
  8
0
 10
35.3972
 20
238.646
  0
VERTEX
  8
0
 10
35.4461
 20
238.6314
  0
VERTEX
  8
0
 10
35.4901
 20
238.607
  0
VERTEX
  8
0
 10
35.5291
 20
238.5726
  0
VERTEX
  8
0
 10
35.5601
 20
238.5321
  0
VERTEX
  8
0
 10
35.5823
 20
238.4868
  0
VERTEX
  8
0
 10
35.5956
 20
238.4367
  0
VERTEX
  8
0
 10
35.6
 20
238.382
  0
VERTEX
  8
0
 10
35.5927
 20
238.3106
  0
VERTEX
  8
0
 10
35.5709
 20
238.2457
  0
VERTEX
  8
0
 10
35.5346
 20
238.1874
  0
VERTEX
  8
0
 10
35.5005
 20
238.1513
  0
VERTEX
  8
0
 10
35.4617
 20
238.1232
  0
VERTEX
  8
0
 10
35.4183
 20
238.103
  0
VERTEX
  8
0
 10
35.3702
 20
238.0909
  0
VERTEX
  8
0
 10
35.3175
 20
238.0867
  0
VERTEX
  8
0
 10
35.2485
 20
238.0934
  0
VERTEX
  8
0
 10
35.188
 20
238.1137
  0
VERTEX
  8
0
 10
35.136
 20
238.1475
  0
VERTEX
  8
0
 10
35.0941
 20
238.1944
  0
VERTEX
  8
0
 10
35.0661
 20
238.2516
  0
VERTEX
  8
0
 10
35.052
 20
238.3192
  0
VERTEX
  8
0
 10
35.052
 20
238.3192
  0
SEQEND
  0
LINE
  8
0
 10
35.801
 20
238.5
 11
47.5
 21
238.5
  0
LINE
  8
0
 10
47.1422
 20
238.3211
 11
47.5
 21
238.5
  0
LINE
  8
0
 10
47.1422
 20
238.6789
 11
47.5
 21
238.5
  0
LINE
  8
0
 10
47.5
 20
238.3
 11
47.5
 21
239.5
  0
LINE
  8
0
 10
34.199
 20
238.5
 11
22.5
 21
238.5
  0
LINE
  8
0
 10
22.8578
 20
238.6789
 11
22.5
 21
238.5
  0
LINE
  8
0
 10
22.8578
 20
238.3211
 11
22.5
 21
238.5
  0
POLYLINE
  8
0
 66
     1
 10
0
 20
0
  0
VERTEX
  8
0
 10
48.536
 20
238.1947
  0
VERTEX
  8
0
 10
48.536
 20
238.0987
  0
VERTEX
  8
0
 10
47.992
 20
238.0987
  0
VERTEX
  8
0
 10
47.996
 20
238.1426
  0
VERTEX
  8
0
 10
48.0104
 20
238.1876
  0
VERTEX
  8
0
 10
48.0351
 20
238.2336
  0
VERTEX
  8
0
 10
48.0702
 20
238.2805
  0
VERTEX
  8
0
 10
48.1267
 20
238.3399
  0
VERTEX
  8
0
 10
48.203
 20
238.4067
  0
VERTEX
  8
0
 10
48.2637
 20
238.4581
  0
VERTEX
  8
0
 10
48.3118
 20
238.5017
  0
VERTEX
  8
0
 10
48.347
 20
238.5375
  0
VERTEX
  8
0
 10
48.3842
 20
238.583
  0
VERTEX
  8
0
 10
48.4107
 20
238.6263
  0
VERTEX
  8
0
 10
48.4267
 20
238.6674
  0
VERTEX
  8
0
 10
48.432
 20
238.7063
  0
VERTEX
  8
0
 10
48.4204
 20
238.765
  0
VERTEX
  8
0
 10
48.3859
 20
238.8114
  0
VERTEX
  8
0
 10
48.3366
 20
238.8406
  0
VERTEX
  8
0
 10
48.2767
 20
238.8507
  0
VERTEX
  8
0
 10
48.2095
 20
238.8397
  0
VERTEX
  8
0
 10
48.1585
 20
238.8057
  0
VERTEX
  8
0
 10
48.1263
 20
238.7523
  0
VERTEX
  8
0
 10
48.1152
 20
238.6832
  0
VERTEX
  8
0
 10
48.0112
 20
238.694
  0
VERTEX
  8
0
 10
48.02
 20
238.749
  0
VERTEX
  8
0
 10
48.0363
 20
238.7972
  0
VERTEX
  8
0
 10
48.0602
 20
238.8384
  0
VERTEX
  8
0
 10
48.0916
 20
238.8728
  0
VERTEX
  8
0
 10
48.1437
 20
238.9072
  0
VERTEX
  8
0
 10
48.2061
 20
238.9278
  0
VERTEX
  8
0
 10
48.2789
 20
238.9347
  0
VERTEX
  8
0
 10
48.3475
 20
238.928
  0
VERTEX
  8
0
 10
48.4077
 20
238.9081
  0
VERTEX
  8
0
 10
48.4595
 20
238.8749
  0
VERTEX
  8
0
 10
48.4929
 20
238.8402
  0
VERTEX
  8
0
 10
48.5169
 20
238.7999
  0
VERTEX
  8
0
 10
48.5312
 20
238.7541
  0
VERTEX
  8
0
 10
48.536
 20
238.7028
  0
VERTEX
  8
0
 10
48.5305
 20
238.6529
  0
VERTEX
  8
0
 10
48.5141
 20
238.6028
  0
VERTEX
  8
0
 10
48.4867
 20
238.5526
  0
VERTEX
  8
0
 10
48.4483
 20
238.5023
  0
VERTEX
  8
0
 10
48.4095
 20
238.4614
  0
VERTEX
  8
0
 10
48.3577
 20
238.4124
  0
VERTEX
  8
0
 10
48.2927
 20
238.3553
  0
VERTEX
  8
0
 10
48.2506
 20
238.3194
  0
VERTEX
  8
0
 10
48.222
 20
238.2945
  0
VERTEX
  8
0
 10
48.2067
 20
238.2807
  0
VERTEX
  8
0
 10
48.1647
 20
238.237
  0
VERTEX
  8
0
 10
48.133
 20
238.1947
  0
VERTEX
  8
0
 10
48.536
 20
238.1947
  0
SEQEND
  0
POLYLINE
  8
0
 66
     1
 10
0
 20
0
  0
VERTEX
  8
0
 10
48.7
 20
238.0987
  0
VERTEX
  8
0
 10
48.7
 20
238.2187
  0
VERTEX
  8
0
 10
48.816
 20
238.2187
  0
VERTEX
  8
0
 10
48.816
 20
238.0987
  0
VERTEX
  8
0
 10
48.7
 20
238.0987
  0
SEQEND
  0
POLYLINE
  8
0
 66
     1
 10
0
 20
0
  0
VERTEX
  8
0
 10
48.964
 20
238.3192
  0
VERTEX
  8
0
 10
49.0705
 20
238.3284
  0
VERTEX
  8
0
 10
49.0771
 20
238.2953
  0
VERTEX
  8
0
 10
49.0865
 20
238.2661
  0
VERTEX
  8
0
 10
49.0986
 20
238.2408
  0
VERTEX
  8
0
 10
49.1135
 20
238.2193
  0
VERTEX
  8
0
 10
49.1312
 20
238.2018
  0
VERTEX
  8
0
 10
49.1516
 20
238.1882
  0
VERTEX
  8
0
 10
49.1748
 20
238.1785
  0
VERTEX
  8
0
 10
49.2007
 20
238.1726
  0
VERTEX
  8
0
 10
49.2294
 20
238.1707
  0
VERTEX
  8
0
 10
49.2798
 20
238.1776
  0
VERTEX
  8
0
 10
49.323
 20
238.1984
  0
VERTEX
  8
0
 10
49.3589
 20
238.2332
  0
VERTEX
  8
0
 10
49.3927
 20
238.2968
  0
VERTEX
  8
0
 10
49.404
 20
238.374
  0
VERTEX
  8
0
 10
49.3923
 20
238.4501
  0
VERTEX
  8
0
 10
49.3572
 20
238.5101
  0
VERTEX
  8
0
 10
49.3221
 20
238.5391
  0
VERTEX
  8
0
 10
49.2789
 20
238.5566
  0
VERTEX
  8
0
 10
49.2277
 20
238.5627
  0
VERTEX
  8
0
 10
49.1819
 20
238.5578
  0
VERTEX
  8
0
 10
49.1416
 20
238.5426
  0
VERTEX
  8
0
 10
49.1067
 20
238.5171
  0
VERTEX
  8
0
 10
49.0772
 20
238.4812
  0
VERTEX
  8
0
 10
48.982
 20
238.4937
  0
VERTEX
  8
0
 10
49.0622
 20
238.9187
  0
VERTEX
  8
0
 10
49.4735
 20
238.9187
  0
VERTEX
  8
0
 10
49.4735
 20
238.8227
  0
VERTEX
  8
0
 10
49.1459
 20
238.8227
  0
VERTEX
  8
0
 10
49.0996
 20
238.599
  0
VERTEX
  8
0
 10
49.1757
 20
238.6375
  0
VERTEX
  8
0
 10
49.2554
 20
238.6507
  0
VERTEX
  8
0
 10
49.3092
 20
238.646
  0
VERTEX
  8
0
 10
49.3581
 20
238.6314
  0
VERTEX
  8
0
 10
49.4021
 20
238.607
  0
VERTEX
  8
0
 10
49.4411
 20
238.5726
  0
VERTEX
  8
0
 10
49.4721
 20
238.5321
  0
VERTEX
  8
0
 10
49.4943
 20
238.4868
  0
VERTEX
  8
0
 10
49.5076
 20
238.4367
  0
VERTEX
  8
0
 10
49.512
 20
238.382
  0
VERTEX
  8
0
 10
49.5047
 20
238.3106
  0
VERTEX
  8
0
 10
49.4829
 20
238.2457
  0
VERTEX
  8
0
 10
49.4466
 20
238.1874
  0
VERTEX
  8
0
 10
49.4125
 20
238.1513
  0
VERTEX
  8
0
 10
49.3737
 20
238.1232
  0
VERTEX
  8
0
 10
49.3303
 20
238.103
  0
VERTEX
  8
0
 10
49.2822
 20
238.0909
  0
VERTEX
  8
0
 10
49.2295
 20
238.0867
  0
VERTEX
  8
0
 10
49.1605
 20
238.0934
  0
VERTEX
  8
0
 10
49.1
 20
238.1137
  0
VERTEX
  8
0
 10
49.048
 20
238.1475
  0
VERTEX
  8
0
 10
49.0061
 20
238.1944
  0
VERTEX
  8
0
 10
48.9781
 20
238.2516
  0
VERTEX
  8
0
 10
48.964
 20
238.3192
  0
VERTEX
  8
0
 10
48.964
 20
238.3192
  0
SEQEND
  0
LINE
  8
0
 10
50
 20
238.3
 11
50
 21
239.5
  0
LINE
  8
0
 10
47.5
 20
238.3
 11
47.5
 21
239.5
  0
POLYLINE
  8
0
 66
     1
 10
0
 20
0
  0
VERTEX
  8
0
 10
51.6834
 20
242.0587
  0
VERTEX
  8
0
 10
51.6743
 20
242.1652
  0
VERTEX
  8
0
 10
51.7074
 20
242.1718
  0
VERTEX
  8
0
 10
51.7366
 20
242.1812
  0
VERTEX
  8
0
 10
51.7619
 20
242.1933
  0
VERTEX
  8
0
 10
51.7833
 20
242.2082
  0
VERTEX
  8
0
 10
51.8008
 20
242.2259
  0
VERTEX
  8
0
 10
51.8145
 20
242.2463
  0
VERTEX
  8
0
 10
51.8242
 20
242.2694
  0
VERTEX
  8
0
 10
51.83
 20
242.2954
  0
VERTEX
  8
0
 10
51.832
 20
242.324
  0
VERTEX
  8
0
 10
51.825
 20
242.3745
  0
VERTEX
  8
0
 10
51.8042
 20
242.4177
  0
VERTEX
  8
0
 10
51.7695
 20
242.4536
  0
VERTEX
  8
0
 10
51.7059
 20
242.4874
  0
VERTEX
  8
0
 10
51.6286
 20
242.4987
  0
VERTEX
  8
0
 10
51.5526
 20
242.487
  0
VERTEX
  8
0
 10
51.4925
 20
242.4519
  0
VERTEX
  8
0
 10
51.4636
 20
242.4167
  0
VERTEX
  8
0
 10
51.4461
 20
242.3736
  0
VERTEX
  8
0
 10
51.44
 20
242.3224
  0
VERTEX
  8
0
 10
51.4449
 20
242.2766
  0
VERTEX
  8
0
 10
51.4601
 20
242.2363
  0
VERTEX
  8
0
 10
51.4856
 20
242.2014
  0
VERTEX
  8
0
 10
51.5214
 20
242.1719
  0
VERTEX
  8
0
 10
51.509
 20
242.0767
  0
VERTEX
  8
0
 10
51.084
 20
242.1569
  0
VERTEX
  8
0
 10
51.084
 20
242.5682
  0
VERTEX
  8
0
 10
51.18
 20
242.5682
  0
VERTEX
  8
0
 10
51.18
 20
242.2405
  0
VERTEX
  8
0
 10
51.4036
 20
242.1943
  0
VERTEX
  8
0
 10
51.3652
 20
242.2704
  0
VERTEX
  8
0
 10
51.352
 20
242.3501
  0
VERTEX
  8
0
 10
51.3566
 20
242.4039
  0
VERTEX
  8
0
 10
51.3712
 20
242.4528
  0
VERTEX
  8
0
 10
51.3957
 20
242.4968
  0
VERTEX
  8
0
 10
51.43
 20
242.5358
  0
VERTEX
  8
0
 10
51.4706
 20
242.5668
  0
VERTEX
  8
0
 10
51.5159
 20
242.5889
  0
VERTEX
  8
0
 10
51.5659
 20
242.6022
  0
VERTEX
  8
0
 10
51.6207
 20
242.6067
  0
VERTEX
  8
0
 10
51.6921
 20
242.5994
  0
VERTEX
  8
0
 10
51.7569
 20
242.5776
  0
VERTEX
  8
0
 10
51.8153
 20
242.5413
  0
VERTEX
  8
0
 10
51.8514
 20
242.5072
  0
VERTEX
  8
0
 10
51.8795
 20
242.4684
  0
VERTEX
  8
0
 10
51.8996
 20
242.425
  0
VERTEX
  8
0
 10
51.9118
 20
242.3769
  0
VERTEX
  8
0
 10
51.916
 20
242.3242
  0
VERTEX
  8
0
 10
51.9092
 20
242.2552
  0
VERTEX
  8
0
 10
51.8889
 20
242.1947
  0
VERTEX
  8
0
 10
51.8551
 20
242.1427
  0
VERTEX
  8
0
 10
51.8083
 20
242.1008
  0
VERTEX
  8
0
 10
51.751
 20
242.0728
  0
VERTEX
  8
0
 10
51.6834
 20
242.0587
  0
VERTEX
  8
0
 10
51.6834
 20
242.0587
  0
SEQEND
  0
POLYLINE
  8
0
 66
     1
 10
0
 20
0
  0
VERTEX
  8
0
 10
51.904
 20
242.7587
  0
VERTEX
  8
0
 10
51.784
 20
242.7587
  0
VERTEX
  8
0
 10
51.784
 20
242.8747
  0
VERTEX
  8
0
 10
51.904
 20
242.8747
  0
VERTEX
  8
0
 10
51.904
 20
242.7587
  0
SEQEND
  0
POLYLINE
  8
0
 66
     1
 10
0
 20
0
  0
VERTEX
  8
0
 10
51.2483
 20
243.5767
  0
VERTEX
  8
0
 10
51.2562
 20
243.4757
  0
VERTEX
  8
0
 10
51.2176
 20
243.4613
  0
VERTEX
  8
0
 10
51.1873
 20
243.435
  0
VERTEX
  8
0
 10
51.1611
 20
243.3864
  0
VERTEX
  8
0
 10
51.152
 20
243.325
  0
VERTEX
  8
0
 10
51.1585
 20
243.2682
  0
VERTEX
  8
0
 10
51.1792
 20
243.224
  0
VERTEX
  8
0
 10
51.2
 20
243.2002
  0
VERTEX
  8
0
 10
51.2254
 20
243.1794
  0
VERTEX
  8
0
 10
51.2553
 20
243.1618
  0
VERTEX
  8
0
 10
51.2898
 20
243.1472
  0
VERTEX
  8
0
 10
51.3289
 20
243.1357
  0
VERTEX
  8
0
 10
51.3725
 20
243.1272
  0
VERTEX
  8
0
 10
51.4207
 20
243.1219
  0
VERTEX
  8
0
 10
51.4734
 20
243.1197
  0
VERTEX
  8
0
 10
51.44
 20
243.1453
  0
VERTEX
  8
0
 10
51.4126
 20
243.1741
  0
VERTEX
  8
0
 10
51.3913
 20
243.2061
  0
VERTEX
  8
0
 10
51.3761
 20
243.2413
  0
VERTEX
  8
0
 10
51.367
 20
243.2797
  0
VERTEX
  8
0
 10
51.364
 20
243.3214
  0
VERTEX
  8
0
 10
51.369
 20
243.3735
  0
VERTEX
  8
0
 10
51.3842
 20
243.4208
  0
VERTEX
  8
0
 10
51.4095
 20
243.463
  0
VERTEX
  8
0
 10
51.4449
 20
243.5004
  0
VERTEX
  8
0
 10
51.4999
 20
243.5369
  0
VERTEX
  8
0
 10
51.5625
 20
243.5591
  0
VERTEX
  8
0
 10
51.6326
 20
243.5667
  0
VERTEX
  8
0
 10
51.7054
 20
243.559
  0
VERTEX
  8
0
 10
51.7735
 20
243.535
  0
VERTEX
  8
0
 10
51.835
 20
243.4946
  0
VERTEX
  8
0
 10
51.8804
 20
243.4404
  0
VERTEX
  8
0
 10
51.9071
 20
243.3779
  0
VERTEX
  8
0
 10
51.916
 20
243.3068
  0
VERTEX
  8
0
 10
51.9153
 20
243.2833
  0
VERTEX
  8
0
 10
51.9132
 20
243.2609
  0
VERTEX
  8
0
 10
51.9097
 20
243.2394
  0
VERTEX
  8
0
 10
51.9048
 20
243.2189
  0
VERTEX
  8
0
 10
51.8985
 20
243.1994
  0
VERTEX
  8
0
 10
51.8908
 20
243.1809
  0
VERTEX
  8
0
 10
51.8817
 20
243.1635
  0
VERTEX
  8
0
 10
51.8712
 20
243.147
  0
VERTEX
  8
0
 10
51.8593
 20
243.1315
  0
VERTEX
  8
0
 10
51.8461
 20
243.117
  0
VERTEX
  8
0
 10
51.8314
 20
243.1035
  0
VERTEX
  8
0
 10
51.8153
 20
243.091
  0
VERTEX
  8
0
 10
51.7978
 20
243.0795
  0
VERTEX
  8
0
 10
51.7789
 20
243.069
  0
VERTEX
  8
0
 10
51.7587
 20
243.0594
  0
VERTEX
  8
0
 10
51.737
 20
243.0509
  0
VERTEX
  8
0
 10
51.7139
 20
243.0434
  0
VERTEX
  8
0
 10
51.6894
 20
243.0369
  0
VERTEX
  8
0
 10
51.6636
 20
243.0314
  0
VERTEX
  8
0
 10
51.6363
 20
243.0268
  0
VERTEX
  8
0
 10
51.6076
 20
243.0233
  0
VERTEX
  8
0
 10
51.5776
 20
243.0208
  0
VERTEX
  8
0
 10
51.5461
 20
243.0192
  0
VERTEX
  8
0
 10
51.5132
 20
243.0187
  0
VERTEX
  8
0
 10
51.4471
 20
243.0205
  0
VERTEX
  8
0
 10
51.3864
 20
243.0259
  0
VERTEX
  8
0
 10
51.331
 20
243.0349
  0
VERTEX
  8
0
 10
51.281
 20
243.0476
  0
VERTEX
  8
0
 10
51.2364
 20
243.0639
  0
VERTEX
  8
0
 10
51.1971
 20
243.0837
  0
VERTEX
  8
0
 10
51.1632
 20
243.1072
  0
VERTEX
  8
0
 10
51.1289
 20
243.1409
  0
VERTEX
  8
0
 10
51.1022
 20
243.1802
  0
VERTEX
  8
0
 10
51.0832
 20
243.225
  0
VERTEX
  8
0
 10
51.0718
 20
243.2753
  0
VERTEX
  8
0
 10
51.068
 20
243.3312
  0
VERTEX
  8
0
 10
51.0796
 20
243.4187
  0
VERTEX
  8
0
 10
51.1146
 20
243.4926
  0
VERTEX
  8
0
 10
51.1525
 20
243.5348
  0
VERTEX
  8
0
 10
51.197
 20
243.5628
  0
VERTEX
  8
0
 10
51.2483
 20
243.5767
  0
VERTEX
  8
0
 10
51.2483
 20
243.5767
  0
SEQEND
  0
POLYLINE
  8
0
 66
     1
 10
0
 20
0
  0
VERTEX
  8
0
 10
51.632
 20
243.1347
  0
VERTEX
  8
0
 10
51.6829
 20
243.1397
  0
VERTEX
  8
0
 10
51.7309
 20
243.1557
  0
VERTEX
  8
0
 10
51.7749
 20
243.1831
  0
VERTEX
  8
0
 10
51.807
 20
243.2199
  0
VERTEX
  8
0
 10
51.8254
 20
243.2607
  0
VERTEX
  8
0
 10
51.832
 20
243.3047
  0
VERTEX
  8
0
 10
51.8254
 20
243.3512
  0
VERTEX
  8
0
 10
51.805
 20
243.3908
  0
VERTEX
  8
0
 10
51.7706
 20
243.4234
  0
VERTEX
  8
0
 10
51.7099
 20
243.4526
  0
VERTEX
  8
0
 10
51.6377
 20
243.4627
  0
VERTEX
  8
0
 10
51.566
 20
243.4527
  0
VERTEX
  8
0
 10
51.5077
 20
243.4217
  0
VERTEX
  8
0
 10
51.477
 20
243.3886
  0
VERTEX
  8
0
 10
51.4584
 20
243.3482
  0
VERTEX
  8
0
 10
51.452
 20
243.3007
  0
VERTEX
  8
0
 10
51.4577
 20
243.2541
  0
VERTEX
  8
0
 10
51.4755
 20
243.2138
  0
VERTEX
  8
0
 10
51.5054
 20
243.1796
  0
VERTEX
  8
0
 10
51.5626
 20
243.1462
  0
VERTEX
  8
0
 10
51.632
 20
243.1347
  0
VERTEX
  8
0
 10
51.632
 20
243.1347
  0
SEQEND
  0
LINE
  8
0
 10
51.5
 20
243.7712
 11
51.5
 21
245.6263
  0
LINE
  8
0
 10
51.6789
 20
245.2685
 11
51.5
 21
245.6263
  0
LINE
  8
0
 10
51.3211
 20
245.2685
 11
51.5
 21
245.6263
  0
LINE
  8
0
 10
51.7
 20
245.6263
 11
50.5
 21
245.6263
  0
LINE
  8
0
 10
51.5
 20
241.855
 11
51.5
 21
240
  0
LINE
  8
0
 10
51.3211
 20
240.3578
 11
51.5
 21
240
  0
LINE
  8
0
 10
51.6789
 20
240.3578
 11
51.5
 21
240
  0
LINE
  8
0
 10
51.7
 20
240
 11
50.5
 21
240
  0
POLYLINE
  8
0
 66
     1
 10
0
 20
0
  0
VERTEX
  8
0
 10
53.6817
 20
254.4147
  0
VERTEX
  8
0
 10
53.6681
 20
254.5158
  0
VERTEX
  8
0
 10
53.7024
 20
254.524
  0
VERTEX
  8
0
 10
53.7327
 20
254.5346
  0
VERTEX
  8
0
 10
53.7589
 20
254.5477
  0
VERTEX
  8
0
 10
53.7811
 20
254.5632
  0
VERTEX
  8
0
 10
53.7993
 20
254.5811
  0
VERTEX
  8
0
 10
53.8135
 20
254.6014
  0
VERTEX
  8
0
 10
53.8237
 20
254.6242
  0
VERTEX
  8
0
 10
53.8298
 20
254.6494
  0
VERTEX
  8
0
 10
53.832
 20
254.677
  0
VERTEX
  8
0
 10
53.8198
 20
254.7434
  0
VERTEX
  8
0
 10
53.7819
 20
254.7978
  0
VERTEX
  8
0
 10
53.7257
 20
254.8342
  0
VERTEX
  8
0
 10
53.658
 20
254.8467
  0
VERTEX
  8
0
 10
53.5937
 20
254.8356
  0
VERTEX
  8
0
 10
53.5418
 20
254.8013
  0
VERTEX
  8
0
 10
53.5074
 20
254.7496
  0
VERTEX
  8
0
 10
53.496
 20
254.686
  0
VERTEX
  8
0
 10
53.4991
 20
254.6532
  0
VERTEX
  8
0
 10
53.5084
 20
254.615
  0
VERTEX
  8
0
 10
53.42
 20
254.6262
  0
VERTEX
  8
0
 10
53.42
 20
254.6331
  0
VERTEX
  8
0
 10
53.42
 20
254.6425
  0
VERTEX
  8
0
 10
53.4116
 20
254.7067
  0
VERTEX
  8
0
 10
53.3866
 20
254.7584
  0
VERTEX
  8
0
 10
53.3417
 20
254.7973
  0
VERTEX
  8
0
 10
53.2815
 20
254.8107
  0
VERTEX
  8
0
 10
53.2293
 20
254.8014
  0
VERTEX
  8
0
 10
53.1882
 20
254.7726
  0
VERTEX
  8
0
 10
53.1613
 20
254.7291
  0
VERTEX
  8
0
 10
53.152
 20
254.6755
  0
VERTEX
  8
0
 10
53.1536
 20
254.6488
  0
VERTEX
  8
0
 10
53.159
 20
254.6247
  0
VERTEX
  8
0
 10
53.1681
 20
254.6031
  0
VERTEX
  8
0
 10
53.181
 20
254.584
  0
VERTEX
  8
0
 10
53.1977
 20
254.5674
  0
VERTEX
  8
0
 10
53.2181
 20
254.5533
  0
VERTEX
  8
0
 10
53.2423
 20
254.5418
  0
VERTEX
  8
0
 10
53.2702
 20
254.5328
  0
VERTEX
  8
0
 10
53.3019
 20
254.5262
  0
VERTEX
  8
0
 10
53.2837
 20
254.4249
  0
VERTEX
  8
0
 10
53.2215
 20
254.4421
  0
VERTEX
  8
0
 10
53.1689
 20
254.4698
  0
VERTEX
  8
0
 10
53.1259
 20
254.5079
  0
VERTEX
  8
0
 10
53.094
 20
254.5552
  0
VERTEX
  8
0
 10
53.0747
 20
254.6102
  0
VERTEX
  8
0
 10
53.068
 20
254.6732
  0
VERTEX
  8
0
 10
53.0745
 20
254.7352
  0
VERTEX
  8
0
 10
53.0952
 20
254.793
  0
VERTEX
  8
0
 10
53.13
 20
254.8457
  0
VERTEX
  8
0
 10
53.1767
 20
254.8843
  0
VERTEX
  8
0
 10
53.2286
 20
254.9071
  0
VERTEX
  8
0
 10
53.2837
 20
254.9147
  0
VERTEX
  8
0
 10
53.3204
 20
254.9115
  0
VERTEX
  8
0
 10
53.3537
 20
254.9021
  0
VERTEX
  8
0
 10
53.3834
 20
254.8864
  0
VERTEX
  8
0
 10
53.4097
 20
254.8645
  0
VERTEX
  8
0
 10
53.4325
 20
254.8362
  0
VERTEX
  8
0
 10
53.4518
 20
254.8017
  0
VERTEX
  8
0
 10
53.4787
 20
254.8675
  0
VERTEX
  8
0
 10
53.5242
 20
254.9162
  0
VERTEX
  8
0
 10
53.5838
 20
254.945
  0
VERTEX
  8
0
 10
53.6562
 20
254.9547
  0
VERTEX
  8
0
 10
53.7087
 20
254.9498
  0
VERTEX
  8
0
 10
53.7569
 20
254.9351
  0
VERTEX
  8
0
 10
53.8008
 20
254.9105
  0
VERTEX
  8
0
 10
53.8404
 20
254.8762
  0
VERTEX
  8
0
 10
53.8733
 20
254.8343
  0
VERTEX
  8
0
 10
53.8968
 20
254.7871
  0
VERTEX
  8
0
 10
53.911
 20
254.7346
  0
VERTEX
  8
0
 10
53.916
 20
254.6768
  0
VERTEX
  8
0
 10
53.9089
 20
254.6091
  0
VERTEX
  8
0
 10
53.8877
 20
254.5494
  0
VERTEX
  8
0
 10
53.8524
 20
254.4976
  0
VERTEX
  8
0
 10
53.8052
 20
254.4565
  0
VERTEX
  8
0
 10
53.7483
 20
254.4289
  0
VERTEX
  8
0
 10
53.6817
 20
254.4147
  0
VERTEX
  8
0
 10
53.6817
 20
254.4147
  0
SEQEND
  0
POLYLINE
  8
0
 66
     1
 10
0
 20
0
  0
VERTEX
  8
0
 10
53.4923
 20
255.0547
  0
VERTEX
  8
0
 10
53.4387
 20
255.0559
  0
VERTEX
  8
0
 10
53.3886
 20
255.0595
  0
VERTEX
  8
0
 10
53.3421
 20
255.0654
  0
VERTEX
  8
0
 10
53.2992
 20
255.0738
  0
VERTEX
  8
0
 10
53.2599
 20
255.0846
  0
VERTEX
  8
0
 10
53.2241
 20
255.0978
  0
VERTEX
  8
0
 10
53.1919
 20
255.1133
  0
VERTEX
  8
0
 10
53.1632
 20
255.1313
  0
VERTEX
  8
0
 10
53.1382
 20
255.1517
  0
VERTEX
  8
0
 10
53.1167
 20
255.1744
  0
VERTEX
  8
0
 10
53.0804
 20
255.2414
  0
VERTEX
  8
0
 10
53.068
 20
255.3247
  0
VERTEX
  8
0
 10
53.0745
 20
255.3864
  0
VERTEX
  8
0
 10
53.0952
 20
255.4416
  0
VERTEX
  8
0
 10
53.1194
 20
255.4773
  0
VERTEX
  8
0
 10
53.1516
 20
255.5087
  0
VERTEX
  8
0
 10
53.1918
 20
255.5355
  0
VERTEX
  8
0
 10
53.24
 20
255.558
  0
VERTEX
  8
0
 10
53.2963
 20
255.576
  0
VERTEX
  8
0
 10
53.381
 20
255.59
  0
VERTEX
  8
0
 10
53.4923
 20
255.5947
  0
VERTEX
  8
0
 10
53.5458
 20
255.5935
  0
VERTEX
  8
0
 10
53.5958
 20
255.5899
  0
VERTEX
  8
0
 10
53.6421
 20
255.5839
  0
VERTEX
  8
0
 10
53.685
 20
255.5755
  0
VERTEX
  8
0
 10
53.7243
 20
255.5647
  0
VERTEX
  8
0
 10
53.76
 20
255.5516
  0
VERTEX
  8
0
 10
53.7921
 20
255.536
  0
VERTEX
  8
0
 10
53.8208
 20
255.518
  0
VERTEX
  8
0
 10
53.8458
 20
255.4977
  0
VERTEX
  8
0
 10
53.8673
 20
255.4749
  0
VERTEX
  8
0
 10
53.9035
 20
255.408
  0
VERTEX
  8
0
 10
53.916
 20
255.3247
  0
VERTEX
  8
0
 10
53.9154
 20
255.3035
  0
VERTEX
  8
0
 10
53.9134
 20
255.2833
  0
VERTEX
  8
0
 10
53.9101
 20
255.2639
  0
VERTEX
  8
0
 10
53.9054
 20
255.2453
  0
VERTEX
  8
0
 10
53.8994
 20
255.2276
  0
VERTEX
  8
0
 10
53.892
 20
255.2108
  0
VERTEX
  8
0
 10
53.8832
 20
255.1949
  0
VERTEX
  8
0
 10
53.8731
 20
255.1798
  0
VERTEX
  8
0
 10
53.8616
 20
255.1655
  0
VERTEX
  8
0
 10
53.8487
 20
255.1521
  0
VERTEX
  8
0
 10
53.8345
 20
255.1396
  0
VERTEX
  8
0
 10
53.8189
 20
255.128
  0
VERTEX
  8
0
 10
53.802
 20
255.1172
  0
VERTEX
  8
0
 10
53.7837
 20
255.1072
  0
VERTEX
  8
0
 10
53.764
 20
255.0981
  0
VERTEX
  8
0
 10
53.743
 20
255.0899
  0
VERTEX
  8
0
 10
53.7206
 20
255.0826
  0
VERTEX
  8
0
 10
53.6968
 20
255.0761
  0
VERTEX
  8
0
 10
53.6717
 20
255.0704
  0
VERTEX
  8
0
 10
53.6452
 20
255.0656
  0
VERTEX
  8
0
 10
53.6173
 20
255.0617
  0
VERTEX
  8
0
 10
53.5881
 20
255.0587
  0
VERTEX
  8
0
 10
53.5575
 20
255.0565
  0
VERTEX
  8
0
 10
53.5256
 20
255.0551
  0
VERTEX
  8
0
 10
53.4923
 20
255.0547
  0
VERTEX
  8
0
 10
53.4923
 20
255.0547
  0
SEQEND
  0
POLYLINE
  8
0
 66
     1
 10
0
 20
0
  0
VERTEX
  8
0
 10
53.492
 20
255.1587
  0
VERTEX
  8
0
 10
53.5772
 20
255.1611
  0
VERTEX
  8
0
 10
53.6479
 20
255.1685
  0
VERTEX
  8
0
 10
53.7039
 20
255.1808
  0
VERTEX
  8
0
 10
53.7378
 20
255.193
  0
VERTEX
  8
0
 10
53.7664
 20
255.208
  0
VERTEX
  8
0
 10
53.7899
 20
255.2258
  0
VERTEX
  8
0
 10
53.8082
 20
255.2464
  0
VERTEX
  8
0
 10
53.8213
 20
255.2697
  0
VERTEX
  8
0
 10
53.8292
 20
255.2958
  0
VERTEX
  8
0
 10
53.832
 20
255.3247
  0
VERTEX
  8
0
 10
53.8312
 20
255.3417
  0
VERTEX
  8
0
 10
53.8284
 20
255.3578
  0
VERTEX
  8
0
 10
53.8238
 20
255.3729
  0
VERTEX
  8
0
 10
53.8173
 20
255.3872
  0
VERTEX
  8
0
 10
53.8089
 20
255.4005
  0
VERTEX
  8
0
 10
53.7986
 20
255.413
  0
VERTEX
  8
0
 10
53.7864
 20
255.4245
  0
VERTEX
  8
0
 10
53.7723
 20
255.435
  0
VERTEX
  8
0
 10
53.7563
 20
255.4447
  0
VERTEX
  8
0
 10
53.7384
 20
255.4534
  0
VERTEX
  8
0
 10
53.7186
 20
255.4612
  0
VERTEX
  8
0
 10
53.6969
 20
255.4681
  0
VERTEX
  8
0
 10
53.6733
 20
255.4741
  0
VERTEX
  8
0
 10
53.6478
 20
255.4792
  0
VERTEX
  8
0
 10
53.6204
 20
255.4833
  0
VERTEX
  8
0
 10
53.5912
 20
255.4865
  0
VERTEX
  8
0
 10
53.56
 20
255.4888
  0
VERTEX
  8
0
 10
53.5269
 20
255.4902
  0
VERTEX
  8
0
 10
53.492
 20
255.4907
  0
VERTEX
  8
0
 10
53.4067
 20
255.4882
  0
VERTEX
  8
0
 10
53.3361
 20
255.4808
  0
VERTEX
  8
0
 10
53.28
 20
255.4685
  0
VERTEX
  8
0
 10
53.2462
 20
255.4562
  0
VERTEX
  8
0
 10
53.2175
 20
255.441
  0
VERTEX
  8
0
 10
53.1941
 20
255.4231
  0
VERTEX
  8
0
 10
53.1758
 20
255.4023
  0
VERTEX
  8
0
 10
53.1627
 20
255.3788
  0
VERTEX
  8
0
 10
53.1547
 20
255.3526
  0
VERTEX
  8
0
 10
53.152
 20
255.3235
  0
VERTEX
  8
0
 10
53.1583
 20
255.2799
  0
VERTEX
  8
0
 10
53.1782
 20
255.2425
  0
VERTEX
  8
0
 10
53.2115
 20
255.2114
  0
VERTEX
  8
0
 10
53.2355
 20
255.1974
  0
VERTEX
  8
0
 10
53.2649
 20
255.1855
  0
VERTEX
  8
0
 10
53.2996
 20
255.1759
  0
VERTEX
  8
0
 10
53.3397
 20
255.1683
  0
VERTEX
  8
0
 10
53.3851
 20
255.163
  0
VERTEX
  8
0
 10
53.4359
 20
255.1597
  0
VERTEX
  8
0
 10
53.492
 20
255.1587
  0
VERTEX
  8
0
 10
53.492
 20
255.1587
  0
SEQEND
  0
LINE
  8
0
 10
53.5
 20
255.7906
 11
53.5
 21
270
  0
LINE
  8
0
 10
53.6789
 20
269.6422
 11
53.5
 21
270
  0
LINE
  8
0
 10
53.3211
 20
269.6422
 11
53.5
 21
270
  0
LINE
  8
0
 10
53.7
 20
270
 11
50.2
 21
270
  0
LINE
  8
0
 10
53.5
 20
254.2094
 11
53.5
 21
240
  0
LINE
  8
0
 10
53.3211
 20
240.3578
 11
53.5
 21
240
  0
LINE
  8
0
 10
53.6789
 20
240.3578
 11
53.5
 21
240
  0
LINE
  8
0
 10
53.7
 20
240
 11
50.2
 21
240
  0
POLYLINE
  8
0
 66
     1
 10
0
 20
0
  0
VERTEX
  8
0
 10
34.408
 20
236.3209
  0
VERTEX
  8
0
 10
34.5091
 20
236.3345
  0
VERTEX
  8
0
 10
34.5173
 20
236.3003
  0
VERTEX
  8
0
 10
34.5279
 20
236.27
  0
VERTEX
  8
0
 10
34.541
 20
236.2438
  0
VERTEX
  8
0
 10
34.5565
 20
236.2215
  0
VERTEX
  8
0
 10
34.5744
 20
236.2033
  0
VERTEX
  8
0
 10
34.5947
 20
236.1891
  0
VERTEX
  8
0
 10
34.6175
 20
236.179
  0
VERTEX
  8
0
 10
34.6427
 20
236.1728
  0
VERTEX
  8
0
 10
34.6704
 20
236.1707
  0
VERTEX
  8
0
 10
34.7368
 20
236.1829
  0
VERTEX
  8
0
 10
34.7911
 20
236.2207
  0
VERTEX
  8
0
 10
34.8275
 20
236.277
  0
VERTEX
  8
0
 10
34.84
 20
236.3447
  0
VERTEX
  8
0
 10
34.8289
 20
236.4089
  0
VERTEX
  8
0
 10
34.7946
 20
236.4609
  0
VERTEX
  8
0
 10
34.7429
 20
236.4952
  0
VERTEX
  8
0
 10
34.6794
 20
236.5067
  0
VERTEX
  8
0
 10
34.6465
 20
236.5036
  0
VERTEX
  8
0
 10
34.6083
 20
236.4942
  0
VERTEX
  8
0
 10
34.6195
 20
236.5827
  0
VERTEX
  8
0
 10
34.6264
 20
236.5827
  0
VERTEX
  8
0
 10
34.6359
 20
236.5827
  0
VERTEX
  8
0
 10
34.7
 20
236.591
  0
VERTEX
  8
0
 10
34.7517
 20
236.616
  0
VERTEX
  8
0
 10
34.7906
 20
236.661
  0
VERTEX
  8
0
 10
34.804
 20
236.7212
  0
VERTEX
  8
0
 10
34.7948
 20
236.7733
  0
VERTEX
  8
0
 10
34.766
 20
236.8145
  0
VERTEX
  8
0
 10
34.7224
 20
236.8413
  0
VERTEX
  8
0
 10
34.6688
 20
236.8507
  0
VERTEX
  8
0
 10
34.6421
 20
236.849
  0
VERTEX
  8
0
 10
34.618
 20
236.8437
  0
VERTEX
  8
0
 10
34.5964
 20
236.8345
  0
VERTEX
  8
0
 10
34.5773
 20
236.8216
  0
VERTEX
  8
0
 10
34.5607
 20
236.8049
  0
VERTEX
  8
0
 10
34.5467
 20
236.7845
  0
VERTEX
  8
0
 10
34.5351
 20
236.7604
  0
VERTEX
  8
0
 10
34.5261
 20
236.7324
  0
VERTEX
  8
0
 10
34.5195
 20
236.7007
  0
VERTEX
  8
0
 10
34.4182
 20
236.7189
  0
VERTEX
  8
0
 10
34.4354
 20
236.7811
  0
VERTEX
  8
0
 10
34.4631
 20
236.8337
  0
VERTEX
  8
0
 10
34.5012
 20
236.8768
  0
VERTEX
  8
0
 10
34.5485
 20
236.9087
  0
VERTEX
  8
0
 10
34.6036
 20
236.928
  0
VERTEX
  8
0
 10
34.6665
 20
236.9347
  0
VERTEX
  8
0
 10
34.7285
 20
236.9282
  0
VERTEX
  8
0
 10
34.7864
 20
236.9075
  0
VERTEX
  8
0
 10
34.839
 20
236.8727
  0
VERTEX
  8
0
 10
34.8776
 20
236.826
  0
VERTEX
  8
0
 10
34.9004
 20
236.774
  0
VERTEX
  8
0
 10
34.908
 20
236.719
  0
VERTEX
  8
0
 10
34.9048
 20
236.6822
  0
VERTEX
  8
0
 10
34.8954
 20
236.649
  0
VERTEX
  8
0
 10
34.8797
 20
236.6192
  0
VERTEX
  8
0
 10
34.8578
 20
236.5929
  0
VERTEX
  8
0
 10
34.8296
 20
236.5701
  0
VERTEX
  8
0
 10
34.795
 20
236.5509
  0
VERTEX
  8
0
 10
34.8608
 20
236.524
  0
VERTEX
  8
0
 10
34.9095
 20
236.4784
  0
VERTEX
  8
0
 10
34.9384
 20
236.4188
  0
VERTEX
  8
0
 10
34.948
 20
236.3465
  0
VERTEX
  8
0
 10
34.9431
 20
236.294
  0
VERTEX
  8
0
 10
34.9284
 20
236.2458
  0
VERTEX
  8
0
 10
34.9038
 20
236.2019
  0
VERTEX
  8
0
 10
34.8695
 20
236.1622
  0
VERTEX
  8
0
 10
34.8276
 20
236.1294
  0
VERTEX
  8
0
 10
34.7804
 20
236.1058
  0
VERTEX
  8
0
 10
34.7279
 20
236.0916
  0
VERTEX
  8
0
 10
34.6701
 20
236.0867
  0
VERTEX
  8
0
 10
34.6025
 20
236.0937
  0
VERTEX
  8
0
 10
34.5427
 20
236.1149
  0
VERTEX
  8
0
 10
34.491
 20
236.1502
  0
VERTEX
  8
0
 10
34.4499
 20
236.1974
  0
VERTEX
  8
0
 10
34.4222
 20
236.2543
  0
VERTEX
  8
0
 10
34.408
 20
236.3209
  0
VERTEX
  8
0
 10
34.408
 20
236.3209
  0
SEQEND
  0
POLYLINE
  8
0
 66
     1
 10
0
 20
0
  0
VERTEX
  8
0
 10
35.052
 20
236.5104
  0
VERTEX
  8
0
 10
35.0532
 20
236.564
  0
VERTEX
  8
0
 10
35.0568
 20
236.614
  0
VERTEX
  8
0
 10
35.0628
 20
236.6605
  0
VERTEX
  8
0
 10
35.0711
 20
236.7034
  0
VERTEX
  8
0
 10
35.0819
 20
236.7428
  0
VERTEX
  8
0
 10
35.0951
 20
236.7786
  0
VERTEX
  8
0
 10
35.1107
 20
236.8108
  0
VERTEX
  8
0
 10
35.1286
 20
236.8394
  0
VERTEX
  8
0
 10
35.149
 20
236.8645
  0
VERTEX
  8
0
 10
35.1717
 20
236.886
  0
VERTEX
  8
0
 10
35.2387
 20
236.9222
  0
VERTEX
  8
0
 10
35.322
 20
236.9347
  0
VERTEX
  8
0
 10
35.3837
 20
236.9282
  0
VERTEX
  8
0
 10
35.4389
 20
236.9075
  0
VERTEX
  8
0
 10
35.4747
 20
236.8833
  0
VERTEX
  8
0
 10
35.506
 20
236.8511
  0
VERTEX
  8
0
 10
35.5329
 20
236.8109
  0
VERTEX
  8
0
 10
35.5553
 20
236.7626
  0
VERTEX
  8
0
 10
35.5734
 20
236.7064
  0
VERTEX
  8
0
 10
35.5873
 20
236.6217
  0
VERTEX
  8
0
 10
35.592
 20
236.5104
  0
VERTEX
  8
0
 10
35.5908
 20
236.4568
  0
VERTEX
  8
0
 10
35.5872
 20
236.4069
  0
VERTEX
  8
0
 10
35.5812
 20
236.3605
  0
VERTEX
  8
0
 10
35.5728
 20
236.3177
  0
VERTEX
  8
0
 10
35.562
 20
236.2784
  0
VERTEX
  8
0
 10
35.5489
 20
236.2427
  0
VERTEX
  8
0
 10
35.5333
 20
236.2105
  0
VERTEX
  8
0
 10
35.5153
 20
236.1819
  0
VERTEX
  8
0
 10
35.495
 20
236.1568
  0
VERTEX
  8
0
 10
35.4722
 20
236.1354
  0
VERTEX
  8
0
 10
35.4053
 20
236.0991
  0
VERTEX
  8
0
 10
35.322
 20
236.0867
  0
VERTEX
  8
0
 10
35.3009
 20
236.0873
  0
VERTEX
  8
0
 10
35.2806
 20
236.0892
  0
VERTEX
  8
0
 10
35.2612
 20
236.0925
  0
VERTEX
  8
0
 10
35.2426
 20
236.0972
  0
VERTEX
  8
0
 10
35.225
 20
236.1033
  0
VERTEX
  8
0
 10
35.2081
 20
236.1107
  0
VERTEX
  8
0
 10
35.1922
 20
236.1194
  0
VERTEX
  8
0
 10
35.1771
 20
236.1296
  0
VERTEX
  8
0
 10
35.1628
 20
236.1411
  0
VERTEX
  8
0
 10
35.1495
 20
236.1539
  0
VERTEX
  8
0
 10
35.1369
 20
236.1681
  0
VERTEX
  8
0
 10
35.1253
 20
236.1837
  0
VERTEX
  8
0
 10
35.1145
 20
236.2007
  0
VERTEX
  8
0
 10
35.1045
 20
236.219
  0
VERTEX
  8
0
 10
35.0955
 20
236.2387
  0
VERTEX
  8
0
 10
35.0872
 20
236.2597
  0
VERTEX
  8
0
 10
35.0799
 20
236.2821
  0
VERTEX
  8
0
 10
35.0734
 20
236.3059
  0
VERTEX
  8
0
 10
35.0677
 20
236.331
  0
VERTEX
  8
0
 10
35.063
 20
236.3575
  0
VERTEX
  8
0
 10
35.059
 20
236.3853
  0
VERTEX
  8
0
 10
35.056
 20
236.4145
  0
VERTEX
  8
0
 10
35.0538
 20
236.4451
  0
VERTEX
  8
0
 10
35.0525
 20
236.4771
  0
VERTEX
  8
0
 10
35.052
 20
236.5104
  0
VERTEX
  8
0
 10
35.052
 20
236.5104
  0
SEQEND
  0
POLYLINE
  8
0
 66
     1
 10
0
 20
0
  0
VERTEX
  8
0
 10
35.156
 20
236.5107
  0
VERTEX
  8
0
 10
35.1584
 20
236.4254
  0
VERTEX
  8
0
 10
35.1658
 20
236.3548
  0
VERTEX
  8
0
 10
35.1781
 20
236.2987
  0
VERTEX
  8
0
 10
35.1903
 20
236.2649
  0
VERTEX
  8
0
 10
35.2053
 20
236.2362
  0
VERTEX
  8
0
 10
35.2231
 20
236.2128
  0
VERTEX
  8
0
 10
35.2437
 20
236.1945
  0
VERTEX
  8
0
 10
35.267
 20
236.1814
  0
VERTEX
  8
0
 10
35.2931
 20
236.1734
  0
VERTEX
  8
0
 10
35.322
 20
236.1707
  0
VERTEX
  8
0
 10
35.339
 20
236.1715
  0
VERTEX
  8
0
 10
35.3551
 20
236.1742
  0
VERTEX
  8
0
 10
35.3703
 20
236.1788
  0
VERTEX
  8
0
 10
35.3845
 20
236.1854
  0
VERTEX
  8
0
 10
35.3979
 20
236.1938
  0
VERTEX
  8
0
 10
35.4103
 20
236.2041
  0
VERTEX
  8
0
 10
35.4218
 20
236.2163
  0
VERTEX
  8
0
 10
35.4323
 20
236.2304
  0
VERTEX
  8
0
 10
35.442
 20
236.2464
  0
VERTEX
  8
0
 10
35.4507
 20
236.2643
  0
VERTEX
  8
0
 10
35.4586
 20
236.2841
  0
VERTEX
  8
0
 10
35.4655
 20
236.3058
  0
VERTEX
  8
0
 10
35.4714
 20
236.3294
  0
VERTEX
  8
0
 10
35.4765
 20
236.3548
  0
VERTEX
  8
0
 10
35.4806
 20
236.3822
  0
VERTEX
  8
0
 10
35.4838
 20
236.4115
  0
VERTEX
  8
0
 10
35.4861
 20
236.4426
  0
VERTEX
  8
0
 10
35.4875
 20
236.4757
  0
VERTEX
  8
0
 10
35.488
 20
236.5107
  0
VERTEX
  8
0
 10
35.4855
 20
236.5959
  0
VERTEX
  8
0
 10
35.4781
 20
236.6666
  0
VERTEX
  8
0
 10
35.4659
 20
236.7226
  0
VERTEX
  8
0
 10
35.4535
 20
236.7564
  0
VERTEX
  8
0
 10
35.4383
 20
236.7851
  0
VERTEX
  8
0
 10
35.4204
 20
236.8086
  0
VERTEX
  8
0
 10
35.3997
 20
236.8269
  0
VERTEX
  8
0
 10
35.3762
 20
236.84
  0
VERTEX
  8
0
 10
35.3499
 20
236.8479
  0
VERTEX
  8
0
 10
35.3209
 20
236.8507
  0
VERTEX
  8
0
 10
35.2772
 20
236.8443
  0
VERTEX
  8
0
 10
35.2398
 20
236.8245
  0
VERTEX
  8
0
 10
35.2087
 20
236.7912
  0
VERTEX
  8
0
 10
35.1947
 20
236.7671
  0
VERTEX
  8
0
 10
35.1829
 20
236.7377
  0
VERTEX
  8
0
 10
35.1732
 20
236.703
  0
VERTEX
  8
0
 10
35.1657
 20
236.6629
  0
VERTEX
  8
0
 10
35.1603
 20
236.6175
  0
VERTEX
  8
0
 10
35.1571
 20
236.5668
  0
VERTEX
  8
0
 10
35.156
 20
236.5107
  0
VERTEX
  8
0
 10
35.156
 20
236.5107
  0
SEQEND
  0
LINE
  8
0
 10
35.7906
 20
236.5
 11
50
 21
236.5
  0
LINE
  8
0
 10
49.6422
 20
236.3211
 11
50
 21
236.5
  0
LINE
  8
0
 10
49.6422
 20
236.6789
 11
50
 21
236.5
  0
LINE
  8
0
 10
50
 20
236.3
 11
50
 21
239.8
  0
LINE
  8
0
 10
34.2094
 20
236.5
 11
20
 21
236.5
  0
LINE
  8
0
 10
20.3578
 20
236.6789
 11
20
 21
236.5
  0
LINE
  8
0
 10
20.3578
 20
236.3211
 11
20
 21
236.5
  0
LINE
  8
0
 10
20
 20
236.3
 11
20
 21
239.8
  0
POLYLINE
  8
0
 66
     1
 10
0
 20
0
  0
VERTEX
  8
0
 10
20.304
 20
234.7707
  0
VERTEX
  8
0
 10
20.204
 20
234.7707
  0
VERTEX
  8
0
 10
20.204
 20
235.4218
  0
VERTEX
  8
0
 10
20.1128
 20
235.3531
  0
VERTEX
  8
0
 10
20
 20
235.2994
  0
VERTEX
  8
0
 10
20
 20
235.398
  0
VERTEX
  8
0
 10
20.0557
 20
235.427
  0
VERTEX
  8
0
 10
20.1051
 20
235.4583
  0
VERTEX
  8
0
 10
20.148
 20
235.4919
  0
VERTEX
  8
0
 10
20.1846
 20
235.5278
  0
VERTEX
  8
0
 10
20.2148
 20
235.5661
  0
VERTEX
  8
0
 10
20.2387
 20
235.6067
  0
VERTEX
  8
0
 10
20.304
 20
235.6067
  0
VERTEX
  8
0
 10
20.304
 20
234.7707
  0
SEQEND
  0
POLYLINE
  8
0
 66
     1
 10
0
 20
0
  0
VERTEX
  8
0
 10
20.616
 20
234.7707
  0
VERTEX
  8
0
 10
20.616
 20
234.8907
  0
VERTEX
  8
0
 10
20.732
 20
234.8907
  0
VERTEX
  8
0
 10
20.732
 20
234.7707
  0
VERTEX
  8
0
 10
20.616
 20
234.7707
  0
SEQEND
  0
POLYLINE
  8
0
 66
     1
 10
0
 20
0
  0
VERTEX
  8
0
 10
20.88
 20
234.9912
  0
VERTEX
  8
0
 10
20.9865
 20
235.0004
  0
VERTEX
  8
0
 10
20.9931
 20
234.9673
  0
VERTEX
  8
0
 10
21.0025
 20
234.9381
  0
VERTEX
  8
0
 10
21.0146
 20
234.9128
  0
VERTEX
  8
0
 10
21.0295
 20
234.8913
  0
VERTEX
  8
0
 10
21.0472
 20
234.8738
  0
VERTEX
  8
0
 10
21.0676
 20
234.8602
  0
VERTEX
  8
0
 10
21.0908
 20
234.8505
  0
VERTEX
  8
0
 10
21.1167
 20
234.8446
  0
VERTEX
  8
0
 10
21.1454
 20
234.8427
  0
VERTEX
  8
0
 10
21.1958
 20
234.8496
  0
VERTEX
  8
0
 10
21.239
 20
234.8704
  0
VERTEX
  8
0
 10
21.2749
 20
234.9052
  0
VERTEX
  8
0
 10
21.3087
 20
234.9688
  0
VERTEX
  8
0
 10
21.32
 20
235.046
  0
VERTEX
  8
0
 10
21.3083
 20
235.1221
  0
VERTEX
  8
0
 10
21.2732
 20
235.1821
  0
VERTEX
  8
0
 10
21.2381
 20
235.2111
  0
VERTEX
  8
0
 10
21.1949
 20
235.2286
  0
VERTEX
  8
0
 10
21.1437
 20
235.2347
  0
VERTEX
  8
0
 10
21.0979
 20
235.2298
  0
VERTEX
  8
0
 10
21.0576
 20
235.2146
  0
VERTEX
  8
0
 10
21.0227
 20
235.1891
  0
VERTEX
  8
0
 10
20.9932
 20
235.1532
  0
VERTEX
  8
0
 10
20.898
 20
235.1657
  0
VERTEX
  8
0
 10
20.9782
 20
235.5907
  0
VERTEX
  8
0
 10
21.3895
 20
235.5907
  0
VERTEX
  8
0
 10
21.3895
 20
235.4947
  0
VERTEX
  8
0
 10
21.0619
 20
235.4947
  0
VERTEX
  8
0
 10
21.0156
 20
235.271
  0
VERTEX
  8
0
 10
21.0917
 20
235.3095
  0
VERTEX
  8
0
 10
21.1714
 20
235.3227
  0
VERTEX
  8
0
 10
21.2252
 20
235.318
  0
VERTEX
  8
0
 10
21.2741
 20
235.3034
  0
VERTEX
  8
0
 10
21.3181
 20
235.279
  0
VERTEX
  8
0
 10
21.3571
 20
235.2446
  0
VERTEX
  8
0
 10
21.3881
 20
235.2041
  0
VERTEX
  8
0
 10
21.4103
 20
235.1588
  0
VERTEX
  8
0
 10
21.4236
 20
235.1087
  0
VERTEX
  8
0
 10
21.428
 20
235.054
  0
VERTEX
  8
0
 10
21.4207
 20
234.9826
  0
VERTEX
  8
0
 10
21.3989
 20
234.9177
  0
VERTEX
  8
0
 10
21.3626
 20
234.8594
  0
VERTEX
  8
0
 10
21.3285
 20
234.8233
  0
VERTEX
  8
0
 10
21.2897
 20
234.7952
  0
VERTEX
  8
0
 10
21.2463
 20
234.775
  0
VERTEX
  8
0
 10
21.1982
 20
234.7629
  0
VERTEX
  8
0
 10
21.1455
 20
234.7587
  0
VERTEX
  8
0
 10
21.0765
 20
234.7654
  0
VERTEX
  8
0
 10
21.016
 20
234.7857
  0
VERTEX
  8
0
 10
20.964
 20
234.8195
  0
VERTEX
  8
0
 10
20.9221
 20
234.8664
  0
VERTEX
  8
0
 10
20.8941
 20
234.9236
  0
VERTEX
  8
0
 10
20.88
 20
234.9912
  0
VERTEX
  8
0
 10
20.88
 20
234.9912
  0
SEQEND
  0
POLYLINE
  8
0
 66
     1
 10
0
 20
0
  0
VERTEX
  8
0
 10
21.5563
 20
235.3107
  0
VERTEX
  8
0
 10
21.528
 20
235.4677
  0
VERTEX
  8
0
 10
21.528
 20
235.6027
  0
VERTEX
  8
0
 10
21.644
 20
235.6027
  0
VERTEX
  8
0
 10
21.644
 20
235.4677
  0
VERTEX
  8
0
 10
21.6185
 20
235.3107
  0
VERTEX
  8
0
 10
21.5563
 20
235.3107
  0
SEQEND
  0
POLYLINE
  8
0
 66
     1
 10
0
 20
0
  0
VERTEX
  8
0
 10
21.7437
 20
235.3107
  0
VERTEX
  8
0
 10
21.716
 20
235.4677
  0
VERTEX
  8
0
 10
21.716
 20
235.6027
  0
VERTEX
  8
0
 10
21.832
 20
235.6027
  0
VERTEX
  8
0
 10
21.832
 20
235.4677
  0
VERTEX
  8
0
 10
21.8048
 20
235.3107
  0
VERTEX
  8
0
 10
21.7437
 20
235.3107
  0
SEQEND
  0
POLYLINE
  8
0
 66
     1
 10
0
 20
0
  0
VERTEX
  8
0
 10
22.508
 20
234.7707
  0
VERTEX
  8
0
 10
22.508
 20
235.6027
  0
VERTEX
  8
0
 10
22.874
 20
235.6027
  0
VERTEX
  8
0
 10
22.9578
 20
235.5988
  0
VERTEX
  8
0
 10
23.0199
 20
235.5874
  0
VERTEX
  8
0
 10
23.086
 20
235.5545
  0
VERTEX
  8
0
 10
23.1336
 20
235.5011
  0
VERTEX
  8
0
 10
23.1591
 20
235.4417
  0
VERTEX
  8
0
 10
23.168
 20
235.3757
  0
VERTEX
  8
0
 10
23.167
 20
235.3489
  0
VERTEX
  8
0
 10
23.1635
 20
235.3238
  0
VERTEX
  8
0
 10
23.1577
 20
235.3003
  0
VERTEX
  8
0
 10
23.1495
 20
235.2784
  0
VERTEX
  8
0
 10
23.139
 20
235.2582
  0
VERTEX
  8
0
 10
23.126
 20
235.2395
  0
VERTEX
  8
0
 10
23.1106
 20
235.2226
  0
VERTEX
  8
0
 10
23.0929
 20
235.2072
  0
VERTEX
  8
0
 10
23.0728
 20
235.1935
  0
VERTEX
  8
0
 10
23.0502
 20
235.1814
  0
VERTEX
  8
0
 10
23.0253
 20
235.1709
  0
VERTEX
  8
0
 10
22.998
 20
235.162
  0
VERTEX
  8
0
 10
22.9683
 20
235.1548
  0
VERTEX
  8
0
 10
22.9362
 20
235.1492
  0
VERTEX
  8
0
 10
22.9747
 20
235.1284
  0
VERTEX
  8
0
 10
23.0022
 20
235.1078
  0
VERTEX
  8
0
 10
23.0501
 20
235.0566
  0
VERTEX
  8
0
 10
23.0931
 20
234.9971
  0
VERTEX
  8
0
 10
23.237
 20
234.7707
  0
VERTEX
  8
0
 10
23.1
 20
234.7707
  0
VERTEX
  8
0
 10
22.9895
 20
234.9465
  0
VERTEX
  8
0
 10
22.9553
 20
234.9991
  0
VERTEX
  8
0
 10
22.9284
 20
235.0378
  0
VERTEX
  8
0
 10
22.8884
 20
235.0867
  0
VERTEX
  8
0
 10
22.8543
 20
235.1166
  0
VERTEX
  8
0
 10
22.8294
 20
235.1304
  0
VERTEX
  8
0
 10
22.8045
 20
235.1387
  0
VERTEX
  8
0
 10
22.7804
 20
235.1417
  0
VERTEX
  8
0
 10
22.7434
 20
235.1427
  0
VERTEX
  8
0
 10
22.616
 20
235.1427
  0
VERTEX
  8
0
 10
22.616
 20
234.7707
  0
VERTEX
  8
0
 10
22.508
 20
234.7707
  0
SEQEND
  0
POLYLINE
  8
0
 66
     1
 10
0
 20
0
  0
VERTEX
  8
0
 10
22.616
 20
235.2387
  0
VERTEX
  8
0
 10
22.8518
 20
235.2387
  0
VERTEX
  8
0
 10
22.904
 20
235.2412
  0
VERTEX
  8
0
 10
22.9483
 20
235.249
  0
VERTEX
  8
0
 10
22.9847
 20
235.2619
  0
VERTEX
  8
0
 10
23.0132
 20
235.2799
  0
VERTEX
  8
0
 10
23.0339
 20
235.3032
  0
VERTEX
  8
0
 10
23.0505
 20
235.3388
  0
VERTEX
  8
0
 10
23.056
 20
235.3772
  0
VERTEX
  8
0
 10
23.0498
 20
235.4202
  0
VERTEX
  8
0
 10
23.0311
 20
235.4552
  0
VERTEX
  8
0
 10
23
 20
235.482
  0
VERTEX
  8
0
 10
22.9467
 20
235.5035
  0
VERTEX
  8
0
 10
22.8784
 20
235.5107
  0
VERTEX
  8
0
 10
22.616
 20
235.5107
  0
VERTEX
  8
0
 10
22.616
 20
235.2387
  0
SEQEND
  0
POLYLINE
  8
0
 66
     1
 10
0
 20
0
  0
VERTEX
  8
0
 10
23.7214
 20
234.8486
  0
VERTEX
  8
0
 10
23.6693
 20
234.8112
  0
VERTEX
  8
0
 10
23.6152
 20
234.7844
  0
VERTEX
  8
0
 10
23.559
 20
234.7683
  0
VERTEX
  8
0
 10
23.5008
 20
234.7627
  0
VERTEX
  8
0
 10
23.421
 20
234.7725
  0
VERTEX
  8
0
 10
23.3575
 20
234.8031
  0
VERTEX
  8
0
 10
23.3236
 20
234.8378
  0
VERTEX
  8
0
 10
23.3031
 20
234.8813
  0
VERTEX
  8
0
 10
23.296
 20
234.9335
  0
VERTEX
  8
0
 10
23.3003
 20
234.975
  0
VERTEX
  8
0
 10
23.3137
 20
235.0119
  0
VERTEX
  8
0
 10
23.3362
 20
235.0441
  0
VERTEX
  8
0
 10
23.3679
 20
235.0717
  0
VERTEX
  8
0
 10
23.4017
 20
235.091
  0
VERTEX
  8
0
 10
23.441
 20
235.1049
  0
VERTEX
  8
0
 10
23.4778
 20
235.1126
  0
VERTEX
  8
0
 10
23.531
 20
235.12
  0
VERTEX
  8
0
 10
23.607
 20
235.1307
  0
VERTEX
  8
0
 10
23.6671
 20
235.1423
  0
VERTEX
  8
0
 10
23.7114
 20
235.1549
  0
VERTEX
  8
0
 10
23.7116
 20
235.1724
  0
VERTEX
  8
0
 10
23.712
 20
235.1813
  0
VERTEX
  8
0
 10
23.7048
 20
235.234
  0
VERTEX
  8
0
 10
23.6833
 20
235.2684
  0
VERTEX
  8
0
 10
23.6354
 20
235.2938
  0
VERTEX
  8
0
 10
23.5681
 20
235.3027
  0
VERTEX
  8
0
 10
23.5081
 20
235.2971
  0
VERTEX
  8
0
 10
23.4652
 20
235.2791
  0
VERTEX
  8
0
 10
23.4341
 20
235.244
  0
VERTEX
  8
0
 10
23.4124
 20
235.1894
  0
VERTEX
  8
0
 10
23.3135
 20
235.2029
  0
VERTEX
  8
0
 10
23.3274
 20
235.2488
  0
VERTEX
  8
0
 10
23.3477
 20
235.2879
  0
VERTEX
  8
0
 10
23.3746
 20
235.3204
  0
VERTEX
  8
0
 10
23.408
 20
235.3462
  0
VERTEX
  8
0
 10
23.4479
 20
235.3653
  0
VERTEX
  8
0
 10
23.5104
 20
235.381
  0
VERTEX
  8
0
 10
23.5839
 20
235.3867
  0
VERTEX
  8
0
 10
23.6371
 20
235.3843
  0
VERTEX
  8
0
 10
23.6832
 20
235.3767
  0
VERTEX
  8
0
 10
23.7223
 20
235.3639
  0
VERTEX
  8
0
 10
23.7543
 20
235.3458
  0
VERTEX
  8
0
 10
23.7793
 20
235.3225
  0
VERTEX
  8
0
 10
23.7982
 20
235.2919
  0
VERTEX
  8
0
 10
23.8109
 20
235.2534
  0
VERTEX
  8
0
 10
23.8147
 20
235.2185
  0
VERTEX
  8
0
 10
23.816
 20
235.1592
  0
VERTEX
  8
0
 10
23.816
 20
235.0231
  0
VERTEX
  8
0
 10
23.816
 20
234.9787
  0
VERTEX
  8
0
 10
23.8161
 20
234.9436
  0
VERTEX
  8
0
 10
23.8162
 20
234.9177
  0
VERTEX
  8
0
 10
23.8163
 20
234.9011
  0
VERTEX
  8
0
 10
23.8165
 20
234.8937
  0
VERTEX
  8
0
 10
23.8266
 20
234.8255
  0
VERTEX
  8
0
 10
23.8478
 20
234.7707
  0
VERTEX
  8
0
 10
23.7417
 20
234.7707
  0
VERTEX
  8
0
 10
23.729
 20
234.8068
  0
VERTEX
  8
0
 10
23.7214
 20
234.8486
  0
VERTEX
  8
0
 10
23.7214
 20
234.8486
  0
SEQEND
  0
POLYLINE
  8
0
 66
     1
 10
0
 20
0
  0
VERTEX
  8
0
 10
23.712
 20
235.0754
  0
VERTEX
  8
0
 10
23.643
 20
235.055
  0
VERTEX
  8
0
 10
23.5464
 20
235.0374
  0
VERTEX
  8
0
 10
23.5031
 20
235.0304
  0
VERTEX
  8
0
 10
23.4755
 20
235.0239
  0
VERTEX
  8
0
 10
23.4412
 20
235.0076
  0
VERTEX
  8
0
 10
23.418
 20
234.9842
  0
VERTEX
  8
0
 10
23.4078
 20
234.962
  0
VERTEX
  8
0
 10
23.404
 20
234.9367
  0
VERTEX
  8
0
 10
23.4131
 20
234.8947
  0
VERTEX
  8
0
 10
23.4417
 20
234.8639
  0
VERTEX
  8
0
 10
23.4787
 20
234.848
  0
VERTEX
  8
0
 10
23.5245
 20
234.8427
  0
VERTEX
  8
0
 10
23.5641
 20
234.8453
  0
VERTEX
  8
0
 10
23.5993
 20
234.8532
  0
VERTEX
  8
0
 10
23.6301
 20
234.8665
  0
VERTEX
  8
0
 10
23.6564
 20
234.8849
  0
VERTEX
  8
0
 10
23.6782
 20
234.9087
  0
VERTEX
  8
0
 10
23.6957
 20
234.9378
  0
VERTEX
  8
0
 10
23.7079
 20
234.98
  0
VERTEX
  8
0
 10
23.712
 20
235.0385
  0
VERTEX
  8
0
 10
23.712
 20
235.0754
  0
SEQEND
  0
POLYLINE
  8
0
 66
     1
 10
0
 20
0
  0
VERTEX
  8
0
 10
24.36
 20
234.7707
  0
VERTEX
  8
0
 10
24.36
 20
234.8503
  0
VERTEX
  8
0
 10
24.3353
 20
234.8189
  0
VERTEX
  8
0
 10
24.3063
 20
234.7945
  0
VERTEX
  8
0
 10
24.2729
 20
234.777
  0
VERTEX
  8
0
 10
24.2351
 20
234.7664
  0
VERTEX
  8
0
 10
24.193
 20
234.7627
  0
VERTEX
  8
0
 10
24.1227
 20
234.7727
  0
VERTEX
  8
0
 10
24.0591
 20
234.8037
  0
VERTEX
  8
0
 10
24.0069
 20
234.8508
  0
VERTEX
  8
0
 10
23.9683
 20
234.9122
  0
VERTEX
  8
0
 10
23.9444
 20
234.987
  0
VERTEX
  8
0
 10
23.936
 20
235.0741
  0
VERTEX
  8
0
 10
23.9376
 20
235.1209
  0
VERTEX
  8
0
 10
23.9431
 20
235.1642
  0
VERTEX
  8
0
 10
23.9523
 20
235.2038
  0
VERTEX
  8
0
 10
23.9654
 20
235.2398
  0
VERTEX
  8
0
 10
23.9823
 20
235.2722
  0
VERTEX
  8
0
 10
24.0031
 20
235.301
  0
VERTEX
  8
0
 10
24.0276
 20
235.3262
  0
VERTEX
  8
0
 10
24.056
 20
235.3479
  0
VERTEX
  8
0
 10
24.1192
 20
235.377
  0
VERTEX
  8
0
 10
24.1901
 20
235.3867
  0
VERTEX
  8
0
 10
24.2402
 20
235.3816
  0
VERTEX
  8
0
 10
24.2845
 20
235.3663
  0
VERTEX
  8
0
 10
24.3231
 20
235.3408
  0
VERTEX
  8
0
 10
24.356
 20
235.305
  0
VERTEX
  8
0
 10
24.356
 20
235.6027
  0
VERTEX
  8
0
 10
24.456
 20
235.6027
  0
VERTEX
  8
0
 10
24.456
 20
234.7707
  0
VERTEX
  8
0
 10
24.36
 20
234.7707
  0
SEQEND
  0
POLYLINE
  8
0
 66
     1
 10
0
 20
0
  0
VERTEX
  8
0
 10
24.04
 20
235.0744
  0
VERTEX
  8
0
 10
24.0489
 20
234.9913
  0
VERTEX
  8
0
 10
24.0755
 20
234.9224
  0
VERTEX
  8
0
 10
24.0998
 20
234.8895
  0
VERTEX
  8
0
 10
24.1292
 20
234.8659
  0
VERTEX
  8
0
 10
24.1637
 20
234.8516
  0
VERTEX
  8
0
 10
24.2032
 20
234.8467
  0
VERTEX
  8
0
 10
24.2422
 20
234.8509
  0
VERTEX
  8
0
 10
24.2761
 20
234.8643
  0
VERTEX
  8
0
 10
24.3049
 20
234.8869
  0
VERTEX
  8
0
 10
24.3287
 20
234.9185
  0
VERTEX
  8
0
 10
24.3545
 20
234.9851
  0
VERTEX
  8
0
 10
24.3631
 20
235.066
  0
VERTEX
  8
0
 10
24.3548
 20
235.1533
  0
VERTEX
  8
0
 10
24.3298
 20
235.2236
  0
VERTEX
  8
0
 10
24.3055
 20
235.2582
  0
VERTEX
  8
0
 10
24.2756
 20
235.2829
  0
VERTEX
  8
0
 10
24.24
 20
235.2977
  0
VERTEX
  8
0
 10
24.1987
 20
235.3027
  0
VERTEX
  8
0
 10
24.1586
 20
235.2979
  0
VERTEX
  8
0
 10
24.1242
 20
235.2837
  0
VERTEX
  8
0
 10
24.0953
 20
235.2601
  0
VERTEX
  8
0
 10
24.0722
 20
235.2269
  0
VERTEX
  8
0
 10
24.048
 20
235.1591
  0
VERTEX
  8
0
 10
24.04
 20
235.0744
  0
VERTEX
  8
0
 10
24.04
 20
235.0744
  0
SEQEND
  0
POLYLINE
  8
0
 66
     1
 10
0
 20
0
  0
VERTEX
  8
0
 10
24.612
 20
235.4867
  0
VERTEX
  8
0
 10
24.612
 20
235.6027
  0
VERTEX
  8
0
 10
24.712
 20
235.6027
  0
VERTEX
  8
0
 10
24.712
 20
235.4867
  0
VERTEX
  8
0
 10
24.612
 20
235.4867
  0
SEQEND
  0
POLYLINE
  8
0
 66
     1
 10
0
 20
0
  0
VERTEX
  8
0
 10
24.612
 20
234.7707
  0
VERTEX
  8
0
 10
24.612
 20
235.3739
  0
VERTEX
  8
0
 10
24.712
 20
235.3739
  0
VERTEX
  8
0
 10
24.712
 20
234.7707
  0
VERTEX
  8
0
 10
24.612
 20
234.7707
  0
SEQEND
  0
POLYLINE
  8
0
 66
     1
 10
0
 20
0
  0
VERTEX
  8
0
 10
25.26
 20
234.7707
  0
VERTEX
  8
0
 10
25.26
 20
234.8627
  0
VERTEX
  8
0
 10
25.2304
 20
234.8267
  0
VERTEX
  8
0
 10
25.1967
 20
234.7987
  0
VERTEX
  8
0
 10
25.159
 20
234.7787
  0
VERTEX
  8
0
 10
25.1171
 20
234.7667
  0
VERTEX
  8
0
 10
25.0712
 20
234.7627
  0
VERTEX
  8
0
 10
25.0249
 20
234.767
  0
VERTEX
  8
0
 10
24.98
 20
234.7802
  0
VERTEX
  8
0
 10
24.9363
 20
234.8031
  0
VERTEX
  8
0
 10
24.9049
 20
234.8337
  0
VERTEX
  8
0
 10
24.8866
 20
234.8672
  0
VERTEX
  8
0
 10
24.8742
 20
234.9092
  0
VERTEX
  8
0
 10
24.8695
 20
234.9481
  0
VERTEX
  8
0
 10
24.868
 20
235.0039
  0
VERTEX
  8
0
 10
24.868
 20
235.3747
  0
VERTEX
  8
0
 10
24.968
 20
235.3747
  0
VERTEX
  8
0
 10
24.968
 20
235.0432
  0
VERTEX
  8
0
 10
24.9695
 20
234.9759
  0
VERTEX
  8
0
 10
24.9742
 20
234.9362
  0
VERTEX
  8
0
 10
24.9855
 20
234.9058
  0
VERTEX
  8
0
 10
25.0029
 20
234.882
  0
VERTEX
  8
0
 10
25.0264
 20
234.8649
  0
VERTEX
  8
0
 10
25.0562
 20
234.8545
  0
VERTEX
  8
0
 10
25.0921
 20
234.8507
  0
VERTEX
  8
0
 10
25.1366
 20
234.8561
  0
VERTEX
  8
0
 10
25.178
 20
234.8735
  0
VERTEX
  8
0
 10
25.2122
 20
234.9011
  0
VERTEX
  8
0
 10
25.235
 20
234.9373
  0
VERTEX
  8
0
 10
25.2477
 20
234.9869
  0
VERTEX
  8
0
 10
25.252
 20
235.0544
  0
VERTEX
  8
0
 10
25.252
 20
235.3747
  0
VERTEX
  8
0
 10
25.352
 20
235.3747
  0
VERTEX
  8
0
 10
25.352
 20
234.7707
  0
VERTEX
  8
0
 10
25.26
 20
234.7707
  0
SEQEND
  0
POLYLINE
  8
0
 66
     1
 10
0
 20
0
  0
VERTEX
  8
0
 10
25.472
 20
234.9536
  0
VERTEX
  8
0
 10
25.5721
 20
234.9693
  0
VERTEX
  8
0
 10
25.5783
 20
234.9406
  0
VERTEX
  8
0
 10
25.5883
 20
234.9156
  0
VERTEX
  8
0
 10
25.602
 20
234.8946
  0
VERTEX
  8
0
 10
25.6195
 20
234.8773
  0
VERTEX
  8
0
 10
25.6407
 20
234.8639
  0
VERTEX
  8
0
 10
25.6656
 20
234.8543
  0
VERTEX
  8
0
 10
25.6943
 20
234.8486
  0
VERTEX
  8
0
 10
25.7267
 20
234.8467
  0
VERTEX
  8
0
 10
25.7765
 20
234.8517
  0
VERTEX
  8
0
 10
25.8179
 20
234.8669
  0
VERTEX
  8
0
 10
25.8525
 20
234.8979
  0
VERTEX
  8
0
 10
25.864
 20
234.9415
  0
VERTEX
  8
0
 10
25.8565
 20
234.9721
  0
VERTEX
  8
0
 10
25.8341
 20
234.9954
  0
VERTEX
  8
0
 10
25.8136
 20
235.0052
  0
VERTEX
  8
0
 10
25.779
 20
235.0166
  0
VERTEX
  8
0
 10
25.7304
 20
235.0297
  0
VERTEX
  8
0
 10
25.6746
 20
235.0439
  0
VERTEX
  8
0
 10
25.6342
 20
235.0551
  0
VERTEX
  8
0
 10
25.6092
 20
235.0634
  0
VERTEX
  8
0
 10
25.5486
 20
235.0946
  0
VERTEX
  8
0
 10
25.51
 20
235.1346
  0
VERTEX
  8
0
 10
25.4935
 20
235.1724
  0
VERTEX
  8
0
 10
25.488
 20
235.2149
  0
VERTEX
  8
0
 10
25.4956
 20
235.2653
  0
VERTEX
  8
0
 10
25.5184
 20
235.3087
  0
VERTEX
  8
0
 10
25.5564
 20
235.3451
  0
VERTEX
  8
0
 10
25.6228
 20
235.376
  0
VERTEX
  8
0
 10
25.709
 20
235.3867
  0
VERTEX
  8
0
 10
25.7745
 20
235.3819
  0
VERTEX
  8
0
 10
25.8329
 20
235.3664
  0
VERTEX
  8
0
 10
25.8793
 20
235.3423
  0
VERTEX
  8
0
 10
25.9125
 20
235.3102
  0
VERTEX
  8
0
 10
25.9333
 20
235.2712
  0
VERTEX
  8
0
 10
25.947
 20
235.2192
  0
VERTEX
  8
0
 10
25.8469
 20
235.2057
  0
VERTEX
  8
0
 10
25.8406
 20
235.2313
  0
VERTEX
  8
0
 10
25.8301
 20
235.253
  0
VERTEX
  8
0
 10
25.8154
 20
235.2707
  0
VERTEX
  8
0
 10
25.7965
 20
235.2846
  0
VERTEX
  8
0
 10
25.7735
 20
235.2945
  0
VERTEX
  8
0
 10
25.7463
 20
235.3006
  0
VERTEX
  8
0
 10
25.7149
 20
235.3027
  0
VERTEX
  8
0
 10
25.6804
 20
235.3012
  0
VERTEX
  8
0
 10
25.6512
 20
235.2966
  0
VERTEX
  8
0
 10
25.6273
 20
235.2888
  0
VERTEX
  8
0
 10
25.6086
 20
235.2778
  0
VERTEX
  8
0
 10
25.5951
 20
235.2637
  0
VERTEX
  8
0
 10
25.5869
 20
235.2463
  0
VERTEX
  8
0
 10
25.584
 20
235.2258
  0
VERTEX
  8
0
 10
25.5868
 20
235.2076
  0
VERTEX
  8
0
 10
25.5965
 20
235.1901
  0
VERTEX
  8
0
 10
25.6127
 20
235.1749
  0
VERTEX
  8
0
 10
25.6355
 20
235.1635
  0
VERTEX
  8
0
 10
25.6511
 20
235.1584
  0
VERTEX
  8
0
 10
25.6811
 20
235.1498
  0
VERTEX
  8
0
 10
25.7255
 20
235.1377
  0
VERTEX
  8
0
 10
25.7909
 20
235.1192
  0
VERTEX
  8
0
 10
25.8411
 20
235.1034
  0
VERTEX
  8
0
 10
25.8762
 20
235.0905
  0
VERTEX
  8
0
 10
25.9091
 20
235.0727
  0
VERTEX
  8
0
 10
25.9347
 20
235.0499
  0
VERTEX
  8
0
 10
25.953
 20
235.022
  0
VERTEX
  8
0
 10
25.9641
 20
234.9892
  0
VERTEX
  8
0
 10
25.968
 20
234.9513
  0
VERTEX
  8
0
 10
25.9608
 20
234.9024
  0
VERTEX
  8
0
 10
25.9382
 20
234.8559
  0
VERTEX
  8
0
 10
25.9153
 20
234.8275
  0
VERTEX
  8
0
 10
25.8875
 20
234.8043
  0
VERTEX
  8
0
 10
25.8548
 20
234.7862
  0
VERTEX
  8
0
 10
25.8172
 20
234.7733
  0
VERTEX
  8
0
 10
25.7747
 20
234.7654
  0
VERTEX
  8
0
 10
25.7273
 20
234.7627
  0
VERTEX
  8
0
 10
25.6944
 20
234.7636
  0
VERTEX
  8
0
 10
25.6637
 20
234.7669
  0
VERTEX
  8
0
 10
25.6352
 20
234.7724
  0
VERTEX
  8
0
 10
25.609
 20
234.7803
  0
VERTEX
  8
0
 10
25.5849
 20
234.7904
  0
VERTEX
  8
0
 10
25.5631
 20
234.8028
  0
VERTEX
  8
0
 10
25.5434
 20
234.8175
  0
VERTEX
  8
0
 10
25.526
 20
234.8344
  0
VERTEX
  8
0
 10
25.5108
 20
234.8537
  0
VERTEX
  8
0
 10
25.4978
 20
234.8753
  0
VERTEX
  8
0
 10
25.487
 20
234.8991
  0
VERTEX
  8
0
 10
25.4784
 20
234.9252
  0
VERTEX
  8
0
 10
25.472
 20
234.9536
  0
VERTEX
  8
0
 10
25.472
 20
234.9536
  0
SEQEND
  0
POLYLINE
  8
0
 66
     1
 10
0
 20
0
  0
VERTEX
  8
0
 10
26.12
 20
234.7707
  0
VERTEX
  8
0
 10
26.12
 20
234.8907
  0
VERTEX
  8
0
 10
26.236
 20
234.8907
  0
VERTEX
  8
0
 10
26.236
 20
234.7747
  0
VERTEX
  8
0
 10
26.2333
 20
234.7362
  0
VERTEX
  8
0
 10
26.2254
 20
234.7022
  0
VERTEX
  8
0
 10
26.2121
 20
234.6726
  0
VERTEX
  8
0
 10
26.1936
 20
234.6475
  0
VERTEX
  8
0
 10
26.1697
 20
234.6269
  0
VERTEX
  8
0
 10
26.1405
 20
234.6107
  0
VERTEX
  8
0
 10
26.112
 20
234.6532
  0
VERTEX
  8
0
 10
26.1391
 20
234.67
  0
VERTEX
  8
0
 10
26.1588
 20
234.6952
  0
VERTEX
  8
0
 10
26.1712
 20
234.7288
  0
VERTEX
  8
0
 10
26.1763
 20
234.7707
  0
VERTEX
  8
0
 10
26.12
 20
234.7707
  0
SEQEND
  0
POLYLINE
  8
0
 66
     1
 10
0
 20
0
  0
VERTEX
  8
0
 10
26.92
 20
235.1824
  0
VERTEX
  8
0
 10
26.9212
 20
235.236
  0
VERTEX
  8
0
 10
26.9248
 20
235.286
  0
VERTEX
  8
0
 10
26.9308
 20
235.3325
  0
VERTEX
  8
0
 10
26.9391
 20
235.3754
  0
VERTEX
  8
0
 10
26.9499
 20
235.4148
  0
VERTEX
  8
0
 10
26.9631
 20
235.4506
  0
VERTEX
  8
0
 10
26.9787
 20
235.4828
  0
VERTEX
  8
0
 10
26.9966
 20
235.5114
  0
VERTEX
  8
0
 10
27.017
 20
235.5365
  0
VERTEX
  8
0
 10
27.0397
 20
235.558
  0
VERTEX
  8
0
 10
27.1067
 20
235.5942
  0
VERTEX
  8
0
 10
27.19
 20
235.6067
  0
VERTEX
  8
0
 10
27.2517
 20
235.6002
  0
VERTEX
  8
0
 10
27.3069
 20
235.5795
  0
VERTEX
  8
0
 10
27.3427
 20
235.5553
  0
VERTEX
  8
0
 10
27.374
 20
235.5231
  0
VERTEX
  8
0
 10
27.4009
 20
235.4829
  0
VERTEX
  8
0
 10
27.4233
 20
235.4346
  0
VERTEX
  8
0
 10
27.4414
 20
235.3784
  0
VERTEX
  8
0
 10
27.4553
 20
235.2937
  0
VERTEX
  8
0
 10
27.46
 20
235.1824
  0
VERTEX
  8
0
 10
27.4588
 20
235.1288
  0
VERTEX
  8
0
 10
27.4552
 20
235.0789
  0
VERTEX
  8
0
 10
27.4492
 20
235.0325
  0
VERTEX
  8
0
 10
27.4408
 20
234.9897
  0
VERTEX
  8
0
 10
27.43
 20
234.9504
  0
VERTEX
  8
0
 10
27.4169
 20
234.9147
  0
VERTEX
  8
0
 10
27.4013
 20
234.8825
  0
VERTEX
  8
0
 10
27.3833
 20
234.8539
  0
VERTEX
  8
0
 10
27.363
 20
234.8288
  0
VERTEX
  8
0
 10
27.3402
 20
234.8074
  0
VERTEX
  8
0
 10
27.2733
 20
234.7711
  0
VERTEX
  8
0
 10
27.19
 20
234.7587
  0
VERTEX
  8
0
 10
27.1689
 20
234.7593
  0
VERTEX
  8
0
 10
27.1486
 20
234.7612
  0
VERTEX
  8
0
 10
27.1292
 20
234.7645
  0
VERTEX
  8
0
 10
27.1106
 20
234.7692
  0
VERTEX
  8
0
 10
27.093
 20
234.7753
  0
VERTEX
  8
0
 10
27.0761
 20
234.7827
  0
VERTEX
  8
0
 10
27.0602
 20
234.7914
  0
VERTEX
  8
0
 10
27.0451
 20
234.8016
  0
VERTEX
  8
0
 10
27.0308
 20
234.8131
  0
VERTEX
  8
0
 10
27.0175
 20
234.8259
  0
VERTEX
  8
0
 10
27.0049
 20
234.8401
  0
VERTEX
  8
0
 10
26.9933
 20
234.8557
  0
VERTEX
  8
0
 10
26.9825
 20
234.8727
  0
VERTEX
  8
0
 10
26.9725
 20
234.891
  0
VERTEX
  8
0
 10
26.9635
 20
234.9107
  0
VERTEX
  8
0
 10
26.9552
 20
234.9317
  0
VERTEX
  8
0
 10
26.9479
 20
234.9541
  0
VERTEX
  8
0
 10
26.9414
 20
234.9779
  0
VERTEX
  8
0
 10
26.9357
 20
235.003
  0
VERTEX
  8
0
 10
26.931
 20
235.0295
  0
VERTEX
  8
0
 10
26.927
 20
235.0573
  0
VERTEX
  8
0
 10
26.924
 20
235.0865
  0
VERTEX
  8
0
 10
26.9218
 20
235.1171
  0
VERTEX
  8
0
 10
26.9205
 20
235.1491
  0
VERTEX
  8
0
 10
26.92
 20
235.1824
  0
VERTEX
  8
0
 10
26.92
 20
235.1824
  0
SEQEND
  0
POLYLINE
  8
0
 66
     1
 10
0
 20
0
  0
VERTEX
  8
0
 10
27.024
 20
235.1827
  0
VERTEX
  8
0
 10
27.0264
 20
235.0974
  0
VERTEX
  8
0
 10
27.0338
 20
235.0268
  0
VERTEX
  8
0
 10
27.0461
 20
234.9707
  0
VERTEX
  8
0
 10
27.0583
 20
234.9369
  0
VERTEX
  8
0
 10
27.0733
 20
234.9082
  0
VERTEX
  8
0
 10
27.0911
 20
234.8848
  0
VERTEX
  8
0
 10
27.1117
 20
234.8665
  0
VERTEX
  8
0
 10
27.135
 20
234.8534
  0
VERTEX
  8
0
 10
27.1611
 20
234.8454
  0
VERTEX
  8
0
 10
27.19
 20
234.8427
  0
VERTEX
  8
0
 10
27.207
 20
234.8435
  0
VERTEX
  8
0
 10
27.2231
 20
234.8462
  0
VERTEX
  8
0
 10
27.2383
 20
234.8508
  0
VERTEX
  8
0
 10
27.2525
 20
234.8574
  0
VERTEX
  8
0
 10
27.2659
 20
234.8658
  0
VERTEX
  8
0
 10
27.2783
 20
234.8761
  0
VERTEX
  8
0
 10
27.2898
 20
234.8883
  0
VERTEX
  8
0
 10
27.3003
 20
234.9024
  0
VERTEX
  8
0
 10
27.31
 20
234.9184
  0
VERTEX
  8
0
 10
27.3187
 20
234.9363
  0
VERTEX
  8
0
 10
27.3266
 20
234.9561
  0
VERTEX
  8
0
 10
27.3335
 20
234.9778
  0
VERTEX
  8
0
 10
27.3394
 20
235.0014
  0
VERTEX
  8
0
 10
27.3445
 20
235.0268
  0
VERTEX
  8
0
 10
27.3486
 20
235.0542
  0
VERTEX
  8
0
 10
27.3518
 20
235.0835
  0
VERTEX
  8
0
 10
27.3541
 20
235.1146
  0
VERTEX
  8
0
 10
27.3555
 20
235.1477
  0
VERTEX
  8
0
 10
27.356
 20
235.1827
  0
VERTEX
  8
0
 10
27.3535
 20
235.2679
  0
VERTEX
  8
0
 10
27.3461
 20
235.3386
  0
VERTEX
  8
0
 10
27.3339
 20
235.3946
  0
VERTEX
  8
0
 10
27.3215
 20
235.4284
  0
VERTEX
  8
0
 10
27.3063
 20
235.4571
  0
VERTEX
  8
0
 10
27.2884
 20
235.4806
  0
VERTEX
  8
0
 10
27.2677
 20
235.4989
  0
VERTEX
  8
0
 10
27.2442
 20
235.512
  0
VERTEX
  8
0
 10
27.2179
 20
235.5199
  0
VERTEX
  8
0
 10
27.1889
 20
235.5227
  0
VERTEX
  8
0
 10
27.1452
 20
235.5163
  0
VERTEX
  8
0
 10
27.1078
 20
235.4965
  0
VERTEX
  8
0
 10
27.0767
 20
235.4632
  0
VERTEX
  8
0
 10
27.0627
 20
235.4391
  0
VERTEX
  8
0
 10
27.0509
 20
235.4097
  0
VERTEX
  8
0
 10
27.0412
 20
235.375
  0
VERTEX
  8
0
 10
27.0337
 20
235.3349
  0
VERTEX
  8
0
 10
27.0283
 20
235.2895
  0
VERTEX
  8
0
 10
27.0251
 20
235.2388
  0
VERTEX
  8
0
 10
27.024
 20
235.1827
  0
VERTEX
  8
0
 10
27.024
 20
235.1827
  0
SEQEND
  0
POLYLINE
  8
0
 66
     1
 10
0
 20
0
  0
VERTEX
  8
0
 10
27.616
 20
234.7707
  0
VERTEX
  8
0
 10
27.616
 20
234.8907
  0
VERTEX
  8
0
 10
27.732
 20
234.8907
  0
VERTEX
  8
0
 10
27.732
 20
234.7707
  0
VERTEX
  8
0
 10
27.616
 20
234.7707
  0
SEQEND
  0
POLYLINE
  8
0
 66
     1
 10
0
 20
0
  0
VERTEX
  8
0
 10
27.88
 20
234.9912
  0
VERTEX
  8
0
 10
27.9865
 20
235.0004
  0
VERTEX
  8
0
 10
27.9931
 20
234.9673
  0
VERTEX
  8
0
 10
28.0025
 20
234.9381
  0
VERTEX
  8
0
 10
28.0146
 20
234.9128
  0
VERTEX
  8
0
 10
28.0295
 20
234.8913
  0
VERTEX
  8
0
 10
28.0472
 20
234.8738
  0
VERTEX
  8
0
 10
28.0676
 20
234.8602
  0
VERTEX
  8
0
 10
28.0908
 20
234.8505
  0
VERTEX
  8
0
 10
28.1167
 20
234.8446
  0
VERTEX
  8
0
 10
28.1454
 20
234.8427
  0
VERTEX
  8
0
 10
28.1958
 20
234.8496
  0
VERTEX
  8
0
 10
28.239
 20
234.8704
  0
VERTEX
  8
0
 10
28.2749
 20
234.9052
  0
VERTEX
  8
0
 10
28.3087
 20
234.9688
  0
VERTEX
  8
0
 10
28.32
 20
235.046
  0
VERTEX
  8
0
 10
28.3083
 20
235.1221
  0
VERTEX
  8
0
 10
28.2732
 20
235.1821
  0
VERTEX
  8
0
 10
28.2381
 20
235.2111
  0
VERTEX
  8
0
 10
28.1949
 20
235.2286
  0
VERTEX
  8
0
 10
28.1437
 20
235.2347
  0
VERTEX
  8
0
 10
28.0979
 20
235.2298
  0
VERTEX
  8
0
 10
28.0576
 20
235.2146
  0
VERTEX
  8
0
 10
28.0227
 20
235.1891
  0
VERTEX
  8
0
 10
27.9932
 20
235.1532
  0
VERTEX
  8
0
 10
27.898
 20
235.1657
  0
VERTEX
  8
0
 10
27.9782
 20
235.5907
  0
VERTEX
  8
0
 10
28.3895
 20
235.5907
  0
VERTEX
  8
0
 10
28.3895
 20
235.4947
  0
VERTEX
  8
0
 10
28.0619
 20
235.4947
  0
VERTEX
  8
0
 10
28.0156
 20
235.271
  0
VERTEX
  8
0
 10
28.0917
 20
235.3095
  0
VERTEX
  8
0
 10
28.1714
 20
235.3227
  0
VERTEX
  8
0
 10
28.2252
 20
235.318
  0
VERTEX
  8
0
 10
28.2741
 20
235.3034
  0
VERTEX
  8
0
 10
28.3181
 20
235.279
  0
VERTEX
  8
0
 10
28.3571
 20
235.2446
  0
VERTEX
  8
0
 10
28.3881
 20
235.2041
  0
VERTEX
  8
0
 10
28.4103
 20
235.1588
  0
VERTEX
  8
0
 10
28.4236
 20
235.1087
  0
VERTEX
  8
0
 10
28.428
 20
235.054
  0
VERTEX
  8
0
 10
28.4207
 20
234.9826
  0
VERTEX
  8
0
 10
28.3989
 20
234.9177
  0
VERTEX
  8
0
 10
28.3626
 20
234.8594
  0
VERTEX
  8
0
 10
28.3285
 20
234.8233
  0
VERTEX
  8
0
 10
28.2897
 20
234.7952
  0
VERTEX
  8
0
 10
28.2463
 20
234.775
  0
VERTEX
  8
0
 10
28.1982
 20
234.7629
  0
VERTEX
  8
0
 10
28.1455
 20
234.7587
  0
VERTEX
  8
0
 10
28.0765
 20
234.7654
  0
VERTEX
  8
0
 10
28.016
 20
234.7857
  0
VERTEX
  8
0
 10
27.964
 20
234.8195
  0
VERTEX
  8
0
 10
27.9221
 20
234.8664
  0
VERTEX
  8
0
 10
27.8941
 20
234.9236
  0
VERTEX
  8
0
 10
27.88
 20
234.9912
  0
VERTEX
  8
0
 10
27.88
 20
234.9912
  0
SEQEND
  0
POLYLINE
  8
0
 66
     1
 10
0
 20
0
  0
VERTEX
  8
0
 10
28.5563
 20
235.3107
  0
VERTEX
  8
0
 10
28.528
 20
235.4677
  0
VERTEX
  8
0
 10
28.528
 20
235.6027
  0
VERTEX
  8
0
 10
28.644
 20
235.6027
  0
VERTEX
  8
0
 10
28.644
 20
235.4677
  0
VERTEX
  8
0
 10
28.6185
 20
235.3107
  0
VERTEX
  8
0
 10
28.5563
 20
235.3107
  0
SEQEND
  0
POLYLINE
  8
0
 66
     1
 10
0
 20
0
  0
VERTEX
  8
0
 10
28.7437
 20
235.3107
  0
VERTEX
  8
0
 10
28.716
 20
235.4677
  0
VERTEX
  8
0
 10
28.716
 20
235.6027
  0
VERTEX
  8
0
 10
28.832
 20
235.6027
  0
VERTEX
  8
0
 10
28.832
 20
235.4677
  0
VERTEX
  8
0
 10
28.8048
 20
235.3107
  0
VERTEX
  8
0
 10
28.7437
 20
235.3107
  0
SEQEND
  0
POLYLINE
  8
0
 66
     1
 10
0
 20
0
  0
VERTEX
  8
0
 10
29.504
 20
234.7707
  0
VERTEX
  8
0
 10
29.504
 20
235.6027
  0
VERTEX
  8
0
 10
29.814
 20
235.6027
  0
VERTEX
  8
0
 10
29.8985
 20
235.5963
  0
VERTEX
  8
0
 10
29.9657
 20
235.5771
  0
VERTEX
  8
0
 10
30.0151
 20
235.5463
  0
VERTEX
  8
0
 10
30.0539
 20
235.5016
  0
VERTEX
  8
0
 10
30.0792
 20
235.4479
  0
VERTEX
  8
0
 10
30.088
 20
235.3899
  0
VERTEX
  8
0
 10
30.0851
 20
235.3525
  0
VERTEX
  8
0
 10
30.0757
 20
235.3183
  0
VERTEX
  8
0
 10
30.0598
 20
235.2873
  0
VERTEX
  8
0
 10
30.0373
 20
235.2594
  0
VERTEX
  8
0
 10
30.0084
 20
235.2348
  0
VERTEX
  8
0
 10
29.9729
 20
235.2134
  0
VERTEX
  8
0
 10
30.0374
 20
235.1843
  0
VERTEX
  8
0
 10
30.0859
 20
235.1401
  0
VERTEX
  8
0
 10
30.1175
 20
235.0814
  0
VERTEX
  8
0
 10
30.128
 20
235.0119
  0
VERTEX
  8
0
 10
30.1225
 20
234.9595
  0
VERTEX
  8
0
 10
30.106
 20
234.9092
  0
VERTEX
  8
0
 10
30.0786
 20
234.8619
  0
VERTEX
  8
0
 10
30.0429
 20
234.8257
  0
VERTEX
  8
0
 10
30.0018
 20
234.8016
  0
VERTEX
  8
0
 10
29.9509
 20
234.7844
  0
VERTEX
  8
0
 10
29.89
 20
234.7741
  0
VERTEX
  8
0
 10
29.8191
 20
234.7707
  0
VERTEX
  8
0
 10
29.504
 20
234.7707
  0
SEQEND
  0
POLYLINE
  8
0
 66
     1
 10
0
 20
0
  0
VERTEX
  8
0
 10
29.612
 20
235.2547
  0
VERTEX
  8
0
 10
29.7912
 20
235.2547
  0
VERTEX
  8
0
 10
29.8535
 20
235.2571
  0
VERTEX
  8
0
 10
29.8957
 20
235.2644
  0
VERTEX
  8
0
 10
29.9257
 20
235.2769
  0
VERTEX
  8
0
 10
29.9491
 20
235.2946
  0
VERTEX
  8
0
 10
29.966
 20
235.3175
  0
VERTEX
  8
0
 10
29.9763
 20
235.3455
  0
VERTEX
  8
0
 10
29.98
 20
235.3787
  0
VERTEX
  8
0
 10
29.9773
 20
235.4124
  0
VERTEX
  8
0
 10
29.9683
 20
235.4409
  0
VERTEX
  8
0
 10
29.9531
 20
235.4641
  0
VERTEX
  8
0
 10
29.9315
 20
235.4821
  0
VERTEX
  8
0
 10
29.9037
 20
235.4947
  0
VERTEX
  8
0
 10
29.8538
 20
235.5037
  0
VERTEX
  8
0
 10
29.7776
 20
235.5067
  0
VERTEX
  8
0
 10
29.612
 20
235.5067
  0
VERTEX
  8
0
 10
29.612
 20
235.2547
  0
SEQEND
  0
POLYLINE
  8
0
 66
     1
 10
0
 20
0
  0
VERTEX
  8
0
 10
29.612
 20
234.8667
  0
VERTEX
  8
0
 10
29.8191
 20
234.8667
  0
VERTEX
  8
0
 10
29.8645
 20
234.8677
  0
VERTEX
  8
0
 10
29.894
 20
234.8707
  0
VERTEX
  8
0
 10
29.9395
 20
234.885
  0
VERTEX
  8
0
 10
29.9747
 20
234.9083
  0
VERTEX
  8
0
 10
29.9995
 20
234.9409
  0
VERTEX
  8
0
 10
30.0116
 20
234.9739
  0
VERTEX
  8
0
 10
30.016
 20
235.0127
  0
VERTEX
  8
0
 10
30.0127
 20
235.05
  0
VERTEX
  8
0
 10
30.0021
 20
235.0818
  0
VERTEX
  8
0
 10
29.984
 20
235.1081
  0
VERTEX
  8
0
 10
29.9586
 20
235.1289
  0
VERTEX
  8
0
 10
29.9257
 20
235.1442
  0
VERTEX
  8
0
 10
29.8741
 20
235.155
  0
VERTEX
  8
0
 10
29.8044
 20
235.1587
  0
VERTEX
  8
0
 10
29.612
 20
235.1587
  0
VERTEX
  8
0
 10
29.612
 20
234.8667
  0
SEQEND
  0
POLYLINE
  8
0
 66
     1
 10
0
 20
0
  0
VERTEX
  8
0
 10
30.228
 20
235.0747
  0
VERTEX
  8
0
 10
30.2305
 20
235.1276
  0
VERTEX
  8
0
 10
30.2382
 20
235.1757
  0
VERTEX
  8
0
 10
30.2511
 20
235.219
  0
VERTEX
  8
0
 10
30.269
 20
235.2576
  0
VERTEX
  8
0
 10
30.2921
 20
235.2913
  0
VERTEX
  8
0
 10
30.3203
 20
235.3204
  0
VERTEX
  8
0
 10
30.3752
 20
235.3572
  0
VERTEX
  8
0
 10
30.4379
 20
235.3793
  0
VERTEX
  8
0
 10
30.5083
 20
235.3867
  0
VERTEX
  8
0
 10
30.5587
 20
235.3832
  0
VERTEX
  8
0
 10
30.6047
 20
235.3727
  0
VERTEX
  8
0
 10
30.6463
 20
235.3553
  0
VERTEX
  8
0
 10
30.6833
 20
235.3309
  0
VERTEX
  8
0
 10
30.7159
 20
235.2995
  0
VERTEX
  8
0
 10
30.7474
 20
235.2548
  0
VERTEX
  8
0
 10
30.77
 20
235.2038
  0
VERTEX
  8
0
 10
30.7835
 20
235.1466
  0
VERTEX
  8
0
 10
30.788
 20
235.0831
  0
VERTEX
  8
0
 10
30.7863
 20
235.0383
  0
VERTEX
  8
0
 10
30.7813
 20
234.9968
  0
VERTEX
  8
0
 10
30.7729
 20
234.9586
  0
VERTEX
  8
0
 10
30.7612
 20
234.9238
  0
VERTEX
  8
0
 10
30.7461
 20
234.8922
  0
VERTEX
  8
0
 10
30.7277
 20
234.864
  0
VERTEX
  8
0
 10
30.7059
 20
234.8391
  0
VERTEX
  8
0
 10
30.6808
 20
234.8175
  0
VERTEX
  8
0
 10
30.6524
 20
234.7992
  0
VERTEX
  8
0
 10
30.5834
 20
234.7721
  0
VERTEX
  8
0
 10
30.5083
 20
234.7627
  0
VERTEX
  8
0
 10
30.4561
 20
234.7661
  0
VERTEX
  8
0
 10
30.4089
 20
234.7767
  0
VERTEX
  8
0
 10
30.3666
 20
234.7946
  0
VERTEX
  8
0
 10
30.3294
 20
234.8197
  0
VERTEX
  8
0
 10
30.2972
 20
234.852
  0
VERTEX
  8
0
 10
30.2669
 20
234.8972
  0
VERTEX
  8
0
 10
30.2453
 20
234.9493
  0
VERTEX
  8
0
 10
30.2323
 20
235.0085
  0
VERTEX
  8
0
 10
30.228
 20
235.0747
  0
VERTEX
  8
0
 10
30.228
 20
235.0747
  0
SEQEND
  0
POLYLINE
  8
0
 66
     1
 10
0
 20
0
  0
VERTEX
  8
0
 10
30.332
 20
235.0749
  0
VERTEX
  8
0
 10
30.3417
 20
234.9876
  0
VERTEX
  8
0
 10
30.3709
 20
234.9185
  0
VERTEX
  8
0
 10
30.3968
 20
234.8873
  0
VERTEX
  8
0
 10
30.4283
 20
234.8649
  0
VERTEX
  8
0
 10
30.4655
 20
234.8514
  0
VERTEX
  8
0
 10
30.5083
 20
234.8467
  0
VERTEX
  8
0
 10
30.5511
 20
234.8511
  0
VERTEX
  8
0
 10
30.5882
 20
234.8648
  0
VERTEX
  8
0
 10
30.6198
 20
234.8878
  0
VERTEX
  8
0
 10
30.6457
 20
234.9202
  0
VERTEX
  8
0
 10
30.6744
 20
234.9905
  0
VERTEX
  8
0
 10
30.684
 20
235.0783
  0
VERTEX
  8
0
 10
30.674
 20
235.1633
  0
VERTEX
  8
0
 10
30.644
 20
235.232
  0
VERTEX
  8
0
 10
30.6178
 20
235.2629
  0
VERTEX
  8
0
 10
30.5864
 20
235.285
  0
VERTEX
  8
0
 10
30.5499
 20
235.2983
  0
VERTEX
  8
0
 10
30.5083
 20
235.3027
  0
VERTEX
  8
0
 10
30.4655
 20
235.2982
  0
VERTEX
  8
0
 10
30.4283
 20
235.2847
  0
VERTEX
  8
0
 10
30.3968
 20
235.2623
  0
VERTEX
  8
0
 10
30.3709
 20
235.2309
  0
VERTEX
  8
0
 10
30.3417
 20
235.1616
  0
VERTEX
  8
0
 10
30.332
 20
235.0749
  0
VERTEX
  8
0
 10
30.332
 20
235.0749
  0
SEQEND
  0
POLYLINE
  8
0
 66
     1
 10
0
 20
0
  0
VERTEX
  8
0
 10
30.908
 20
234.7707
  0
VERTEX
  8
0
 10
30.908
 20
235.3739
  0
VERTEX
  8
0
 10
31
 20
235.3739
  0
VERTEX
  8
0
 10
31
 20
235.283
  0
VERTEX
  8
0
 10
31.0264
 20
235.3259
  0
VERTEX
  8
0
 10
31.0506
 20
235.3547
  0
VERTEX
  8
0
 10
31.0869
 20
235.3787
  0
VERTEX
  8
0
 10
31.1294
 20
235.3867
  0
VERTEX
  8
0
 10
31.1807
 20
235.3785
  0
VERTEX
  8
0
 10
31.2335
 20
235.3542
  0
VERTEX
  8
0
 10
31.1983
 20
235.2605
  0
VERTEX
  8
0
 10
31.1608
 20
235.2771
  0
VERTEX
  8
0
 10
31.1233
 20
235.2827
  0
VERTEX
  8
0
 10
31.0904
 20
235.2768
  0
VERTEX
  8
0
 10
31.0597
 20
235.2594
  0
VERTEX
  8
0
 10
31.0391
 20
235.2364
  0
VERTEX
  8
0
 10
31.025
 20
235.2064
  0
VERTEX
  8
0
 10
31.0122
 20
235.1498
  0
VERTEX
  8
0
 10
31.008
 20
235.087
  0
VERTEX
  8
0
 10
31.008
 20
234.7707
  0
VERTEX
  8
0
 10
30.908
 20
234.7707
  0
SEQEND
  0
POLYLINE
  8
0
 66
     1
 10
0
 20
0
  0
VERTEX
  8
0
 10
31.684
 20
234.7707
  0
VERTEX
  8
0
 10
31.684
 20
234.8503
  0
VERTEX
  8
0
 10
31.6593
 20
234.8189
  0
VERTEX
  8
0
 10
31.6303
 20
234.7945
  0
VERTEX
  8
0
 10
31.5969
 20
234.777
  0
VERTEX
  8
0
 10
31.5591
 20
234.7664
  0
VERTEX
  8
0
 10
31.517
 20
234.7627
  0
VERTEX
  8
0
 10
31.4467
 20
234.7727
  0
VERTEX
  8
0
 10
31.3831
 20
234.8037
  0
VERTEX
  8
0
 10
31.3309
 20
234.8508
  0
VERTEX
  8
0
 10
31.2923
 20
234.9122
  0
VERTEX
  8
0
 10
31.2683
 20
234.987
  0
VERTEX
  8
0
 10
31.26
 20
235.0741
  0
VERTEX
  8
0
 10
31.2616
 20
235.1209
  0
VERTEX
  8
0
 10
31.2671
 20
235.1642
  0
VERTEX
  8
0
 10
31.2763
 20
235.2038
  0
VERTEX
  8
0
 10
31.2894
 20
235.2398
  0
VERTEX
  8
0
 10
31.3063
 20
235.2722
  0
VERTEX
  8
0
 10
31.3271
 20
235.301
  0
VERTEX
  8
0
 10
31.3516
 20
235.3262
  0
VERTEX
  8
0
 10
31.38
 20
235.3479
  0
VERTEX
  8
0
 10
31.4432
 20
235.377
  0
VERTEX
  8
0
 10
31.5141
 20
235.3867
  0
VERTEX
  8
0
 10
31.5642
 20
235.3816
  0
VERTEX
  8
0
 10
31.6085
 20
235.3663
  0
VERTEX
  8
0
 10
31.6471
 20
235.3408
  0
VERTEX
  8
0
 10
31.68
 20
235.305
  0
VERTEX
  8
0
 10
31.68
 20
235.6027
  0
VERTEX
  8
0
 10
31.78
 20
235.6027
  0
VERTEX
  8
0
 10
31.78
 20
234.7707
  0
VERTEX
  8
0
 10
31.684
 20
234.7707
  0
SEQEND
  0
POLYLINE
  8
0
 66
     1
 10
0
 20
0
  0
VERTEX
  8
0
 10
31.364
 20
235.0744
  0
VERTEX
  8
0
 10
31.3729
 20
234.9913
  0
VERTEX
  8
0
 10
31.3995
 20
234.9224
  0
VERTEX
  8
0
 10
31.4238
 20
234.8895
  0
VERTEX
  8
0
 10
31.4532
 20
234.8659
  0
VERTEX
  8
0
 10
31.4877
 20
234.8516
  0
VERTEX
  8
0
 10
31.5272
 20
234.8467
  0
VERTEX
  8
0
 10
31.5662
 20
234.8509
  0
VERTEX
  8
0
 10
31.6001
 20
234.8643
  0
VERTEX
  8
0
 10
31.6289
 20
234.8869
  0
VERTEX
  8
0
 10
31.6527
 20
234.9185
  0
VERTEX
  8
0
 10
31.6785
 20
234.9851
  0
VERTEX
  8
0
 10
31.6871
 20
235.066
  0
VERTEX
  8
0
 10
31.6788
 20
235.1533
  0
VERTEX
  8
0
 10
31.6538
 20
235.2236
  0
VERTEX
  8
0
 10
31.6295
 20
235.2582
  0
VERTEX
  8
0
 10
31.5996
 20
235.2829
  0
VERTEX
  8
0
 10
31.564
 20
235.2977
  0
VERTEX
  8
0
 10
31.5227
 20
235.3027
  0
VERTEX
  8
0
 10
31.4826
 20
235.2979
  0
VERTEX
  8
0
 10
31.4482
 20
235.2837
  0
VERTEX
  8
0
 10
31.4193
 20
235.2601
  0
VERTEX
  8
0
 10
31.3962
 20
235.2269
  0
VERTEX
  8
0
 10
31.372
 20
235.1591
  0
VERTEX
  8
0
 10
31.364
 20
235.0744
  0
VERTEX
  8
0
 10
31.364
 20
235.0744
  0
SEQEND
  0
POLYLINE
  8
0
 66
     1
 10
0
 20
0
  0
VERTEX
  8
0
 10
32.3438
 20
234.9676
  0
VERTEX
  8
0
 10
32.449
 20
234.9547
  0
VERTEX
  8
0
 10
32.4392
 20
234.9241
  0
VERTEX
  8
0
 10
32.4272
 20
234.896
  0
VERTEX
  8
0
 10
32.413
 20
234.8707
  0
VERTEX
  8
0
 10
32.3966
 20
234.848
  0
VERTEX
  8
0
 10
32.378
 20
234.828
  0
VERTEX
  8
0
 10
32.3571
 20
234.8107
  0
VERTEX
  8
0
 10
32.3341
 20
234.796
  0
VERTEX
  8
0
 10
32.3088
 20
234.784
  0
VERTEX
  8
0
 10
32.2813
 20
234.7747
  0
VERTEX
  8
0
 10
32.2516
 20
234.768
  0
VERTEX
  8
0
 10
32.2196
 20
234.764
  0
VERTEX
  8
0
 10
32.1855
 20
234.7627
  0
VERTEX
  8
0
 10
32.1229
 20
234.7677
  0
VERTEX
  8
0
 10
32.0673
 20
234.7828
  0
VERTEX
  8
0
 10
32.0186
 20
234.8079
  0
VERTEX
  8
0
 10
31.9767
 20
234.843
  0
VERTEX
  8
0
 10
31.9491
 20
234.8778
  0
VERTEX
  8
0
 10
31.9276
 20
234.9179
  0
VERTEX
  8
0
 10
31.9123
 20
234.9632
  0
VERTEX
  8
0
 10
31.9031
 20
235.0138
  0
VERTEX
  8
0
 10
31.9
 20
235.0696
  0
VERTEX
  8
0
 10
31.9043
 20
235.1357
  0
VERTEX
  8
0
 10
31.9172
 20
235.1951
  0
VERTEX
  8
0
 10
31.9387
 20
235.2479
  0
VERTEX
  8
0
 10
31.9688
 20
235.2939
  0
VERTEX
  8
0
 10
32.0014
 20
235.3273
  0
VERTEX
  8
0
 10
32.0389
 20
235.3533
  0
VERTEX
  8
0
 10
32.0811
 20
235.3718
  0
VERTEX
  8
0
 10
32.1281
 20
235.383
  0
VERTEX
  8
0
 10
32.1799
 20
235.3867
  0
VERTEX
  8
0
 10
32.2303
 20
235.383
  0
VERTEX
  8
0
 10
32.2761
 20
235.3719
  0
VERTEX
  8
0
 10
32.3172
 20
235.3535
  0
VERTEX
  8
0
 10
32.3535
 20
235.3277
  0
VERTEX
  8
0
 10
32.3852
 20
235.2945
  0
VERTEX
  8
0
 10
32.4146
 20
235.2489
  0
VERTEX
  8
0
 10
32.4356
 20
235.1969
  0
VERTEX
  8
0
 10
32.4482
 20
235.1385
  0
VERTEX
  8
0
 10
32.4524
 20
235.0738
  0
VERTEX
  8
0
 10
32.4522
 20
235.0597
  0
VERTEX
  8
0
 10
32.4518
 20
235.0467
  0
VERTEX
  8
0
 10
32.004
 20
235.0467
  0
VERTEX
  8
0
 10
32.0182
 20
234.9688
  0
VERTEX
  8
0
 10
32.052
 20
234.907
  0
VERTEX
  8
0
 10
32.0887
 20
234.8735
  0
VERTEX
  8
0
 10
32.1332
 20
234.8534
  0
VERTEX
  8
0
 10
32.1855
 20
234.8467
  0
VERTEX
  8
0
 10
32.2215
 20
234.85
  0
VERTEX
  8
0
 10
32.2536
 20
234.8601
  0
VERTEX
  8
0
 10
32.2819
 20
234.8769
  0
VERTEX
  8
0
 10
32.3064
 20
234.9004
  0
VERTEX
  8
0
 10
32.327
 20
234.9307
  0
VERTEX
  8
0
 10
32.3438
 20
234.9676
  0
VERTEX
  8
0
 10
32.3438
 20
234.9676
  0
SEQEND
  0
POLYLINE
  8
0
 66
     1
 10
0
 20
0
  0
VERTEX
  8
0
 10
32.0105
 20
235.1307
  0
VERTEX
  8
0
 10
32.3452
 20
235.1307
  0
VERTEX
  8
0
 10
32.3322
 20
235.1968
  0
VERTEX
  8
0
 10
32.3068
 20
235.244
  0
VERTEX
  8
0
 10
32.2713
 20
235.2764
  0
VERTEX
  8
0
 10
32.2293
 20
235.2959
  0
VERTEX
  8
0
 10
32.181
 20
235.3027
  0
VERTEX
  8
0
 10
32.1138
 20
235.2905
  0
VERTEX
  8
0
 10
32.0602
 20
235.253
  0
VERTEX
  8
0
 10
32.0255
 20
235.1988
  0
VERTEX
  8
0
 10
32.0105
 20
235.1307
  0
VERTEX
  8
0
 10
32.0105
 20
235.1307
  0
SEQEND
  0
POLYLINE
  8
0
 66
     1
 10
0
 20
0
  0
VERTEX
  8
0
 10
32.572
 20
234.7707
  0
VERTEX
  8
0
 10
32.572
 20
235.3739
  0
VERTEX
  8
0
 10
32.664
 20
235.3739
  0
VERTEX
  8
0
 10
32.664
 20
235.283
  0
VERTEX
  8
0
 10
32.6904
 20
235.3259
  0
VERTEX
  8
0
 10
32.7146
 20
235.3547
  0
VERTEX
  8
0
 10
32.7509
 20
235.3787
  0
VERTEX
  8
0
 10
32.7934
 20
235.3867
  0
VERTEX
  8
0
 10
32.8447
 20
235.3785
  0
VERTEX
  8
0
 10
32.8975
 20
235.3542
  0
VERTEX
  8
0
 10
32.8623
 20
235.2605
  0
VERTEX
  8
0
 10
32.8248
 20
235.2771
  0
VERTEX
  8
0
 10
32.7873
 20
235.2827
  0
VERTEX
  8
0
 10
32.7544
 20
235.2768
  0
VERTEX
  8
0
 10
32.7237
 20
235.2594
  0
VERTEX
  8
0
 10
32.7031
 20
235.2364
  0
VERTEX
  8
0
 10
32.689
 20
235.2064
  0
VERTEX
  8
0
 10
32.6762
 20
235.1498
  0
VERTEX
  8
0
 10
32.672
 20
235.087
  0
VERTEX
  8
0
 10
32.672
 20
234.7707
  0
VERTEX
  8
0
 10
32.572
 20
234.7707
  0
SEQEND
  0
POLYLINE
  8
0
 66
     1
 10
0
 20
0
  0
VERTEX
  8
0
 10
32.992
 20
234.7707
  0
VERTEX
  8
0
 10
32.992
 20
234.8907
  0
VERTEX
  8
0
 10
33.108
 20
234.8907
  0
VERTEX
  8
0
 10
33.108
 20
234.7747
  0
VERTEX
  8
0
 10
33.1053
 20
234.7362
  0
VERTEX
  8
0
 10
33.0974
 20
234.7022
  0
VERTEX
  8
0
 10
33.0841
 20
234.6726
  0
VERTEX
  8
0
 10
33.0656
 20
234.6475
  0
VERTEX
  8
0
 10
33.0417
 20
234.6269
  0
VERTEX
  8
0
 10
33.0125
 20
234.6107
  0
VERTEX
  8
0
 10
32.984
 20
234.6532
  0
VERTEX
  8
0
 10
33.0111
 20
234.67
  0
VERTEX
  8
0
 10
33.0308
 20
234.6952
  0
VERTEX
  8
0
 10
33.0432
 20
234.7288
  0
VERTEX
  8
0
 10
33.0483
 20
234.7707
  0
VERTEX
  8
0
 10
32.992
 20
234.7707
  0
SEQEND
  0
POLYLINE
  8
0
 66
     1
 10
0
 20
0
  0
VERTEX
  8
0
 10
33.9769
 20
234.7707
  0
VERTEX
  8
0
 10
33.756
 20
235.6027
  0
VERTEX
  8
0
 10
33.8682
 20
235.6027
  0
VERTEX
  8
0
 10
33.9941
 20
235.0598
  0
VERTEX
  8
0
 10
34.013
 20
234.974
  0
VERTEX
  8
0
 10
34.029
 20
234.8904
  0
VERTEX
  8
0
 10
34.0405
 20
234.9384
  0
VERTEX
  8
0
 10
34.0499
 20
234.9776
  0
VERTEX
  8
0
 10
34.0574
 20
235.0082
  0
VERTEX
  8
0
 10
34.0628
 20
235.0301
  0
VERTEX
  8
0
 10
34.0663
 20
235.0432
  0
VERTEX
  8
0
 10
34.2237
 20
235.6027
  0
VERTEX
  8
0
 10
34.3557
 20
235.6027
  0
VERTEX
  8
0
 10
34.4742
 20
235.1832
  0
VERTEX
  8
0
 10
34.512
 20
235.0324
  0
VERTEX
  8
0
 10
34.5381
 20
234.8904
  0
VERTEX
  8
0
 10
34.5477
 20
234.9357
  0
VERTEX
  8
0
 10
34.5613
 20
234.9957
  0
VERTEX
  8
0
 10
34.579
 20
235.0705
  0
VERTEX
  8
0
 10
34.7075
 20
235.6027
  0
VERTEX
  8
0
 10
34.8195
 20
235.6027
  0
VERTEX
  8
0
 10
34.5927
 20
234.7707
  0
VERTEX
  8
0
 10
34.4869
 20
234.7707
  0
VERTEX
  8
0
 10
34.3119
 20
235.4047
  0
VERTEX
  8
0
 10
34.2986
 20
235.4503
  0
VERTEX
  8
0
 10
34.2895
 20
235.4826
  0
VERTEX
  8
0
 10
34.2846
 20
235.5013
  0
VERTEX
  8
0
 10
34.2744
 20
235.4519
  0
VERTEX
  8
0
 10
34.2635
 20
235.4047
  0
VERTEX
  8
0
 10
34.0893
 20
234.7707
  0
VERTEX
  8
0
 10
33.9769
 20
234.7707
  0
SEQEND
  0
POLYLINE
  8
0
 66
     1
 10
0
 20
0
  0
VERTEX
  8
0
 10
34.908
 20
234.7707
  0
VERTEX
  8
0
 10
34.908
 20
235.6027
  0
VERTEX
  8
0
 10
35.008
 20
235.6027
  0
VERTEX
  8
0
 10
35.008
 20
235.305
  0
VERTEX
  8
0
 10
35.046
 20
235.3405
  0
VERTEX
  8
0
 10
35.0887
 20
235.366
  0
VERTEX
  8
0
 10
35.1361
 20
235.3814
  0
VERTEX
  8
0
 10
35.1881
 20
235.3867
  0
VERTEX
  8
0
 10
35.2497
 20
235.3803
  0
VERTEX
  8
0
 10
35.3042
 20
235.36
  0
VERTEX
  8
0
 10
35.3511
 20
235.3232
  0
VERTEX
  8
0
 10
35.3807
 20
235.2715
  0
VERTEX
  8
0
 10
35.3922
 20
235.2202
  0
VERTEX
  8
0
 10
35.396
 20
235.1524
  0
VERTEX
  8
0
 10
35.396
 20
234.7707
  0
VERTEX
  8
0
 10
35.296
 20
234.7707
  0
VERTEX
  8
0
 10
35.296
 20
235.1524
  0
VERTEX
  8
0
 10
35.2944
 20
235.1828
  0
VERTEX
  8
0
 10
35.2897
 20
235.2098
  0
VERTEX
  8
0
 10
35.2818
 20
235.2331
  0
VERTEX
  8
0
 10
35.2707
 20
235.253
  0
VERTEX
  8
0
 10
35.2566
 20
235.2692
  0
VERTEX
  8
0
 10
35.2392
 20
235.2819
  0
VERTEX
  8
0
 10
35.2187
 20
235.2911
  0
VERTEX
  8
0
 10
35.195
 20
235.2966
  0
VERTEX
  8
0
 10
35.1682
 20
235.2987
  0
VERTEX
  8
0
 10
35.124
 20
235.2932
  0
VERTEX
  8
0
 10
35.0827
 20
235.2755
  0
VERTEX
  8
0
 10
35.0484
 20
235.2476
  0
VERTEX
  8
0
 10
35.0254
 20
235.2116
  0
VERTEX
  8
0
 10
35.0123
 20
235.1637
  0
VERTEX
  8
0
 10
35.008
 20
235.1002
  0
VERTEX
  8
0
 10
35.008
 20
234.7707
  0
VERTEX
  8
0
 10
34.908
 20
234.7707
  0
SEQEND
  0
POLYLINE
  8
0
 66
     1
 10
0
 20
0
  0
VERTEX
  8
0
 10
35.548
 20
235.4867
  0
VERTEX
  8
0
 10
35.548
 20
235.6027
  0
VERTEX
  8
0
 10
35.648
 20
235.6027
  0
VERTEX
  8
0
 10
35.648
 20
235.4867
  0
VERTEX
  8
0
 10
35.548
 20
235.4867
  0
SEQEND
  0
POLYLINE
  8
0
 66
     1
 10
0
 20
0
  0
VERTEX
  8
0
 10
35.548
 20
234.7707
  0
VERTEX
  8
0
 10
35.548
 20
235.3739
  0
VERTEX
  8
0
 10
35.648
 20
235.3739
  0
VERTEX
  8
0
 10
35.648
 20
234.7707
  0
VERTEX
  8
0
 10
35.548
 20
234.7707
  0
SEQEND
  0
POLYLINE
  8
0
 66
     1
 10
0
 20
0
  0
VERTEX
  8
0
 10
36.0256
 20
234.8655
  0
VERTEX
  8
0
 10
36.0402
 20
234.7757
  0
VERTEX
  8
0
 10
35.9996
 20
234.7692
  0
VERTEX
  8
0
 10
35.964
 20
234.7667
  0
VERTEX
  8
0
 10
35.9182
 20
234.7702
  0
VERTEX
  8
0
 10
35.8817
 20
234.7819
  0
VERTEX
  8
0
 10
35.8544
 20
234.8018
  0
VERTEX
  8
0
 10
35.8363
 20
234.8299
  0
VERTEX
  8
0
 10
35.8295
 20
234.8562
  0
VERTEX
  8
0
 10
35.8254
 20
234.8963
  0
VERTEX
  8
0
 10
35.824
 20
234.95
  0
VERTEX
  8
0
 10
35.824
 20
235.2947
  0
VERTEX
  8
0
 10
35.748
 20
235.2947
  0
VERTEX
  8
0
 10
35.748
 20
235.3747
  0
VERTEX
  8
0
 10
35.824
 20
235.3747
  0
VERTEX
  8
0
 10
35.824
 20
235.5221
  0
VERTEX
  8
0
 10
35.924
 20
235.5827
  0
VERTEX
  8
0
 10
35.924
 20
235.3747
  0
VERTEX
  8
0
 10
36.024
 20
235.3747
  0
VERTEX
  8
0
 10
36.024
 20
235.2947
  0
VERTEX
  8
0
 10
35.924
 20
235.2947
  0
VERTEX
  8
0
 10
35.924
 20
234.9454
  0
VERTEX
  8
0
 10
35.9244
 20
234.9184
  0
VERTEX
  8
0
 10
35.9257
 20
234.9037
  0
VERTEX
  8
0
 10
35.9328
 20
234.8838
  0
VERTEX
  8
0
 10
35.9464
 20
234.87
  0
VERTEX
  8
0
 10
35.9608
 20
234.8648
  0
VERTEX
  8
0
 10
35.9813
 20
234.8627
  0
VERTEX
  8
0
 10
36.0005
 20
234.8631
  0
VERTEX
  8
0
 10
36.0256
 20
234.8655
  0
VERTEX
  8
0
 10
36.0256
 20
234.8655
  0
SEQEND
  0
POLYLINE
  8
0
 66
     1
 10
0
 20
0
  0
VERTEX
  8
0
 10
36.5358
 20
234.9676
  0
VERTEX
  8
0
 10
36.641
 20
234.9547
  0
VERTEX
  8
0
 10
36.6312
 20
234.9241
  0
VERTEX
  8
0
 10
36.6192
 20
234.896
  0
VERTEX
  8
0
 10
36.605
 20
234.8707
  0
VERTEX
  8
0
 10
36.5886
 20
234.848
  0
VERTEX
  8
0
 10
36.57
 20
234.828
  0
VERTEX
  8
0
 10
36.5491
 20
234.8107
  0
VERTEX
  8
0
 10
36.5261
 20
234.796
  0
VERTEX
  8
0
 10
36.5008
 20
234.784
  0
VERTEX
  8
0
 10
36.4733
 20
234.7747
  0
VERTEX
  8
0
 10
36.4436
 20
234.768
  0
VERTEX
  8
0
 10
36.4116
 20
234.764
  0
VERTEX
  8
0
 10
36.3775
 20
234.7627
  0
VERTEX
  8
0
 10
36.3149
 20
234.7677
  0
VERTEX
  8
0
 10
36.2593
 20
234.7828
  0
VERTEX
  8
0
 10
36.2106
 20
234.8079
  0
VERTEX
  8
0
 10
36.1687
 20
234.843
  0
VERTEX
  8
0
 10
36.1411
 20
234.8778
  0
VERTEX
  8
0
 10
36.1196
 20
234.9179
  0
VERTEX
  8
0
 10
36.1043
 20
234.9632
  0
VERTEX
  8
0
 10
36.0951
 20
235.0138
  0
VERTEX
  8
0
 10
36.092
 20
235.0696
  0
VERTEX
  8
0
 10
36.0963
 20
235.1357
  0
VERTEX
  8
0
 10
36.1092
 20
235.1951
  0
VERTEX
  8
0
 10
36.1307
 20
235.2479
  0
VERTEX
  8
0
 10
36.1608
 20
235.2939
  0
VERTEX
  8
0
 10
36.1934
 20
235.3273
  0
VERTEX
  8
0
 10
36.2309
 20
235.3533
  0
VERTEX
  8
0
 10
36.2731
 20
235.3718
  0
VERTEX
  8
0
 10
36.3201
 20
235.383
  0
VERTEX
  8
0
 10
36.3719
 20
235.3867
  0
VERTEX
  8
0
 10
36.4223
 20
235.383
  0
VERTEX
  8
0
 10
36.4681
 20
235.3719
  0
VERTEX
  8
0
 10
36.5092
 20
235.3535
  0
VERTEX
  8
0
 10
36.5455
 20
235.3277
  0
VERTEX
  8
0
 10
36.5772
 20
235.2945
  0
VERTEX
  8
0
 10
36.6066
 20
235.2489
  0
VERTEX
  8
0
 10
36.6276
 20
235.1969
  0
VERTEX
  8
0
 10
36.6402
 20
235.1385
  0
VERTEX
  8
0
 10
36.6444
 20
235.0738
  0
VERTEX
  8
0
 10
36.6442
 20
235.0597
  0
VERTEX
  8
0
 10
36.6438
 20
235.0467
  0
VERTEX
  8
0
 10
36.196
 20
235.0467
  0
VERTEX
  8
0
 10
36.2102
 20
234.9688
  0
VERTEX
  8
0
 10
36.244
 20
234.907
  0
VERTEX
  8
0
 10
36.2807
 20
234.8735
  0
VERTEX
  8
0
 10
36.3252
 20
234.8534
  0
VERTEX
  8
0
 10
36.3775
 20
234.8467
  0
VERTEX
  8
0
 10
36.4135
 20
234.85
  0
VERTEX
  8
0
 10
36.4456
 20
234.8601
  0
VERTEX
  8
0
 10
36.4739
 20
234.8769
  0
VERTEX
  8
0
 10
36.4984
 20
234.9004
  0
VERTEX
  8
0
 10
36.519
 20
234.9307
  0
VERTEX
  8
0
 10
36.5358
 20
234.9676
  0
VERTEX
  8
0
 10
36.5358
 20
234.9676
  0
SEQEND
  0
POLYLINE
  8
0
 66
     1
 10
0
 20
0
  0
VERTEX
  8
0
 10
36.2025
 20
235.1307
  0
VERTEX
  8
0
 10
36.5372
 20
235.1307
  0
VERTEX
  8
0
 10
36.5242
 20
235.1968
  0
VERTEX
  8
0
 10
36.4988
 20
235.244
  0
VERTEX
  8
0
 10
36.4633
 20
235.2764
  0
VERTEX
  8
0
 10
36.4213
 20
235.2959
  0
VERTEX
  8
0
 10
36.373
 20
235.3027
  0
VERTEX
  8
0
 10
36.3058
 20
235.2905
  0
VERTEX
  8
0
 10
36.2522
 20
235.253
  0
VERTEX
  8
0
 10
36.2175
 20
235.1988
  0
VERTEX
  8
0
 10
36.2025
 20
235.1307
  0
VERTEX
  8
0
 10
36.2025
 20
235.1307
  0
SEQEND
  0
POLYLINE
  8
0
 66
     1
 10
0
 20
0
  0
VERTEX
  8
0
 10
37.264
 20
235.0747
  0
VERTEX
  8
0
 10
37.2665
 20
235.1276
  0
VERTEX
  8
0
 10
37.2742
 20
235.1757
  0
VERTEX
  8
0
 10
37.2871
 20
235.219
  0
VERTEX
  8
0
 10
37.305
 20
235.2576
  0
VERTEX
  8
0
 10
37.3281
 20
235.2913
  0
VERTEX
  8
0
 10
37.3563
 20
235.3204
  0
VERTEX
  8
0
 10
37.4112
 20
235.3572
  0
VERTEX
  8
0
 10
37.4739
 20
235.3793
  0
VERTEX
  8
0
 10
37.5443
 20
235.3867
  0
VERTEX
  8
0
 10
37.5947
 20
235.3832
  0
VERTEX
  8
0
 10
37.6407
 20
235.3727
  0
VERTEX
  8
0
 10
37.6822
 20
235.3553
  0
VERTEX
  8
0
 10
37.7193
 20
235.3309
  0
VERTEX
  8
0
 10
37.7519
 20
235.2995
  0
VERTEX
  8
0
 10
37.7834
 20
235.2548
  0
VERTEX
  8
0
 10
37.806
 20
235.2038
  0
VERTEX
  8
0
 10
37.8195
 20
235.1466
  0
VERTEX
  8
0
 10
37.824
 20
235.0831
  0
VERTEX
  8
0
 10
37.8223
 20
235.0383
  0
VERTEX
  8
0
 10
37.8173
 20
234.9968
  0
VERTEX
  8
0
 10
37.8089
 20
234.9586
  0
VERTEX
  8
0
 10
37.7972
 20
234.9238
  0
VERTEX
  8
0
 10
37.7821
 20
234.8922
  0
VERTEX
  8
0
 10
37.7637
 20
234.864
  0
VERTEX
  8
0
 10
37.7419
 20
234.8391
  0
VERTEX
  8
0
 10
37.7168
 20
234.8175
  0
VERTEX
  8
0
 10
37.6884
 20
234.7992
  0
VERTEX
  8
0
 10
37.6194
 20
234.7721
  0
VERTEX
  8
0
 10
37.5443
 20
234.7627
  0
VERTEX
  8
0
 10
37.4921
 20
234.7661
  0
VERTEX
  8
0
 10
37.4449
 20
234.7767
  0
VERTEX
  8
0
 10
37.4026
 20
234.7946
  0
VERTEX
  8
0
 10
37.3654
 20
234.8197
  0
VERTEX
  8
0
 10
37.3332
 20
234.852
  0
VERTEX
  8
0
 10
37.3029
 20
234.8972
  0
VERTEX
  8
0
 10
37.2813
 20
234.9493
  0
VERTEX
  8
0
 10
37.2683
 20
235.0085
  0
VERTEX
  8
0
 10
37.264
 20
235.0747
  0
VERTEX
  8
0
 10
37.264
 20
235.0747
  0
SEQEND
  0
POLYLINE
  8
0
 66
     1
 10
0
 20
0
  0
VERTEX
  8
0
 10
37.368
 20
235.0749
  0
VERTEX
  8
0
 10
37.3777
 20
234.9876
  0
VERTEX
  8
0
 10
37.4069
 20
234.9185
  0
VERTEX
  8
0
 10
37.4328
 20
234.8873
  0
VERTEX
  8
0
 10
37.4643
 20
234.8649
  0
VERTEX
  8
0
 10
37.5015
 20
234.8514
  0
VERTEX
  8
0
 10
37.5443
 20
234.8467
  0
VERTEX
  8
0
 10
37.5871
 20
234.8511
  0
VERTEX
  8
0
 10
37.6242
 20
234.8648
  0
VERTEX
  8
0
 10
37.6558
 20
234.8878
  0
VERTEX
  8
0
 10
37.6817
 20
234.9202
  0
VERTEX
  8
0
 10
37.7104
 20
234.9905
  0
VERTEX
  8
0
 10
37.72
 20
235.0783
  0
VERTEX
  8
0
 10
37.71
 20
235.1633
  0
VERTEX
  8
0
 10
37.68
 20
235.232
  0
VERTEX
  8
0
 10
37.6538
 20
235.2629
  0
VERTEX
  8
0
 10
37.6224
 20
235.285
  0
VERTEX
  8
0
 10
37.5859
 20
235.2983
  0
VERTEX
  8
0
 10
37.5443
 20
235.3027
  0
VERTEX
  8
0
 10
37.5015
 20
235.2982
  0
VERTEX
  8
0
 10
37.4643
 20
235.2847
  0
VERTEX
  8
0
 10
37.4328
 20
235.2623
  0
VERTEX
  8
0
 10
37.4069
 20
235.2309
  0
VERTEX
  8
0
 10
37.3777
 20
235.1616
  0
VERTEX
  8
0
 10
37.368
 20
235.0749
  0
VERTEX
  8
0
 10
37.368
 20
235.0749
  0
SEQEND
  0
POLYLINE
  8
0
 66
     1
 10
0
 20
0
  0
VERTEX
  8
0
 10
37.944
 20
234.7707
  0
VERTEX
  8
0
 10
37.944
 20
235.3739
  0
VERTEX
  8
0
 10
38.036
 20
235.3739
  0
VERTEX
  8
0
 10
38.036
 20
235.2887
  0
VERTEX
  8
0
 10
38.0648
 20
235.3238
  0
VERTEX
  8
0
 10
38.0983
 20
235.3511
  0
VERTEX
  8
0
 10
38.1365
 20
235.3707
  0
VERTEX
  8
0
 10
38.1793
 20
235.3826
  0
VERTEX
  8
0
 10
38.2269
 20
235.3867
  0
VERTEX
  8
0
 10
38.2781
 20
235.3817
  0
VERTEX
  8
0
 10
38.3264
 20
235.3668
  0
VERTEX
  8
0
 10
38.3629
 20
235.3459
  0
VERTEX
  8
0
 10
38.3917
 20
235.3179
  0
VERTEX
  8
0
 10
38.4129
 20
235.2827
  0
VERTEX
  8
0
 10
38.4264
 20
235.2404
  0
VERTEX
  8
0
 10
38.4306
 20
235.2022
  0
VERTEX
  8
0
 10
38.432
 20
235.141
  0
VERTEX
  8
0
 10
38.432
 20
234.7707
  0
VERTEX
  8
0
 10
38.332
 20
234.7707
  0
VERTEX
  8
0
 10
38.332
 20
235.1374
  0
VERTEX
  8
0
 10
38.33
 20
235.1841
  0
VERTEX
  8
0
 10
38.324
 20
235.2175
  0
VERTEX
  8
0
 10
38.3065
 20
235.2535
  0
VERTEX
  8
0
 10
38.277
 20
235.2799
  0
VERTEX
  8
0
 10
38.244
 20
235.294
  0
VERTEX
  8
0
 10
38.2054
 20
235.2987
  0
VERTEX
  8
0
 10
38.1796
 20
235.2973
  0
VERTEX
  8
0
 10
38.1561
 20
235.2931
  0
VERTEX
  8
0
 10
38.1348
 20
235.2863
  0
VERTEX
  8
0
 10
38.1157
 20
235.2766
  0
VERTEX
  8
0
 10
38.0989
 20
235.2642
  0
VERTEX
  8
0
 10
38.0843
 20
235.249
  0
VERTEX
  8
0
 10
38.072
 20
235.2311
  0
VERTEX
  8
0
 10
38.0619
 20
235.2104
  0
VERTEX
  8
0
 10
38.0541
 20
235.1869
  0
VERTEX
  8
0
 10
38.0485
 20
235.1607
  0
VERTEX
  8
0
 10
38.0451
 20
235.1317
  0
VERTEX
  8
0
 10
38.044
 20
235.1
  0
VERTEX
  8
0
 10
38.044
 20
234.7707
  0
VERTEX
  8
0
 10
37.944
 20
234.7707
  0
SEQEND
  0
POLYLINE
  8
0
 66
     1
 10
0
 20
0
  0
VERTEX
  8
0
 10
39.52
 20
235.0987
  0
VERTEX
  8
0
 10
39.52
 20
235.1947
  0
VERTEX
  8
0
 10
39.872
 20
235.1947
  0
VERTEX
  8
0
 10
39.872
 20
234.8879
  0
VERTEX
  8
0
 10
39.8177
 20
234.8484
  0
VERTEX
  8
0
 10
39.7624
 20
234.8161
  0
VERTEX
  8
0
 10
39.7059
 20
234.791
  0
VERTEX
  8
0
 10
39.6484
 20
234.773
  0
VERTEX
  8
0
 10
39.5897
 20
234.7623
  0
VERTEX
  8
0
 10
39.53
 20
234.7587
  0
VERTEX
  8
0
 10
39.4157
 20
234.7708
  0
VERTEX
  8
0
 10
39.3142
 20
234.8072
  0
VERTEX
  8
0
 10
39.2511
 20
234.848
  0
VERTEX
  8
0
 10
39.1993
 20
234.8996
  0
VERTEX
  8
0
 10
39.1587
 20
234.9619
  0
VERTEX
  8
0
 10
39.1207
 20
235.066
  0
VERTEX
  8
0
 10
39.108
 20
235.1827
  0
VERTEX
  8
0
 10
39.1197
 20
235.2969
  0
VERTEX
  8
0
 10
39.1548
 20
235.4012
  0
VERTEX
  8
0
 10
39.1944
 20
235.4685
  0
VERTEX
  8
0
 10
39.2441
 20
235.5227
  0
VERTEX
  8
0
 10
39.3037
 20
235.5639
  0
VERTEX
  8
0
 10
39.4057
 20
235.602
  0
VERTEX
  8
0
 10
39.5221
 20
235.6147
  0
VERTEX
  8
0
 10
39.607
 20
235.6073
  0
VERTEX
  8
0
 10
39.6846
 20
235.5852
  0
VERTEX
  8
0
 10
39.7506
 20
235.5496
  0
VERTEX
  8
0
 10
39.8008
 20
235.5018
  0
VERTEX
  8
0
 10
39.8347
 20
235.4445
  0
VERTEX
  8
0
 10
39.8606
 20
235.3704
  0
VERTEX
  8
0
 10
39.7617
 20
235.3434
  0
VERTEX
  8
0
 10
39.7418
 20
235.398
  0
VERTEX
  8
0
 10
39.7182
 20
235.4384
  0
VERTEX
  8
0
 10
39.6831
 20
235.4737
  0
VERTEX
  8
0
 10
39.6366
 20
235.5003
  0
VERTEX
  8
0
 10
39.5819
 20
235.5171
  0
VERTEX
  8
0
 10
39.5222
 20
235.5227
  0
VERTEX
  8
0
 10
39.4527
 20
235.5169
  0
VERTEX
  8
0
 10
39.3923
 20
235.4995
  0
VERTEX
  8
0
 10
39.3466
 20
235.4754
  0
VERTEX
  8
0
 10
39.308
 20
235.4437
  0
VERTEX
  8
0
 10
39.2763
 20
235.4045
  0
VERTEX
  8
0
 10
39.2516
 20
235.3577
  0
VERTEX
  8
0
 10
39.2282
 20
235.2787
  0
VERTEX
  8
0
 10
39.22
 20
235.191
  0
VERTEX
  8
0
 10
39.2213
 20
235.148
  0
VERTEX
  8
0
 10
39.2256
 20
235.1081
  0
VERTEX
  8
0
 10
39.2329
 20
235.071
  0
VERTEX
  8
0
 10
39.2432
 20
235.037
  0
VERTEX
  8
0
 10
39.2566
 20
235.0059
  0
VERTEX
  8
0
 10
39.273
 20
234.9778
  0
VERTEX
  8
0
 10
39.2924
 20
234.9526
  0
VERTEX
  8
0
 10
39.3148
 20
234.9304
  0
VERTEX
  8
0
 10
39.3402
 20
234.9111
  0
VERTEX
  8
0
 10
39.3687
 20
234.8949
  0
VERTEX
  8
0
 10
39.4436
 20
234.868
  0
VERTEX
  8
0
 10
39.523
 20
234.8587
  0
VERTEX
  8
0
 10
39.5851
 20
234.8642
  0
VERTEX
  8
0
 10
39.6508
 20
234.8818
  0
VERTEX
  8
0
 10
39.7143
 20
234.9096
  0
VERTEX
  8
0
 10
39.764
 20
234.9445
  0
VERTEX
  8
0
 10
39.764
 20
235.0987
  0
VERTEX
  8
0
 10
39.52
 20
235.0987
  0
SEQEND
  0
POLYLINE
  8
0
 66
     1
 10
0
 20
0
  0
VERTEX
  8
0
 10
40.02
 20
234.7707
  0
VERTEX
  8
0
 10
40.02
 20
235.3739
  0
VERTEX
  8
0
 10
40.112
 20
235.3739
  0
VERTEX
  8
0
 10
40.112
 20
235.283
  0
VERTEX
  8
0
 10
40.1384
 20
235.3259
  0
VERTEX
  8
0
 10
40.1626
 20
235.3547
  0
VERTEX
  8
0
 10
40.1989
 20
235.3787
  0
VERTEX
  8
0
 10
40.2414
 20
235.3867
  0
VERTEX
  8
0
 10
40.2927
 20
235.3785
  0
VERTEX
  8
0
 10
40.3455
 20
235.3542
  0
VERTEX
  8
0
 10
40.3103
 20
235.2605
  0
VERTEX
  8
0
 10
40.2728
 20
235.2771
  0
VERTEX
  8
0
 10
40.2353
 20
235.2827
  0
VERTEX
  8
0
 10
40.2024
 20
235.2768
  0
VERTEX
  8
0
 10
40.1717
 20
235.2594
  0
VERTEX
  8
0
 10
40.1511
 20
235.2364
  0
VERTEX
  8
0
 10
40.137
 20
235.2064
  0
VERTEX
  8
0
 10
40.1242
 20
235.1498
  0
VERTEX
  8
0
 10
40.12
 20
235.087
  0
VERTEX
  8
0
 10
40.12
 20
234.7707
  0
VERTEX
  8
0
 10
40.02
 20
234.7707
  0
SEQEND
  0
POLYLINE
  8
0
 66
     1
 10
0
 20
0
  0
VERTEX
  8
0
 10
40.8158
 20
234.9676
  0
VERTEX
  8
0
 10
40.921
 20
234.9547
  0
VERTEX
  8
0
 10
40.9112
 20
234.9241
  0
VERTEX
  8
0
 10
40.8992
 20
234.896
  0
VERTEX
  8
0
 10
40.885
 20
234.8707
  0
VERTEX
  8
0
 10
40.8686
 20
234.848
  0
VERTEX
  8
0
 10
40.85
 20
234.828
  0
VERTEX
  8
0
 10
40.8291
 20
234.8107
  0
VERTEX
  8
0
 10
40.8061
 20
234.796
  0
VERTEX
  8
0
 10
40.7808
 20
234.784
  0
VERTEX
  8
0
 10
40.7533
 20
234.7747
  0
VERTEX
  8
0
 10
40.7236
 20
234.768
  0
VERTEX
  8
0
 10
40.6916
 20
234.764
  0
VERTEX
  8
0
 10
40.6575
 20
234.7627
  0
VERTEX
  8
0
 10
40.5949
 20
234.7677
  0
VERTEX
  8
0
 10
40.5393
 20
234.7828
  0
VERTEX
  8
0
 10
40.4906
 20
234.8079
  0
VERTEX
  8
0
 10
40.4487
 20
234.843
  0
VERTEX
  8
0
 10
40.4211
 20
234.8778
  0
VERTEX
  8
0
 10
40.3996
 20
234.9179
  0
VERTEX
  8
0
 10
40.3843
 20
234.9632
  0
VERTEX
  8
0
 10
40.3751
 20
235.0138
  0
VERTEX
  8
0
 10
40.372
 20
235.0696
  0
VERTEX
  8
0
 10
40.3763
 20
235.1357
  0
VERTEX
  8
0
 10
40.3892
 20
235.1951
  0
VERTEX
  8
0
 10
40.4107
 20
235.2479
  0
VERTEX
  8
0
 10
40.4408
 20
235.2939
  0
VERTEX
  8
0
 10
40.4734
 20
235.3273
  0
VERTEX
  8
0
 10
40.5109
 20
235.3533
  0
VERTEX
  8
0
 10
40.5531
 20
235.3718
  0
VERTEX
  8
0
 10
40.6001
 20
235.383
  0
VERTEX
  8
0
 10
40.6519
 20
235.3867
  0
VERTEX
  8
0
 10
40.7023
 20
235.383
  0
VERTEX
  8
0
 10
40.7481
 20
235.3719
  0
VERTEX
  8
0
 10
40.7892
 20
235.3535
  0
VERTEX
  8
0
 10
40.8255
 20
235.3277
  0
VERTEX
  8
0
 10
40.8572
 20
235.2945
  0
VERTEX
  8
0
 10
40.8866
 20
235.2489
  0
VERTEX
  8
0
 10
40.9076
 20
235.1969
  0
VERTEX
  8
0
 10
40.9202
 20
235.1385
  0
VERTEX
  8
0
 10
40.9244
 20
235.0738
  0
VERTEX
  8
0
 10
40.9242
 20
235.0597
  0
VERTEX
  8
0
 10
40.9238
 20
235.0467
  0
VERTEX
  8
0
 10
40.476
 20
235.0467
  0
VERTEX
  8
0
 10
40.4902
 20
234.9688
  0
VERTEX
  8
0
 10
40.524
 20
234.907
  0
VERTEX
  8
0
 10
40.5607
 20
234.8735
  0
VERTEX
  8
0
 10
40.6052
 20
234.8534
  0
VERTEX
  8
0
 10
40.6575
 20
234.8467
  0
VERTEX
  8
0
 10
40.6935
 20
234.85
  0
VERTEX
  8
0
 10
40.7256
 20
234.8601
  0
VERTEX
  8
0
 10
40.7539
 20
234.8769
  0
VERTEX
  8
0
 10
40.7784
 20
234.9004
  0
VERTEX
  8
0
 10
40.799
 20
234.9307
  0
VERTEX
  8
0
 10
40.8158
 20
234.9676
  0
VERTEX
  8
0
 10
40.8158
 20
234.9676
  0
SEQEND
  0
POLYLINE
  8
0
 66
     1
 10
0
 20
0
  0
VERTEX
  8
0
 10
40.4825
 20
235.1307
  0
VERTEX
  8
0
 10
40.8172
 20
235.1307
  0
VERTEX
  8
0
 10
40.8042
 20
235.1968
  0
VERTEX
  8
0
 10
40.7788
 20
235.244
  0
VERTEX
  8
0
 10
40.7433
 20
235.2764
  0
VERTEX
  8
0
 10
40.7013
 20
235.2959
  0
VERTEX
  8
0
 10
40.653
 20
235.3027
  0
VERTEX
  8
0
 10
40.5858
 20
235.2905
  0
VERTEX
  8
0
 10
40.5322
 20
235.253
  0
VERTEX
  8
0
 10
40.4975
 20
235.1988
  0
VERTEX
  8
0
 10
40.4825
 20
235.1307
  0
VERTEX
  8
0
 10
40.4825
 20
235.1307
  0
SEQEND
  0
POLYLINE
  8
0
 66
     1
 10
0
 20
0
  0
VERTEX
  8
0
 10
41.4558
 20
234.9676
  0
VERTEX
  8
0
 10
41.561
 20
234.9547
  0
VERTEX
  8
0
 10
41.5512
 20
234.9241
  0
VERTEX
  8
0
 10
41.5392
 20
234.896
  0
VERTEX
  8
0
 10
41.525
 20
234.8707
  0
VERTEX
  8
0
 10
41.5086
 20
234.848
  0
VERTEX
  8
0
 10
41.49
 20
234.828
  0
VERTEX
  8
0
 10
41.4691
 20
234.8107
  0
VERTEX
  8
0
 10
41.4461
 20
234.796
  0
VERTEX
  8
0
 10
41.4208
 20
234.784
  0
VERTEX
  8
0
 10
41.3933
 20
234.7747
  0
VERTEX
  8
0
 10
41.3636
 20
234.768
  0
VERTEX
  8
0
 10
41.3316
 20
234.764
  0
VERTEX
  8
0
 10
41.2975
 20
234.7627
  0
VERTEX
  8
0
 10
41.2349
 20
234.7677
  0
VERTEX
  8
0
 10
41.1793
 20
234.7828
  0
VERTEX
  8
0
 10
41.1306
 20
234.8079
  0
VERTEX
  8
0
 10
41.0887
 20
234.843
  0
VERTEX
  8
0
 10
41.0611
 20
234.8778
  0
VERTEX
  8
0
 10
41.0396
 20
234.9179
  0
VERTEX
  8
0
 10
41.0243
 20
234.9632
  0
VERTEX
  8
0
 10
41.0151
 20
235.0138
  0
VERTEX
  8
0
 10
41.012
 20
235.0696
  0
VERTEX
  8
0
 10
41.0163
 20
235.1357
  0
VERTEX
  8
0
 10
41.0292
 20
235.1951
  0
VERTEX
  8
0
 10
41.0507
 20
235.2479
  0
VERTEX
  8
0
 10
41.0808
 20
235.2939
  0
VERTEX
  8
0
 10
41.1134
 20
235.3273
  0
VERTEX
  8
0
 10
41.1509
 20
235.3533
  0
VERTEX
  8
0
 10
41.1931
 20
235.3718
  0
VERTEX
  8
0
 10
41.2401
 20
235.383
  0
VERTEX
  8
0
 10
41.2919
 20
235.3867
  0
VERTEX
  8
0
 10
41.3423
 20
235.383
  0
VERTEX
  8
0
 10
41.3881
 20
235.3719
  0
VERTEX
  8
0
 10
41.4292
 20
235.3535
  0
VERTEX
  8
0
 10
41.4655
 20
235.3277
  0
VERTEX
  8
0
 10
41.4972
 20
235.2945
  0
VERTEX
  8
0
 10
41.5266
 20
235.2489
  0
VERTEX
  8
0
 10
41.5476
 20
235.1969
  0
VERTEX
  8
0
 10
41.5602
 20
235.1385
  0
VERTEX
  8
0
 10
41.5644
 20
235.0738
  0
VERTEX
  8
0
 10
41.5642
 20
235.0597
  0
VERTEX
  8
0
 10
41.5638
 20
235.0467
  0
VERTEX
  8
0
 10
41.116
 20
235.0467
  0
VERTEX
  8
0
 10
41.1302
 20
234.9688
  0
VERTEX
  8
0
 10
41.164
 20
234.907
  0
VERTEX
  8
0
 10
41.2007
 20
234.8735
  0
VERTEX
  8
0
 10
41.2452
 20
234.8534
  0
VERTEX
  8
0
 10
41.2975
 20
234.8467
  0
VERTEX
  8
0
 10
41.3335
 20
234.85
  0
VERTEX
  8
0
 10
41.3656
 20
234.8601
  0
VERTEX
  8
0
 10
41.3939
 20
234.8769
  0
VERTEX
  8
0
 10
41.4184
 20
234.9004
  0
VERTEX
  8
0
 10
41.439
 20
234.9307
  0
VERTEX
  8
0
 10
41.4558
 20
234.9676
  0
VERTEX
  8
0
 10
41.4558
 20
234.9676
  0
SEQEND
  0
POLYLINE
  8
0
 66
     1
 10
0
 20
0
  0
VERTEX
  8
0
 10
41.1225
 20
235.1307
  0
VERTEX
  8
0
 10
41.4572
 20
235.1307
  0
VERTEX
  8
0
 10
41.4442
 20
235.1968
  0
VERTEX
  8
0
 10
41.4188
 20
235.244
  0
VERTEX
  8
0
 10
41.3833
 20
235.2764
  0
VERTEX
  8
0
 10
41.3413
 20
235.2959
  0
VERTEX
  8
0
 10
41.293
 20
235.3027
  0
VERTEX
  8
0
 10
41.2258
 20
235.2905
  0
VERTEX
  8
0
 10
41.1722
 20
235.253
  0
VERTEX
  8
0
 10
41.1375
 20
235.1988
  0
VERTEX
  8
0
 10
41.1225
 20
235.1307
  0
VERTEX
  8
0
 10
41.1225
 20
235.1307
  0
SEQEND
  0
POLYLINE
  8
0
 66
     1
 10
0
 20
0
  0
VERTEX
  8
0
 10
41.688
 20
234.7707
  0
VERTEX
  8
0
 10
41.688
 20
235.3739
  0
VERTEX
  8
0
 10
41.78
 20
235.3739
  0
VERTEX
  8
0
 10
41.78
 20
235.2887
  0
VERTEX
  8
0
 10
41.8088
 20
235.3238
  0
VERTEX
  8
0
 10
41.8423
 20
235.3511
  0
VERTEX
  8
0
 10
41.8805
 20
235.3707
  0
VERTEX
  8
0
 10
41.9233
 20
235.3826
  0
VERTEX
  8
0
 10
41.9709
 20
235.3867
  0
VERTEX
  8
0
 10
42.0221
 20
235.3817
  0
VERTEX
  8
0
 10
42.0704
 20
235.3668
  0
VERTEX
  8
0
 10
42.1069
 20
235.3459
  0
VERTEX
  8
0
 10
42.1357
 20
235.3179
  0
VERTEX
  8
0
 10
42.1569
 20
235.2827
  0
VERTEX
  8
0
 10
42.1704
 20
235.2404
  0
VERTEX
  8
0
 10
42.1746
 20
235.2022
  0
VERTEX
  8
0
 10
42.176
 20
235.141
  0
VERTEX
  8
0
 10
42.176
 20
234.7707
  0
VERTEX
  8
0
 10
42.076
 20
234.7707
  0
VERTEX
  8
0
 10
42.076
 20
235.1374
  0
VERTEX
  8
0
 10
42.074
 20
235.1841
  0
VERTEX
  8
0
 10
42.068
 20
235.2175
  0
VERTEX
  8
0
 10
42.0505
 20
235.2535
  0
VERTEX
  8
0
 10
42.021
 20
235.2799
  0
VERTEX
  8
0
 10
41.988
 20
235.294
  0
VERTEX
  8
0
 10
41.9494
 20
235.2987
  0
VERTEX
  8
0
 10
41.9236
 20
235.2973
  0
VERTEX
  8
0
 10
41.9001
 20
235.2931
  0
VERTEX
  8
0
 10
41.8788
 20
235.2863
  0
VERTEX
  8
0
 10
41.8597
 20
235.2766
  0
VERTEX
  8
0
 10
41.8429
 20
235.2642
  0
VERTEX
  8
0
 10
41.8283
 20
235.249
  0
VERTEX
  8
0
 10
41.816
 20
235.2311
  0
VERTEX
  8
0
 10
41.8059
 20
235.2104
  0
VERTEX
  8
0
 10
41.7981
 20
235.1869
  0
VERTEX
  8
0
 10
41.7925
 20
235.1607
  0
VERTEX
  8
0
 10
41.7891
 20
235.1317
  0
VERTEX
  8
0
 10
41.788
 20
235.1
  0
VERTEX
  8
0
 10
41.788
 20
234.7707
  0
VERTEX
  8
0
 10
41.688
 20
234.7707
  0
SEQEND
  0
POLYLINE
  8
0
 66
     1
 10
0
 20
0
  0
VERTEX
  8
0
 10
42.36
 20
235.2587
  0
VERTEX
  8
0
 10
42.36
 20
235.3747
  0
VERTEX
  8
0
 10
42.476
 20
235.3747
  0
VERTEX
  8
0
 10
42.476
 20
235.2587
  0
VERTEX
  8
0
 10
42.36
 20
235.2587
  0
SEQEND
  0
POLYLINE
  8
0
 66
     1
 10
0
 20
0
  0
VERTEX
  8
0
 10
42.36
 20
234.7707
  0
VERTEX
  8
0
 10
42.36
 20
234.8867
  0
VERTEX
  8
0
 10
42.476
 20
234.8867
  0
VERTEX
  8
0
 10
42.476
 20
234.7724
  0
VERTEX
  8
0
 10
42.4733
 20
234.7344
  0
VERTEX
  8
0
 10
42.4654
 20
234.7009
  0
VERTEX
  8
0
 10
42.4521
 20
234.6717
  0
VERTEX
  8
0
 10
42.4336
 20
234.647
  0
VERTEX
  8
0
 10
42.4097
 20
234.6266
  0
VERTEX
  8
0
 10
42.3805
 20
234.6107
  0
VERTEX
  8
0
 10
42.352
 20
234.6532
  0
VERTEX
  8
0
 10
42.3791
 20
234.67
  0
VERTEX
  8
0
 10
42.3988
 20
234.6952
  0
VERTEX
  8
0
 10
42.4112
 20
234.7288
  0
VERTEX
  8
0
 10
42.4163
 20
234.7707
  0
VERTEX
  8
0
 10
42.36
 20
234.7707
  0
SEQEND
  0
POLYLINE
  8
0
 66
     1
 10
0
 20
0
  0
VERTEX
  8
0
 10
20
 20
233.1707
  0
VERTEX
  8
0
 10
20
 20
234.0027
  0
VERTEX
  8
0
 10
20.108
 20
234.0027
  0
VERTEX
  8
0
 10
20.108
 20
233.6627
  0
VERTEX
  8
0
 10
20.54
 20
233.6627
  0
VERTEX
  8
0
 10
20.54
 20
234.0027
  0
VERTEX
  8
0
 10
20.648
 20
234.0027
  0
VERTEX
  8
0
 10
20.648
 20
233.1707
  0
VERTEX
  8
0
 10
20.54
 20
233.1707
  0
VERTEX
  8
0
 10
20.54
 20
233.5667
  0
VERTEX
  8
0
 10
20.108
 20
233.5667
  0
VERTEX
  8
0
 10
20.108
 20
233.1707
  0
VERTEX
  8
0
 10
20
 20
233.1707
  0
SEQEND
  0
POLYLINE
  8
0
 66
     1
 10
0
 20
0
  0
VERTEX
  8
0
 10
20.796
 20
233.5757
  0
VERTEX
  8
0
 10
20.7988
 20
233.6376
  0
VERTEX
  8
0
 10
20.8072
 20
233.6956
  0
VERTEX
  8
0
 10
20.8211
 20
233.7495
  0
VERTEX
  8
0
 10
20.8407
 20
233.7994
  0
VERTEX
  8
0
 10
20.8658
 20
233.8453
  0
VERTEX
  8
0
 10
20.8965
 20
233.8872
  0
VERTEX
  8
0
 10
20.9289
 20
233.921
  0
VERTEX
  8
0
 10
20.9645
 20
233.9496
  0
VERTEX
  8
0
 10
21.0035
 20
233.973
  0
VERTEX
  8
0
 10
21.0458
 20
233.9913
  0
VERTEX
  8
0
 10
21.0914
 20
234.0043
  0
VERTEX
  8
0
 10
21.1403
 20
234.0121
  0
VERTEX
  8
0
 10
21.1925
 20
234.0147
  0
VERTEX
  8
0
 10
21.3005
 20
234.0014
  0
VERTEX
  8
0
 10
21.397
 20
233.9616
  0
VERTEX
  8
0
 10
21.454
 20
233.9201
  0
VERTEX
  8
0
 10
21.5015
 20
233.8686
  0
VERTEX
  8
0
 10
21.5394
 20
233.807
  0
VERTEX
  8
0
 10
21.5756
 20
233.7031
  0
VERTEX
  8
0
 10
21.588
 20
233.5852
  0
VERTEX
  8
0
 10
21.5764
 20
233.4711
  0
VERTEX
  8
0
 10
21.5417
 20
233.3692
  0
VERTEX
  8
0
 10
21.5026
 20
233.3043
  0
VERTEX
  8
0
 10
21.453
 20
233.251
  0
VERTEX
  8
0
 10
21.3931
 20
233.2095
  0
VERTEX
  8
0
 10
21.2965
 20
233.1714
  0
VERTEX
  8
0
 10
21.192
 20
233.1587
  0
VERTEX
  8
0
 10
21.0835
 20
233.1722
  0
VERTEX
  8
0
 10
20.9864
 20
233.2129
  0
VERTEX
  8
0
 10
20.9288
 20
233.2548
  0
VERTEX
  8
0
 10
20.8812
 20
233.3069
  0
VERTEX
  8
0
 10
20.8434
 20
233.3692
  0
VERTEX
  8
0
 10
20.8078
 20
233.4693
  0
VERTEX
  8
0
 10
20.796
 20
233.5757
  0
VERTEX
  8
0
 10
20.796
 20
233.5757
  0
SEQEND
  0
POLYLINE
  8
0
 66
     1
 10
0
 20
0
  0
VERTEX
  8
0
 10
20.908
 20
233.5722
  0
VERTEX
  8
0
 10
20.9124
 20
233.5065
  0
VERTEX
  8
0
 10
20.9258
 20
233.447
  0
VERTEX
  8
0
 10
20.9482
 20
233.3937
  0
VERTEX
  8
0
 10
20.9794
 20
233.3466
  0
VERTEX
  8
0
 10
21.0127
 20
233.3121
  0
VERTEX
  8
0
 10
21.0506
 20
233.2852
  0
VERTEX
  8
0
 10
21.093
 20
233.266
  0
VERTEX
  8
0
 10
21.1399
 20
233.2545
  0
VERTEX
  8
0
 10
21.1914
 20
233.2507
  0
VERTEX
  8
0
 10
21.2507
 20
233.2561
  0
VERTEX
  8
0
 10
21.3045
 20
233.2724
  0
VERTEX
  8
0
 10
21.3528
 20
233.2995
  0
VERTEX
  8
0
 10
21.3955
 20
233.3375
  0
VERTEX
  8
0
 10
21.4243
 20
233.3752
  0
VERTEX
  8
0
 10
21.4467
 20
233.4187
  0
VERTEX
  8
0
 10
21.4628
 20
233.468
  0
VERTEX
  8
0
 10
21.4726
 20
233.5231
  0
VERTEX
  8
0
 10
21.476
 20
233.5841
  0
VERTEX
  8
0
 10
21.4743
 20
233.6288
  0
VERTEX
  8
0
 10
21.4693
 20
233.6705
  0
VERTEX
  8
0
 10
21.461
 20
233.7092
  0
VERTEX
  8
0
 10
21.4493
 20
233.7448
  0
VERTEX
  8
0
 10
21.4343
 20
233.7773
  0
VERTEX
  8
0
 10
21.416
 20
233.8068
  0
VERTEX
  8
0
 10
21.3944
 20
233.8332
  0
VERTEX
  8
0
 10
21.3694
 20
233.8566
  0
VERTEX
  8
0
 10
21.341
 20
233.8769
  0
VERTEX
  8
0
 10
21.2712
 20
233.908
  0
VERTEX
  8
0
 10
21.1931
 20
233.9187
  0
VERTEX
  8
0
 10
21.1464
 20
233.9159
  0
VERTEX
  8
0
 10
21.1036
 20
233.9074
  0
VERTEX
  8
0
 10
21.0649
 20
233.893
  0
VERTEX
  8
0
 10
21.0301
 20
233.8728
  0
VERTEX
  8
0
 10
20.9994
 20
233.8467
  0
VERTEX
  8
0
 10
20.9726
 20
233.8149
  0
VERTEX
  8
0
 10
20.9443
 20
233.7656
  0
VERTEX
  8
0
 10
20.9241
 20
233.7088
  0
VERTEX
  8
0
 10
20.912
 20
233.6443
  0
VERTEX
  8
0
 10
20.908
 20
233.5722
  0
VERTEX
  8
0
 10
20.908
 20
233.5722
  0
SEQEND
  0
POLYLINE
  8
0
 66
     1
 10
0
 20
0
  0
VERTEX
  8
0
 10
21.728
 20
233.1707
  0
VERTEX
  8
0
 10
21.728
 20
234.0027
  0
VERTEX
  8
0
 10
22.094
 20
234.0027
  0
VERTEX
  8
0
 10
22.1778
 20
233.9988
  0
VERTEX
  8
0
 10
22.2399
 20
233.9874
  0
VERTEX
  8
0
 10
22.306
 20
233.9545
  0
VERTEX
  8
0
 10
22.3536
 20
233.9011
  0
VERTEX
  8
0
 10
22.3791
 20
233.8417
  0
VERTEX
  8
0
 10
22.388
 20
233.7757
  0
VERTEX
  8
0
 10
22.387
 20
233.7489
  0
VERTEX
  8
0
 10
22.3835
 20
233.7238
  0
VERTEX
  8
0
 10
22.3777
 20
233.7003
  0
VERTEX
  8
0
 10
22.3695
 20
233.6784
  0
VERTEX
  8
0
 10
22.359
 20
233.6582
  0
VERTEX
  8
0
 10
22.346
 20
233.6395
  0
VERTEX
  8
0
 10
22.3306
 20
233.6226
  0
VERTEX
  8
0
 10
22.3129
 20
233.6072
  0
VERTEX
  8
0
 10
22.2928
 20
233.5935
  0
VERTEX
  8
0
 10
22.2702
 20
233.5814
  0
VERTEX
  8
0
 10
22.2453
 20
233.5709
  0
VERTEX
  8
0
 10
22.218
 20
233.562
  0
VERTEX
  8
0
 10
22.1883
 20
233.5548
  0
VERTEX
  8
0
 10
22.1562
 20
233.5492
  0
VERTEX
  8
0
 10
22.1947
 20
233.5284
  0
VERTEX
  8
0
 10
22.2222
 20
233.5078
  0
VERTEX
  8
0
 10
22.2701
 20
233.4566
  0
VERTEX
  8
0
 10
22.3131
 20
233.3971
  0
VERTEX
  8
0
 10
22.457
 20
233.1707
  0
VERTEX
  8
0
 10
22.32
 20
233.1707
  0
VERTEX
  8
0
 10
22.2095
 20
233.3465
  0
VERTEX
  8
0
 10
22.1753
 20
233.3991
  0
VERTEX
  8
0
 10
22.1484
 20
233.4378
  0
VERTEX
  8
0
 10
22.1084
 20
233.4867
  0
VERTEX
  8
0
 10
22.0743
 20
233.5166
  0
VERTEX
  8
0
 10
22.0494
 20
233.5304
  0
VERTEX
  8
0
 10
22.0245
 20
233.5387
  0
VERTEX
  8
0
 10
22.0004
 20
233.5417
  0
VERTEX
  8
0
 10
21.9634
 20
233.5427
  0
VERTEX
  8
0
 10
21.836
 20
233.5427
  0
VERTEX
  8
0
 10
21.836
 20
233.1707
  0
VERTEX
  8
0
 10
21.728
 20
233.1707
  0
SEQEND
  0
POLYLINE
  8
0
 66
     1
 10
0
 20
0
  0
VERTEX
  8
0
 10
21.836
 20
233.6387
  0
VERTEX
  8
0
 10
22.0718
 20
233.6387
  0
VERTEX
  8
0
 10
22.124
 20
233.6412
  0
VERTEX
  8
0
 10
22.1683
 20
233.649
  0
VERTEX
  8
0
 10
22.2047
 20
233.6619
  0
VERTEX
  8
0
 10
22.2332
 20
233.6799
  0
VERTEX
  8
0
 10
22.2539
 20
233.7032
  0
VERTEX
  8
0
 10
22.2705
 20
233.7388
  0
VERTEX
  8
0
 10
22.276
 20
233.7772
  0
VERTEX
  8
0
 10
22.2698
 20
233.8202
  0
VERTEX
  8
0
 10
22.2511
 20
233.8552
  0
VERTEX
  8
0
 10
22.22
 20
233.882
  0
VERTEX
  8
0
 10
22.1667
 20
233.9035
  0
VERTEX
  8
0
 10
22.0984
 20
233.9107
  0
VERTEX
  8
0
 10
21.836
 20
233.9107
  0
VERTEX
  8
0
 10
21.836
 20
233.6387
  0
SEQEND
  0
POLYLINE
  8
0
 66
     1
 10
0
 20
0
  0
VERTEX
  8
0
 10
22.528
 20
233.4404
  0
VERTEX
  8
0
 10
22.6318
 20
233.4494
  0
VERTEX
  8
0
 10
22.6409
 20
233.4039
  0
VERTEX
  8
0
 10
22.6572
 20
233.3645
  0
VERTEX
  8
0
 10
22.6808
 20
233.3312
  0
VERTEX
  8
0
 10
22.7117
 20
233.304
  0
VERTEX
  8
0
 10
22.7498
 20
233.2829
  0
VERTEX
  8
0
 10
22.8092
 20
233.265
  0
VERTEX
  8
0
 10
22.8775
 20
233.2587
  0
VERTEX
  8
0
 10
22.9266
 20
233.2613
  0
VERTEX
  8
0
 10
22.9694
 20
233.2695
  0
VERTEX
  8
0
 10
23.0059
 20
233.2834
  0
VERTEX
  8
0
 10
23.0362
 20
233.3028
  0
VERTEX
  8
0
 10
23.0602
 20
233.328
  0
VERTEX
  8
0
 10
23.078
 20
233.3617
  0
VERTEX
  8
0
 10
23.084
 20
233.3989
  0
VERTEX
  8
0
 10
23.0801
 20
233.429
  0
VERTEX
  8
0
 10
23.0684
 20
233.4557
  0
VERTEX
  8
0
 10
23.0489
 20
233.479
  0
VERTEX
  8
0
 10
23.0215
 20
233.499
  0
VERTEX
  8
0
 10
22.9864
 20
233.5155
  0
VERTEX
  8
0
 10
22.9515
 20
233.5269
  0
VERTEX
  8
0
 10
22.8995
 20
233.5408
  0
VERTEX
  8
0
 10
22.8305
 20
233.5572
  0
VERTEX
  8
0
 10
22.7424
 20
233.581
  0
VERTEX
  8
0
 10
22.6779
 20
233.6074
  0
VERTEX
  8
0
 10
22.6419
 20
233.6296
  0
VERTEX
  8
0
 10
22.6124
 20
233.6549
  0
VERTEX
  8
0
 10
22.5895
 20
233.6833
  0
VERTEX
  8
0
 10
22.5731
 20
233.7148
  0
VERTEX
  8
0
 10
22.5633
 20
233.7494
  0
VERTEX
  8
0
 10
22.56
 20
233.7871
  0
VERTEX
  8
0
 10
22.5696
 20
233.8512
  0
VERTEX
  8
0
 10
22.5983
 20
233.9082
  0
VERTEX
  8
0
 10
22.6422
 20
233.9537
  0
VERTEX
  8
0
 10
22.6992
 20
233.9865
  0
VERTEX
  8
0
 10
22.7704
 20
234.0073
  0
VERTEX
  8
0
 10
22.8509
 20
234.0147
  0
VERTEX
  8
0
 10
22.9362
 20
234.0075
  0
VERTEX
  8
0
 10
23.0127
 20
233.9849
  0
VERTEX
  8
0
 10
23.046
 20
233.9686
  0
VERTEX
  8
0
 10
23.0751
 20
233.9493
  0
VERTEX
  8
0
 10
23.1
 20
233.9269
  0
VERTEX
  8
0
 10
23.1207
 20
233.9014
  0
VERTEX
  8
0
 10
23.1372
 20
233.8728
  0
VERTEX
  8
0
 10
23.1495
 20
233.8412
  0
VERTEX
  8
0
 10
23.1576
 20
233.8065
  0
VERTEX
  8
0
 10
23.1615
 20
233.7687
  0
VERTEX
  8
0
 10
23.0564
 20
233.7609
  0
VERTEX
  8
0
 10
23.0519
 20
233.7882
  0
VERTEX
  8
0
 10
23.0446
 20
233.8129
  0
VERTEX
  8
0
 10
23.0346
 20
233.835
  0
VERTEX
  8
0
 10
23.0218
 20
233.8545
  0
VERTEX
  8
0
 10
23.0063
 20
233.8714
  0
VERTEX
  8
0
 10
22.9879
 20
233.8858
  0
VERTEX
  8
0
 10
22.9668
 20
233.8975
  0
VERTEX
  8
0
 10
22.9429
 20
233.9067
  0
VERTEX
  8
0
 10
22.9162
 20
233.9133
  0
VERTEX
  8
0
 10
22.8868
 20
233.9173
  0
VERTEX
  8
0
 10
22.8545
 20
233.9187
  0
VERTEX
  8
0
 10
22.7857
 20
233.9129
  0
VERTEX
  8
0
 10
22.7295
 20
233.8944
  0
VERTEX
  8
0
 10
22.6934
 20
233.8689
  0
VERTEX
  8
0
 10
22.6715
 20
233.8356
  0
VERTEX
  8
0
 10
22.664
 20
233.7944
  0
VERTEX
  8
0
 10
22.6718
 20
233.7542
  0
VERTEX
  8
0
 10
22.6963
 20
233.7209
  0
VERTEX
  8
0
 10
22.7124
 20
233.7097
  0
VERTEX
  8
0
 10
22.7368
 20
233.698
  0
VERTEX
  8
0
 10
22.7693
 20
233.6861
  0
VERTEX
  8
0
 10
22.8101
 20
233.6737
  0
VERTEX
  8
0
 10
22.859
 20
233.661
  0
VERTEX
  8
0
 10
22.9072
 20
233.6492
  0
VERTEX
  8
0
 10
22.9486
 20
233.6387
  0
VERTEX
  8
0
 10
22.9832
 20
233.6294
  0
VERTEX
  8
0
 10
23.011
 20
233.6213
  0
VERTEX
  8
0
 10
23.032
 20
233.6146
  0
VERTEX
  8
0
 10
23.0462
 20
233.609
  0
VERTEX
  8
0
 10
23.0836
 20
233.5891
  0
VERTEX
  8
0
 10
23.1152
 20
233.5662
  0
VERTEX
  8
0
 10
23.1411
 20
233.5403
  0
VERTEX
  8
0
 10
23.1614
 20
233.5114
  0
VERTEX
  8
0
 10
23.176
 20
233.4795
  0
VERTEX
  8
0
 10
23.1848
 20
233.4446
  0
VERTEX
  8
0
 10
23.188
 20
233.4067
  0
VERTEX
  8
0
 10
23.1781
 20
233.3388
  0
VERTEX
  8
0
 10
23.1472
 20
233.2774
  0
VERTEX
  8
0
 10
23.1009
 20
233.228
  0
VERTEX
  8
0
 10
23.0409
 20
233.1909
  0
VERTEX
  8
0
 10
22.9663
 20
233.1667
  0
VERTEX
  8
0
 10
22.8815
 20
233.1587
  0
VERTEX
  8
0
 10
22.8338
 20
233.1603
  0
VERTEX
  8
0
 10
22.7894
 20
233.1652
  0
VERTEX
  8
0
 10
22.7484
 20
233.1733
  0
VERTEX
  8
0
 10
22.7108
 20
233.1847
  0
VERTEX
  8
0
 10
22.6766
 20
233.1993
  0
VERTEX
  8
0
 10
22.6457
 20
233.2172
  0
VERTEX
  8
0
 10
22.6182
 20
233.2384
  0
VERTEX
  8
0
 10
22.594
 20
233.2628
  0
VERTEX
  8
0
 10
22.5732
 20
233.2904
  0
VERTEX
  8
0
 10
22.541
 20
233.36
  0
VERTEX
  8
0
 10
22.528
 20
233.4404
  0
VERTEX
  8
0
 10
22.528
 20
233.4404
  0
SEQEND
  0
POLYLINE
  8
0
 66
     1
 10
0
 20
0
  0
VERTEX
  8
0
 10
23.34
 20
233.1707
  0
VERTEX
  8
0
 10
23.34
 20
234.0027
  0
VERTEX
  8
0
 10
23.938
 20
234.0027
  0
VERTEX
  8
0
 10
23.938
 20
233.9067
  0
VERTEX
  8
0
 10
23.448
 20
233.9067
  0
VERTEX
  8
0
 10
23.448
 20
233.6507
  0
VERTEX
  8
0
 10
23.907
 20
233.6507
  0
VERTEX
  8
0
 10
23.907
 20
233.5547
  0
VERTEX
  8
0
 10
23.448
 20
233.5547
  0
VERTEX
  8
0
 10
23.448
 20
233.2667
  0
VERTEX
  8
0
 10
23.9572
 20
233.2667
  0
VERTEX
  8
0
 10
23.9572
 20
233.1707
  0
VERTEX
  8
0
 10
23.34
 20
233.1707
  0
SEQEND
  0
POLYLINE
  8
0
 66
     1
 10
0
 20
0
  0
VERTEX
  8
0
 10
24.124
 20
233.6587
  0
VERTEX
  8
0
 10
24.124
 20
233.7747
  0
VERTEX
  8
0
 10
24.24
 20
233.7747
  0
VERTEX
  8
0
 10
24.24
 20
233.6587
  0
VERTEX
  8
0
 10
24.124
 20
233.6587
  0
SEQEND
  0
POLYLINE
  8
0
 66
     1
 10
0
 20
0
  0
VERTEX
  8
0
 10
24.124
 20
233.1707
  0
VERTEX
  8
0
 10
24.124
 20
233.2867
  0
VERTEX
  8
0
 10
24.24
 20
233.2867
  0
VERTEX
  8
0
 10
24.24
 20
233.1724
  0
VERTEX
  8
0
 10
24.2373
 20
233.1344
  0
VERTEX
  8
0
 10
24.2294
 20
233.1009
  0
VERTEX
  8
0
 10
24.2161
 20
233.0717
  0
VERTEX
  8
0
 10
24.1976
 20
233.047
  0
VERTEX
  8
0
 10
24.1737
 20
233.0266
  0
VERTEX
  8
0
 10
24.1445
 20
233.0107
  0
VERTEX
  8
0
 10
24.116
 20
233.0532
  0
VERTEX
  8
0
 10
24.1431
 20
233.07
  0
VERTEX
  8
0
 10
24.1628
 20
233.0952
  0
VERTEX
  8
0
 10
24.1752
 20
233.1288
  0
VERTEX
  8
0
 10
24.1803
 20
233.1707
  0
VERTEX
  8
0
 10
24.124
 20
233.1707
  0
SEQEND
  0
POLYLINE
  8
0
 66
     1
 10
0
 20
0
  0
VERTEX
  8
0
 10
20.272
 20
231.5707
  0
VERTEX
  8
0
 10
20.272
 20
232.3067
  0
VERTEX
  8
0
 10
20
 20
232.3067
  0
VERTEX
  8
0
 10
20
 20
232.4027
  0
VERTEX
  8
0
 10
20.6556
 20
232.4027
  0
VERTEX
  8
0
 10
20.6556
 20
232.3067
  0
VERTEX
  8
0
 10
20.38
 20
232.3067
  0
VERTEX
  8
0
 10
20.38
 20
231.5707
  0
VERTEX
  8
0
 10
20.272
 20
231.5707
  0
SEQEND
  0
POLYLINE
  8
0
 66
     1
 10
0
 20
0
  0
VERTEX
  8
0
 10
21.1494
 20
231.6486
  0
VERTEX
  8
0
 10
21.0973
 20
231.6112
  0
VERTEX
  8
0
 10
21.0432
 20
231.5844
  0
VERTEX
  8
0
 10
20.987
 20
231.5683
  0
VERTEX
  8
0
 10
20.9288
 20
231.5627
  0
VERTEX
  8
0
 10
20.849
 20
231.5725
  0
VERTEX
  8
0
 10
20.7855
 20
231.6031
  0
VERTEX
  8
0
 10
20.7516
 20
231.6378
  0
VERTEX
  8
0
 10
20.7311
 20
231.6813
  0
VERTEX
  8
0
 10
20.724
 20
231.7335
  0
VERTEX
  8
0
 10
20.7283
 20
231.775
  0
VERTEX
  8
0
 10
20.7417
 20
231.8119
  0
VERTEX
  8
0
 10
20.7642
 20
231.8441
  0
VERTEX
  8
0
 10
20.7959
 20
231.8717
  0
VERTEX
  8
0
 10
20.8297
 20
231.891
  0
VERTEX
  8
0
 10
20.869
 20
231.9049
  0
VERTEX
  8
0
 10
20.9058
 20
231.9126
  0
VERTEX
  8
0
 10
20.959
 20
231.92
  0
VERTEX
  8
0
 10
21.035
 20
231.9307
  0
VERTEX
  8
0
 10
21.0952
 20
231.9423
  0
VERTEX
  8
0
 10
21.1394
 20
231.9549
  0
VERTEX
  8
0
 10
21.1396
 20
231.9724
  0
VERTEX
  8
0
 10
21.14
 20
231.9813
  0
VERTEX
  8
0
 10
21.1328
 20
232.034
  0
VERTEX
  8
0
 10
21.1113
 20
232.0684
  0
VERTEX
  8
0
 10
21.0634
 20
232.0938
  0
VERTEX
  8
0
 10
20.9961
 20
232.1027
  0
VERTEX
  8
0
 10
20.9361
 20
232.0971
  0
VERTEX
  8
0
 10
20.8932
 20
232.0791
  0
VERTEX
  8
0
 10
20.8621
 20
232.044
  0
VERTEX
  8
0
 10
20.8404
 20
231.9894
  0
VERTEX
  8
0
 10
20.7415
 20
232.0029
  0
VERTEX
  8
0
 10
20.7554
 20
232.0488
  0
VERTEX
  8
0
 10
20.7757
 20
232.0879
  0
VERTEX
  8
0
 10
20.8026
 20
232.1204
  0
VERTEX
  8
0
 10
20.836
 20
232.1462
  0
VERTEX
  8
0
 10
20.8759
 20
232.1653
  0
VERTEX
  8
0
 10
20.9384
 20
232.181
  0
VERTEX
  8
0
 10
21.0119
 20
232.1867
  0
VERTEX
  8
0
 10
21.0651
 20
232.1843
  0
VERTEX
  8
0
 10
21.1112
 20
232.1767
  0
VERTEX
  8
0
 10
21.1503
 20
232.1639
  0
VERTEX
  8
0
 10
21.1823
 20
232.1458
  0
VERTEX
  8
0
 10
21.2073
 20
232.1225
  0
VERTEX
  8
0
 10
21.2262
 20
232.0919
  0
VERTEX
  8
0
 10
21.2389
 20
232.0534
  0
VERTEX
  8
0
 10
21.2427
 20
232.0185
  0
VERTEX
  8
0
 10
21.244
 20
231.9592
  0
VERTEX
  8
0
 10
21.244
 20
231.8231
  0
VERTEX
  8
0
 10
21.244
 20
231.7787
  0
VERTEX
  8
0
 10
21.2441
 20
231.7436
  0
VERTEX
  8
0
 10
21.2442
 20
231.7177
  0
VERTEX
  8
0
 10
21.2443
 20
231.7011
  0
VERTEX
  8
0
 10
21.2445
 20
231.6937
  0
VERTEX
  8
0
 10
21.2546
 20
231.6255
  0
VERTEX
  8
0
 10
21.2758
 20
231.5707
  0
VERTEX
  8
0
 10
21.1697
 20
231.5707
  0
VERTEX
  8
0
 10
21.157
 20
231.6068
  0
VERTEX
  8
0
 10
21.1494
 20
231.6486
  0
VERTEX
  8
0
 10
21.1494
 20
231.6486
  0
SEQEND
  0
POLYLINE
  8
0
 66
     1
 10
0
 20
0
  0
VERTEX
  8
0
 10
21.14
 20
231.8754
  0
VERTEX
  8
0
 10
21.071
 20
231.855
  0
VERTEX
  8
0
 10
20.9744
 20
231.8374
  0
VERTEX
  8
0
 10
20.9311
 20
231.8304
  0
VERTEX
  8
0
 10
20.9035
 20
231.8239
  0
VERTEX
  8
0
 10
20.8692
 20
231.8076
  0
VERTEX
  8
0
 10
20.846
 20
231.7842
  0
VERTEX
  8
0
 10
20.8358
 20
231.762
  0
VERTEX
  8
0
 10
20.832
 20
231.7367
  0
VERTEX
  8
0
 10
20.8411
 20
231.6947
  0
VERTEX
  8
0
 10
20.8697
 20
231.6639
  0
VERTEX
  8
0
 10
20.9067
 20
231.648
  0
VERTEX
  8
0
 10
20.9525
 20
231.6427
  0
VERTEX
  8
0
 10
20.9921
 20
231.6453
  0
VERTEX
  8
0
 10
21.0273
 20
231.6532
  0
VERTEX
  8
0
 10
21.0581
 20
231.6665
  0
VERTEX
  8
0
 10
21.0844
 20
231.6849
  0
VERTEX
  8
0
 10
21.1062
 20
231.7087
  0
VERTEX
  8
0
 10
21.1237
 20
231.7378
  0
VERTEX
  8
0
 10
21.1359
 20
231.78
  0
VERTEX
  8
0
 10
21.14
 20
231.8385
  0
VERTEX
  8
0
 10
21.14
 20
231.8754
  0
SEQEND
  0
POLYLINE
  8
0
 66
     1
 10
0
 20
0
  0
VERTEX
  8
0
 10
21.496
 20
231.5707
  0
VERTEX
  8
0
 10
21.4
 20
231.5707
  0
VERTEX
  8
0
 10
21.4
 20
232.4027
  0
VERTEX
  8
0
 10
21.5
 20
232.4027
  0
VERTEX
  8
0
 10
21.5
 20
232.1067
  0
VERTEX
  8
0
 10
21.5345
 20
232.1415
  0
VERTEX
  8
0
 10
21.5735
 20
232.1664
  0
VERTEX
  8
0
 10
21.617
 20
232.1815
  0
VERTEX
  8
0
 10
21.6649
 20
232.1867
  0
VERTEX
  8
0
 10
21.7205
 20
232.1816
  0
VERTEX
  8
0
 10
21.7701
 20
232.1658
  0
VERTEX
  8
0
 10
21.8135
 20
232.1393
  0
VERTEX
  8
0
 10
21.8508
 20
232.1021
  0
VERTEX
  8
0
 10
21.8809
 20
232.0565
  0
VERTEX
  8
0
 10
21.9024
 20
232.0049
  0
VERTEX
  8
0
 10
21.9155
 20
231.9473
  0
VERTEX
  8
0
 10
21.92
 20
231.8837
  0
VERTEX
  8
0
 10
21.9131
 20
231.8008
  0
VERTEX
  8
0
 10
21.8925
 20
231.7275
  0
VERTEX
  8
0
 10
21.8581
 20
231.6639
  0
VERTEX
  8
0
 10
21.8276
 20
231.6276
  0
VERTEX
  8
0
 10
21.7927
 20
231.5994
  0
VERTEX
  8
0
 10
21.7535
 20
231.5791
  0
VERTEX
  8
0
 10
21.7098
 20
231.5669
  0
VERTEX
  8
0
 10
21.6619
 20
231.5627
  0
VERTEX
  8
0
 10
21.6121
 20
231.5679
  0
VERTEX
  8
0
 10
21.5678
 20
231.5842
  0
VERTEX
  8
0
 10
21.5291
 20
231.6114
  0
VERTEX
  8
0
 10
21.496
 20
231.6497
  0
VERTEX
  8
0
 10
21.496
 20
231.5707
  0
SEQEND
  0
POLYLINE
  8
0
 66
     1
 10
0
 20
0
  0
VERTEX
  8
0
 10
21.496
 20
231.8792
  0
VERTEX
  8
0
 10
21.4992
 20
231.8144
  0
VERTEX
  8
0
 10
21.5089
 20
231.7629
  0
VERTEX
  8
0
 10
21.525
 20
231.7245
  0
VERTEX
  8
0
 10
21.5507
 20
231.6907
  0
VERTEX
  8
0
 10
21.5807
 20
231.6664
  0
VERTEX
  8
0
 10
21.6151
 20
231.6517
  0
VERTEX
  8
0
 10
21.6537
 20
231.6467
  0
VERTEX
  8
0
 10
21.6929
 20
231.6512
  0
VERTEX
  8
0
 10
21.7272
 20
231.6654
  0
VERTEX
  8
0
 10
21.7564
 20
231.6893
  0
VERTEX
  8
0
 10
21.7807
 20
231.7229
  0
VERTEX
  8
0
 10
21.8072
 20
231.7923
  0
VERTEX
  8
0
 10
21.816
 20
231.8752
  0
VERTEX
  8
0
 10
21.8077
 20
231.9584
  0
VERTEX
  8
0
 10
21.783
 20
232.0265
  0
VERTEX
  8
0
 10
21.7597
 20
232.0598
  0
VERTEX
  8
0
 10
21.7311
 20
232.0836
  0
VERTEX
  8
0
 10
21.6973
 20
232.0979
  0
VERTEX
  8
0
 10
21.6582
 20
232.1027
  0
VERTEX
  8
0
 10
21.6198
 20
232.098
  0
VERTEX
  8
0
 10
21.5861
 20
232.084
  0
VERTEX
  8
0
 10
21.5571
 20
232.0608
  0
VERTEX
  8
0
 10
21.5329
 20
232.0282
  0
VERTEX
  8
0
 10
21.5052
 20
231.9598
  0
VERTEX
  8
0
 10
21.496
 20
231.8792
  0
VERTEX
  8
0
 10
21.496
 20
231.8792
  0
SEQEND
  0
POLYLINE
  8
0
 66
     1
 10
0
 20
0
  0
VERTEX
  8
0
 10
22.04
 20
231.5707
  0
VERTEX
  8
0
 10
22.04
 20
232.4027
  0
VERTEX
  8
0
 10
22.14
 20
232.4027
  0
VERTEX
  8
0
 10
22.14
 20
231.5707
  0
VERTEX
  8
0
 10
22.04
 20
231.5707
  0
SEQEND
  0
POLYLINE
  8
0
 66
     1
 10
0
 20
0
  0
VERTEX
  8
0
 10
22.7038
 20
231.7676
  0
VERTEX
  8
0
 10
22.809
 20
231.7547
  0
VERTEX
  8
0
 10
22.7992
 20
231.7241
  0
VERTEX
  8
0
 10
22.7872
 20
231.696
  0
VERTEX
  8
0
 10
22.773
 20
231.6707
  0
VERTEX
  8
0
 10
22.7566
 20
231.648
  0
VERTEX
  8
0
 10
22.738
 20
231.628
  0
VERTEX
  8
0
 10
22.7171
 20
231.6107
  0
VERTEX
  8
0
 10
22.6941
 20
231.596
  0
VERTEX
  8
0
 10
22.6688
 20
231.584
  0
VERTEX
  8
0
 10
22.6413
 20
231.5747
  0
VERTEX
  8
0
 10
22.6116
 20
231.568
  0
VERTEX
  8
0
 10
22.5796
 20
231.564
  0
VERTEX
  8
0
 10
22.5455
 20
231.5627
  0
VERTEX
  8
0
 10
22.4829
 20
231.5677
  0
VERTEX
  8
0
 10
22.4273
 20
231.5828
  0
VERTEX
  8
0
 10
22.3786
 20
231.6079
  0
VERTEX
  8
0
 10
22.3367
 20
231.643
  0
VERTEX
  8
0
 10
22.3091
 20
231.6778
  0
VERTEX
  8
0
 10
22.2876
 20
231.7179
  0
VERTEX
  8
0
 10
22.2723
 20
231.7632
  0
VERTEX
  8
0
 10
22.2631
 20
231.8138
  0
VERTEX
  8
0
 10
22.26
 20
231.8696
  0
VERTEX
  8
0
 10
22.2643
 20
231.9357
  0
VERTEX
  8
0
 10
22.2772
 20
231.9951
  0
VERTEX
  8
0
 10
22.2987
 20
232.0479
  0
VERTEX
  8
0
 10
22.3288
 20
232.0939
  0
VERTEX
  8
0
 10
22.3614
 20
232.1273
  0
VERTEX
  8
0
 10
22.3989
 20
232.1533
  0
VERTEX
  8
0
 10
22.4411
 20
232.1718
  0
VERTEX
  8
0
 10
22.4881
 20
232.183
  0
VERTEX
  8
0
 10
22.5399
 20
232.1867
  0
VERTEX
  8
0
 10
22.5903
 20
232.183
  0
VERTEX
  8
0
 10
22.6361
 20
232.1719
  0
VERTEX
  8
0
 10
22.6772
 20
232.1535
  0
VERTEX
  8
0
 10
22.7135
 20
232.1277
  0
VERTEX
  8
0
 10
22.7452
 20
232.0945
  0
VERTEX
  8
0
 10
22.7746
 20
232.0489
  0
VERTEX
  8
0
 10
22.7956
 20
231.9969
  0
VERTEX
  8
0
 10
22.8082
 20
231.9385
  0
VERTEX
  8
0
 10
22.8124
 20
231.8738
  0
VERTEX
  8
0
 10
22.8122
 20
231.8597
  0
VERTEX
  8
0
 10
22.8118
 20
231.8467
  0
VERTEX
  8
0
 10
22.364
 20
231.8467
  0
VERTEX
  8
0
 10
22.3782
 20
231.7688
  0
VERTEX
  8
0
 10
22.412
 20
231.707
  0
VERTEX
  8
0
 10
22.4487
 20
231.6735
  0
VERTEX
  8
0
 10
22.4932
 20
231.6534
  0
VERTEX
  8
0
 10
22.5455
 20
231.6467
  0
VERTEX
  8
0
 10
22.5815
 20
231.65
  0
VERTEX
  8
0
 10
22.6136
 20
231.6601
  0
VERTEX
  8
0
 10
22.6419
 20
231.6769
  0
VERTEX
  8
0
 10
22.6664
 20
231.7004
  0
VERTEX
  8
0
 10
22.687
 20
231.7307
  0
VERTEX
  8
0
 10
22.7038
 20
231.7676
  0
VERTEX
  8
0
 10
22.7038
 20
231.7676
  0
SEQEND
  0
POLYLINE
  8
0
 66
     1
 10
0
 20
0
  0
VERTEX
  8
0
 10
22.3705
 20
231.9307
  0
VERTEX
  8
0
 10
22.7052
 20
231.9307
  0
VERTEX
  8
0
 10
22.6922
 20
231.9968
  0
VERTEX
  8
0
 10
22.6668
 20
232.044
  0
VERTEX
  8
0
 10
22.6313
 20
232.0764
  0
VERTEX
  8
0
 10
22.5893
 20
232.0959
  0
VERTEX
  8
0
 10
22.541
 20
232.1027
  0
VERTEX
  8
0
 10
22.4738
 20
232.0905
  0
VERTEX
  8
0
 10
22.4202
 20
232.053
  0
VERTEX
  8
0
 10
22.3855
 20
231.9988
  0
VERTEX
  8
0
 10
22.3705
 20
231.9307
  0
VERTEX
  8
0
 10
22.3705
 20
231.9307
  0
SEQEND
  0
POLYLINE
  8
0
 66
     1
 10
0
 20
0
  0
VERTEX
  8
0
 10
23.436
 20
231.8747
  0
VERTEX
  8
0
 10
23.4385
 20
231.9276
  0
VERTEX
  8
0
 10
23.4462
 20
231.9757
  0
VERTEX
  8
0
 10
23.4591
 20
232.019
  0
VERTEX
  8
0
 10
23.477
 20
232.0576
  0
VERTEX
  8
0
 10
23.5001
 20
232.0913
  0
VERTEX
  8
0
 10
23.5283
 20
232.1204
  0
VERTEX
  8
0
 10
23.5832
 20
232.1572
  0
VERTEX
  8
0
 10
23.6459
 20
232.1793
  0
VERTEX
  8
0
 10
23.7163
 20
232.1867
  0
VERTEX
  8
0
 10
23.7667
 20
232.1832
  0
VERTEX
  8
0
 10
23.8127
 20
232.1727
  0
VERTEX
  8
0
 10
23.8543
 20
232.1553
  0
VERTEX
  8
0
 10
23.8913
 20
232.1309
  0
VERTEX
  8
0
 10
23.9239
 20
232.0995
  0
VERTEX
  8
0
 10
23.9554
 20
232.0548
  0
VERTEX
  8
0
 10
23.978
 20
232.0038
  0
VERTEX
  8
0
 10
23.9915
 20
231.9466
  0
VERTEX
  8
0
 10
23.996
 20
231.8831
  0
VERTEX
  8
0
 10
23.9943
 20
231.8383
  0
VERTEX
  8
0
 10
23.9893
 20
231.7968
  0
VERTEX
  8
0
 10
23.9809
 20
231.7586
  0
VERTEX
  8
0
 10
23.9692
 20
231.7238
  0
VERTEX
  8
0
 10
23.9541
 20
231.6922
  0
VERTEX
  8
0
 10
23.9357
 20
231.664
  0
VERTEX
  8
0
 10
23.9139
 20
231.6391
  0
VERTEX
  8
0
 10
23.8888
 20
231.6175
  0
VERTEX
  8
0
 10
23.8604
 20
231.5992
  0
VERTEX
  8
0
 10
23.7914
 20
231.5721
  0
VERTEX
  8
0
 10
23.7163
 20
231.5627
  0
VERTEX
  8
0
 10
23.6641
 20
231.5661
  0
VERTEX
  8
0
 10
23.6169
 20
231.5767
  0
VERTEX
  8
0
 10
23.5746
 20
231.5946
  0
VERTEX
  8
0
 10
23.5374
 20
231.6197
  0
VERTEX
  8
0
 10
23.5052
 20
231.652
  0
VERTEX
  8
0
 10
23.4749
 20
231.6972
  0
VERTEX
  8
0
 10
23.4533
 20
231.7493
  0
VERTEX
  8
0
 10
23.4403
 20
231.8085
  0
VERTEX
  8
0
 10
23.436
 20
231.8747
  0
VERTEX
  8
0
 10
23.436
 20
231.8747
  0
SEQEND
  0
POLYLINE
  8
0
 66
     1
 10
0
 20
0
  0
VERTEX
  8
0
 10
23.54
 20
231.8749
  0
VERTEX
  8
0
 10
23.5497
 20
231.7876
  0
VERTEX
  8
0
 10
23.5789
 20
231.7185
  0
VERTEX
  8
0
 10
23.6048
 20
231.6873
  0
VERTEX
  8
0
 10
23.6363
 20
231.6649
  0
VERTEX
  8
0
 10
23.6735
 20
231.6514
  0
VERTEX
  8
0
 10
23.7163
 20
231.6467
  0
VERTEX
  8
0
 10
23.7591
 20
231.6511
  0
VERTEX
  8
0
 10
23.7962
 20
231.6648
  0
VERTEX
  8
0
 10
23.8278
 20
231.6878
  0
VERTEX
  8
0
 10
23.8537
 20
231.7202
  0
VERTEX
  8
0
 10
23.8824
 20
231.7905
  0
VERTEX
  8
0
 10
23.892
 20
231.8783
  0
VERTEX
  8
0
 10
23.882
 20
231.9633
  0
VERTEX
  8
0
 10
23.852
 20
232.032
  0
VERTEX
  8
0
 10
23.8258
 20
232.0629
  0
VERTEX
  8
0
 10
23.7944
 20
232.085
  0
VERTEX
  8
0
 10
23.7579
 20
232.0983
  0
VERTEX
  8
0
 10
23.7163
 20
232.1027
  0
VERTEX
  8
0
 10
23.6735
 20
232.0982
  0
VERTEX
  8
0
 10
23.6363
 20
232.0847
  0
VERTEX
  8
0
 10
23.6048
 20
232.0623
  0
VERTEX
  8
0
 10
23.5789
 20
232.0309
  0
VERTEX
  8
0
 10
23.5497
 20
231.9616
  0
VERTEX
  8
0
 10
23.54
 20
231.8749
  0
VERTEX
  8
0
 10
23.54
 20
231.8749
  0
SEQEND
  0
POLYLINE
  8
0
 66
     1
 10
0
 20
0
  0
VERTEX
  8
0
 10
24.136
 20
231.5707
  0
VERTEX
  8
0
 10
24.136
 20
232.0947
  0
VERTEX
  8
0
 10
24.048
 20
232.0947
  0
VERTEX
  8
0
 10
24.048
 20
232.1747
  0
VERTEX
  8
0
 10
24.136
 20
232.1747
  0
VERTEX
  8
0
 10
24.136
 20
232.2379
  0
VERTEX
  8
0
 10
24.1387
 20
232.2903
  0
VERTEX
  8
0
 10
24.1468
 20
232.3269
  0
VERTEX
  8
0
 10
24.1603
 20
232.3534
  0
VERTEX
  8
0
 10
24.1788
 20
232.3751
  0
VERTEX
  8
0
 10
24.2023
 20
232.3922
  0
VERTEX
  8
0
 10
24.2308
 20
232.4044
  0
VERTEX
  8
0
 10
24.2644
 20
232.4119
  0
VERTEX
  8
0
 10
24.3029
 20
232.4147
  0
VERTEX
  8
0
 10
24.3472
 20
232.4125
  0
VERTEX
  8
0
 10
24.3984
 20
232.4047
  0
VERTEX
  8
0
 10
24.3829
 20
232.3172
  0
VERTEX
  8
0
 10
24.351
 20
232.321
  0
VERTEX
  8
0
 10
24.322
 20
232.3227
  0
VERTEX
  8
0
 10
24.2802
 20
232.3173
  0
VERTEX
  8
0
 10
24.2532
 20
232.3002
  0
VERTEX
  8
0
 10
24.2403
 20
232.2722
  0
VERTEX
  8
0
 10
24.236
 20
232.2296
  0
VERTEX
  8
0
 10
24.236
 20
232.1747
  0
VERTEX
  8
0
 10
24.356
 20
232.1747
  0
VERTEX
  8
0
 10
24.356
 20
232.0947
  0
VERTEX
  8
0
 10
24.236
 20
232.0947
  0
VERTEX
  8
0
 10
24.236
 20
231.5707
  0
VERTEX
  8
0
 10
24.136
 20
231.5707
  0
SEQEND
  0
POLYLINE
  8
0
 66
     1
 10
0
 20
0
  0
VERTEX
  8
0
 10
24.972
 20
231.5707
  0
VERTEX
  8
0
 10
24.972
 20
232.4027
  0
VERTEX
  8
0
 10
25.072
 20
232.4027
  0
VERTEX
  8
0
 10
25.072
 20
231.5707
  0
VERTEX
  8
0
 10
24.972
 20
231.5707
  0
SEQEND
  0
POLYLINE
  8
0
 66
     1
 10
0
 20
0
  0
VERTEX
  8
0
 10
25.6358
 20
231.7676
  0
VERTEX
  8
0
 10
25.741
 20
231.7547
  0
VERTEX
  8
0
 10
25.7312
 20
231.7241
  0
VERTEX
  8
0
 10
25.7192
 20
231.696
  0
VERTEX
  8
0
 10
25.705
 20
231.6707
  0
VERTEX
  8
0
 10
25.6886
 20
231.648
  0
VERTEX
  8
0
 10
25.67
 20
231.628
  0
VERTEX
  8
0
 10
25.6491
 20
231.6107
  0
VERTEX
  8
0
 10
25.6261
 20
231.596
  0
VERTEX
  8
0
 10
25.6008
 20
231.584
  0
VERTEX
  8
0
 10
25.5733
 20
231.5747
  0
VERTEX
  8
0
 10
25.5436
 20
231.568
  0
VERTEX
  8
0
 10
25.5116
 20
231.564
  0
VERTEX
  8
0
 10
25.4775
 20
231.5627
  0
VERTEX
  8
0
 10
25.4149
 20
231.5677
  0
VERTEX
  8
0
 10
25.3593
 20
231.5828
  0
VERTEX
  8
0
 10
25.3106
 20
231.6079
  0
VERTEX
  8
0
 10
25.2687
 20
231.643
  0
VERTEX
  8
0
 10
25.2411
 20
231.6778
  0
VERTEX
  8
0
 10
25.2196
 20
231.7179
  0
VERTEX
  8
0
 10
25.2043
 20
231.7632
  0
VERTEX
  8
0
 10
25.1951
 20
231.8138
  0
VERTEX
  8
0
 10
25.192
 20
231.8696
  0
VERTEX
  8
0
 10
25.1963
 20
231.9357
  0
VERTEX
  8
0
 10
25.2092
 20
231.9951
  0
VERTEX
  8
0
 10
25.2307
 20
232.0479
  0
VERTEX
  8
0
 10
25.2608
 20
232.0939
  0
VERTEX
  8
0
 10
25.2934
 20
232.1273
  0
VERTEX
  8
0
 10
25.3309
 20
232.1533
  0
VERTEX
  8
0
 10
25.3731
 20
232.1718
  0
VERTEX
  8
0
 10
25.4201
 20
232.183
  0
VERTEX
  8
0
 10
25.4719
 20
232.1867
  0
VERTEX
  8
0
 10
25.5223
 20
232.183
  0
VERTEX
  8
0
 10
25.5681
 20
232.1719
  0
VERTEX
  8
0
 10
25.6092
 20
232.1535
  0
VERTEX
  8
0
 10
25.6455
 20
232.1277
  0
VERTEX
  8
0
 10
25.6772
 20
232.0945
  0
VERTEX
  8
0
 10
25.7066
 20
232.0489
  0
VERTEX
  8
0
 10
25.7276
 20
231.9969
  0
VERTEX
  8
0
 10
25.7402
 20
231.9385
  0
VERTEX
  8
0
 10
25.7444
 20
231.8738
  0
VERTEX
  8
0
 10
25.7442
 20
231.8597
  0
VERTEX
  8
0
 10
25.7438
 20
231.8467
  0
VERTEX
  8
0
 10
25.296
 20
231.8467
  0
VERTEX
  8
0
 10
25.3102
 20
231.7688
  0
VERTEX
  8
0
 10
25.344
 20
231.707
  0
VERTEX
  8
0
 10
25.3807
 20
231.6735
  0
VERTEX
  8
0
 10
25.4252
 20
231.6534
  0
VERTEX
  8
0
 10
25.4775
 20
231.6467
  0
VERTEX
  8
0
 10
25.5135
 20
231.65
  0
VERTEX
  8
0
 10
25.5456
 20
231.6601
  0
VERTEX
  8
0
 10
25.5739
 20
231.6769
  0
VERTEX
  8
0
 10
25.5984
 20
231.7004
  0
VERTEX
  8
0
 10
25.619
 20
231.7307
  0
VERTEX
  8
0
 10
25.6358
 20
231.7676
  0
VERTEX
  8
0
 10
25.6358
 20
231.7676
  0
SEQEND
  0
POLYLINE
  8
0
 66
     1
 10
0
 20
0
  0
VERTEX
  8
0
 10
25.3025
 20
231.9307
  0
VERTEX
  8
0
 10
25.6372
 20
231.9307
  0
VERTEX
  8
0
 10
25.6242
 20
231.9968
  0
VERTEX
  8
0
 10
25.5988
 20
232.044
  0
VERTEX
  8
0
 10
25.5633
 20
232.0764
  0
VERTEX
  8
0
 10
25.5213
 20
232.0959
  0
VERTEX
  8
0
 10
25.473
 20
232.1027
  0
VERTEX
  8
0
 10
25.4058
 20
232.0905
  0
VERTEX
  8
0
 10
25.3522
 20
232.053
  0
VERTEX
  8
0
 10
25.3175
 20
231.9988
  0
VERTEX
  8
0
 10
25.3025
 20
231.9307
  0
VERTEX
  8
0
 10
25.3025
 20
231.9307
  0
SEQEND
  0
POLYLINE
  8
0
 66
     1
 10
0
 20
0
  0
VERTEX
  8
0
 10
26.0896
 20
231.6655
  0
VERTEX
  8
0
 10
26.1042
 20
231.5757
  0
VERTEX
  8
0
 10
26.0636
 20
231.5692
  0
VERTEX
  8
0
 10
26.028
 20
231.5667
  0
VERTEX
  8
0
 10
25.9822
 20
231.5702
  0
VERTEX
  8
0
 10
25.9457
 20
231.5819
  0
VERTEX
  8
0
 10
25.9184
 20
231.6018
  0
VERTEX
  8
0
 10
25.9003
 20
231.6299
  0
VERTEX
  8
0
 10
25.8935
 20
231.6562
  0
VERTEX
  8
0
 10
25.8894
 20
231.6963
  0
VERTEX
  8
0
 10
25.888
 20
231.75
  0
VERTEX
  8
0
 10
25.888
 20
232.0947
  0
VERTEX
  8
0
 10
25.812
 20
232.0947
  0
VERTEX
  8
0
 10
25.812
 20
232.1747
  0
VERTEX
  8
0
 10
25.888
 20
232.1747
  0
VERTEX
  8
0
 10
25.888
 20
232.3221
  0
VERTEX
  8
0
 10
25.988
 20
232.3827
  0
VERTEX
  8
0
 10
25.988
 20
232.1747
  0
VERTEX
  8
0
 10
26.088
 20
232.1747
  0
VERTEX
  8
0
 10
26.088
 20
232.0947
  0
VERTEX
  8
0
 10
25.988
 20
232.0947
  0
VERTEX
  8
0
 10
25.988
 20
231.7454
  0
VERTEX
  8
0
 10
25.9884
 20
231.7184
  0
VERTEX
  8
0
 10
25.9897
 20
231.7037
  0
VERTEX
  8
0
 10
25.9968
 20
231.6838
  0
VERTEX
  8
0
 10
26.0104
 20
231.67
  0
VERTEX
  8
0
 10
26.0248
 20
231.6648
  0
VERTEX
  8
0
 10
26.0453
 20
231.6627
  0
VERTEX
  8
0
 10
26.0645
 20
231.6631
  0
VERTEX
  8
0
 10
26.0896
 20
231.6655
  0
VERTEX
  8
0
 10
26.0896
 20
231.6655
  0
SEQEND
  0
POLYLINE
  8
0
 66
     1
 10
0
 20
0
  0
VERTEX
  8
0
 10
26.4136
 20
231.6655
  0
VERTEX
  8
0
 10
26.4282
 20
231.5757
  0
VERTEX
  8
0
 10
26.3876
 20
231.5692
  0
VERTEX
  8
0
 10
26.352
 20
231.5667
  0
VERTEX
  8
0
 10
26.3062
 20
231.5702
  0
VERTEX
  8
0
 10
26.2697
 20
231.5819
  0
VERTEX
  8
0
 10
26.2424
 20
231.6018
  0
VERTEX
  8
0
 10
26.2243
 20
231.6299
  0
VERTEX
  8
0
 10
26.2175
 20
231.6562
  0
VERTEX
  8
0
 10
26.2134
 20
231.6963
  0
VERTEX
  8
0
 10
26.212
 20
231.75
  0
VERTEX
  8
0
 10
26.212
 20
232.0947
  0
VERTEX
  8
0
 10
26.136
 20
232.0947
  0
VERTEX
  8
0
 10
26.136
 20
232.1747
  0
VERTEX
  8
0
 10
26.212
 20
232.1747
  0
VERTEX
  8
0
 10
26.212
 20
232.3221
  0
VERTEX
  8
0
 10
26.312
 20
232.3827
  0
VERTEX
  8
0
 10
26.312
 20
232.1747
  0
VERTEX
  8
0
 10
26.412
 20
232.1747
  0
VERTEX
  8
0
 10
26.412
 20
232.0947
  0
VERTEX
  8
0
 10
26.312
 20
232.0947
  0
VERTEX
  8
0
 10
26.312
 20
231.7454
  0
VERTEX
  8
0
 10
26.3124
 20
231.7184
  0
VERTEX
  8
0
 10
26.3137
 20
231.7037
  0
VERTEX
  8
0
 10
26.3208
 20
231.6838
  0
VERTEX
  8
0
 10
26.3344
 20
231.67
  0
VERTEX
  8
0
 10
26.3488
 20
231.6648
  0
VERTEX
  8
0
 10
26.3693
 20
231.6627
  0
VERTEX
  8
0
 10
26.3885
 20
231.6631
  0
VERTEX
  8
0
 10
26.4136
 20
231.6655
  0
VERTEX
  8
0
 10
26.4136
 20
231.6655
  0
SEQEND
  0
POLYLINE
  8
0
 66
     1
 10
0
 20
0
  0
VERTEX
  8
0
 10
26.9238
 20
231.7676
  0
VERTEX
  8
0
 10
27.029
 20
231.7547
  0
VERTEX
  8
0
 10
27.0192
 20
231.7241
  0
VERTEX
  8
0
 10
27.0072
 20
231.696
  0
VERTEX
  8
0
 10
26.993
 20
231.6707
  0
VERTEX
  8
0
 10
26.9766
 20
231.648
  0
VERTEX
  8
0
 10
26.958
 20
231.628
  0
VERTEX
  8
0
 10
26.9371
 20
231.6107
  0
VERTEX
  8
0
 10
26.9141
 20
231.596
  0
VERTEX
  8
0
 10
26.8888
 20
231.584
  0
VERTEX
  8
0
 10
26.8613
 20
231.5747
  0
VERTEX
  8
0
 10
26.8316
 20
231.568
  0
VERTEX
  8
0
 10
26.7996
 20
231.564
  0
VERTEX
  8
0
 10
26.7655
 20
231.5627
  0
VERTEX
  8
0
 10
26.7029
 20
231.5677
  0
VERTEX
  8
0
 10
26.6473
 20
231.5828
  0
VERTEX
  8
0
 10
26.5986
 20
231.6079
  0
VERTEX
  8
0
 10
26.5567
 20
231.643
  0
VERTEX
  8
0
 10
26.5291
 20
231.6778
  0
VERTEX
  8
0
 10
26.5076
 20
231.7179
  0
VERTEX
  8
0
 10
26.4923
 20
231.7632
  0
VERTEX
  8
0
 10
26.4831
 20
231.8138
  0
VERTEX
  8
0
 10
26.48
 20
231.8696
  0
VERTEX
  8
0
 10
26.4843
 20
231.9357
  0
VERTEX
  8
0
 10
26.4972
 20
231.9951
  0
VERTEX
  8
0
 10
26.5187
 20
232.0479
  0
VERTEX
  8
0
 10
26.5488
 20
232.0939
  0
VERTEX
  8
0
 10
26.5814
 20
232.1273
  0
VERTEX
  8
0
 10
26.6189
 20
232.1533
  0
VERTEX
  8
0
 10
26.6611
 20
232.1718
  0
VERTEX
  8
0
 10
26.7081
 20
232.183
  0
VERTEX
  8
0
 10
26.7599
 20
232.1867
  0
VERTEX
  8
0
 10
26.8103
 20
232.183
  0
VERTEX
  8
0
 10
26.8561
 20
232.1719
  0
VERTEX
  8
0
 10
26.8972
 20
232.1535
  0
VERTEX
  8
0
 10
26.9335
 20
232.1277
  0
VERTEX
  8
0
 10
26.9652
 20
232.0945
  0
VERTEX
  8
0
 10
26.9946
 20
232.0489
  0
VERTEX
  8
0
 10
27.0156
 20
231.9969
  0
VERTEX
  8
0
 10
27.0282
 20
231.9385
  0
VERTEX
  8
0
 10
27.0324
 20
231.8738
  0
VERTEX
  8
0
 10
27.0322
 20
231.8597
  0
VERTEX
  8
0
 10
27.0318
 20
231.8467
  0
VERTEX
  8
0
 10
26.584
 20
231.8467
  0
VERTEX
  8
0
 10
26.5982
 20
231.7688
  0
VERTEX
  8
0
 10
26.632
 20
231.707
  0
VERTEX
  8
0
 10
26.6687
 20
231.6735
  0
VERTEX
  8
0
 10
26.7132
 20
231.6534
  0
VERTEX
  8
0
 10
26.7655
 20
231.6467
  0
VERTEX
  8
0
 10
26.8015
 20
231.65
  0
VERTEX
  8
0
 10
26.8336
 20
231.6601
  0
VERTEX
  8
0
 10
26.8619
 20
231.6769
  0
VERTEX
  8
0
 10
26.8864
 20
231.7004
  0
VERTEX
  8
0
 10
26.907
 20
231.7307
  0
VERTEX
  8
0
 10
26.9238
 20
231.7676
  0
VERTEX
  8
0
 10
26.9238
 20
231.7676
  0
SEQEND
  0
POLYLINE
  8
0
 66
     1
 10
0
 20
0
  0
VERTEX
  8
0
 10
26.5905
 20
231.9307
  0
VERTEX
  8
0
 10
26.9252
 20
231.9307
  0
VERTEX
  8
0
 10
26.9122
 20
231.9968
  0
VERTEX
  8
0
 10
26.8868
 20
232.044
  0
VERTEX
  8
0
 10
26.8513
 20
232.0764
  0
VERTEX
  8
0
 10
26.8093
 20
232.0959
  0
VERTEX
  8
0
 10
26.761
 20
232.1027
  0
VERTEX
  8
0
 10
26.6938
 20
232.0905
  0
VERTEX
  8
0
 10
26.6402
 20
232.053
  0
VERTEX
  8
0
 10
26.6055
 20
231.9988
  0
VERTEX
  8
0
 10
26.5905
 20
231.9307
  0
VERTEX
  8
0
 10
26.5905
 20
231.9307
  0
SEQEND
  0
POLYLINE
  8
0
 66
     1
 10
0
 20
0
  0
VERTEX
  8
0
 10
27.152
 20
231.5707
  0
VERTEX
  8
0
 10
27.152
 20
232.1739
  0
VERTEX
  8
0
 10
27.244
 20
232.1739
  0
VERTEX
  8
0
 10
27.244
 20
232.083
  0
VERTEX
  8
0
 10
27.2704
 20
232.1259
  0
VERTEX
  8
0
 10
27.2946
 20
232.1547
  0
VERTEX
  8
0
 10
27.3309
 20
232.1787
  0
VERTEX
  8
0
 10
27.3734
 20
232.1867
  0
VERTEX
  8
0
 10
27.4247
 20
232.1785
  0
VERTEX
  8
0
 10
27.4775
 20
232.1542
  0
VERTEX
  8
0
 10
27.4423
 20
232.0605
  0
VERTEX
  8
0
 10
27.4048
 20
232.0771
  0
VERTEX
  8
0
 10
27.3673
 20
232.0827
  0
VERTEX
  8
0
 10
27.3344
 20
232.0768
  0
VERTEX
  8
0
 10
27.3037
 20
232.0594
  0
VERTEX
  8
0
 10
27.2831
 20
232.0364
  0
VERTEX
  8
0
 10
27.269
 20
232.0064
  0
VERTEX
  8
0
 10
27.2562
 20
231.9498
  0
VERTEX
  8
0
 10
27.252
 20
231.887
  0
VERTEX
  8
0
 10
27.252
 20
231.5707
  0
VERTEX
  8
0
 10
27.152
 20
231.5707
  0
SEQEND
  0
POLYLINE
  8
0
 66
     1
 10
0
 20
0
  0
VERTEX
  8
0
 10
28.4654
 20
231.6486
  0
VERTEX
  8
0
 10
28.4133
 20
231.6112
  0
VERTEX
  8
0
 10
28.3592
 20
231.5844
  0
VERTEX
  8
0
 10
28.303
 20
231.5683
  0
VERTEX
  8
0
 10
28.2448
 20
231.5627
  0
VERTEX
  8
0
 10
28.165
 20
231.5725
  0
VERTEX
  8
0
 10
28.1015
 20
231.6031
  0
VERTEX
  8
0
 10
28.0676
 20
231.6378
  0
VERTEX
  8
0
 10
28.0471
 20
231.6813
  0
VERTEX
  8
0
 10
28.04
 20
231.7335
  0
VERTEX
  8
0
 10
28.0443
 20
231.775
  0
VERTEX
  8
0
 10
28.0577
 20
231.8119
  0
VERTEX
  8
0
 10
28.0802
 20
231.8441
  0
VERTEX
  8
0
 10
28.1119
 20
231.8717
  0
VERTEX
  8
0
 10
28.1457
 20
231.891
  0
VERTEX
  8
0
 10
28.185
 20
231.9049
  0
VERTEX
  8
0
 10
28.2218
 20
231.9126
  0
VERTEX
  8
0
 10
28.275
 20
231.92
  0
VERTEX
  8
0
 10
28.351
 20
231.9307
  0
VERTEX
  8
0
 10
28.4111
 20
231.9423
  0
VERTEX
  8
0
 10
28.4554
 20
231.9549
  0
VERTEX
  8
0
 10
28.4556
 20
231.9724
  0
VERTEX
  8
0
 10
28.456
 20
231.9813
  0
VERTEX
  8
0
 10
28.4488
 20
232.034
  0
VERTEX
  8
0
 10
28.4273
 20
232.0684
  0
VERTEX
  8
0
 10
28.3794
 20
232.0938
  0
VERTEX
  8
0
 10
28.3121
 20
232.1027
  0
VERTEX
  8
0
 10
28.2521
 20
232.0971
  0
VERTEX
  8
0
 10
28.2092
 20
232.0791
  0
VERTEX
  8
0
 10
28.1781
 20
232.044
  0
VERTEX
  8
0
 10
28.1564
 20
231.9894
  0
VERTEX
  8
0
 10
28.0575
 20
232.0029
  0
VERTEX
  8
0
 10
28.0714
 20
232.0488
  0
VERTEX
  8
0
 10
28.0917
 20
232.0879
  0
VERTEX
  8
0
 10
28.1186
 20
232.1204
  0
VERTEX
  8
0
 10
28.152
 20
232.1462
  0
VERTEX
  8
0
 10
28.1919
 20
232.1653
  0
VERTEX
  8
0
 10
28.2544
 20
232.181
  0
VERTEX
  8
0
 10
28.3279
 20
232.1867
  0
VERTEX
  8
0
 10
28.3811
 20
232.1843
  0
VERTEX
  8
0
 10
28.4272
 20
232.1767
  0
VERTEX
  8
0
 10
28.4663
 20
232.1639
  0
VERTEX
  8
0
 10
28.4983
 20
232.1458
  0
VERTEX
  8
0
 10
28.5233
 20
232.1225
  0
VERTEX
  8
0
 10
28.5422
 20
232.0919
  0
VERTEX
  8
0
 10
28.5549
 20
232.0534
  0
VERTEX
  8
0
 10
28.5587
 20
232.0185
  0
VERTEX
  8
0
 10
28.56
 20
231.9592
  0
VERTEX
  8
0
 10
28.56
 20
231.8231
  0
VERTEX
  8
0
 10
28.56
 20
231.7787
  0
VERTEX
  8
0
 10
28.5601
 20
231.7436
  0
VERTEX
  8
0
 10
28.5602
 20
231.7177
  0
VERTEX
  8
0
 10
28.5603
 20
231.7011
  0
VERTEX
  8
0
 10
28.5605
 20
231.6937
  0
VERTEX
  8
0
 10
28.5706
 20
231.6255
  0
VERTEX
  8
0
 10
28.5918
 20
231.5707
  0
VERTEX
  8
0
 10
28.4857
 20
231.5707
  0
VERTEX
  8
0
 10
28.473
 20
231.6068
  0
VERTEX
  8
0
 10
28.4654
 20
231.6486
  0
VERTEX
  8
0
 10
28.4654
 20
231.6486
  0
SEQEND
  0
POLYLINE
  8
0
 66
     1
 10
0
 20
0
  0
VERTEX
  8
0
 10
28.456
 20
231.8754
  0
VERTEX
  8
0
 10
28.387
 20
231.855
  0
VERTEX
  8
0
 10
28.2904
 20
231.8374
  0
VERTEX
  8
0
 10
28.2471
 20
231.8304
  0
VERTEX
  8
0
 10
28.2195
 20
231.8239
  0
VERTEX
  8
0
 10
28.1852
 20
231.8076
  0
VERTEX
  8
0
 10
28.162
 20
231.7842
  0
VERTEX
  8
0
 10
28.1518
 20
231.762
  0
VERTEX
  8
0
 10
28.148
 20
231.7367
  0
VERTEX
  8
0
 10
28.1571
 20
231.6947
  0
VERTEX
  8
0
 10
28.1857
 20
231.6639
  0
VERTEX
  8
0
 10
28.2227
 20
231.648
  0
VERTEX
  8
0
 10
28.2685
 20
231.6427
  0
VERTEX
  8
0
 10
28.3081
 20
231.6453
  0
VERTEX
  8
0
 10
28.3433
 20
231.6532
  0
VERTEX
  8
0
 10
28.3741
 20
231.6665
  0
VERTEX
  8
0
 10
28.4004
 20
231.6849
  0
VERTEX
  8
0
 10
28.4222
 20
231.7087
  0
VERTEX
  8
0
 10
28.4397
 20
231.7378
  0
VERTEX
  8
0
 10
28.4519
 20
231.78
  0
VERTEX
  8
0
 10
28.456
 20
231.8385
  0
VERTEX
  8
0
 10
28.456
 20
231.8754
  0
SEQEND
  0
POLYLINE
  8
0
 66
     1
 10
0
 20
0
  0
VERTEX
  8
0
 10
28.716
 20
231.5707
  0
VERTEX
  8
0
 10
28.716
 20
232.1739
  0
VERTEX
  8
0
 10
28.808
 20
232.1739
  0
VERTEX
  8
0
 10
28.808
 20
232.0887
  0
VERTEX
  8
0
 10
28.8368
 20
232.1238
  0
VERTEX
  8
0
 10
28.8703
 20
232.1511
  0
VERTEX
  8
0
 10
28.9085
 20
232.1707
  0
VERTEX
  8
0
 10
28.9513
 20
232.1826
  0
VERTEX
  8
0
 10
28.9989
 20
232.1867
  0
VERTEX
  8
0
 10
29.0501
 20
232.1817
  0
VERTEX
  8
0
 10
29.0984
 20
232.1668
  0
VERTEX
  8
0
 10
29.1349
 20
232.1459
  0
VERTEX
  8
0
 10
29.1637
 20
232.1179
  0
VERTEX
  8
0
 10
29.1849
 20
232.0827
  0
VERTEX
  8
0
 10
29.1984
 20
232.0404
  0
VERTEX
  8
0
 10
29.2026
 20
232.0022
  0
VERTEX
  8
0
 10
29.204
 20
231.941
  0
VERTEX
  8
0
 10
29.204
 20
231.5707
  0
VERTEX
  8
0
 10
29.104
 20
231.5707
  0
VERTEX
  8
0
 10
29.104
 20
231.9374
  0
VERTEX
  8
0
 10
29.102
 20
231.9841
  0
VERTEX
  8
0
 10
29.096
 20
232.0175
  0
VERTEX
  8
0
 10
29.0785
 20
232.0535
  0
VERTEX
  8
0
 10
29.049
 20
232.0799
  0
VERTEX
  8
0
 10
29.016
 20
232.094
  0
VERTEX
  8
0
 10
28.9774
 20
232.0987
  0
VERTEX
  8
0
 10
28.9516
 20
232.0973
  0
VERTEX
  8
0
 10
28.9281
 20
232.0932
  0
VERTEX
  8
0
 10
28.9068
 20
232.0863
  0
VERTEX
  8
0
 10
28.8877
 20
232.0766
  0
VERTEX
  8
0
 10
28.8709
 20
232.0642
  0
VERTEX
  8
0
 10
28.8563
 20
232.049
  0
VERTEX
  8
0
 10
28.844
 20
232.0311
  0
VERTEX
  8
0
 10
28.8339
 20
232.0104
  0
VERTEX
  8
0
 10
28.8261
 20
231.9869
  0
VERTEX
  8
0
 10
28.8205
 20
231.9607
  0
VERTEX
  8
0
 10
28.8171
 20
231.9317
  0
VERTEX
  8
0
 10
28.816
 20
231.9
  0
VERTEX
  8
0
 10
28.816
 20
231.5707
  0
VERTEX
  8
0
 10
28.716
 20
231.5707
  0
SEQEND
  0
POLYLINE
  8
0
 66
     1
 10
0
 20
0
  0
VERTEX
  8
0
 10
29.748
 20
231.5707
  0
VERTEX
  8
0
 10
29.748
 20
231.6503
  0
VERTEX
  8
0
 10
29.7233
 20
231.6189
  0
VERTEX
  8
0
 10
29.6943
 20
231.5945
  0
VERTEX
  8
0
 10
29.6609
 20
231.577
  0
VERTEX
  8
0
 10
29.6231
 20
231.5664
  0
VERTEX
  8
0
 10
29.581
 20
231.5627
  0
VERTEX
  8
0
 10
29.5107
 20
231.5727
  0
VERTEX
  8
0
 10
29.4471
 20
231.6037
  0
VERTEX
  8
0
 10
29.3949
 20
231.6508
  0
VERTEX
  8
0
 10
29.3563
 20
231.7122
  0
VERTEX
  8
0
 10
29.3323
 20
231.787
  0
VERTEX
  8
0
 10
29.324
 20
231.8741
  0
VERTEX
  8
0
 10
29.3256
 20
231.9209
  0
VERTEX
  8
0
 10
29.3311
 20
231.9642
  0
VERTEX
  8
0
 10
29.3403
 20
232.0038
  0
VERTEX
  8
0
 10
29.3534
 20
232.0398
  0
VERTEX
  8
0
 10
29.3703
 20
232.0722
  0
VERTEX
  8
0
 10
29.3911
 20
232.101
  0
VERTEX
  8
0
 10
29.4156
 20
232.1262
  0
VERTEX
  8
0
 10
29.444
 20
232.1479
  0
VERTEX
  8
0
 10
29.5072
 20
232.177
  0
VERTEX
  8
0
 10
29.5781
 20
232.1867
  0
VERTEX
  8
0
 10
29.6282
 20
232.1816
  0
VERTEX
  8
0
 10
29.6725
 20
232.1663
  0
VERTEX
  8
0
 10
29.7111
 20
232.1408
  0
VERTEX
  8
0
 10
29.744
 20
232.105
  0
VERTEX
  8
0
 10
29.744
 20
232.4027
  0
VERTEX
  8
0
 10
29.844
 20
232.4027
  0
VERTEX
  8
0
 10
29.844
 20
231.5707
  0
VERTEX
  8
0
 10
29.748
 20
231.5707
  0
SEQEND
  0
POLYLINE
  8
0
 66
     1
 10
0
 20
0
  0
VERTEX
  8
0
 10
29.428
 20
231.8744
  0
VERTEX
  8
0
 10
29.4369
 20
231.7913
  0
VERTEX
  8
0
 10
29.4635
 20
231.7224
  0
VERTEX
  8
0
 10
29.4878
 20
231.6895
  0
VERTEX
  8
0
 10
29.5172
 20
231.6659
  0
VERTEX
  8
0
 10
29.5517
 20
231.6516
  0
VERTEX
  8
0
 10
29.5912
 20
231.6467
  0
VERTEX
  8
0
 10
29.6302
 20
231.6509
  0
VERTEX
  8
0
 10
29.6641
 20
231.6643
  0
VERTEX
  8
0
 10
29.6929
 20
231.6869
  0
VERTEX
  8
0
 10
29.7167
 20
231.7185
  0
VERTEX
  8
0
 10
29.7425
 20
231.7851
  0
VERTEX
  8
0
 10
29.7511
 20
231.866
  0
VERTEX
  8
0
 10
29.7428
 20
231.9533
  0
VERTEX
  8
0
 10
29.7178
 20
232.0236
  0
VERTEX
  8
0
 10
29.6935
 20
232.0582
  0
VERTEX
  8
0
 10
29.6636
 20
232.0829
  0
VERTEX
  8
0
 10
29.628
 20
232.0977
  0
VERTEX
  8
0
 10
29.5867
 20
232.1027
  0
VERTEX
  8
0
 10
29.5466
 20
232.0979
  0
VERTEX
  8
0
 10
29.5122
 20
232.0837
  0
VERTEX
  8
0
 10
29.4833
 20
232.0601
  0
VERTEX
  8
0
 10
29.4602
 20
232.0269
  0
VERTEX
  8
0
 10
29.436
 20
231.9591
  0
VERTEX
  8
0
 10
29.428
 20
231.8744
  0
VERTEX
  8
0
 10
29.428
 20
231.8744
  0
SEQEND
  0
POLYLINE
  8
0
 66
     1
 10
0
 20
0
  0
VERTEX
  8
0
 10
30.496
 20
231.8747
  0
VERTEX
  8
0
 10
30.4985
 20
231.9276
  0
VERTEX
  8
0
 10
30.5062
 20
231.9757
  0
VERTEX
  8
0
 10
30.5191
 20
232.019
  0
VERTEX
  8
0
 10
30.537
 20
232.0576
  0
VERTEX
  8
0
 10
30.5601
 20
232.0913
  0
VERTEX
  8
0
 10
30.5883
 20
232.1204
  0
VERTEX
  8
0
 10
30.6432
 20
232.1572
  0
VERTEX
  8
0
 10
30.7059
 20
232.1793
  0
VERTEX
  8
0
 10
30.7763
 20
232.1867
  0
VERTEX
  8
0
 10
30.8267
 20
232.1832
  0
VERTEX
  8
0
 10
30.8727
 20
232.1727
  0
VERTEX
  8
0
 10
30.9142
 20
232.1553
  0
VERTEX
  8
0
 10
30.9513
 20
232.1309
  0
VERTEX
  8
0
 10
30.9839
 20
232.0995
  0
VERTEX
  8
0
 10
31.0154
 20
232.0548
  0
VERTEX
  8
0
 10
31.038
 20
232.0038
  0
VERTEX
  8
0
 10
31.0515
 20
231.9466
  0
VERTEX
  8
0
 10
31.056
 20
231.8831
  0
VERTEX
  8
0
 10
31.0543
 20
231.8383
  0
VERTEX
  8
0
 10
31.0493
 20
231.7968
  0
VERTEX
  8
0
 10
31.0409
 20
231.7586
  0
VERTEX
  8
0
 10
31.0292
 20
231.7238
  0
VERTEX
  8
0
 10
31.0141
 20
231.6922
  0
VERTEX
  8
0
 10
30.9957
 20
231.664
  0
VERTEX
  8
0
 10
30.9739
 20
231.6391
  0
VERTEX
  8
0
 10
30.9488
 20
231.6175
  0
VERTEX
  8
0
 10
30.9204
 20
231.5992
  0
VERTEX
  8
0
 10
30.8514
 20
231.5721
  0
VERTEX
  8
0
 10
30.7763
 20
231.5627
  0
VERTEX
  8
0
 10
30.7241
 20
231.5661
  0
VERTEX
  8
0
 10
30.6769
 20
231.5767
  0
VERTEX
  8
0
 10
30.6346
 20
231.5946
  0
VERTEX
  8
0
 10
30.5974
 20
231.6197
  0
VERTEX
  8
0
 10
30.5652
 20
231.652
  0
VERTEX
  8
0
 10
30.5349
 20
231.6972
  0
VERTEX
  8
0
 10
30.5133
 20
231.7493
  0
VERTEX
  8
0
 10
30.5003
 20
231.8085
  0
VERTEX
  8
0
 10
30.496
 20
231.8747
  0
VERTEX
  8
0
 10
30.496
 20
231.8747
  0
SEQEND
  0
POLYLINE
  8
0
 66
     1
 10
0
 20
0
  0
VERTEX
  8
0
 10
30.6
 20
231.8749
  0
VERTEX
  8
0
 10
30.6097
 20
231.7876
  0
VERTEX
  8
0
 10
30.6389
 20
231.7185
  0
VERTEX
  8
0
 10
30.6648
 20
231.6873
  0
VERTEX
  8
0
 10
30.6963
 20
231.6649
  0
VERTEX
  8
0
 10
30.7335
 20
231.6514
  0
VERTEX
  8
0
 10
30.7763
 20
231.6467
  0
VERTEX
  8
0
 10
30.8191
 20
231.6511
  0
VERTEX
  8
0
 10
30.8562
 20
231.6648
  0
VERTEX
  8
0
 10
30.8878
 20
231.6878
  0
VERTEX
  8
0
 10
30.9137
 20
231.7202
  0
VERTEX
  8
0
 10
30.9424
 20
231.7905
  0
VERTEX
  8
0
 10
30.952
 20
231.8783
  0
VERTEX
  8
0
 10
30.942
 20
231.9633
  0
VERTEX
  8
0
 10
30.912
 20
232.032
  0
VERTEX
  8
0
 10
30.8858
 20
232.0629
  0
VERTEX
  8
0
 10
30.8544
 20
232.085
  0
VERTEX
  8
0
 10
30.8179
 20
232.0983
  0
VERTEX
  8
0
 10
30.7763
 20
232.1027
  0
VERTEX
  8
0
 10
30.7335
 20
232.0982
  0
VERTEX
  8
0
 10
30.6963
 20
232.0847
  0
VERTEX
  8
0
 10
30.6648
 20
232.0623
  0
VERTEX
  8
0
 10
30.6389
 20
232.0309
  0
VERTEX
  8
0
 10
30.6097
 20
231.9616
  0
VERTEX
  8
0
 10
30.6
 20
231.8749
  0
VERTEX
  8
0
 10
30.6
 20
231.8749
  0
SEQEND
  0
POLYLINE
  8
0
 66
     1
 10
0
 20
0
  0
VERTEX
  8
0
 10
31.272
 20
231.5707
  0
VERTEX
  8
0
 10
31.176
 20
231.5707
  0
VERTEX
  8
0
 10
31.176
 20
232.4027
  0
VERTEX
  8
0
 10
31.276
 20
232.4027
  0
VERTEX
  8
0
 10
31.276
 20
232.1067
  0
VERTEX
  8
0
 10
31.3105
 20
232.1415
  0
VERTEX
  8
0
 10
31.3495
 20
232.1664
  0
VERTEX
  8
0
 10
31.393
 20
232.1815
  0
VERTEX
  8
0
 10
31.4409
 20
232.1867
  0
VERTEX
  8
0
 10
31.4965
 20
232.1816
  0
VERTEX
  8
0
 10
31.5461
 20
232.1658
  0
VERTEX
  8
0
 10
31.5895
 20
232.1393
  0
VERTEX
  8
0
 10
31.6268
 20
232.1021
  0
VERTEX
  8
0
 10
31.6569
 20
232.0565
  0
VERTEX
  8
0
 10
31.6784
 20
232.0049
  0
VERTEX
  8
0
 10
31.6914
 20
231.9473
  0
VERTEX
  8
0
 10
31.696
 20
231.8837
  0
VERTEX
  8
0
 10
31.6891
 20
231.8008
  0
VERTEX
  8
0
 10
31.6685
 20
231.7275
  0
VERTEX
  8
0
 10
31.6341
 20
231.6639
  0
VERTEX
  8
0
 10
31.6036
 20
231.6276
  0
VERTEX
  8
0
 10
31.5687
 20
231.5994
  0
VERTEX
  8
0
 10
31.5295
 20
231.5791
  0
VERTEX
  8
0
 10
31.4858
 20
231.5669
  0
VERTEX
  8
0
 10
31.4379
 20
231.5627
  0
VERTEX
  8
0
 10
31.3881
 20
231.5679
  0
VERTEX
  8
0
 10
31.3438
 20
231.5842
  0
VERTEX
  8
0
 10
31.3051
 20
231.6114
  0
VERTEX
  8
0
 10
31.272
 20
231.6497
  0
VERTEX
  8
0
 10
31.272
 20
231.5707
  0
SEQEND
  0
POLYLINE
  8
0
 66
     1
 10
0
 20
0
  0
VERTEX
  8
0
 10
31.272
 20
231.8792
  0
VERTEX
  8
0
 10
31.2752
 20
231.8144
  0
VERTEX
  8
0
 10
31.2849
 20
231.7629
  0
VERTEX
  8
0
 10
31.301
 20
231.7245
  0
VERTEX
  8
0
 10
31.3267
 20
231.6907
  0
VERTEX
  8
0
 10
31.3567
 20
231.6664
  0
VERTEX
  8
0
 10
31.3911
 20
231.6517
  0
VERTEX
  8
0
 10
31.4297
 20
231.6467
  0
VERTEX
  8
0
 10
31.4689
 20
231.6512
  0
VERTEX
  8
0
 10
31.5032
 20
231.6654
  0
VERTEX
  8
0
 10
31.5324
 20
231.6893
  0
VERTEX
  8
0
 10
31.5567
 20
231.7229
  0
VERTEX
  8
0
 10
31.5832
 20
231.7923
  0
VERTEX
  8
0
 10
31.592
 20
231.8752
  0
VERTEX
  8
0
 10
31.5837
 20
231.9584
  0
VERTEX
  8
0
 10
31.559
 20
232.0265
  0
VERTEX
  8
0
 10
31.5357
 20
232.0598
  0
VERTEX
  8
0
 10
31.5071
 20
232.0836
  0
VERTEX
  8
0
 10
31.4733
 20
232.0979
  0
VERTEX
  8
0
 10
31.4342
 20
232.1027
  0
VERTEX
  8
0
 10
31.3958
 20
232.098
  0
VERTEX
  8
0
 10
31.3621
 20
232.084
  0
VERTEX
  8
0
 10
31.3331
 20
232.0608
  0
VERTEX
  8
0
 10
31.3089
 20
232.0282
  0
VERTEX
  8
0
 10
31.2812
 20
231.9598
  0
VERTEX
  8
0
 10
31.272
 20
231.8792
  0
VERTEX
  8
0
 10
31.272
 20
231.8792
  0
SEQEND
  0
POLYLINE
  8
0
 66
     1
 10
0
 20
0
  0
VERTEX
  8
0
 10
31.828
 20
232.2867
  0
VERTEX
  8
0
 10
31.828
 20
232.4027
  0
VERTEX
  8
0
 10
31.928
 20
232.4027
  0
VERTEX
  8
0
 10
31.928
 20
232.2867
  0
VERTEX
  8
0
 10
31.828
 20
232.2867
  0
SEQEND
  0
POLYLINE
  8
0
 66
     1
 10
0
 20
0
  0
VERTEX
  8
0
 10
31.696
 20
231.3415
  0
VERTEX
  8
0
 10
31.7157
 20
231.4285
  0
VERTEX
  8
0
 10
31.7436
 20
231.4215
  0
VERTEX
  8
0
 10
31.7649
 20
231.4187
  0
VERTEX
  8
0
 10
31.7919
 20
231.4235
  0
VERTEX
  8
0
 10
31.8118
 20
231.439
  0
VERTEX
  8
0
 10
31.8208
 20
231.4598
  0
VERTEX
  8
0
 10
31.8262
 20
231.4943
  0
VERTEX
  8
0
 10
31.828
 20
231.5425
  0
VERTEX
  8
0
 10
31.828
 20
232.1739
  0
VERTEX
  8
0
 10
31.928
 20
232.1739
  0
VERTEX
  8
0
 10
31.928
 20
231.5413
  0
VERTEX
  8
0
 10
31.9248
 20
231.4752
  0
VERTEX
  8
0
 10
31.9151
 20
231.4238
  0
VERTEX
  8
0
 10
31.899
 20
231.3872
  0
VERTEX
  8
0
 10
31.8689
 20
231.356
  0
VERTEX
  8
0
 10
31.828
 20
231.3372
  0
VERTEX
  8
0
 10
31.7762
 20
231.3307
  0
VERTEX
  8
0
 10
31.7357
 20
231.3334
  0
VERTEX
  8
0
 10
31.696
 20
231.3415
  0
VERTEX
  8
0
 10
31.696
 20
231.3415
  0
SEQEND
  0
POLYLINE
  8
0
 66
     1
 10
0
 20
0
  0
VERTEX
  8
0
 10
32.4798
 20
231.7676
  0
VERTEX
  8
0
 10
32.585
 20
231.7547
  0
VERTEX
  8
0
 10
32.5752
 20
231.7241
  0
VERTEX
  8
0
 10
32.5632
 20
231.696
  0
VERTEX
  8
0
 10
32.549
 20
231.6707
  0
VERTEX
  8
0
 10
32.5326
 20
231.648
  0
VERTEX
  8
0
 10
32.514
 20
231.628
  0
VERTEX
  8
0
 10
32.4931
 20
231.6107
  0
VERTEX
  8
0
 10
32.4701
 20
231.596
  0
VERTEX
  8
0
 10
32.4448
 20
231.584
  0
VERTEX
  8
0
 10
32.4173
 20
231.5747
  0
VERTEX
  8
0
 10
32.3876
 20
231.568
  0
VERTEX
  8
0
 10
32.3556
 20
231.564
  0
VERTEX
  8
0
 10
32.3215
 20
231.5627
  0
VERTEX
  8
0
 10
32.2589
 20
231.5677
  0
VERTEX
  8
0
 10
32.2033
 20
231.5828
  0
VERTEX
  8
0
 10
32.1546
 20
231.6079
  0
VERTEX
  8
0
 10
32.1127
 20
231.643
  0
VERTEX
  8
0
 10
32.0851
 20
231.6778
  0
VERTEX
  8
0
 10
32.0636
 20
231.7179
  0
VERTEX
  8
0
 10
32.0483
 20
231.7632
  0
VERTEX
  8
0
 10
32.0391
 20
231.8138
  0
VERTEX
  8
0
 10
32.036
 20
231.8696
  0
VERTEX
  8
0
 10
32.0403
 20
231.9357
  0
VERTEX
  8
0
 10
32.0532
 20
231.9951
  0
VERTEX
  8
0
 10
32.0747
 20
232.0479
  0
VERTEX
  8
0
 10
32.1048
 20
232.0939
  0
VERTEX
  8
0
 10
32.1374
 20
232.1273
  0
VERTEX
  8
0
 10
32.1749
 20
232.1533
  0
VERTEX
  8
0
 10
32.2171
 20
232.1718
  0
VERTEX
  8
0
 10
32.2641
 20
232.183
  0
VERTEX
  8
0
 10
32.3159
 20
232.1867
  0
VERTEX
  8
0
 10
32.3663
 20
232.183
  0
VERTEX
  8
0
 10
32.4121
 20
232.1719
  0
VERTEX
  8
0
 10
32.4532
 20
232.1535
  0
VERTEX
  8
0
 10
32.4895
 20
232.1277
  0
VERTEX
  8
0
 10
32.5212
 20
232.0945
  0
VERTEX
  8
0
 10
32.5506
 20
232.0489
  0
VERTEX
  8
0
 10
32.5716
 20
231.9969
  0
VERTEX
  8
0
 10
32.5842
 20
231.9385
  0
VERTEX
  8
0
 10
32.5884
 20
231.8738
  0
VERTEX
  8
0
 10
32.5882
 20
231.8597
  0
VERTEX
  8
0
 10
32.5878
 20
231.8467
  0
VERTEX
  8
0
 10
32.14
 20
231.8467
  0
VERTEX
  8
0
 10
32.1542
 20
231.7688
  0
VERTEX
  8
0
 10
32.188
 20
231.707
  0
VERTEX
  8
0
 10
32.2247
 20
231.6735
  0
VERTEX
  8
0
 10
32.2692
 20
231.6534
  0
VERTEX
  8
0
 10
32.3215
 20
231.6467
  0
VERTEX
  8
0
 10
32.3575
 20
231.65
  0
VERTEX
  8
0
 10
32.3896
 20
231.6601
  0
VERTEX
  8
0
 10
32.4179
 20
231.6769
  0
VERTEX
  8
0
 10
32.4424
 20
231.7004
  0
VERTEX
  8
0
 10
32.463
 20
231.7307
  0
VERTEX
  8
0
 10
32.4798
 20
231.7676
  0
VERTEX
  8
0
 10
32.4798
 20
231.7676
  0
SEQEND
  0
POLYLINE
  8
0
 66
     1
 10
0
 20
0
  0
VERTEX
  8
0
 10
32.1465
 20
231.9307
  0
VERTEX
  8
0
 10
32.4812
 20
231.9307
  0
VERTEX
  8
0
 10
32.4682
 20
231.9968
  0
VERTEX
  8
0
 10
32.4428
 20
232.044
  0
VERTEX
  8
0
 10
32.4073
 20
232.0764
  0
VERTEX
  8
0
 10
32.3653
 20
232.0959
  0
VERTEX
  8
0
 10
32.317
 20
232.1027
  0
VERTEX
  8
0
 10
32.2498
 20
232.0905
  0
VERTEX
  8
0
 10
32.1962
 20
232.053
  0
VERTEX
  8
0
 10
32.1615
 20
231.9988
  0
VERTEX
  8
0
 10
32.1465
 20
231.9307
  0
VERTEX
  8
0
 10
32.1465
 20
231.9307
  0
SEQEND
  0
POLYLINE
  8
0
 66
     1
 10
0
 20
0
  0
VERTEX
  8
0
 10
33.106
 20
231.7942
  0
VERTEX
  8
0
 10
33.2059
 20
231.7813
  0
VERTEX
  8
0
 10
33.1899
 20
231.7191
  0
VERTEX
  8
0
 10
33.1628
 20
231.6662
  0
VERTEX
  8
0
 10
33.1247
 20
231.6227
  0
VERTEX
  8
0
 10
33.0762
 20
231.5893
  0
VERTEX
  8
0
 10
33.0201
 20
231.5693
  0
VERTEX
  8
0
 10
32.9565
 20
231.5627
  0
VERTEX
  8
0
 10
32.9051
 20
231.5662
  0
VERTEX
  8
0
 10
32.8588
 20
231.577
  0
VERTEX
  8
0
 10
32.8174
 20
231.5948
  0
VERTEX
  8
0
 10
32.7812
 20
231.6199
  0
VERTEX
  8
0
 10
32.75
 20
231.652
  0
VERTEX
  8
0
 10
32.7211
 20
231.6968
  0
VERTEX
  8
0
 10
32.7005
 20
231.7485
  0
VERTEX
  8
0
 10
32.6881
 20
231.807
  0
VERTEX
  8
0
 10
32.684
 20
231.8724
  0
VERTEX
  8
0
 10
32.6856
 20
231.9166
  0
VERTEX
  8
0
 10
32.6904
 20
231.9575
  0
VERTEX
  8
0
 10
32.6984
 20
231.995
  0
VERTEX
  8
0
 10
32.7096
 20
232.0292
  0
VERTEX
  8
0
 10
32.724
 20
232.06
  0
VERTEX
  8
0
 10
32.7416
 20
232.0875
  0
VERTEX
  8
0
 10
32.7625
 20
232.1117
  0
VERTEX
  8
0
 10
32.7865
 20
232.1326
  0
VERTEX
  8
0
 10
32.8137
 20
232.1501
  0
VERTEX
  8
0
 10
32.8826
 20
232.1772
  0
VERTEX
  8
0
 10
32.957
 20
232.1867
  0
VERTEX
  8
0
 10
33.0443
 20
232.1749
  0
VERTEX
  8
0
 10
33.1153
 20
232.1386
  0
VERTEX
  8
0
 10
33.1523
 20
232.1013
  0
VERTEX
  8
0
 10
33.1793
 20
232.0544
  0
VERTEX
  8
0
 10
33.1963
 20
231.9978
  0
VERTEX
  8
0
 10
33.0975
 20
231.9826
  0
VERTEX
  8
0
 10
33.088
 20
232.0145
  0
VERTEX
  8
0
 10
33.0753
 20
232.0414
  0
VERTEX
  8
0
 10
33.0591
 20
232.0635
  0
VERTEX
  8
0
 10
33.0396
 20
232.0806
  0
VERTEX
  8
0
 10
33.0167
 20
232.0929
  0
VERTEX
  8
0
 10
32.9904
 20
232.1002
  0
VERTEX
  8
0
 10
32.9608
 20
232.1027
  0
VERTEX
  8
0
 10
32.9175
 20
232.0982
  0
VERTEX
  8
0
 10
32.8803
 20
232.0849
  0
VERTEX
  8
0
 10
32.8492
 20
232.0627
  0
VERTEX
  8
0
 10
32.8241
 20
232.0315
  0
VERTEX
  8
0
 10
32.797
 20
231.9631
  0
VERTEX
  8
0
 10
32.788
 20
231.8752
  0
VERTEX
  8
0
 10
32.7888
 20
231.8439
  0
VERTEX
  8
0
 10
32.7914
 20
231.8149
  0
VERTEX
  8
0
 10
32.7957
 20
231.7882
  0
VERTEX
  8
0
 10
32.8016
 20
231.7637
  0
VERTEX
  8
0
 10
32.8093
 20
231.7416
  0
VERTEX
  8
0
 10
32.8187
 20
231.7219
  0
VERTEX
  8
0
 10
32.8298
 20
231.7044
  0
VERTEX
  8
0
 10
32.8426
 20
231.6892
  0
VERTEX
  8
0
 10
32.8571
 20
231.6763
  0
VERTEX
  8
0
 10
32.8733
 20
231.6658
  0
VERTEX
  8
0
 10
32.8912
 20
231.6575
  0
VERTEX
  8
0
 10
32.9108
 20
231.6516
  0
VERTEX
  8
0
 10
32.9321
 20
231.648
  0
VERTEX
  8
0
 10
32.9552
 20
231.6467
  0
VERTEX
  8
0
 10
32.9826
 20
231.6484
  0
VERTEX
  8
0
 10
33.0073
 20
231.6538
  0
VERTEX
  8
0
 10
33.0294
 20
231.6628
  0
VERTEX
  8
0
 10
33.0488
 20
231.6755
  0
VERTEX
  8
0
 10
33.0656
 20
231.6919
  0
VERTEX
  8
0
 10
33.0797
 20
231.712
  0
VERTEX
  8
0
 10
33.0911
 20
231.7357
  0
VERTEX
  8
0
 10
33.0999
 20
231.7631
  0
VERTEX
  8
0
 10
33.106
 20
231.7942
  0
VERTEX
  8
0
 10
33.106
 20
231.7942
  0
SEQEND
  0
POLYLINE
  8
0
 66
     1
 10
0
 20
0
  0
VERTEX
  8
0
 10
33.5136
 20
231.6655
  0
VERTEX
  8
0
 10
33.5282
 20
231.5757
  0
VERTEX
  8
0
 10
33.4876
 20
231.5692
  0
VERTEX
  8
0
 10
33.452
 20
231.5667
  0
VERTEX
  8
0
 10
33.4062
 20
231.5702
  0
VERTEX
  8
0
 10
33.3697
 20
231.5819
  0
VERTEX
  8
0
 10
33.3424
 20
231.6018
  0
VERTEX
  8
0
 10
33.3243
 20
231.6299
  0
VERTEX
  8
0
 10
33.3175
 20
231.6562
  0
VERTEX
  8
0
 10
33.3134
 20
231.6963
  0
VERTEX
  8
0
 10
33.312
 20
231.75
  0
VERTEX
  8
0
 10
33.312
 20
232.0947
  0
VERTEX
  8
0
 10
33.236
 20
232.0947
  0
VERTEX
  8
0
 10
33.236
 20
232.1747
  0
VERTEX
  8
0
 10
33.312
 20
232.1747
  0
VERTEX
  8
0
 10
33.312
 20
232.3221
  0
VERTEX
  8
0
 10
33.412
 20
232.3827
  0
VERTEX
  8
0
 10
33.412
 20
232.1747
  0
VERTEX
  8
0
 10
33.512
 20
232.1747
  0
VERTEX
  8
0
 10
33.512
 20
232.0947
  0
VERTEX
  8
0
 10
33.412
 20
232.0947
  0
VERTEX
  8
0
 10
33.412
 20
231.7454
  0
VERTEX
  8
0
 10
33.4124
 20
231.7184
  0
VERTEX
  8
0
 10
33.4137
 20
231.7037
  0
VERTEX
  8
0
 10
33.4208
 20
231.6838
  0
VERTEX
  8
0
 10
33.4344
 20
231.67
  0
VERTEX
  8
0
 10
33.4488
 20
231.6648
  0
VERTEX
  8
0
 10
33.4693
 20
231.6627
  0
VERTEX
  8
0
 10
33.4885
 20
231.6631
  0
VERTEX
  8
0
 10
33.5136
 20
231.6655
  0
VERTEX
  8
0
 10
33.5136
 20
231.6655
  0
SEQEND
  0
POLYLINE
  8
0
 66
     1
 10
0
 20
0
  0
VERTEX
  8
0
 10
34.148
 20
231.5707
  0
VERTEX
  8
0
 10
34.148
 20
232.4027
  0
VERTEX
  8
0
 10
34.248
 20
232.4027
  0
VERTEX
  8
0
 10
34.248
 20
231.5707
  0
VERTEX
  8
0
 10
34.148
 20
231.5707
  0
SEQEND
  0
POLYLINE
  8
0
 66
     1
 10
0
 20
0
  0
VERTEX
  8
0
 10
34.8158
 20
231.7676
  0
VERTEX
  8
0
 10
34.921
 20
231.7547
  0
VERTEX
  8
0
 10
34.9112
 20
231.7241
  0
VERTEX
  8
0
 10
34.8992
 20
231.696
  0
VERTEX
  8
0
 10
34.885
 20
231.6707
  0
VERTEX
  8
0
 10
34.8686
 20
231.648
  0
VERTEX
  8
0
 10
34.85
 20
231.628
  0
VERTEX
  8
0
 10
34.8291
 20
231.6107
  0
VERTEX
  8
0
 10
34.8061
 20
231.596
  0
VERTEX
  8
0
 10
34.7808
 20
231.584
  0
VERTEX
  8
0
 10
34.7533
 20
231.5747
  0
VERTEX
  8
0
 10
34.7236
 20
231.568
  0
VERTEX
  8
0
 10
34.6916
 20
231.564
  0
VERTEX
  8
0
 10
34.6575
 20
231.5627
  0
VERTEX
  8
0
 10
34.5949
 20
231.5677
  0
VERTEX
  8
0
 10
34.5393
 20
231.5828
  0
VERTEX
  8
0
 10
34.4906
 20
231.6079
  0
VERTEX
  8
0
 10
34.4487
 20
231.643
  0
VERTEX
  8
0
 10
34.4211
 20
231.6778
  0
VERTEX
  8
0
 10
34.3996
 20
231.7179
  0
VERTEX
  8
0
 10
34.3843
 20
231.7632
  0
VERTEX
  8
0
 10
34.3751
 20
231.8138
  0
VERTEX
  8
0
 10
34.372
 20
231.8696
  0
VERTEX
  8
0
 10
34.3763
 20
231.9357
  0
VERTEX
  8
0
 10
34.3892
 20
231.9951
  0
VERTEX
  8
0
 10
34.4107
 20
232.0479
  0
VERTEX
  8
0
 10
34.4408
 20
232.0939
  0
VERTEX
  8
0
 10
34.4734
 20
232.1273
  0
VERTEX
  8
0
 10
34.5109
 20
232.1533
  0
VERTEX
  8
0
 10
34.5531
 20
232.1718
  0
VERTEX
  8
0
 10
34.6001
 20
232.183
  0
VERTEX
  8
0
 10
34.6519
 20
232.1867
  0
VERTEX
  8
0
 10
34.7023
 20
232.183
  0
VERTEX
  8
0
 10
34.7481
 20
232.1719
  0
VERTEX
  8
0
 10
34.7892
 20
232.1535
  0
VERTEX
  8
0
 10
34.8255
 20
232.1277
  0
VERTEX
  8
0
 10
34.8572
 20
232.0945
  0
VERTEX
  8
0
 10
34.8866
 20
232.0489
  0
VERTEX
  8
0
 10
34.9076
 20
231.9969
  0
VERTEX
  8
0
 10
34.9202
 20
231.9385
  0
VERTEX
  8
0
 10
34.9244
 20
231.8738
  0
VERTEX
  8
0
 10
34.9242
 20
231.8597
  0
VERTEX
  8
0
 10
34.9238
 20
231.8467
  0
VERTEX
  8
0
 10
34.476
 20
231.8467
  0
VERTEX
  8
0
 10
34.4902
 20
231.7688
  0
VERTEX
  8
0
 10
34.524
 20
231.707
  0
VERTEX
  8
0
 10
34.5607
 20
231.6735
  0
VERTEX
  8
0
 10
34.6052
 20
231.6534
  0
VERTEX
  8
0
 10
34.6575
 20
231.6467
  0
VERTEX
  8
0
 10
34.6935
 20
231.65
  0
VERTEX
  8
0
 10
34.7256
 20
231.6601
  0
VERTEX
  8
0
 10
34.7539
 20
231.6769
  0
VERTEX
  8
0
 10
34.7784
 20
231.7004
  0
VERTEX
  8
0
 10
34.799
 20
231.7307
  0
VERTEX
  8
0
 10
34.8158
 20
231.7676
  0
VERTEX
  8
0
 10
34.8158
 20
231.7676
  0
SEQEND
  0
POLYLINE
  8
0
 66
     1
 10
0
 20
0
  0
VERTEX
  8
0
 10
34.4825
 20
231.9307
  0
VERTEX
  8
0
 10
34.8172
 20
231.9307
  0
VERTEX
  8
0
 10
34.8042
 20
231.9968
  0
VERTEX
  8
0
 10
34.7788
 20
232.044
  0
VERTEX
  8
0
 10
34.7433
 20
232.0764
  0
VERTEX
  8
0
 10
34.7013
 20
232.0959
  0
VERTEX
  8
0
 10
34.653
 20
232.1027
  0
VERTEX
  8
0
 10
34.5858
 20
232.0905
  0
VERTEX
  8
0
 10
34.5322
 20
232.053
  0
VERTEX
  8
0
 10
34.4975
 20
231.9988
  0
VERTEX
  8
0
 10
34.4825
 20
231.9307
  0
VERTEX
  8
0
 10
34.4825
 20
231.9307
  0
SEQEND
  0
POLYLINE
  8
0
 66
     1
 10
0
 20
0
  0
VERTEX
  8
0
 10
35.068
 20
231.5707
  0
VERTEX
  8
0
 10
35.068
 20
232.0947
  0
VERTEX
  8
0
 10
34.98
 20
232.0947
  0
VERTEX
  8
0
 10
34.98
 20
232.1747
  0
VERTEX
  8
0
 10
35.068
 20
232.1747
  0
VERTEX
  8
0
 10
35.068
 20
232.2379
  0
VERTEX
  8
0
 10
35.0707
 20
232.2903
  0
VERTEX
  8
0
 10
35.0788
 20
232.3269
  0
VERTEX
  8
0
 10
35.0923
 20
232.3534
  0
VERTEX
  8
0
 10
35.1108
 20
232.3751
  0
VERTEX
  8
0
 10
35.1343
 20
232.3922
  0
VERTEX
  8
0
 10
35.1628
 20
232.4044
  0
VERTEX
  8
0
 10
35.1964
 20
232.4119
  0
VERTEX
  8
0
 10
35.2349
 20
232.4147
  0
VERTEX
  8
0
 10
35.2792
 20
232.4125
  0
VERTEX
  8
0
 10
35.3304
 20
232.4047
  0
VERTEX
  8
0
 10
35.3149
 20
232.3172
  0
VERTEX
  8
0
 10
35.283
 20
232.321
  0
VERTEX
  8
0
 10
35.254
 20
232.3227
  0
VERTEX
  8
0
 10
35.2122
 20
232.3173
  0
VERTEX
  8
0
 10
35.1852
 20
232.3002
  0
VERTEX
  8
0
 10
35.1723
 20
232.2722
  0
VERTEX
  8
0
 10
35.168
 20
232.2296
  0
VERTEX
  8
0
 10
35.168
 20
232.1747
  0
VERTEX
  8
0
 10
35.288
 20
232.1747
  0
VERTEX
  8
0
 10
35.288
 20
232.0947
  0
VERTEX
  8
0
 10
35.168
 20
232.0947
  0
VERTEX
  8
0
 10
35.168
 20
231.5707
  0
VERTEX
  8
0
 10
35.068
 20
231.5707
  0
SEQEND
  0
POLYLINE
  8
0
 66
     1
 10
0
 20
0
  0
VERTEX
  8
0
 10
35.5896
 20
231.6655
  0
VERTEX
  8
0
 10
35.6042
 20
231.5757
  0
VERTEX
  8
0
 10
35.5636
 20
231.5692
  0
VERTEX
  8
0
 10
35.528
 20
231.5667
  0
VERTEX
  8
0
 10
35.4822
 20
231.5702
  0
VERTEX
  8
0
 10
35.4457
 20
231.5819
  0
VERTEX
  8
0
 10
35.4184
 20
231.6018
  0
VERTEX
  8
0
 10
35.4003
 20
231.6299
  0
VERTEX
  8
0
 10
35.3935
 20
231.6562
  0
VERTEX
  8
0
 10
35.3894
 20
231.6963
  0
VERTEX
  8
0
 10
35.388
 20
231.75
  0
VERTEX
  8
0
 10
35.388
 20
232.0947
  0
VERTEX
  8
0
 10
35.312
 20
232.0947
  0
VERTEX
  8
0
 10
35.312
 20
232.1747
  0
VERTEX
  8
0
 10
35.388
 20
232.1747
  0
VERTEX
  8
0
 10
35.388
 20
232.3221
  0
VERTEX
  8
0
 10
35.488
 20
232.3827
  0
VERTEX
  8
0
 10
35.488
 20
232.1747
  0
VERTEX
  8
0
 10
35.588
 20
232.1747
  0
VERTEX
  8
0
 10
35.588
 20
232.0947
  0
VERTEX
  8
0
 10
35.488
 20
232.0947
  0
VERTEX
  8
0
 10
35.488
 20
231.7454
  0
VERTEX
  8
0
 10
35.4884
 20
231.7184
  0
VERTEX
  8
0
 10
35.4897
 20
231.7037
  0
VERTEX
  8
0
 10
35.4968
 20
231.6838
  0
VERTEX
  8
0
 10
35.5104
 20
231.67
  0
VERTEX
  8
0
 10
35.5248
 20
231.6648
  0
VERTEX
  8
0
 10
35.5453
 20
231.6627
  0
VERTEX
  8
0
 10
35.5645
 20
231.6631
  0
VERTEX
  8
0
 10
35.5896
 20
231.6655
  0
VERTEX
  8
0
 10
35.5896
 20
231.6655
  0
SEQEND
  0
POLYLINE
  8
0
 66
     1
 10
0
 20
0
  0
VERTEX
  8
0
 10
35.652
 20
231.7536
  0
VERTEX
  8
0
 10
35.7521
 20
231.7693
  0
VERTEX
  8
0
 10
35.7583
 20
231.7406
  0
VERTEX
  8
0
 10
35.7683
 20
231.7156
  0
VERTEX
  8
0
 10
35.782
 20
231.6946
  0
VERTEX
  8
0
 10
35.7995
 20
231.6773
  0
VERTEX
  8
0
 10
35.8207
 20
231.6639
  0
VERTEX
  8
0
 10
35.8456
 20
231.6543
  0
VERTEX
  8
0
 10
35.8743
 20
231.6486
  0
VERTEX
  8
0
 10
35.9067
 20
231.6467
  0
VERTEX
  8
0
 10
35.9565
 20
231.6517
  0
VERTEX
  8
0
 10
35.9979
 20
231.6669
  0
VERTEX
  8
0
 10
36.0325
 20
231.6979
  0
VERTEX
  8
0
 10
36.044
 20
231.7415
  0
VERTEX
  8
0
 10
36.0365
 20
231.7721
  0
VERTEX
  8
0
 10
36.0141
 20
231.7954
  0
VERTEX
  8
0
 10
35.9936
 20
231.8052
  0
VERTEX
  8
0
 10
35.959
 20
231.8166
  0
VERTEX
  8
0
 10
35.9104
 20
231.8297
  0
VERTEX
  8
0
 10
35.8546
 20
231.8439
  0
VERTEX
  8
0
 10
35.8142
 20
231.8551
  0
VERTEX
  8
0
 10
35.7892
 20
231.8634
  0
VERTEX
  8
0
 10
35.7286
 20
231.8946
  0
VERTEX
  8
0
 10
35.69
 20
231.9346
  0
VERTEX
  8
0
 10
35.6735
 20
231.9724
  0
VERTEX
  8
0
 10
35.668
 20
232.0149
  0
VERTEX
  8
0
 10
35.6756
 20
232.0653
  0
VERTEX
  8
0
 10
35.6984
 20
232.1087
  0
VERTEX
  8
0
 10
35.7364
 20
232.1451
  0
VERTEX
  8
0
 10
35.8028
 20
232.176
  0
VERTEX
  8
0
 10
35.889
 20
232.1867
  0
VERTEX
  8
0
 10
35.9545
 20
232.1819
  0
VERTEX
  8
0
 10
36.0129
 20
232.1664
  0
VERTEX
  8
0
 10
36.0593
 20
232.1423
  0
VERTEX
  8
0
 10
36.0925
 20
232.1102
  0
VERTEX
  8
0
 10
36.1133
 20
232.0712
  0
VERTEX
  8
0
 10
36.127
 20
232.0192
  0
VERTEX
  8
0
 10
36.0269
 20
232.0057
  0
VERTEX
  8
0
 10
36.0206
 20
232.0313
  0
VERTEX
  8
0
 10
36.0101
 20
232.053
  0
VERTEX
  8
0
 10
35.9954
 20
232.0707
  0
VERTEX
  8
0
 10
35.9765
 20
232.0846
  0
VERTEX
  8
0
 10
35.9535
 20
232.0945
  0
VERTEX
  8
0
 10
35.9263
 20
232.1006
  0
VERTEX
  8
0
 10
35.8949
 20
232.1027
  0
VERTEX
  8
0
 10
35.8604
 20
232.1012
  0
VERTEX
  8
0
 10
35.8312
 20
232.0966
  0
VERTEX
  8
0
 10
35.8073
 20
232.0888
  0
VERTEX
  8
0
 10
35.7886
 20
232.0778
  0
VERTEX
  8
0
 10
35.7751
 20
232.0637
  0
VERTEX
  8
0
 10
35.7669
 20
232.0463
  0
VERTEX
  8
0
 10
35.764
 20
232.0258
  0
VERTEX
  8
0
 10
35.7668
 20
232.0076
  0
VERTEX
  8
0
 10
35.7765
 20
231.9901
  0
VERTEX
  8
0
 10
35.7927
 20
231.9749
  0
VERTEX
  8
0
 10
35.8155
 20
231.9635
  0
VERTEX
  8
0
 10
35.8311
 20
231.9584
  0
VERTEX
  8
0
 10
35.8611
 20
231.9498
  0
VERTEX
  8
0
 10
35.9055
 20
231.9377
  0
VERTEX
  8
0
 10
35.9709
 20
231.9192
  0
VERTEX
  8
0
 10
36.0211
 20
231.9034
  0
VERTEX
  8
0
 10
36.0562
 20
231.8905
  0
VERTEX
  8
0
 10
36.0891
 20
231.8727
  0
VERTEX
  8
0
 10
36.1147
 20
231.8499
  0
VERTEX
  8
0
 10
36.133
 20
231.822
  0
VERTEX
  8
0
 10
36.1441
 20
231.7892
  0
VERTEX
  8
0
 10
36.148
 20
231.7513
  0
VERTEX
  8
0
 10
36.1408
 20
231.7024
  0
VERTEX
  8
0
 10
36.1182
 20
231.6559
  0
VERTEX
  8
0
 10
36.0953
 20
231.6275
  0
VERTEX
  8
0
 10
36.0675
 20
231.6043
  0
VERTEX
  8
0
 10
36.0348
 20
231.5862
  0
VERTEX
  8
0
 10
35.9972
 20
231.5733
  0
VERTEX
  8
0
 10
35.9547
 20
231.5654
  0
VERTEX
  8
0
 10
35.9073
 20
231.5627
  0
VERTEX
  8
0
 10
35.8744
 20
231.5636
  0
VERTEX
  8
0
 10
35.8437
 20
231.5669
  0
VERTEX
  8
0
 10
35.8152
 20
231.5724
  0
VERTEX
  8
0
 10
35.789
 20
231.5803
  0
VERTEX
  8
0
 10
35.7649
 20
231.5904
  0
VERTEX
  8
0
 10
35.7431
 20
231.6028
  0
VERTEX
  8
0
 10
35.7234
 20
231.6175
  0
VERTEX
  8
0
 10
35.706
 20
231.6344
  0
VERTEX
  8
0
 10
35.6908
 20
231.6537
  0
VERTEX
  8
0
 10
35.6778
 20
231.6753
  0
VERTEX
  8
0
 10
35.667
 20
231.6991
  0
VERTEX
  8
0
 10
35.6584
 20
231.7252
  0
VERTEX
  8
0
 10
35.652
 20
231.7536
  0
VERTEX
  8
0
 10
35.652
 20
231.7536
  0
SEQEND
  0
POLYLINE
  8
0
 66
     1
 10
0
 20
0
  0
VERTEX
  8
0
 10
36.296
 20
231.5707
  0
VERTEX
  8
0
 10
36.296
 20
231.6907
  0
VERTEX
  8
0
 10
36.412
 20
231.6907
  0
VERTEX
  8
0
 10
36.412
 20
231.5707
  0
VERTEX
  8
0
 10
36.296
 20
231.5707
  0
SEQEND
  0
LINE
  8
0
 10
20
 20
230.9
 11
20
 21
228.1
  0
LINE
  8
0
 10
20.8985
 20
230.196
 11
20.9001
 21
230.1997
  0
ARC
  8
0
 10
20.7242
 20
230.2755
 40
0.19155
 50
336.6854
 51
337.6696
  0
ARC
  8
0
 10
20.6633
 20
230.3006
 40
0.257415
 50
337.6642
 51
338.5131
  0
ARC
  8
0
 10
20.6984
 20
230.2867
 40
0.219706
 50
338.5147
 51
340.6268
  0
ARC
  8
0
 10
20.8652
 20
230.2281
 40
0.0428985
 50
340.6298
 51
345.4107
  0
ARC
  8
0
 10
20.8529
 20
230.2313
 40
0.0555807
 50
345.4077
 51
356.8507
  0
ARC
  8
0
 10
20.595
 20
230.2282
 40
0.313405
 50
0.0006
 51
2.6039
  0
LINE
  8
0
 10
20.9081
 20
230.2425
 11
20.9046
 21
230.2767
  0
ARC
  8
0
 10
20.5755
 20
230.2435
 40
0.330775
 50
5.7517
 51
10.3144
  0
ARC
  8
0
 10
20.8397
 20
230.2916
 40
0.0622985
 50
10.3147
 51
20.8403
  0
ARC
  8
0
 10
21.0004
 20
230.3528
 40
0.109708
 50
187.4592
 51
200.8405
  0
ARC
  8
0
 10
20.8956
 20
230.3386
 40
0.00397654
 50
111.4939
 51
179.9986
  0
LINE
  8
0
 10
20.8941
 20
230.3423
 11
20.8971
 21
230.343
  0
ARC
  8
0
 10
20.8958
 20
230.3482
 40
0.00533803
 50
284.0384
 51
303.0939
  0
ARC
  8
0
 10
20.8948
 20
230.3497
 40
0.00719462
 50
303.0895
 51
319.484
  0
ARC
  8
0
 10
20.8909
 20
230.3531
 40
0.0123668
 50
319.4889
 51
331.4281
  0
ARC
  8
0
 10
20.8952
 20
230.3507
 40
0.00740082
 50
331.4223
 51
346.8743
  0
ARC
  8
0
 10
20.8735
 20
230.355
 40
0.029602
 50
348.3051
 51
359.9992
  0
ARC
  8
0
 10
20.858
 20
230.3539
 40
0.0451061
 50
1.4291
 51
11.9883
  0
ARC
  8
0
 10
21.3362
 20
230.4555
 40
0.44376
 50
189.6098
 51
191.9883
  0
ARC
  8
0
 10
20.9256
 20
230.3857
 40
0.027301
 50
179.9979
 51
189.1782
  0
ARC
  8
0
 10
20.931
 20
230.3855
 40
0.0327197
 50
166.2478
 51
179.5706
  0
ARC
  8
0
 10
21.1259
 20
230.3378
 40
0.233354
 50
161.2689
 51
166.2479
  0
ARC
  8
0
 10
20.9816
 20
230.3867
 40
0.08103
 50
153.7362
 51
161.2685
  0
ARC
  8
0
 10
20.9221
 20
230.4161
 40
0.0146357
 50
135.9553
 51
153.737
  0
LINE
  8
0
 10
20.9116
 20
230.4263
 11
20.9179
 21
230.4328
  0
LINE
  8
0
 10
20.9179
 20
230.4328
 11
20.9208
 21
230.4417
  0
ARC
  8
0
 10
20.9312
 20
230.4367
 40
0.0115518
 50
132.163
 51
154.3064
  0
ARC
  8
0
 10
20.942
 20
230.4247
 40
0.0276547
 50
117.9042
 51
132.1634
  0
LINE
  8
0
 10
20.9291
 20
230.4492
 11
20.9429
 21
230.4565
  0
LINE
  8
0
 10
20.9429
 20
230.4565
 11
20.9555
 21
230.4638
  0
ARC
  8
0
 10
20.9997
 20
230.3862
 40
0.0892926
 50
116.5919
 51
119.6319
  0
ARC
  8
0
 10
22.5485
 20
227.2921
 40
3.54943
 50
116.1091
 51
116.5912
  0
ARC
  8
0
 10
20.8653
 20
230.7266
 40
0.275399
 50
296.1089
 51
299.8955
  0
ARC
  8
0
 10
20.9438
 20
230.59
 40
0.117805
 50
299.8967
 51
305.6879
  0
ARC
  8
0
 10
20.9452
 20
230.588
 40
0.115357
 50
305.6864
 51
310.9792
  0
ARC
  8
0
 10
20.7776
 20
230.7809
 40
0.370934
 50
310.9803
 51
313.9312
  0
ARC
  8
0
 10
21.1109
 20
230.4349
 40
0.109476
 50
125.7458
 51
133.931
  0
ARC
  8
0
 10
21.0654
 20
230.4982
 40
0.0315161
 50
110.4574
 51
125.7452
  0
ARC
  8
0
 10
20.9865
 20
230.7097
 40
0.194202
 50
290.458
 51
296.0738
  0
ARC
  8
0
 10
21.0692
 20
230.5407
 40
0.00603043
 50
296.0727
 51
328.3539
  0
LINE
  8
0
 10
21.0743
 20
230.5375
 11
21.0756
 21
230.5459
  0
ARC
  8
0
 10
21.0966
 20
230.5429
 40
0.0212662
 50
159.9573
 51
171.9032
  0
ARC
  8
0
 10
21.1298
 20
230.5308
 40
0.0566045
 50
152.6429
 51
159.957
  0
ARC
  8
0
 10
21.1302
 20
230.5306
 40
0.0570619
 50
144.4135
 51
152.6418
  0
ARC
  8
0
 10
21.1154
 20
230.5412
 40
0.0388216
 50
134.4363
 51
144.416
  0
ARC
  8
0
 10
21.1373
 20
230.5188
 40
0.0701504
 50
129.1216
 51
134.434
  0
ARC
  8
0
 10
21.1481
 20
230.5056
 40
0.0871604
 50
124.3579
 51
129.1235
  0
ARC
  8
0
 10
21.1768
 20
230.4636
 40
0.138121
 50
119.597
 51
124.3566
  0
ARC
  8
0
 10
21.1253
 20
230.5542
 40
0.0338259
 50
109.9719
 51
119.5979
  0
ARC
  8
0
 10
21.1226
 20
230.5618
 40
0.0257964
 50
93.3385
 51
109.9714
  0
ARC
  8
0
 10
21.1236
 20
230.5435
 40
0.0440826
 50
80.6334
 51
93.3386
  0
ARC
  8
0
 10
21.12
 20
230.5214
 40
0.0665193
 50
75.2243
 51
80.6338
  0
ARC
  8
0
 10
21.1193
 20
230.5187
 40
0.0693436
 50
69.9251
 51
75.2233
  0
ARC
  8
0
 10
21.121
 20
230.5233
 40
0.0644514
 50
63.5031
 51
69.9265
  0
ARC
  8
0
 10
21.1276
 20
230.5365
 40
0.0496261
 50
56.1797
 51
63.5011
  0
ARC
  8
0
 10
21.1396
 20
230.5545
 40
0.027963
 50
44.1314
 51
56.1803
  0
ARC
  8
0
 10
21.1496
 20
230.5642
 40
0.0140222
 50
27.0864
 51
44.1324
  0
LINE
  8
0
 10
21.1621
 20
230.5706
 11
21.1661
 21
230.5628
  0
ARC
  8
0
 10
21.1854
 20
230.5727
 40
0.0216371
 50
207.0842
 51
218.093
  0
ARC
  8
0
 10
21.1785
 20
230.5673
 40
0.0128996
 50
218.0973
 51
232.3698
  0
ARC
  8
0
 10
21.0048
 20
230.342
 40
0.271565
 50
51.5458
 51
52.3666
  0
ARC
  8
0
 10
21.1676
 20
230.5471
 40
0.00972727
 50
47.2109
 51
51.5506
  0
ARC
  8
0
 10
21.1707
 20
230.5504
 40
0.00517054
 50
17.3483
 51
47.2003
  0
ARC
  8
0
 10
21.1672
 20
230.552
 40
0.00840469
 50
348.153
 51
360.0059
  0
ARC
  8
0
 10
21.1733
 20
230.5515
 40
0.00253367
 50
297.3926
 51
330.7887
  0
ARC
  8
0
 10
21.1651
 20
230.5671
 40
0.0201665
 50
285.7056
 51
297.3968
  0
ARC
  8
0
 10
21.1549
 20
230.6035
 40
0.0579627
 50
282.4535
 51
285.7032
  0
ARC
  8
0
 10
21.1593
 20
230.5836
 40
0.0375334
 50
278.4168
 51
282.4558
  0
ARC
  8
0
 10
21.1752
 20
230.4765
 40
0.0707275
 50
98.4167
 51
103.4073
  0
ARC
  8
0
 10
21.1591
 20
230.5437
 40
0.0016278
 50
103.3983
 51
136.7508
  0
ARC
  8
0
 10
21.1603
 20
230.5427
 40
0.00317261
 50
138.5215
 51
180.0018
  0
ARC
  8
0
 10
21.2235
 20
230.5447
 40
0.0663446
 50
181.76
 51
190.9945
  0
ARC
  8
0
 10
21.0146
 20
230.5247
 40
0.143989
 50
360
 51
362.9275
  0
ARC
  8
0
 10
21.1565
 20
230.525
 40
0.00202583
 50
285.4331
 51
351.9314
  0
LINE
  8
0
 10
21.1571
 20
230.5231
 11
21.1513
 21
230.5215
  0
ARC
  8
0
 10
21.1519
 20
230.5194
 40
0.00213461
 50
105.4333
 51
144.9436
  0
ARC
  8
0
 10
21.1857
 20
230.4956
 40
0.0434983
 50
144.9439
 51
153.5326
  0
ARC
  8
0
 10
21.1225
 20
230.5271
 40
0.027121
 50
323.8402
 51
333.5315
  0
ARC
  8
0
 10
21.1223
 20
230.5273
 40
0.0273576
 50
314.1943
 51
323.8433
  0
ARC
  8
0
 10
21.1188
 20
230.5309
 40
0.0323779
 50
305.022
 51
314.1926
  0
ARC
  8
0
 10
21.1135
 20
230.5385
 40
0.0416578
 50
296.9397
 51
305.0224
  0
LINE
  8
0
 10
21.1324
 20
230.5013
 11
21.1237
 21
230.4969
  0
ARC
  8
0
 10
21.1326
 20
230.4794
 40
0.0196585
 50
116.9398
 51
143.8752
  0
ARC
  8
0
 10
21.1258
 20
230.4846
 40
0.0110959
 50
144.6123
 51
180.0008
  0
ARC
  8
0
 10
21.1259
 20
230.4847
 40
0.0112629
 50
180.737
 51
194.4253
  0
ARC
  8
0
 10
21.2673
 20
230.5211
 40
0.157259
 50
194.4253
 51
198.0804
  0
ARC
  8
0
 10
21.1
 20
230.4664
 40
0.0187339
 50
7.8104
 51
18.0806
  0
ARC
  8
0
 10
20.5138
 20
230.386
 40
0.610416
 50
6.0131
 51
7.81
  0
ARC
  8
0
 10
21.2126
 20
230.4597
 40
0.0922168
 50
186.0132
 51
192.7421
  0
ARC
  8
0
 10
21.2148
 20
230.4601
 40
0.0944648
 50
192.742
 51
199.3903
  0
ARC
  8
0
 10
21.1976
 20
230.4541
 40
0.0762894
 50
199.3899
 51
208.8829
  0
ARC
  8
0
 10
21.1458
 20
230.4255
 40
0.0170475
 50
208.884
 51
229.0471
  0
LINE
  8
0
 10
21.1346
 20
230.4126
 11
21.1464
 21
230.4024
  0
ARC
  8
0
 10
21.1394
 20
230.3942
 40
0.0107792
 50
33.0769
 51
49.0443
  0
ARC
  8
0
 10
21.1454
 20
230.3982
 40
0.00350302
 50
4.8806
 51
33.0828
  0
LINE
  8
0
 10
21.1489
 20
230.3985
 11
21.1456
 21
230.3855
  0
LINE
  8
0
 10
21.1456
 20
230.3855
 11
21.1454
 21
230.3581
  0
LINE
  8
0
 10
21.1454
 20
230.3581
 11
21.1428
 21
230.338
  0
ARC
  8
0
 10
21.4466
 20
230.332
 40
0.303783
 50
178.8677
 51
180.001
  0
ARC
  8
0
 10
21.3713
 20
230.3446
 40
0.22886
 50
183.1562
 51
186.5022
  0
ARC
  8
0
 10
20.4994
 20
230.2452
 40
0.64871
 50
6.0768
 51
6.5029
  0
LINE
  8
0
 10
21.1444
 20
230.3139
 11
21.1462
 21
230.2967
  0
ARC
  8
0
 10
21.3965
 20
230.3228
 40
0.251583
 50
185.953
 51
187.8473
  0
ARC
  8
0
 10
21.2356
 20
230.3006
 40
0.0892283
 50
187.8496
 51
191.0305
  0
ARC
  8
0
 10
21.0904
 20
230.2723
 40
0.058695
 50
1.2995
 51
11.0301
  0
ARC
  8
0
 10
21.1443
 20
230.2736
 40
0.00483373
 50
326.8871
 51
359.9962
  0
ARC
  8
0
 10
21.1457
 20
230.2728
 40
0.00316103
 50
295.4641
 51
325.5934
  0
ARC
  8
0
 10
21.0882
 20
230.3936
 40
0.136959
 50
290.9374
 51
295.4629
  0
ARC
  8
0
 10
21.1483
 20
230.2365
 40
0.0312701
 50
110.9369
 51
126.6142
  0
ARC
  8
0
 10
21.1513
 20
230.2324
 40
0.0363271
 50
126.616
 51
141.1547
  0
ARC
  8
0
 10
21.2687
 20
230.1379
 40
0.187031
 50
141.1544
 51
143.2155
  0
ARC
  8
0
 10
21.3146
 20
230.1035
 40
0.24439
 50
143.2145
 51
145.0172
  0
ARC
  8
0
 10
21.1478
 20
230.2203
 40
0.0406984
 50
145.0175
 51
159.3255
  0
ARC
  8
0
 10
21.1157
 20
230.2347
 40
0.00602173
 50
180.0004
 51
202.7773
  0
LINE
  8
0
 10
21.1102
 20
230.2324
 11
21.1165
 21
230.2256
  0
ARC
  8
0
 10
21.1143
 20
230.2242
 40
0.0026431
 50
359.9944
 51
390.7931
  0
ARC
  8
0
 10
21.1041
 20
230.2271
 40
0.0131402
 50
329.1108
 51
347.35
  0
ARC
  8
0
 10
21.1031
 20
230.2277
 40
0.0143457
 50
316.6525
 51
329.1083
  0
ARC
  8
0
 10
21.1085
 20
230.2226
 40
0.00690137
 50
298.6553
 51
316.6532
  0
ARC
  8
0
 10
21.1019
 20
230.2348
 40
0.0207107
 50
282.9426
 51
298.6535
  0
ARC
  8
0
 10
21.0939
 20
230.2694
 40
0.0562645
 50
273.431
 51
282.944
  0
ARC
  8
0
 10
21.1751
 20
228.9139
 40
1.30167
 50
93.4301
 51
94.4296
  0
ARC
  8
0
 10
21.1039
 20
229.8341
 40
0.378689
 50
94.4307
 51
96.2837
  0
LINE
  8
0
 10
21.0624
 20
230.2105
 11
21.0272
 21
230.2067
  0
LINE
  8
0
 10
21.0272
 20
230.2067
 11
20.9931
 21
230.2049
  0
ARC
  8
0
 10
21.0191
 20
229.7204
 40
0.485186
 50
93.0629
 51
95.425
  0
ARC
  8
0
 10
21.0149
 20
229.7641
 40
0.441374
 50
95.4259
 51
97.9027
  0
ARC
  8
0
 10
20.5098
 20
233.4035
 40
3.23301
 50
277.4386
 51
277.902
  0
ARC
  8
0
 10
20.876
 20
230.5981
 40
0.403766
 50
276.1284
 51
277.4401
  0
ARC
  8
0
 10
20.8919
 20
230.4502
 40
0.255033
 50
271.7712
 51
276.1269
  0
ARC
  8
0
 10
20.8998
 20
230.1969
 40
0.00154049
 50
213.2323
 51
271.7767
  0
LINE
  8
0
 10
20.8985
 20
230.196
 11
20.8985
 21
230.196
  0
LINE
  8
0
 10
21.3494
 20
230.382
 11
21.1577
 21
230.3721
  0
LINE
  8
0
 10
21.1577
 20
230.3721
 11
21.1577
 21
230.3547
  0
LINE
  8
0
 10
21.1577
 20
230.3547
 11
21.1606
 21
230.3137
  0
ARC
  8
0
 10
20.6398
 20
230.2198
 40
0.529207
 50
4.2261
 51
10.22
  0
ARC
  8
0
 10
21.1636
 20
230.2588
 40
0.00398964
 50
290.0175
 51
359.9993
  0
LINE
  8
0
 10
21.1649
 20
230.255
 11
21.1614
 21
230.254
  0
ARC
  8
0
 10
21.1697
 20
230.2246
 40
0.030632
 50
105.7912
 51
118.6532
  0
ARC
  8
0
 10
21.1752
 20
230.2146
 40
0.0419848
 50
118.6555
 51
129.6353
  0
ARC
  8
0
 10
21.2536
 20
230.12
 40
0.164869
 50
129.6338
 51
133.5652
  0
ARC
  8
0
 10
21.1525
 20
230.2262
 40
0.0182808
 50
133.5663
 51
145.3917
  0
ARC
  8
0
 10
21.1486
 20
230.2289
 40
0.0134788
 50
145.3894
 51
167.384
  0
ARC
  8
0
 10
21.1761
 20
230.224
 40
0.0414118
 50
169.106
 51
180.0009
  0
ARC
  8
0
 10
19.1311
 20
230.224
 40
2.00358
 50
359.6455
 51
360.0007
  0
ARC
  8
0
 10
21.128
 20
230.2118
 40
0.00663745
 50
337.6453
 51
357.9208
  0
ARC
  8
0
 10
21.1262
 20
230.2126
 40
0.00859037
 50
310.3556
 51
337.6481
  0
ARC
  8
0
 10
21.1193
 20
230.2207
 40
0.0192366
 50
292.2155
 51
310.3578
  0
ARC
  8
0
 10
21.0838
 20
230.3076
 40
0.113076
 50
279.1364
 51
292.2147
  0
ARC
  8
0
 10
21.0704
 20
230.391
 40
0.197609
 50
269.2522
 51
279.1362
  0
ARC
  8
0
 10
21.067
 20
230.1302
 40
0.0632493
 50
89.2527
 51
96.4759
  0
ARC
  8
0
 10
21.8416
 20
223.3061
 40
6.93118
 50
96.4757
 51
97.165
  0
LINE
  8
0
 10
20.9771
 20
230.1831
 11
20.8765
 21
230.1705
  0
LINE
  8
0
 10
20.8765
 20
230.1705
 11
20.8861
 21
230.2055
  0
ARC
  8
0
 10
20.7829
 20
230.2348
 40
0.10728
 50
344.1287
 51
357.1126
  0
ARC
  8
0
 10
20.3399
 20
230.2294
 40
0.550205
 50
0.0003
 51
3.5247
  0
ARC
  8
0
 10
28.4468
 20
231.1126
 40
7.6053
 50
186.1279
 51
186.4118
  0
ARC
  8
0
 10
20.9959
 20
230.3126
 40
0.111629
 50
183.7807
 51
186.13
  0
ARC
  8
0
 10
20.7483
 20
230.2963
 40
0.13652
 50
3.778
 51
17.5283
  0
ARC
  8
0
 10
20.8742
 20
230.3361
 40
0.00450529
 50
17.5279
 51
99.9685
  0
LINE
  8
0
 10
20.8734
 20
230.3405
 11
20.8584
 21
230.3379
  0
ARC
  8
0
 10
20.8554
 20
230.3553
 40
0.0177137
 50
264.3439
 51
279.9682
  0
ARC
  8
0
 10
20.8986
 20
230.7916
 40
0.456153
 50
261.2754
 51
264.3451
  0
ARC
  8
0
 10
20.8265
 20
230.3218
 40
0.0191991
 50
81.275
 51
89.5783
  0
ARC
  8
0
 10
20.8031
 20
227.1527
 40
3.18835
 50
89.578
 51
90.2221
  0
ARC
  8
0
 10
20.7923
 20
229.949
 40
0.391979
 50
90.2229
 51
92.7059
  0
ARC
  8
0
 10
20.789
 20
230.0194
 40
0.321532
 50
92.7049
 51
95.4464
  0
ARC
  8
0
 10
20.7705
 20
230.2133
 40
0.126789
 50
95.4472
 51
104.2325
  0
ARC
  8
0
 10
20.7604
 20
230.2532
 40
0.0855973
 50
104.232
 51
114.9293
  0
ARC
  8
0
 10
20.7748
 20
230.222
 40
0.119976
 50
114.9297
 51
123.0551
  0
ARC
  8
0
 10
20.7881
 20
230.2017
 40
0.144222
 50
123.055
 51
130.465
  0
ARC
  8
0
 10
21.0796
 20
229.8599
 40
0.593453
 50
130.4654
 51
132.6004
  0
ARC
  8
0
 10
21.3917
 20
229.5205
 40
1.05454
 50
132.5997
 51
134.2015
  0
ARC
  8
0
 10
20.4585
 20
230.4801
 40
0.284016
 50
310.4973
 51
314.2021
  0
ARC
  8
0
 10
20.5968
 20
230.3181
 40
0.07099
 50
303.0822
 51
310.4965
  0
ARC
  8
0
 10
20.6116
 20
230.2955
 40
0.0440049
 50
299.2153
 51
303.0823
  0
ARC
  8
0
 10
20.1412
 20
231.1366
 40
1.00767
 50
298.4079
 51
299.2158
  0
ARC
  8
0
 10
20.7329
 20
230.0427
 40
0.235998
 50
118.4083
 51
122.224
  0
ARC
  8
0
 10
20.8291
 20
229.89
 40
0.416422
 50
122.2233
 51
125.0957
  0
ARC
  8
0
 10
20.7657
 20
229.9802
 40
0.306272
 50
125.0957
 51
129.4358
  0
ARC
  8
0
 10
20.6518
 20
230.1187
 40
0.126897
 50
129.4364
 51
136.1813
  0
ARC
  8
0
 10
20.6575
 20
230.1132
 40
0.134826
 50
136.1807
 51
141.6981
  0
ARC
  8
0
 10
20.7193
 20
230.0644
 40
0.213578
 50
141.6985
 51
146.0816
  0
ARC
  8
0
 10
20.9009
 20
229.9423
 40
0.432342
 50
146.0815
 51
148.4396
  0
ARC
  8
0
 10
20.9555
 20
229.9088
 40
0.496503
 50
148.4395
 51
150.6399
  0
ARC
  8
0
 10
19.9267
 20
230.4875
 40
0.683992
 50
328.219
 51
330.6399
  0
ARC
  8
0
 10
20.4852
 20
230.1415
 40
0.0269921
 50
316.0111
 51
328.2197
  0
LINE
  8
0
 10
20.5046
 20
230.1228
 11
20.4789
 21
230.0961
  0
ARC
  8
0
 10
20.2771
 20
230.2909
 40
0.280453
 50
311.2947
 51
316.0106
  0
ARC
  8
0
 10
20.4454
 20
230.0992
 40
0.0253299
 50
295.5579
 51
311.2946
  0
ARC
  8
0
 10
21.0238
 20
228.8898
 40
1.31524
 50
115.5575
 51
116.3408
  0
ARC
  8
0
 10
20.4502
 20
230.0482
 40
0.0226322
 50
116.3459
 51
122.3183
  0
LINE
  8
0
 10
20.4381
 20
230.0674
 11
20.434
 21
230.0609
  0
LINE
  8
0
 10
20.434
 20
230.0609
 11
20.4573
 21
230.0555
  0
LINE
  8
0
 10
20.4573
 20
230.0555
 11
20.475
 21
230.0558
  0
ARC
  8
0
 10
20.4689
 20
230.0528
 40
0.00681657
 50
0.0002
 51
25.9219
  0
ARC
  8
0
 10
20.3519
 20
230.0894
 40
0.129056
 50
334.7764
 51
343.528
  0
ARC
  8
0
 10
20.3715
 20
230.0802
 40
0.10739
 50
324.931
 51
334.7765
  0
ARC
  8
0
 10
20.4219
 20
230.0448
 40
0.0457885
 50
309.8278
 51
324.9309
  0
LINE
  8
0
 10
20.4513
 20
230.0096
 11
20.4333
 21
229.9947
  0
ARC
  8
0
 10
20.1277
 20
230.3611
 40
0.477098
 50
307.3704
 51
309.8279
  0
ARC
  8
0
 10
20.4064
 20
229.9962
 40
0.0179659
 50
294.6813
 51
307.3707
  0
ARC
  8
0
 10
20.4594
 20
229.8808
 40
0.108977
 50
114.6805
 51
119.6267
  0
ARC
  8
0
 10
20.4067
 20
229.9735
 40
0.0023183
 50
119.6276
 51
154.0442
  0
LINE
  8
0
 10
20.4046
 20
229.9745
 11
20.4
 21
229.9651
  0
LINE
  8
0
 10
20.4
 20
229.9651
 11
20.4042
 21
229.9655
  0
ARC
  8
0
 10
20.3562
 20
230.1794
 40
0.219169
 50
282.668
 51
286.2825
  0
ARC
  8
0
 10
20.4112
 20
229.9908
 40
0.0226939
 50
286.2828
 51
297.5315
  0
LINE
  8
0
 10
20.4217
 20
229.9706
 11
20.4443
 21
229.9824
  0
ARC
  8
0
 10
20.0579
 20
230.7237
 40
0.836007
 50
297.5314
 51
298.8462
  0
ARC
  8
0
 10
20.4472
 20
230.0169
 40
0.0290143
 50
298.8458
 51
305.9076
  0
ARC
  8
0
 10
20.4392
 20
230.0279
 40
0.0426298
 50
305.908
 51
312.6984
  0
ARC
  8
0
 10
20.1922
 20
230.2957
 40
0.406953
 50
312.6982
 51
314.8948
  0
ARC
  8
0
 10
20.6402
 20
229.846
 40
0.227796
 50
131.7967
 51
134.8948
  0
ARC
  8
0
 10
20.6211
 20
229.8673
 40
0.199195
 50
128.4837
 51
131.7969
  0
ARC
  8
0
 10
20.4074
 20
230.1362
 40
0.144279
 50
308.4836
 51
313.4725
  0
ARC
  8
0
 10
20.5024
 20
230.0359
 40
0.00612349
 50
313.4729
 51
337.865
  0
LINE
  8
0
 10
20.5081
 20
230.0336
 11
20.5158
 21
230.0525
  0
LINE
  8
0
 10
20.5158
 20
230.0525
 11
20.5194
 21
230.0559
  0
LINE
  8
0
 10
20.5194
 20
230.0559
 11
20.523
 21
230.0489
  0
LINE
  8
0
 10
20.523
 20
230.0489
 11
20.5312
 21
230.0566
  0
ARC
  8
0
 10
20.5195
 20
230.0638
 40
0.0136847
 50
328.229
 51
336.8942
  0
ARC
  8
0
 10
19.5846
 20
230.4627
 40
1.03016
 50
336.8948
 51
337.8928
  0
LINE
  8
0
 10
20.539
 20
230.075
 11
20.5483
 21
230.0979
  0
LINE
  8
0
 10
20.5483
 20
230.0979
 11
20.5534
 21
230.0932
  0
ARC
  8
0
 10
20.5537
 20
230.0971
 40
0.00394901
 50
264.885
 51
309.8501
  0
ARC
  8
0
 10
20.5533
 20
230.0977
 40
0.00469877
 50
309.8498
 51
350.894
  0
LINE
  8
0
 10
20.5579
 20
230.097
 11
20.5559
 21
230.1189
  0
LINE
  8
0
 10
20.5559
 20
230.1189
 11
20.5598
 21
230.1377
  0
LINE
  8
0
 10
20.5598
 20
230.1377
 11
20.5662
 21
230.1306
  0
LINE
  8
0
 10
20.5662
 20
230.1306
 11
20.5711
 21
230.1571
  0
ARC
  8
0
 10
20.6234
 20
230.152
 40
0.0526077
 50
159.2493
 51
174.5288
  0
ARC
  8
0
 10
20.6454
 20
230.1437
 40
0.0760481
 50
146.5524
 51
159.2492
  0
ARC
  8
0
 10
20.9194
 20
229.9627
 40
0.404537
 50
143.0789
 51
146.5524
  0
ARC
  8
0
 10
20.625
 20
230.1839
 40
0.0362554
 50
131.4579
 51
143.0789
  0
LINE
  8
0
 10
20.601
 20
230.2111
 11
20.6147
 21
230.2232
  0
LINE
  8
0
 10
20.6147
 20
230.2232
 11
20.6127
 21
230.2151
  0
ARC
  8
0
 10
20.8724
 20
230.1322
 40
0.272603
 50
162.3009
 51
164.1704
  0
ARC
  8
0
 10
21.158
 20
230.0512
 40
0.569426
 50
164.1703
 51
165.4637
  0
ARC
  8
0
 10
21.3339
 20
230.0056
 40
0.751145
 50
165.4637
 51
167.3298
  0
ARC
  8
0
 10
21.0557
 20
230.0681
 40
0.466029
 50
167.3298
 51
169.6991
  0
ARC
  8
0
 10
20.7212
 20
230.1289
 40
0.126018
 50
169.6992
 51
179.1608
  0
ARC
  8
0
 10
20.6788
 20
230.1308
 40
0.0835954
 50
180
 51
190.8149
  0
ARC
  8
0
 10
20.6633
 20
230.1288
 40
0.0680332
 50
191.654
 51
200.6203
  0
ARC
  8
0
 10
20.7321
 20
230.1547
 40
0.141548
 50
200.6205
 51
206.8334
  0
ARC
  8
0
 10
20.7514
 20
230.1645
 40
0.163139
 50
206.8333
 51
212.6194
  0
ARC
  8
0
 10
20.7311
 20
230.1515
 40
0.139101
 50
212.6193
 51
218.8858
  0
ARC
  8
0
 10
20.6827
 20
230.1125
 40
0.0769155
 50
218.8858
 51
229.3445
  0
ARC
  8
0
 10
20.687
 20
230.1175
 40
0.0835005
 50
229.3446
 51
239.3814
  0
ARC
  8
0
 10
20.5932
 20
229.959
 40
0.100687
 50
50.4847
 51
59.3813
  0
ARC
  8
0
 10
20.6475
 20
230.0248
 40
0.0153531
 50
27.5719
 51
50.4846
  0
ARC
  8
0
 10
20.6536
 20
230.028
 40
0.00849444
 50
4.9481
 51
27.5718
  0
ARC
  8
0
 10
20.6056
 20
230.0287
 40
0.0564052
 50
354.908
 51
360.0001
  0
ARC
  8
0
 10
20.6024
 20
230.0342
 40
0.0604014
 50
340.1199
 51
349.9594
  0
ARC
  8
0
 10
20.5653
 20
230.0476
 40
0.0997761
 50
332.4682
 51
340.1202
  0
LINE
  8
0
 10
20.6538
 20
230.0015
 11
20.6364
 21
229.9681
  0
ARC
  8
0
 10
20.5195
 20
230.0291
 40
0.13182
 50
325.6391
 51
332.4681
  0
ARC
  8
0
 10
20.606
 20
229.9699
 40
0.0270099
 50
310.518
 51
325.6391
  0
ARC
  8
0
 10
20.7445
 20
229.8078
 40
0.186188
 50
130.518
 51
137.8383
  0
ARC
  8
0
 10
20.6117
 20
229.9294
 40
0.00616812
 50
146.9831
 51
180.0001
  0
LINE
  8
0
 10
20.6055
 20
229.9294
 11
20.6126
 21
229.8857
  0
ARC
  8
0
 10
20.6131
 20
229.8858
 40
0.000540426
 50
189.137
 51
215.8293
  0
ARC
  8
0
 10
20.6148
 20
229.887
 40
0.00261658
 50
215.8416
 51
227.885
  0
ARC
  8
0
 10
20.2549
 20
229.489
 40
0.533967
 50
43.4062
 51
47.8809
  0
ARC
  8
0
 10
20.5704
 20
229.7874
 40
0.0997015
 50
33.0391
 51
43.4062
  0
LINE
  8
0
 10
20.654
 20
229.8418
 11
20.6875
 21
229.7902
  0
ARC
  8
0
 10
20.6941
 20
229.7945
 40
0.00783137
 50
213.0382
 51
228.3264
  0
ARC
  8
0
 10
20.6951
 20
229.7956
 40
0.00937417
 50
228.3283
 51
242.2952
  0
LINE
  8
0
 10
20.6908
 20
229.7873
 11
20.7035
 21
229.7806
  0
LINE
  8
0
 10
20.7035
 20
229.7806
 11
20.7076
 21
229.7767
  0
ARC
  8
0
 10
20.6692
 20
229.737
 40
0.0551543
 50
42.2539
 51
45.9338
  0
ARC
  8
0
 10
20.6751
 20
229.7424
 40
0.0472045
 50
38.2754
 51
42.2533
  0
ARC
  8
0
 10
20.6966
 20
229.7593
 40
0.0198221
 50
27.9699
 51
38.2758
  0
ARC
  8
0
 10
20.7068
 20
229.7647
 40
0.0083273
 50
12.0396
 51
27.9698
  0
ARC
  8
0
 10
20.7079
 20
229.765
 40
0.00720007
 50
5.3083
 51
12.0406
  0
ARC
  8
0
 10
20.3911
 20
229.7355
 40
0.325361
 50
4.3063
 51
5.3073
  0
ARC
  8
0
 10
20.7392
 20
229.7617
 40
0.0237263
 50
184.3055
 51
190.5602
  0
ARC
  8
0
 10
20.7664
 20
229.7668
 40
0.0514793
 50
190.5617
 51
194.8068
  0
ARC
  8
0
 10
20.6994
 20
229.7491
 40
0.0179159
 50
0
 51
14.8061
  0
ARC
  8
0
 10
20.7146
 20
229.7491
 40
0.00265101
 50
320.8598
 51
360.0002
  0
LINE
  8
0
 10
20.7167
 20
229.7474
 11
20.71
 21
229.7392
  0
LINE
  8
0
 10
20.71
 20
229.7392
 11
20.7265
 21
229.719
  0
LINE
  8
0
 10
20.7265
 20
229.719
 11
20.7337
 21
229.7164
  0
ARC
  8
0
 10
20.734
 20
229.7172
 40
0.000830235
 50
250.2206
 51
327.0114
  0
ARC
  8
0
 10
20.7239
 20
229.7238
 40
0.0129325
 50
327.0123
 51
345.12
  0
ARC
  8
0
 10
20.7736
 20
229.7106
 40
0.0385634
 50
161.4122
 51
165.1184
  0
ARC
  8
0
 10
20.947
 20
229.6523
 40
0.221475
 50
159.8668
 51
161.4132
  0
ARC
  8
0
 10
20.6406
 20
229.7646
 40
0.104873
 50
339.8668
 51
345.8221
  0
ARC
  8
0
 10
20.7056
 20
229.7482
 40
0.0378615
 50
345.8218
 51
355.741
  0
LINE
  8
0
 10
20.7433
 20
229.7454
 11
20.7443
 21
229.7587
  0
ARC
  8
0
 10
20.0114
 20
229.8133
 40
0.734944
 50
355.7412
 51
356.4498
  0
ARC
  8
0
 10
20.7302
 20
229.7678
 40
0.0147712
 50
0.003
 51
2.5845
  0
ARC
  8
0
 10
20.7331
 20
229.7672
 40
0.0119072
 50
6.1316
 51
23.8791
  0
ARC
  8
0
 10
20.6409
 20
229.7264
 40
0.112698
 50
23.8794
 51
29.6276
  0
ARC
  8
0
 10
20.6957
 20
229.7575
 40
0.0496534
 50
29.6279
 51
39.2694
  0
ARC
  8
0
 10
20.7155
 20
229.7737
 40
0.0240844
 50
39.2687
 51
53.1297
  0
LINE
  8
0
 10
20.73
 20
229.793
 11
20.7206
 21
229.8
  0
ARC
  8
0
 10
20.7236
 20
229.8041
 40
0.00504378
 50
210.3563
 51
233.1297
  0
ARC
  8
0
 10
20.9389
 20
229.9302
 40
0.254539
 50
207.1716
 51
210.3568
  0
LINE
  8
0
 10
20.7124
 20
229.8139
 11
20.6987
 21
229.8406
  0
ARC
  8
0
 10
20.7564
 20
229.8702
 40
0.0648374
 50
202.163
 51
207.1715
  0
ARC
  8
0
 10
21.074
 20
229.9996
 40
0.407756
 50
200.1662
 51
202.163
  0
ARC
  8
0
 10
20.4715
 20
229.7783
 40
0.234092
 50
20.1661
 51
24.997
  0
ARC
  8
0
 10
20.6167
 20
229.846
 40
0.0738637
 50
24.9969
 51
33.6024
  0
ARC
  8
0
 10
20.7468
 20
229.9325
 40
0.0823577
 50
203.0514
 51
213.6025
  0
ARC
  8
0
 10
20.7401
 20
229.9002
 40
0.069085
 50
177.209
 51
179.9999
  0
ARC
  8
0
 10
20.6719
 20
229.9032
 40
0.00086672
 50
120.9022
 51
154.154
  0
ARC
  8
0
 10
20.9104
 20
229.5048
 40
0.465197
 50
119.4903
 51
120.9055
  0
ARC
  8
0
 10
20.6779
 20
229.9159
 40
0.00703796
 50
299.4901
 51
317.1692
  0
ARC
  8
0
 10
20.3346
 20
230.2341
 40
0.475158
 50
317.1693
 51
319.3125
  0
LINE
  8
0
 10
20.6949
 20
229.9244
 11
20.715
 21
229.9477
  0
LINE
  8
0
 10
20.715
 20
229.9477
 11
20.7387
 21
229.9794
  0
LINE
  8
0
 10
20.7387
 20
229.9794
 11
20.7562
 21
230.0021
  0
ARC
  8
0
 10
20.6704
 20
230.0599
 40
0.10345
 50
326.0615
 51
330.4962
  0
ARC
  8
0
 10
20.2388
 20
230.3041
 40
0.599326
 50
330.4958
 51
332.3378
  0
ARC
  8
0
 10
19.9131
 20
230.4748
 40
0.967038
 50
332.3379
 51
333.2979
  0
ARC
  8
0
 10
20.424
 20
230.2179
 40
0.395202
 50
333.2977
 51
334.7997
  0
ARC
  8
0
 10
20.7146
 20
230.0811
 40
0.0740104
 50
334.7998
 51
345.9637
  0
ARC
  8
0
 10
20.7156
 20
230.0809
 40
0.0729924
 50
345.9638
 51
357.2056
  0
ARC
  8
0
 10
20.9191
 20
230.0709
 40
0.130749
 50
169.5497
 51
177.2058
  0
ARC
  8
0
 10
20.7938
 20
230.094
 40
0.00338383
 50
120.5082
 51
169.5469
  0
ARC
  8
0
 10
20.7938
 20
230.094
 40
0.00339402
 50
72.6453
 51
120.5101
  0
ARC
  8
0
 10
20.7632
 20
229.9961
 40
0.105976
 50
64.3199
 51
72.6462
  0
ARC
  8
0
 10
20.8475
 20
230.1713
 40
0.0883712
 50
244.3199
 51
253.4563
  0
ARC
  8
0
 10
20.9092
 20
230.3791
 40
0.305194
 50
253.456
 51
258.3686
  0
ARC
  8
0
 10
21.0814
 20
231.2157
 40
1.15932
 50
258.3688
 51
259.648
  0
ARC
  8
0
 10
21.0022
 20
230.7819
 40
0.718379
 50
259.6478
 51
261.273
  0
ARC
  8
0
 10
20.9611
 20
230.5145
 40
0.447778
 50
261.2731
 51
264.1001
  0
ARC
  8
0
 10
20.96
 20
230.5032
 40
0.436444
 50
264.1005
 51
266.9639
  0
ARC
  8
0
 10
20.9751
 20
230.7887
 40
0.722371
 50
266.9639
 51
268.9655
  0
ARC
  8
0
 10
20.9854
 20
231.3609
 40
1.29461
 50
268.9651
 51
270.4603
  0
ARC
  8
0
 10
20.9935
 20
230.3539
 40
0.287561
 50
270.4607
 51
277.722
  0
ARC
  8
0
 10
21.0195
 20
230.1626
 40
0.0945625
 50
277.7216
 51
290.4016
  0
ARC
  8
0
 10
21.1079
 20
229.9247
 40
0.159286
 50
100.1378
 51
110.4018
  0
ARC
  8
0
 10
21.0808
 20
230.0766
 40
0.00491931
 50
38.9429
 51
100.1382
  0
ARC
  8
0
 10
21.0829
 20
230.0783
 40
0.00219429
 50
2.5238
 51
38.946
  0
ARC
  8
0
 10
20.5153
 20
230.0652
 40
0.569938
 50
359.9995
 51
361.3312
  0
ARC
  8
0
 10
21.1255
 20
230.0652
 40
0.0402143
 50
179.9995
 51
192.1646
  0
ARC
  8
0
 10
21.1029
 20
230.0607
 40
0.0172481
 50
193.3542
 51
213.7237
  0
ARC
  8
0
 10
21.0099
 20
229.9986
 40
0.0946469
 50
28.0091
 51
33.7227
  0
ARC
  8
0
 10
21.0897
 20
230.0411
 40
0.00416825
 50
0.5323
 51
28.0099
  0
ARC
  8
0
 10
21.0921
 20
230.0411
 40
0.00182842
 50
336.6659
 51
359.9941
  0
ARC
  8
0
 10
21.0615
 20
230.0547
 40
0.035296
 50
330.7488
 51
336.1409
  0
ARC
  8
0
 10
21.17
 20
229.9939
 40
0.0891012
 50
150.7473
 51
159.5682
  0
ARC
  8
0
 10
21.1424
 20
230.0042
 40
0.0596732
 50
159.5693
 51
170.3532
  0
LINE
  8
0
 10
21.0836
 20
230.0142
 11
21.0779
 21
229.9803
  0
LINE
  8
0
 10
21.0779
 20
229.9803
 11
21.0685
 21
229.9495
  0
LINE
  8
0
 10
21.0685
 20
229.9495
 11
21.0613
 21
229.916
  0
ARC
  8
0
 10
23.2436
 20
229.2746
 40
2.27464
 50
163.6234
 51
164.4016
  0
ARC
  8
0
 10
21.0584
 20
229.8849
 40
0.00581282
 50
166.5774
 51
179.9949
  0
LINE
  8
0
 10
21.0526
 20
229.8849
 11
21.0533
 21
229.8663
  0
ARC
  8
0
 10
20.9383
 20
229.8663
 40
0.114999
 50
356.0993
 51
360.0012
  0
ARC
  8
0
 10
20.7232
 20
229.8936
 40
0.331696
 50
350.5735
 51
353.916
  0
ARC
  8
0
 10
20.903
 20
229.8637
 40
0.1494
 50
345.2569
 51
350.5744
  0
ARC
  8
0
 10
21.0165
 20
229.8339
 40
0.0321053
 50
333.7697
 51
345.2556
  0
LINE
  8
0
 10
21.0453
 20
229.8197
 11
21.0405
 21
229.81
  0
LINE
  8
0
 10
21.0405
 20
229.81
 11
21.0386
 21
229.7989
  0
ARC
  8
0
 10
21.0136
 20
229.8045
 40
0.0256654
 50
338.5168
 51
347.3105
  0
ARC
  8
0
 10
21.021
 20
229.8016
 40
0.0176894
 50
327.9149
 51
338.5121
  0
ARC
  8
0
 10
21.0097
 20
229.8087
 40
0.0310079
 50
321.7284
 51
327.9153
  0
ARC
  8
0
 10
20.9839
 20
229.829
 40
0.0639331
 50
317.4244
 51
321.732
  0
ARC
  8
0
 10
21.0953
 20
229.7267
 40
0.0873634
 50
137.423
 51
145.851
  0
ARC
  8
0
 10
21.0319
 20
229.7697
 40
0.0107661
 50
145.8502
 51
170.0153
  0
ARC
  8
0
 10
21.1297
 20
229.7715
 40
0.108415
 50
180.0017
 51
182.4501
  0
ARC
  8
0
 10
21.162
 20
229.7979
 40
0.144027
 50
192.4321
 51
198.8423
  0
ARC
  8
0
 10
20.99
 20
229.7392
 40
0.0377382
 50
6.3408
 51
18.8433
  0
ARC
  8
0
 10
20.7177
 20
229.7434
 40
0.309839
 50
358.6448
 51
359.9994
  0
LINE
  8
0
 10
21.0274
 20
229.7361
 11
21.0274
 21
229.7275
  0
ARC
  8
0
 10
21.0295
 20
229.7278
 40
0.00211562
 50
187.4913
 51
249.7436
  0
LINE
  8
0
 10
21.0288
 20
229.7258
 11
21.0662
 21
229.712
  0
LINE
  8
0
 10
21.0662
 20
229.712
 11
21.0685
 21
229.7196
  0
ARC
  8
0
 10
21.0514
 20
229.7183
 40
0.017187
 50
4.6069
 51
13.4413
  0
ARC
  8
0
 10
20.8759
 20
229.6763
 40
0.19761
 50
13.4413
 51
16.0442
  0
ARC
  8
0
 10
21.1044
 20
229.742
 40
0.0401365
 50
188.2127
 51
196.0453
  0
ARC
  8
0
 10
21.2612
 20
229.7647
 40
0.198527
 50
184.6916
 51
188.2112
  0
LINE
  8
0
 10
21.0633
 20
229.7484
 11
21.062
 21
229.7649
  0
ARC
  8
0
 10
21.2518
 20
229.7804
 40
0.190445
 50
180.0005
 51
184.6924
  0
ARC
  8
0
 10
21.1046
 20
229.7804
 40
0.0432698
 50
170.1463
 51
179.9991
  0
ARC
  8
0
 10
21.1031
 20
229.7807
 40
0.0417257
 50
161.0825
 51
170.1466
  0
ARC
  8
0
 10
21.2625
 20
229.7261
 40
0.210233
 50
157.0486
 51
161.0834
  0
ARC
  8
0
 10
20.7669
 20
229.936
 40
0.327972
 50
337.0481
 51
339.1998
  0
ARC
  8
0
 10
21.0362
 20
229.8337
 40
0.03993
 50
339.2012
 51
345.3704
  0
LINE
  8
0
 10
21.0748
 20
229.8236
 11
21.0792
 21
229.8405
  0
ARC
  8
0
 10
21.1826
 20
229.8135
 40
0.106867
 50
161.5384
 51
165.3695
  0
ARC
  8
0
 10
21.6386
 20
229.6612
 40
0.587593
 50
159.9044
 51
161.5381
  0
ARC
  8
0
 10
21.686
 20
229.6612
 40
0.632302
 50
156.1791
 51
161.3773
  0
ARC
  8
0
 10
21.1593
 20
229.8962
 40
0.0556395
 50
151.0767
 51
158.5225
  0
LINE
  8
0
 10
21.1106
 20
229.9231
 11
21.1267
 21
229.9522
  0
ARC
  8
0
 10
20.9915
 20
230.0269
 40
0.154478
 50
331.0767
 51
336.2482
  0
ARC
  8
0
 10
20.9782
 20
230.0327
 40
0.168908
 50
336.2477
 51
341.1932
  0
ARC
  8
0
 10
20.4095
 20
230.2264
 40
0.769739
 50
341.1934
 51
342.0517
  0
ARC
  8
0
 10
20.1222
 20
230.3194
 40
1.07171
 50
342.0521
 51
342.7791
  0
ARC
  8
0
 10
18.8325
 20
230.7192
 40
2.42197
 50
342.7789
 51
343.3009
  0
ARC
  8
0
 10
21.1155
 20
230.0343
 40
0.0384033
 50
343.2953
 51
347.4467
  0
LINE
  8
0
 10
21.153
 20
230.0259
 11
21.1581
 21
230.0486
  0
ARC
  8
0
 10
21.2184
 20
230.0352
 40
0.0618038
 50
154.8129
 51
167.4525
  0
ARC
  8
0
 10
21.1648
 20
230.0604
 40
0.00256861
 50
89.449
 51
154.8091
  0
ARC
  8
0
 10
21.1648
 20
230.0611
 40
0.00181533
 50
30.7541
 51
89.4526
  0
ARC
  8
0
 10
21.0768
 20
230.0088
 40
0.104194
 50
23.3358
 51
30.7544
  0
LINE
  8
0
 10
21.1725
 20
230.0501
 11
21.181
 21
230.0304
  0
ARC
  8
0
 10
21.1359
 20
230.0109
 40
0.0491039
 50
15.5417
 51
23.3354
  0
ARC
  8
0
 10
20.854
 20
229.9325
 40
0.341737
 50
12.5899
 51
15.5422
  0
ARC
  8
0
 10
20.8944
 20
229.9416
 40
0.300319
 50
9.7474
 51
12.59
  0
ARC
  8
0
 10
20.9106
 20
229.9443
 40
0.283899
 50
6.8231
 51
9.7468
  0
ARC
  8
0
 10
21.8835
 20
230.0608
 40
0.696027
 50
186.8233
 51
188.5863
  0
ARC
  8
0
 10
21.2444
 20
229.9643
 40
0.0496358
 50
188.5874
 51
195.1924
  0
ARC
  8
0
 10
21.2513
 20
229.9661
 40
0.0568332
 50
195.191
 51
201.0576
  0
ARC
  8
0
 10
21.5772
 20
230.0916
 40
0.406055
 50
201.0583
 51
203.2523
  0
ARC
  8
0
 10
21.1569
 20
229.911
 40
0.0514918
 50
8.4486
 51
23.2521
  0
ARC
  8
0
 10
21.154
 20
229.9186
 40
0.053838
 50
351.6648
 51
359.9998
  0
ARC
  8
0
 10
21.1994
 20
229.9131
 40
0.00820937
 50
323.1282
 51
343.2147
  0
ARC
  8
0
 10
21.202
 20
229.9111
 40
0.00489399
 50
297.0252
 51
323.1316
  0
ARC
  8
0
 10
21.1933
 20
229.9282
 40
0.0240373
 50
282.0722
 51
297.023
  0
ARC
  8
0
 10
21.176
 20
230.0091
 40
0.106821
 50
274.9965
 51
282.0729
  0
ARC
  8
0
 10
21.1894
 20
229.8561
 40
0.0468469
 50
94.9963
 51
105.9312
  0
ARC
  8
0
 10
21.1959
 20
229.8334
 40
0.0704344
 50
105.9312
 51
114.8447
  0
ARC
  8
0
 10
20.9676
 20
230.3263
 40
0.472754
 50
292.9635
 51
294.8445
  0
ARC
  8
0
 10
21.1465
 20
229.9042
 40
0.0143487
 50
282.1532
 51
292.9657
  0
ARC
  8
0
 10
21.1486
 20
229.8945
 40
0.0044006
 50
255.2776
 51
282.1508
  0
ARC
  8
0
 10
21.2288
 20
230.1999
 40
0.320207
 50
252.1559
 51
255.278
  0
LINE
  8
0
 10
21.1307
 20
229.8951
 11
21.1203
 21
229.8985
  0
LINE
  8
0
 10
21.1203
 20
229.8985
 11
21.1085
 21
229.8658
  0
LINE
  8
0
 10
21.1085
 20
229.8658
 11
21.1078
 21
229.8651
  0
LINE
  8
0
 10
21.1078
 20
229.8651
 11
21.1224
 21
229.8678
  0
ARC
  8
0
 10
21.1609
 20
229.6593
 40
0.211999
 50
98.1907
 51
100.4515
  0
ARC
  8
0
 10
21.1312
 20
229.8654
 40
0.00382538
 50
81.3017
 51
98.1911
  0
LINE
  8
0
 10
21.1318
 20
229.8692
 11
21.1448
 21
229.8672
  0
ARC
  8
0
 10
21.1469
 20
229.8811
 40
0.0140496
 50
261.3009
 51
274.8206
  0
ARC
  8
0
 10
21.1402
 20
229.9608
 40
0.0940875
 50
274.8208
 51
280.0349
  0
ARC
  8
0
 10
21.0432
 20
230.5088
 40
0.650598
 50
280.0351
 51
280.7998
  0
ARC
  8
0
 10
21.0008
 20
230.7315
 40
0.877263
 50
280.7992
 51
281.4579
  0
ARC
  8
0
 10
20.8069
 20
231.6881
 40
1.85336
 50
281.4586
 51
281.9149
  0
ARC
  8
0
 10
20.6456
 20
232.4522
 40
2.63426
 50
281.9147
 51
282.2971
  0
ARC
  8
0
 10
21.639
 20
227.8952
 40
2.02968
 50
101.7333
 51
102.2973
  0
ARC
  8
0
 10
21.2979
 20
229.5375
 40
0.35238
 50
100.379
 51
101.7319
  0
ARC
  8
0
 10
21.2193
 20
229.9664
 40
0.08361
 50
280.3801
 51
287.5751
  0
ARC
  8
0
 10
21.2362
 20
229.913
 40
0.0276452
 50
287.5755
 51
300.1049
  0
ARC
  8
0
 10
21.2423
 20
229.9025
 40
0.0154933
 50
300.1054
 51
321.9155
  0
ARC
  8
0
 10
21.2368
 20
229.9068
 40
0.0224594
 50
321.9138
 51
339.9944
  0
ARC
  8
0
 10
21.23
 20
229.9093
 40
0.0297762
 50
339.9948
 51
358.8135
  0
ARC
  8
0
 10
21.239
 20
229.9087
 40
0.0207734
 50
0.0006
 51
21.4216
  0
LINE
  8
0
 10
21.2583
 20
229.9163
 11
21.2536
 21
229.9275
  0
ARC
  8
0
 10
21.2975
 20
229.9458
 40
0.0475747
 50
192.2767
 51
202.6079
  0
ARC
  8
0
 10
21.284
 20
229.9429
 40
0.0337335
 50
179.9989
 51
192.2748
  0
LINE
  8
0
 10
21.2503
 20
229.9429
 11
21.2503
 21
229.9579
  0
LINE
  8
0
 10
21.2503
 20
229.9579
 11
21.2471
 21
229.9875
  0
LINE
  8
0
 10
21.2471
 20
229.9875
 11
21.246
 21
230.0296
  0
LINE
  8
0
 10
21.246
 20
230.0296
 11
21.2448
 21
230.0689
  0
ARC
  8
0
 10
21.4176
 20
230.0703
 40
0.172734
 50
180.0027
 51
180.4648
  0
ARC
  8
0
 10
25.055
 20
229.9875
 40
3.8111
 50
178.5057
 51
178.7551
  0
ARC
  8
0
 10
20.6899
 20
230.0869
 40
0.555316
 50
0.0006
 51
1.4199
  0
ARC
  8
0
 10
21.1857
 20
230.0976
 40
0.0594669
 50
2.913
 51
10.5618
  0
ARC
  8
0
 10
21.435
 20
230.1441
 40
0.194191
 50
185.4312
 51
190.5625
  0
ARC
  8
0
 10
21.2695
 20
230.1257
 40
0.0278154
 50
170.7923
 51
180.0014
  0
ARC
  8
0
 10
21.2505
 20
230.128
 40
0.00875655
 50
145.1332
 51
165.36
  0
ARC
  8
0
 10
21.3256
 20
230.0756
 40
0.100297
 50
139.1837
 51
145.1318
  0
ARC
  8
0
 10
21.1222
 20
230.2513
 40
0.16848
 50
319.1839
 51
323.4174
  0
ARC
  8
0
 10
21.0373
 20
230.3144
 40
0.274274
 50
323.4179
 51
326.7357
  0
ARC
  8
0
 10
20.9548
 20
230.3685
 40
0.37294
 50
326.736
 51
328.9634
  0
ARC
  8
0
 10
20.975
 20
230.3563
 40
0.349322
 50
328.9623
 51
331.2637
  0
ARC
  8
0
 10
21.0451
 20
230.3179
 40
0.26942
 50
331.2639
 51
334.5136
  0
ARC
  8
0
 10
21.1449
 20
230.2703
 40
0.158793
 50
334.5146
 51
338.7479
  0
ARC
  8
0
 10
21.1504
 20
230.2682
 40
0.152983
 50
338.7478
 51
341.9644
  0
ARC
  8
0
 10
20.8142
 20
230.3776
 40
0.506504
 50
341.9636
 51
343.7312
  0
ARC
  8
0
 10
20.4591
 20
230.4813
 40
0.876444
 50
343.7318
 51
344.6638
  0
ARC
  8
0
 10
21.1791
 20
230.2838
 40
0.129797
 50
344.6627
 51
347.085
  0
LINE
  8
0
 10
21.3057
 20
230.2548
 11
21.3124
 21
230.2844
  0
ARC
  8
0
 10
21.4219
 20
230.2593
 40
0.112267
 50
160.7896
 51
167.0861
  0
ARC
  8
0
 10
21.5112
 20
230.2281
 40
0.20691
 50
156.1522
 51
160.7891
  0
ARC
  8
0
 10
21.4804
 20
230.2418
 40
0.173153
 50
150.4723
 51
156.1526
  0
ARC
  8
0
 10
21.452
 20
230.2578
 40
0.140597
 50
144.1675
 51
150.4719
  0
ARC
  8
0
 10
21.1272
 20
230.4924
 40
0.260097
 50
324.1678
 51
328.1457
  0
ARC
  8
0
 10
21.3213
 20
230.3718
 40
0.0315255
 50
328.1453
 51
339.5878
  0
ARC
  8
0
 10
21.4719
 20
230.3157
 40
0.129137
 50
149.5499
 51
159.588
  0
ARC
  8
0
 10
21.3649
 20
230.3786
 40
0.00500665
 50
96.7915
 51
149.5508
  0
LINE
  8
0
 10
21.3643
 20
230.3836
 11
21.54
 21
230.4045
  0
LINE
  8
0
 10
21.54
 20
230.4045
 11
21.554
 21
230.4065
  0
LINE
  8
0
 10
21.554
 20
230.4065
 11
21.5688
 21
230.4042
  0
ARC
  8
0
 10
21.5678
 20
230.4244
 40
0.0202166
 50
272.6076
 51
296.167
  0
ARC
  8
0
 10
21.5723
 20
230.4154
 40
0.0101921
 50
296.1666
 51
329.5844
  0
LINE
  8
0
 10
21.5811
 20
230.4102
 11
21.5894
 21
230.4245
  0
LINE
  8
0
 10
21.5894
 20
230.4245
 11
21.5949
 21
230.4306
  0
ARC
  8
0
 10
21.5748
 20
230.4459
 40
0.0252908
 50
322.7252
 51
354.7816
  0
ARC
  8
0
 10
21.5833
 20
230.4436
 40
0.0166622
 50
359.9999
 51
394.9251
  0
LINE
  8
0
 10
21.597
 20
230.4532
 11
21.591
 21
230.4576
  0
LINE
  8
0
 10
21.591
 20
230.4576
 11
21.5748
 21
230.4709
  0
LINE
  8
0
 10
21.5748
 20
230.4709
 11
21.5562
 21
230.4847
  0
ARC
  8
0
 10
21.5246
 20
230.453
 40
0.044824
 50
45.1433
 51
52.5168
  0
ARC
  8
0
 10
21.5498
 20
230.4858
 40
0.00340061
 50
52.5147
 51
79.5161
  0
ARC
  8
0
 10
21.5495
 20
230.4844
 40
0.00489787
 50
79.5173
 51
117.5914
  0
ARC
  8
0
 10
21.5575
 20
230.469
 40
0.0221804
 50
117.5939
 51
135.2275
  0
ARC
  8
0
 10
21.5816
 20
230.4452
 40
0.0560279
 50
135.226
 51
144.4759
  0
ARC
  8
0
 10
21.5687
 20
230.4544
 40
0.0402408
 50
144.4774
 51
155.3966
  0
LINE
  8
0
 10
21.5321
 20
230.4711
 11
21.5238
 21
230.453
  0
ARC
  8
0
 10
21.6189
 20
230.4095
 40
0.104554
 50
155.3959
 51
165.5632
  0
ARC
  8
0
 10
21.5222
 20
230.4355
 40
0.00458134
 50
180.0008
 51
217.9704
  0
LINE
  8
0
 10
21.5186
 20
230.4327
 11
21.5342
 21
230.4207
  0
ARC
  8
0
 10
21.5309
 20
230.4184
 40
0.00406587
 50
359.9992
 51
395.0521
  0
ARC
  8
0
 10
21.5327
 20
230.4191
 40
0.00236477
 50
276.7138
 51
342.6464
  0
LINE
  8
0
 10
21.533
 20
230.4167
 11
21.3821
 21
230.399
  0
ARC
  8
0
 10
21.3818
 20
230.4017
 40
0.00278286
 50
209.4225
 51
276.7155
  0
ARC
  8
0
 10
21.3949
 20
230.4051
 40
0.0162991
 50
179.9995
 51
196.8069
  0
ARC
  8
0
 10
21.3932
 20
230.4018
 40
0.0148885
 50
137.5913
 51
167.3856
  0
ARC
  8
0
 10
21.4053
 20
230.3907
 40
0.0313418
 50
117.1799
 51
137.5926
  0
ARC
  8
0
 10
21.3589
 20
230.4811
 40
0.0702285
 50
297.1791
 51
306.5644
  0
ARC
  8
0
 10
21.384
 20
230.4473
 40
0.0281251
 50
306.5648
 51
321.4205
  0
ARC
  8
0
 10
21.7064
 20
230.1901
 40
0.384211
 50
138.2722
 51
141.4201
  0
ARC
  8
0
 10
21.423
 20
230.4428
 40
0.00455254
 50
109.0416
 51
138.2746
  0
ARC
  8
0
 10
21.4227
 20
230.4438
 40
0.00351915
 50
80.6477
 51
109.0343
  0
ARC
  8
0
 10
21.4043
 20
230.3324
 40
0.11646
 50
75.7684
 51
80.6541
  0
ARC
  8
0
 10
21.444
 20
230.4889
 40
0.0450649
 50
255.7675
 51
262.8048
  0
ARC
  8
0
 10
21.4858
 20
230.8199
 40
0.378716
 50
262.8047
 51
265.231
  0
ARC
  8
0
 10
21.842
 20
235.0898
 40
4.66341
 50
265.2321
 51
265.5274
  0
ARC
  8
0
 10
21.4948
 20
230.6514
 40
0.211407
 50
265.524
 51
266.9084
  0
ARC
  8
0
 10
21.4855
 20
230.4798
 40
0.0395956
 50
266.9109
 51
283.1545
  0
ARC
  8
0
 10
21.4925
 20
230.4502
 40
0.00920376
 50
283.1542
 51
317.2333
  0
ARC
  8
0
 10
21.4937
 20
230.449
 40
0.00746921
 50
317.2299
 51
340.2694
  0
ARC
  8
0
 10
21.3863
 20
230.4875
 40
0.121558
 50
340.2738
 51
345.9488
  0
ARC
  8
0
 10
21.553
 20
230.4458
 40
0.0502863
 50
154.3232
 51
165.9479
  0
ARC
  8
0
 10
21.6273
 20
230.4101
 40
0.132664
 50
147.1738
 51
154.3231
  0
ARC
  8
0
 10
21.5759
 20
230.4433
 40
0.0714696
 50
139.0728
 51
147.1737
  0
ARC
  8
0
 10
21.5425
 20
230.4723
 40
0.0272703
 50
125.9411
 51
139.073
  0
ARC
  8
0
 10
21.4563
 20
230.5912
 40
0.119585
 50
305.9409
 51
310.2
  0
ARC
  8
0
 10
21.5323
 20
230.5012
 40
0.00175437
 50
310.1996
 51
345.934
  0
ARC
  8
0
 10
21.5271
 20
230.5007
 40
0.00691969
 50
0.0002
 51
22.5932
  0
ARC
  8
0
 10
21.475
 20
230.4599
 40
0.0728973
 50
36.6584
 51
46.8989
  0
LINE
  8
0
 10
21.5248
 20
230.5131
 11
21.5077
 21
230.5291
  0
ARC
  8
0
 10
21.5017
 20
230.5227
 40
0.0087926
 50
46.8955
 51
52.8033
  0
ARC
  8
0
 10
19.1151
 20
227.3778
 40
3.95666
 50
52.8068
 51
53.0855
  0
ARC
  8
0
 10
21.1815
 20
230.1284
 40
0.516401
 50
53.0869
 51
53.8483
  0
ARC
  8
0
 10
21.3205
 20
230.3187
 40
0.280755
 50
53.8455
 51
54.8781
  0
ARC
  8
0
 10
21.4141
 20
230.4518
 40
0.118073
 50
54.8793
 51
57.3891
  0
ARC
  8
0
 10
21.4607
 20
230.5246
 40
0.0316046
 50
57.3904
 51
62.2424
  0
LINE
  8
0
 10
21.4754
 20
230.5526
 11
21.443
 21
230.5696
  0
LINE
  8
0
 10
21.443
 20
230.5696
 11
21.4362
 21
230.5797
  0
ARC
  8
0
 10
21.3998
 20
230.5536
 40
0.0448097
 50
35.5291
 51
46.8071
  0
ARC
  8
0
 10
21.394
 20
230.5475
 40
0.0532048
 50
46.8072
 51
57.1545
  0
ARC
  8
0
 10
21.3969
 20
230.5519
 40
0.0479697
 50
57.1535
 51
69.9346
  0
ARC
  8
0
 10
21.3965
 20
230.551
 40
0.0489064
 50
69.9363
 51
82.5937
  0
ARC
  8
0
 10
21.3971
 20
230.5555
 40
0.0443686
 50
82.5926
 51
94.3838
  0
ARC
  8
0
 10
21.3939
 20
230.5979
 40
0.00187173
 50
94.3862
 51
154.399
  0
ARC
  8
0
 10
21.4039
 20
230.5987
 40
0.0117468
 50
179.9996
 51
187.1617
  0
ARC
  8
0
 10
21.4627
 20
230.6426
 40
0.083798
 50
212.7658
 51
220.2582
  0
ARC
  8
0
 10
21.3549
 20
230.5512
 40
0.0575354
 50
31.9108
 51
40.2569
  0
ARC
  8
0
 10
21.333
 20
230.5376
 40
0.0833599
 50
24.9804
 51
31.9124
  0
LINE
  8
0
 10
21.4085
 20
230.5728
 11
21.4127
 21
230.5624
  0
LINE
  8
0
 10
21.4127
 20
230.5624
 11
21.3999
 21
230.5641
  0
LINE
  8
0
 10
21.3999
 20
230.5641
 11
21.3898
 21
230.5604
  0
LINE
  8
0
 10
21.3898
 20
230.5604
 11
21.3963
 21
230.554
  0
LINE
  8
0
 10
21.3963
 20
230.554
 11
21.384
 21
230.5528
  0
ARC
  8
0
 10
21.3775
 20
230.4677
 40
0.0852774
 50
85.6708
 51
92.519
  0
ARC
  8
0
 10
21.3759
 20
230.5051
 40
0.0478915
 50
92.5201
 51
101.6625
  0
ARC
  8
0
 10
21.3695
 20
230.536
 40
0.0163663
 50
101.6633
 51
116.2128
  0
ARC
  8
0
 10
21.3629
 20
230.5495
 40
0.00128418
 50
116.2121
 51
169.957
  0
LINE
  8
0
 10
21.3616
 20
230.5497
 11
21.3676
 21
230.5462
  0
LINE
  8
0
 10
21.3676
 20
230.5462
 11
21.3726
 21
230.5433
  0
LINE
  8
0
 10
21.3726
 20
230.5433
 11
21.3689
 21
230.542
  0
LINE
  8
0
 10
21.3689
 20
230.542
 11
21.3562
 21
230.5393
  0
LINE
  8
0
 10
21.3562
 20
230.5393
 11
21.3424
 21
230.5335
  0
ARC
  8
0
 10
21.3523
 20
230.5008
 40
0.0342546
 50
106.8855
 51
117.7467
  0
ARC
  8
0
 10
21.3381
 20
230.5279
 40
0.0036125
 50
117.7485
 51
151.6364
  0
ARC
  8
0
 10
21.3576
 20
230.5267
 40
0.0229373
 50
172.7238
 51
180.0015
  0
ARC
  8
0
 10
21.3391
 20
230.5284
 40
0.00476125
 50
201.0864
 51
242.9947
  0
LINE
  8
0
 10
21.337
 20
230.5242
 11
21.3407
 21
230.5223
  0
LINE
  8
0
 10
21.3407
 20
230.5223
 11
21.321
 21
230.5158
  0
LINE
  8
0
 10
21.321
 20
230.5158
 11
21.3001
 21
230.5082
  0
ARC
  8
0
 10
21.3103
 20
230.4767
 40
0.0330967
 50
107.9462
 51
118.8093
  0
ARC
  8
0
 10
21.295
 20
230.5046
 40
0.00124329
 50
118.8187
 51
177.2878
  0
ARC
  8
0
 10
21.2954
 20
230.5047
 40
0.00166689
 50
180.0051
 51
225.5767
  0
ARC
  8
0
 10
21.3006
 20
230.5106
 40
0.00955938
 50
228.2882
 51
247.9235
  0
LINE
  8
0
 10
21.297
 20
230.5018
 11
21.3034
 21
230.4992
  0
LINE
  8
0
 10
21.3034
 20
230.4992
 11
21.2911
 21
230.4954
  0
ARC
  8
0
 10
20.9542
 20
232.0445
 40
1.58527
 50
281.2835
 51
282.2699
  0
ARC
  8
0
 10
21.2622
 20
230.501
 40
0.0114022
 50
269.6268
 51
281.2765
  0
ARC
  8
0
 10
21.2619
 20
230.4599
 40
0.0296771
 50
89.6346
 51
103.3353
  0
ARC
  8
0
 10
21.2576
 20
230.4782
 40
0.01094
 50
103.3316
 51
125.9905
  0
ARC
  8
0
 10
21.2545
 20
230.4824
 40
0.00568873
 50
125.9919
 51
161.3223
  0
ARC
  8
0
 10
21.2568
 20
230.4842
 40
0.00768175
 50
180.0021
 51
197.136
  0
ARC
  8
0
 10
21.2516
 20
230.4835
 40
0.00266977
 50
215.8129
 51
263.5836
  0
ARC
  8
0
 10
21.2571
 20
230.5321
 40
0.0515685
 50
263.5807
 51
274.1531
  0
ARC
  8
0
 10
21.2654
 20
230.4171
 40
0.0637171
 50
83.9074
 51
94.1537
  0
ARC
  8
0
 10
21.272
 20
230.4791
 40
0.00144965
 50
11.3054
 51
83.9112
  0
ARC
  8
0
 10
21.2724
 20
230.4793
 40
0.0010996
 50
303.3676
 51
359.994
  0
ARC
  8
0
 10
21.2126
 20
230.6273
 40
0.16068
 50
286.8567
 51
292.0718
  0
LINE
  8
0
 10
21.2592
 20
230.4736
 11
21.2354
 21
230.4663
  0
ARC
  8
0
 10
21.2466
 20
230.4293
 40
0.0387551
 50
106.857
 51
122.0441
  0
ARC
  8
0
 10
21.236
 20
230.4462
 40
0.0187091
 50
122.0418
 51
143.9695
  0
ARC
  8
0
 10
21.2259
 20
230.4536
 40
0.00626719
 50
143.969
 51
171.8039
  0
ARC
  8
0
 10
21.2227
 20
230.4545
 40
0.00298589
 50
180.0035
 51
213.4835
  0
ARC
  8
0
 10
21.2218
 20
230.4542
 40
0.00215537
 50
221.67
 51
259.9721
  0
ARC
  8
0
 10
21.2278
 20
230.4881
 40
0.0365651
 50
259.9761
 51
269.1132
  0
LINE
  8
0
 10
21.2273
 20
230.4516
 11
21.2331
 21
230.4503
  0
LINE
  8
0
 10
21.2331
 20
230.4503
 11
21.2242
 21
230.4431
  0
ARC
  8
0
 10
21.2142
 20
230.4556
 40
0.0159661
 50
278.9979
 51
308.6877
  0
ARC
  8
0
 10
21.2054
 20
230.5114
 40
0.0724623
 50
265.1834
 51
278.998
  0
ARC
  8
0
 10
21.1958
 20
230.3976
 40
0.0417013
 50
85.1831
 51
100.0759
  0
ARC
  8
0
 10
21.193
 20
230.4134
 40
0.0256919
 50
100.0762
 51
119.0833
  0
ARC
  8
0
 10
21.1852
 20
230.4274
 40
0.00968339
 50
119.0832
 51
139.4471
  0
ARC
  8
0
 10
21.1805
 20
230.4324
 40
0.00289638
 50
153.796
 51
179.9964
  0
LINE
  8
0
 10
21.1776
 20
230.4324
 11
21.1855
 21
230.4284
  0
ARC
  8
0
 10
21.1787
 20
230.4146
 40
0.0154451
 50
46.4084
 51
63.7593
  0
ARC
  8
0
 10
21.1877
 20
230.4242
 40
0.00227395
 50
359.9977
 51
403.317
  0
LINE
  8
0
 10
21.1899
 20
230.4242
 11
21.1732
 21
230.4152
  0
LINE
  8
0
 10
21.1732
 20
230.4152
 11
21.1652
 21
230.4071
  0
LINE
  8
0
 10
21.1652
 20
230.4071
 11
21.1712
 21
230.4055
  0
LINE
  8
0
 10
21.1712
 20
230.4055
 11
21.1639
 21
230.3964
  0
ARC
  8
0
 10
21.2048
 20
230.3899
 40
0.0413952
 50
170.9428
 51
180.0005
  0
ARC
  8
0
 10
21.1661
 20
230.3907
 40
0.00282613
 50
195.2536
 51
272.7171
  0
LINE
  8
0
 10
21.1663
 20
230.3878
 11
21.3601
 21
230.397
  0
LINE
  8
0
 10
21.3601
 20
230.397
 11
21.3494
 21
230.382
  0
LINE
  8
0
 10
21.3494
 20
230.382
 11
21.3494
 21
230.382
  0
LINE
  8
0
 10
20.8822
 20
229.7001
 11
20.8537
 21
229.7184
  0
ARC
  8
0
 10
20.8549
 20
229.7196
 40
0.00163438
 50
180.0061
 51
226.4499
  0
ARC
  8
0
 10
20.8659
 20
229.7172
 40
0.0128731
 50
149.9495
 51
169.2139
  0
ARC
  8
0
 10
20.796
 20
229.7576
 40
0.067818
 50
329.9504
 51
338.2496
  0
ARC
  8
0
 10
20.8437
 20
229.7385
 40
0.0164548
 50
338.2525
 51
355.1473
  0
ARC
  8
0
 10
20.8027
 20
229.7372
 40
0.0574613
 50
359.9985
 51
363.4958
  0
ARC
  8
0
 10
20.7497
 20
229.7245
 40
0.111554
 50
8.3527
 51
13.2262
  0
ARC
  8
0
 10
21.0922
 20
229.805
 40
0.240288
 50
190.785
 51
193.2263
  0
ARC
  8
0
 10
20.9297
 20
229.774
 40
0.0748949
 50
186.4097
 51
190.7831
  0
ARC
  8
0
 10
20.6227
 20
229.7395
 40
0.234064
 50
6.4107
 51
9.0646
  0
ARC
  8
0
 10
20.8474
 20
229.7754
 40
0.00649112
 50
9.0659
 51
25.0531
  0
ARC
  8
0
 10
20.8342
 20
229.7692
 40
0.0210797
 50
25.0514
 51
49.1481
  0
ARC
  8
0
 10
20.7589
 20
229.6821
 40
0.1362
 50
49.1488
 51
58.5696
  0
ARC
  8
0
 10
20.9095
 20
229.9285
 40
0.152559
 50
233.7711
 51
238.5698
  0
ARC
  8
0
 10
21.1072
 20
230.1984
 40
0.487095
 50
231.0856
 51
233.7706
  0
ARC
  8
0
 10
21.7987
 20
231.0549
 40
1.58799
 50
230.0798
 51
231.0853
  0
ARC
  8
0
 10
21.4349
 20
230.6201
 40
1.021
 50
228.8269
 51
230.0807
  0
ARC
  8
0
 10
20.9386
 20
230.0527
 40
0.267156
 50
225.1276
 51
228.8266
  0
ARC
  8
0
 10
20.9259
 20
230.04
 40
0.249238
 50
221.2976
 51
225.1275
  0
ARC
  8
0
 10
20.7808
 20
229.9125
 40
0.0560804
 50
210.6793
 51
221.2977
  0
ARC
  8
0
 10
20.7471
 20
229.8925
 40
0.0168596
 50
191.2477
 51
210.6791
  0
ARC
  8
0
 10
20.7776
 20
229.8937
 40
0.0472721
 50
180.0005
 51
185.4578
  0
ARC
  8
0
 10
20.7811
 20
229.8885
 40
0.0510477
 50
164.9387
 51
174.2093
  0
LINE
  8
0
 10
20.7318
 20
229.9018
 11
20.7345
 21
229.9116
  0
LINE
  8
0
 10
20.7345
 20
229.9116
 11
20.7382
 21
229.9258
  0
ARC
  8
0
 10
20.2674
 20
230.0613
 40
0.489924
 50
343.9442
 51
345.4877
  0
ARC
  8
0
 10
20.7104
 20
229.9467
 40
0.0323742
 50
345.4869
 51
351.4943
  0
ARC
  8
0
 10
21.4728
 20
229.8326
 40
0.738567
 50
170.3889
 51
171.4949
  0
ARC
  8
0
 10
20.7526
 20
229.9546
 40
0.00812245
 50
159.8275
 51
170.386
  0
ARC
  8
0
 10
20.7571
 20
229.953
 40
0.0128573
 50
145.8604
 51
159.8314
  0
ARC
  8
0
 10
20.8433
 20
229.8945
 40
0.117037
 50
141.2389
 51
145.8593
  0
ARC
  8
0
 10
20.5994
 20
230.0903
 40
0.195797
 50
321.2397
 51
325.3634
  0
ARC
  8
0
 10
20.6732
 20
230.0393
 40
0.106039
 50
325.3619
 51
330.9665
  0
LINE
  8
0
 10
20.7659
 20
229.9879
 11
20.779
 21
230.0114
  0
LINE
  8
0
 10
20.779
 20
230.0114
 11
20.7919
 21
230.0334
  0
ARC
  8
0
 10
20.9923
 20
229.9427
 40
0.219909
 50
153.0182
 51
155.64
  0
ARC
  8
0
 10
20.8489
 20
230.0157
 40
0.0590143
 50
147.9544
 51
153.0167
  0
ARC
  8
0
 10
20.8072
 20
230.0417
 40
0.00986314
 50
128.9292
 51
147.957
  0
ARC
  8
0
 10
20.8026
 20
230.0475
 40
0.0024499
 50
90.187
 51
128.9262
  0
ARC
  8
0
 10
20.8026
 20
230.0465
 40
0.00348721
 50
50.2343
 51
90.1892
  0
ARC
  8
0
 10
20.797
 20
230.0398
 40
0.0121306
 50
29.1235
 51
50.2332
  0
ARC
  8
0
 10
20.7654
 20
230.0222
 40
0.0484104
 50
17.4539
 51
29.1231
  0
ARC
  8
0
 10
20.7438
 20
230.0154
 40
0.0710235
 50
7.8269
 51
17.4557
  0
ARC
  8
0
 10
20.1078
 20
229.928
 40
0.712969
 50
6.3676
 51
7.8265
  0
ARC
  8
0
 10
20.7159
 20
229.9958
 40
0.101103
 50
2.4913
 51
6.366
  0
ARC
  8
0
 10
20.1105
 20
229.9914
 40
0.706429
 50
359.9997
 51
360.7177
  0
ARC
  8
0
 10
20.6056
 20
229.9979
 40
0.21146
 50
355.0265
 51
358.2258
  0
ARC
  8
0
 10
20.5462
 20
230.0031
 40
0.271056
 50
351.9214
 51
355.0259
  0
ARC
  8
0
 10
20.7432
 20
229.9751
 40
0.0721074
 50
345.9011
 51
351.9225
  0
LINE
  8
0
 10
20.8131
 20
229.9576
 11
20.8075
 21
229.9349
  0
ARC
  8
0
 10
20.5979
 20
229.9876
 40
0.216053
 50
342.2733
 51
345.9003
  0
ARC
  8
0
 10
20.7893
 20
229.9264
 40
0.0151792
 50
328.5593
 51
342.2731
  0
LINE
  8
0
 10
20.8022
 20
229.9185
 11
20.7976
 21
229.911
  0
ARC
  8
0
 10
20.8
 20
229.9095
 40
0.00280223
 50
148.551
 51
171.7909
  0
ARC
  8
0
 10
21.0654
 20
229.8713
 40
0.270889
 50
171.8
 51
174.1476
  0
ARC
  8
0
 10
20.8522
 20
229.8931
 40
0.0566008
 50
174.1459
 51
179.9991
  0
ARC
  8
0
 10
20.8316
 20
229.8932
 40
0.0360025
 50
180.0012
 51
187.342
  0
ARC
  8
0
 10
20.8219
 20
229.8919
 40
0.0262147
 50
187.3392
 51
196.9493
  0
ARC
  8
0
 10
20.8514
 20
229.9009
 40
0.0570245
 50
196.9521
 51
203.4638
  0
ARC
  8
0
 10
20.8667
 20
229.9075
 40
0.0737557
 50
203.4616
 51
208.5421
  0
ARC
  8
0
 10
20.8169
 20
229.8805
 40
0.0170787
 50
208.5456
 51
219.1152
  0
LINE
  8
0
 10
20.8037
 20
229.8697
 11
20.821
 21
229.854
  0
LINE
  8
0
 10
20.821
 20
229.854
 11
20.8431
 21
229.8337
  0
ARC
  8
0
 10
20.9244
 20
229.9223
 40
0.120262
 50
227.4478
 51
231.0893
  0
ARC
  8
0
 10
21.0991
 20
230.1387
 40
0.398433
 50
231.0895
 51
233.09
  0
ARC
  8
0
 10
20.6949
 20
229.6006
 40
0.274642
 50
52.0602
 51
53.089
  0
ARC
  8
0
 10
20.7813
 20
229.7114
 40
0.134175
 50
50.5905
 51
52.0623
  0
ARC
  8
0
 10
20.839
 20
229.7816
 40
0.0433003
 50
41.7788
 51
50.5892
  0
ARC
  8
0
 10
20.8529
 20
229.794
 40
0.0246289
 50
30.0885
 51
41.7792
  0
ARC
  8
0
 10
20.8331
 20
229.7825
 40
0.0475537
 50
24.9248
 51
30.0873
  0
ARC
  8
0
 10
20.8135
 20
229.7734
 40
0.0691367
 50
20.6454
 51
24.9265
  0
ARC
  8
0
 10
20.6221
 20
229.7013
 40
0.273656
 50
18.485
 51
20.6443
  0
ARC
  8
0
 10
20.8668
 20
229.7831
 40
0.01568
 50
9.4571
 51
18.487
  0
ARC
  8
0
 10
20.8639
 20
229.7831
 40
0.0184826
 50
0.0006
 51
7.8774
  0
ARC
  8
0
 10
20.7958
 20
229.7855
 40
0.0866312
 50
354.1191
 51
358.4212
  0
ARC
  8
0
 10
20.9791
 20
229.7667
 40
0.0976031
 50
174.1192
 51
178.21
  0
ARC
  8
0
 10
20.8942
 20
229.7697
 40
0.0127033
 50
180.0002
 51
189.7069
  0
LINE
  8
0
 10
20.8817
 20
229.7676
 11
20.8834
 21
229.7592
  0
ARC
  8
0
 10
20.8674
 20
229.7559
 40
0.0163889
 50
0.002
 51
11.4985
  0
ARC
  8
0
 10
20.794
 20
229.7559
 40
0.0897169
 50
355.0923
 51
359.9992
  0
ARC
  8
0
 10
21.6597
 20
229.6816
 40
0.779135
 50
175.0919
 51
175.5317
  0
ARC
  8
0
 10
21.0974
 20
229.7255
 40
0.215143
 50
175.5353
 51
176.3719
  0
ARC
  8
0
 10
21.0523
 20
229.7392
 40
0.169595
 50
180.0016
 51
182.2771
  0
ARC
  8
0
 10
20.8949
 20
229.7337
 40
0.0121407
 50
185.9035
 51
203.3715
  0
LINE
  8
0
 10
20.8838
 20
229.7288
 11
20.8874
 21
229.7205
  0
ARC
  8
0
 10
20.8856
 20
229.7199
 40
0.00184421
 50
0.0103
 51
17.3047
  0
ARC
  8
0
 10
20.418
 20
229.7699
 40
0.472163
 50
352.5198
 51
353.9201
  0
ARC
  8
0
 10
20.8612
 20
229.7117
 40
0.0251073
 50
345.1729
 51
352.5196
  0
ARC
  8
0
 10
20.8638
 20
229.711
 40
0.022464
 50
337.4068
 51
345.1742
  0
ARC
  8
0
 10
20.8783
 20
229.705
 40
0.00676732
 50
314.5633
 51
337.4067
  0
ARC
  8
0
 10
20.8825
 20
229.7007
 40
0.000679863
 50
237.2284
 51
314.5624
  0
LINE
  8
0
 10
20.8822
 20
229.7001
 11
20.8822
 21
229.7001
  0
LINE
  8
0
 10
21.0418
 20
230.2954
 11
21.0418
 21
230.3094
  0
LINE
  8
0
 10
21.0418
 20
230.3094
 11
21.0051
 21
230.3094
  0
ARC
  8
0
 10
21.3178
 20
230.1751
 40
0.340331
 50
155.6405
 51
156.7529
  0
ARC
  8
0
 10
21.085
 20
230.2805
 40
0.0847798
 50
153.4134
 51
155.6424
  0
ARC
  8
0
 10
21.0895
 20
230.2783
 40
0.0898121
 50
149.5322
 51
153.4099
  0
ARC
  8
0
 10
21.122
 20
230.2592
 40
0.127492
 50
146.2819
 51
149.5363
  0
ARC
  8
0
 10
21.1296
 20
230.2541
 40
0.136628
 50
142.0042
 51
146.2799
  0
ARC
  8
0
 10
21.0604
 20
230.3081
 40
0.048886
 50
134.8536
 51
142.0046
  0
LINE
  8
0
 10
21.0259
 20
230.3428
 11
21.0329
 21
230.3497
  0
ARC
  8
0
 10
20.9935
 20
230.3893
 40
0.0558534
 50
314.8504
 51
317.5417
  0
ARC
  8
0
 10
21.013
 20
230.3714
 40
0.0294239
 50
317.5493
 51
321.2575
  0
ARC
  8
0
 10
21.0154
 20
230.3695
 40
0.026373
 50
321.2542
 51
328.9887
  0
ARC
  8
0
 10
21.0145
 20
230.3701
 40
0.0274366
 50
328.9862
 51
336.5694
  0
ARC
  8
0
 10
21.0148
 20
230.3699
 40
0.0270477
 50
336.5724
 51
342.4004
  0
ARC
  8
0
 10
21.0165
 20
230.3694
 40
0.0253223
 50
342.3975
 51
348.4207
  0
ARC
  8
0
 10
21.0163
 20
230.3694
 40
0.0255066
 50
348.4235
 51
354.474
  0
ARC
  8
0
 10
21.0112
 20
230.3698
 40
0.0305939
 50
354.6658
 51
359.9987
  0
ARC
  8
0
 10
21.0126
 20
230.3697
 40
0.029186
 50
0.1953
 51
11.0506
  0
ARC
  8
0
 10
21.0151
 20
230.3702
 40
0.0266717
 50
11.0489
 51
22.4065
  0
ARC
  8
0
 10
21.0154
 20
230.3703
 40
0.0263475
 50
22.4079
 51
34.0078
  0
ARC
  8
0
 10
21.0148
 20
230.3699
 40
0.0270803
 50
34.0071
 51
45.4486
  0
ARC
  8
0
 10
21.0146
 20
230.3697
 40
0.0273745
 50
45.4496
 51
56.6765
  0
ARC
  8
0
 10
21.0138
 20
230.3685
 40
0.0288037
 50
56.6756
 51
67.6192
  0
ARC
  8
0
 10
21.0139
 20
230.3688
 40
0.0285581
 50
67.6208
 51
78.5782
  0
ARC
  8
0
 10
21.0144
 20
230.3715
 40
0.0257639
 50
78.5753
 51
90.1138
  0
ARC
  8
0
 10
21.0145
 20
230.3715
 40
0.0257462
 50
90.1168
 51
101.5399
  0
ARC
  8
0
 10
21.015
 20
230.3687
 40
0.0286144
 50
101.5372
 51
112.3708
  0
ARC
  8
0
 10
21.0151
 20
230.3685
 40
0.0288716
 50
112.3742
 51
123.3262
  0
ARC
  8
0
 10
21.0141
 20
230.3699
 40
0.0271002
 50
123.3222
 51
134.6273
  0
ARC
  8
0
 10
21.0142
 20
230.3699
 40
0.0271455
 50
134.6305
 51
146.0516
  0
ARC
  8
0
 10
21.0152
 20
230.3692
 40
0.0284197
 50
146.0492
 51
157.2106
  0
ARC
  8
0
 10
21.0149
 20
230.3693
 40
0.0280847
 50
157.2083
 51
163.2606
  0
ARC
  8
0
 10
21.0049
 20
230.3723
 40
0.017614
 50
163.2682
 51
170.9127
  0
ARC
  8
0
 10
21.0151
 20
230.3707
 40
0.0279151
 50
170.907
 51
175.0121
  0
ARC
  8
0
 10
21.0637
 20
230.3665
 40
0.0767229
 50
175.0145
 51
177.4905
  0
LINE
  8
0
 10
20.987
 20
230.3698
 11
21.0011
 21
230.3698
  0
ARC
  8
0
 10
21.0318
 20
230.3695
 40
0.0306176
 50
176.0793
 51
179.3395
  0
ARC
  8
0
 10
21.0086
 20
230.3711
 40
0.00744714
 50
169.4735
 51
176.0885
  0
ARC
  8
0
 10
21.0092
 20
230.371
 40
0.00803209
 50
161.5714
 51
169.4731
  0
ARC
  8
0
 10
21.0153
 20
230.3689
 40
0.0143856
 50
155.6581
 51
161.5606
  0
ARC
  8
0
 10
21.0178
 20
230.3678
 40
0.0172098
 50
146.4166
 51
155.6609
  0
ARC
  8
0
 10
21.0146
 20
230.3699
 40
0.0133987
 50
135.9404
 51
146.4204
  0
ARC
  8
0
 10
21.0144
 20
230.3702
 40
0.0130126
 50
124.1104
 51
135.9343
  0
ARC
  8
0
 10
21.0143
 20
230.3703
 40
0.0128913
 50
112.239
 51
124.1187
  0
ARC
  8
0
 10
21.0143
 20
230.3703
 40
0.0128097
 50
100.9156
 51
112.2345
  0
ARC
  8
0
 10
21.0143
 20
230.37
 40
0.0131792
 50
89.7576
 51
100.916
  0
ARC
  8
0
 10
21.0143
 20
230.3699
 40
0.0132991
 50
78.3118
 51
89.7586
  0
ARC
  8
0
 10
21.0144
 20
230.37
 40
0.0131092
 50
66.7798
 51
78.3102
  0
ARC
  8
0
 10
21.0144
 20
230.37
 40
0.0131454
 50
55.7569
 51
66.7791
  0
ARC
  8
0
 10
21.0139
 20
230.3692
 40
0.0140588
 50
45.102
 51
55.7599
  0
ARC
  8
0
 10
21.0139
 20
230.3693
 40
0.0139232
 50
33.9102
 51
45.1041
  0
ARC
  8
0
 10
21.0155
 20
230.3704
 40
0.0121065
 50
21.8947
 51
33.9023
  0
ARC
  8
0
 10
21.0153
 20
230.3703
 40
0.012314
 50
10.764
 51
21.8969
  0
ARC
  8
0
 10
21.0111
 20
230.3695
 40
0.0165127
 50
1.1573
 51
10.7676
  0
ARC
  8
0
 10
21.0002
 20
230.3698
 40
0.0274606
 50
356.5513
 51
359.996
  0
ARC
  8
0
 10
21.0149
 20
230.3692
 40
0.0127584
 50
348.8704
 51
355.4039
  0
ARC
  8
0
 10
21.0154
 20
230.3691
 40
0.0122562
 50
342.5178
 51
348.872
  0
ARC
  8
0
 10
21.0153
 20
230.3691
 40
0.0123609
 50
336.1791
 51
342.5064
  0
ARC
  8
0
 10
21.0159
 20
230.3688
 40
0.011646
 50
329.3028
 51
336.1874
  0
ARC
  8
0
 10
21.0179
 20
230.3677
 40
0.0093147
 50
321.5983
 51
329.2975
  0
ARC
  8
0
 10
21.0175
 20
230.368
 40
0.00984374
 50
317.1827
 51
321.609
  0
ARC
  8
0
 10
21.006
 20
230.3787
 40
0.0256104
 50
314.4261
 51
317.17
  0
LINE
  8
0
 10
21.0239
 20
230.3604
 11
21.013
 21
230.3498
  0
ARC
  8
0
 10
21.0437
 20
230.3186
 40
0.0437336
 50
134.4302
 51
144.6084
  0
ARC
  8
0
 10
21.1388
 20
230.251
 40
0.160392
 50
144.6094
 51
149.9191
  0
ARC
  8
0
 10
21.0923
 20
230.2779
 40
0.10666
 50
149.9187
 51
156.1916
  0
ARC
  8
0
 10
21.0838
 20
230.2817
 40
0.0974214
 50
156.1917
 51
162.7556
  0
ARC
  8
0
 10
21.0737
 20
230.2848
 40
0.0867823
 50
162.7538
 51
166.1833
  0
ARC
  8
0
 10
21.3292
 20
230.222
 40
0.34996
 50
166.1858
 51
167.8934
  0
LINE
  8
0
 10
20.987
 20
230.2954
 11
21.0418
 21
230.2954
  0
LINE
  8
0
 10
21.0418
 20
230.2954
 11
21.0418
 21
230.2954
  0
POLYLINE
  8
0
 66
     1
 10
0
 20
0
  0
VERTEX
  8
0
 10
20.948
 20
228.5947
  0
VERTEX
  8
0
 10
20.948
 20
228.4987
  0
VERTEX
  8
0
 10
20.404
 20
228.4987
  0
VERTEX
  8
0
 10
20.408
 20
228.5426
  0
VERTEX
  8
0
 10
20.4224
 20
228.5876
  0
VERTEX
  8
0
 10
20.4471
 20
228.6336
  0
VERTEX
  8
0
 10
20.4822
 20
228.6805
  0
VERTEX
  8
0
 10
20.5387
 20
228.7399
  0
VERTEX
  8
0
 10
20.615
 20
228.8067
  0
VERTEX
  8
0
 10
20.6757
 20
228.8581
  0
VERTEX
  8
0
 10
20.7238
 20
228.9017
  0
VERTEX
  8
0
 10
20.759
 20
228.9375
  0
VERTEX
  8
0
 10
20.7962
 20
228.983
  0
VERTEX
  8
0
 10
20.8227
 20
229.0263
  0
VERTEX
  8
0
 10
20.8387
 20
229.0674
  0
VERTEX
  8
0
 10
20.844
 20
229.1063
  0
VERTEX
  8
0
 10
20.8325
 20
229.165
  0
VERTEX
  8
0
 10
20.7979
 20
229.2114
  0
VERTEX
  8
0
 10
20.7486
 20
229.2406
  0
VERTEX
  8
0
 10
20.6887
 20
229.2507
  0
VERTEX
  8
0
 10
20.6215
 20
229.2397
  0
VERTEX
  8
0
 10
20.5705
 20
229.2057
  0
VERTEX
  8
0
 10
20.5383
 20
229.1523
  0
VERTEX
  8
0
 10
20.5272
 20
229.0832
  0
VERTEX
  8
0
 10
20.4232
 20
229.094
  0
VERTEX
  8
0
 10
20.432
 20
229.149
  0
VERTEX
  8
0
 10
20.4483
 20
229.1972
  0
VERTEX
  8
0
 10
20.4722
 20
229.2384
  0
VERTEX
  8
0
 10
20.5036
 20
229.2728
  0
VERTEX
  8
0
 10
20.5557
 20
229.3072
  0
VERTEX
  8
0
 10
20.6181
 20
229.3278
  0
VERTEX
  8
0
 10
20.6909
 20
229.3347
  0
VERTEX
  8
0
 10
20.7595
 20
229.328
  0
VERTEX
  8
0
 10
20.8197
 20
229.3081
  0
VERTEX
  8
0
 10
20.8715
 20
229.2749
  0
VERTEX
  8
0
 10
20.905
 20
229.2402
  0
VERTEX
  8
0
 10
20.9289
 20
229.1999
  0
VERTEX
  8
0
 10
20.9432
 20
229.1541
  0
VERTEX
  8
0
 10
20.948
 20
229.1028
  0
VERTEX
  8
0
 10
20.9425
 20
229.0529
  0
VERTEX
  8
0
 10
20.9261
 20
229.0028
  0
VERTEX
  8
0
 10
20.8987
 20
228.9526
  0
VERTEX
  8
0
 10
20.8603
 20
228.9023
  0
VERTEX
  8
0
 10
20.8215
 20
228.8614
  0
VERTEX
  8
0
 10
20.7697
 20
228.8124
  0
VERTEX
  8
0
 10
20.7047
 20
228.7553
  0
VERTEX
  8
0
 10
20.6626
 20
228.7194
  0
VERTEX
  8
0
 10
20.634
 20
228.6945
  0
VERTEX
  8
0
 10
20.6187
 20
228.6807
  0
VERTEX
  8
0
 10
20.5767
 20
228.637
  0
VERTEX
  8
0
 10
20.545
 20
228.5947
  0
VERTEX
  8
0
 10
20.948
 20
228.5947
  0
SEQEND
  0
POLYLINE
  8
0
 66
     1
 10
0
 20
0
  0
VERTEX
  8
0
 10
21.112
 20
228.4987
  0
VERTEX
  8
0
 10
21.112
 20
228.6187
  0
VERTEX
  8
0
 10
21.228
 20
228.6187
  0
VERTEX
  8
0
 10
21.228
 20
228.4987
  0
VERTEX
  8
0
 10
21.112
 20
228.4987
  0
SEQEND
  0
POLYLINE
  8
0
 66
     1
 10
0
 20
0
  0
VERTEX
  8
0
 10
21.376
 20
228.7192
  0
VERTEX
  8
0
 10
21.4825
 20
228.7284
  0
VERTEX
  8
0
 10
21.4891
 20
228.6953
  0
VERTEX
  8
0
 10
21.4985
 20
228.6661
  0
VERTEX
  8
0
 10
21.5106
 20
228.6408
  0
VERTEX
  8
0
 10
21.5255
 20
228.6193
  0
VERTEX
  8
0
 10
21.5432
 20
228.6018
  0
VERTEX
  8
0
 10
21.5636
 20
228.5882
  0
VERTEX
  8
0
 10
21.5868
 20
228.5785
  0
VERTEX
  8
0
 10
21.6127
 20
228.5726
  0
VERTEX
  8
0
 10
21.6414
 20
228.5707
  0
VERTEX
  8
0
 10
21.6918
 20
228.5776
  0
VERTEX
  8
0
 10
21.735
 20
228.5984
  0
VERTEX
  8
0
 10
21.7709
 20
228.6332
  0
VERTEX
  8
0
 10
21.8047
 20
228.6968
  0
VERTEX
  8
0
 10
21.816
 20
228.774
  0
VERTEX
  8
0
 10
21.8043
 20
228.8501
  0
VERTEX
  8
0
 10
21.7692
 20
228.9101
  0
VERTEX
  8
0
 10
21.7341
 20
228.9391
  0
VERTEX
  8
0
 10
21.6909
 20
228.9566
  0
VERTEX
  8
0
 10
21.6397
 20
228.9627
  0
VERTEX
  8
0
 10
21.5939
 20
228.9578
  0
VERTEX
  8
0
 10
21.5536
 20
228.9426
  0
VERTEX
  8
0
 10
21.5187
 20
228.9171
  0
VERTEX
  8
0
 10
21.4892
 20
228.8812
  0
VERTEX
  8
0
 10
21.394
 20
228.8937
  0
VERTEX
  8
0
 10
21.4742
 20
229.3187
  0
VERTEX
  8
0
 10
21.8855
 20
229.3187
  0
VERTEX
  8
0
 10
21.8855
 20
229.2227
  0
VERTEX
  8
0
 10
21.5579
 20
229.2227
  0
VERTEX
  8
0
 10
21.5116
 20
228.999
  0
VERTEX
  8
0
 10
21.5877
 20
229.0375
  0
VERTEX
  8
0
 10
21.6674
 20
229.0507
  0
VERTEX
  8
0
 10
21.7212
 20
229.046
  0
VERTEX
  8
0
 10
21.7701
 20
229.0314
  0
VERTEX
  8
0
 10
21.8141
 20
229.007
  0
VERTEX
  8
0
 10
21.8531
 20
228.9726
  0
VERTEX
  8
0
 10
21.8841
 20
228.9321
  0
VERTEX
  8
0
 10
21.9063
 20
228.8868
  0
VERTEX
  8
0
 10
21.9196
 20
228.8367
  0
VERTEX
  8
0
 10
21.924
 20
228.782
  0
VERTEX
  8
0
 10
21.9167
 20
228.7106
  0
VERTEX
  8
0
 10
21.8949
 20
228.6457
  0
VERTEX
  8
0
 10
21.8586
 20
228.5874
  0
VERTEX
  8
0
 10
21.8245
 20
228.5513
  0
VERTEX
  8
0
 10
21.7857
 20
228.5232
  0
VERTEX
  8
0
 10
21.7423
 20
228.503
  0
VERTEX
  8
0
 10
21.6942
 20
228.4909
  0
VERTEX
  8
0
 10
21.6415
 20
228.4867
  0
VERTEX
  8
0
 10
21.5725
 20
228.4934
  0
VERTEX
  8
0
 10
21.512
 20
228.5137
  0
VERTEX
  8
0
 10
21.46
 20
228.5475
  0
VERTEX
  8
0
 10
21.4181
 20
228.5944
  0
VERTEX
  8
0
 10
21.3901
 20
228.6516
  0
VERTEX
  8
0
 10
21.376
 20
228.7192
  0
VERTEX
  8
0
 10
21.376
 20
228.7192
  0
SEQEND
  0
LINE
  8
0
 10
22.3246
 20
230.9
 11
22.3246
 21
228.1
  0
LINE
  8
0
 10
22.3246
 20
230.9
 11
20
 21
230.9
  0
LINE
  8
0
 10
22.3246
 20
228.1
 11
20
 21
228.1
  0
LINE
  8
0
 10
32.885
 20
255.9598
 11
32.919
 21
256.0368
  0
ARC
  8
0
 10
29.2542
 20
257.6162
 40
3.99063
 50
336.6854
 51
337.6696
  0
ARC
  8
0
 10
27.9851
 20
258.138
 40
5.36282
 50
337.6642
 51
338.5131
  0
ARC
  8
0
 10
28.7161
 20
257.8502
 40
4.5772
 50
338.5147
 51
340.6268
  0
ARC
  8
0
 10
32.191
 20
256.6282
 40
0.893718
 50
340.6298
 51
345.4107
  0
ARC
  8
0
 10
31.9353
 20
256.6948
 40
1.15793
 50
345.4077
 51
356.8507
  0
ARC
  8
0
 10
26.5623
 20
256.6312
 40
6.52927
 50
0.0006
 51
2.6039
  0
LINE
  8
0
 10
33.0848
 20
256.9278
 11
33.013
 21
257.6404
  0
ARC
  8
0
 10
26.1565
 20
256.9498
 40
6.89115
 50
5.7517
 51
10.3144
  0
ARC
  8
0
 10
31.6594
 20
257.9513
 40
1.29789
 50
10.3147
 51
20.8403
  0
ARC
  8
0
 10
35.0085
 20
259.2262
 40
2.28559
 50
187.4592
 51
200.8405
  0
ARC
  8
0
 10
32.825
 20
258.9294
 40
0.0828446
 50
111.4939
 51
179.9986
  0
LINE
  8
0
 10
32.7947
 20
259.0065
 11
32.8569
 21
259.0221
  0
ARC
  8
0
 10
32.8299
 20
259.13
 40
0.111209
 50
284.0384
 51
303.0938
  0
ARC
  8
0
 10
32.8088
 20
259.1624
 40
0.149888
 50
303.0895
 51
319.4839
  0
ARC
  8
0
 10
32.7268
 20
259.2324
 40
0.257642
 50
319.4889
 51
331.4281
  0
ARC
  8
0
 10
32.8177
 20
259.1829
 40
0.154184
 50
331.4223
 51
346.8743
  0
ARC
  8
0
 10
32.364
 20
259.2729
 40
0.616708
 50
348.3051
 51
359.9992
  0
ARC
  8
0
 10
32.0412
 20
259.2494
 40
0.939711
 50
1.4291
 51
11.9883
  0
ARC
  8
0
 10
42.0038
 20
261.3649
 40
9.24501
 50
189.6098
 51
191.9883
  0
ARC
  8
0
 10
33.45
 20
259.9123
 40
0.568772
 50
179.9979
 51
189.1782
  0
ARC
  8
0
 10
33.5629
 20
259.9072
 40
0.68166
 50
166.2478
 51
179.5706
  0
ARC
  8
0
 10
37.623
 20
258.9136
 40
4.86155
 50
161.2689
 51
166.2479
  0
ARC
  8
0
 10
34.6176
 20
259.9326
 40
1.68813
 50
153.7362
 51
161.2685
  0
ARC
  8
0
 10
33.3772
 20
260.5447
 40
0.30491
 50
135.9553
 51
153.737
  0
LINE
  8
0
 10
33.158
 20
260.7567
 11
33.289
 21
260.8921
  0
LINE
  8
0
 10
33.289
 20
260.8921
 11
33.3497
 21
261.0779
  0
ARC
  8
0
 10
33.5666
 20
260.9735
 40
0.240663
 50
132.163
 51
154.3064
  0
ARC
  8
0
 10
33.7918
 20
260.7249
 40
0.576139
 50
117.9042
 51
132.1634
  0
LINE
  8
0
 10
33.5221
 20
261.234
 11
33.81
 21
261.3865
  0
LINE
  8
0
 10
33.81
 20
261.3865
 11
34.0735
 21
261.5389
  0
ARC
  8
0
 10
34.9932
 20
259.9219
 40
1.86026
 50
116.5919
 51
119.6319
  0
ARC
  8
0
 10
67.2606
 20
195.4608
 40
73.9465
 50
116.1091
 51
116.5912
  0
ARC
  8
0
 10
32.1931
 20
267.0136
 40
5.73748
 50
296.1088
 51
299.8955
  0
ARC
  8
0
 10
33.8295
 20
264.1672
 40
2.45427
 50
299.8967
 51
305.6879
  0
ARC
  8
0
 10
33.8593
 20
264.1258
 40
2.40328
 50
305.6864
 51
310.9792
  0
ARC
  8
0
 10
30.3674
 20
268.1455
 40
7.72779
 50
310.9803
 51
313.9312
  0
ARC
  8
0
 10
37.3113
 20
260.9376
 40
2.28076
 50
125.7458
 51
133.931
  0
ARC
  8
0
 10
36.3624
 20
262.2558
 40
0.656586
 50
110.4574
 51
125.7452
  0
ARC
  8
0
 10
34.7188
 20
266.6617
 40
4.04587
 50
290.458
 51
296.0738
  0
ARC
  8
0
 10
36.4419
 20
263.1404
 40
0.125634
 50
296.0727
 51
328.3539
  0
LINE
  8
0
 10
36.5489
 20
263.0745
 11
36.5748
 21
263.2491
  0
ARC
  8
0
 10
37.0134
 20
263.1867
 40
0.443047
 50
159.9573
 51
171.9032
  0
ARC
  8
0
 10
37.705
 20
262.9344
 40
1.17926
 50
152.6429
 51
159.957
  0
ARC
  8
0
 10
37.7135
 20
262.93
 40
1.18879
 50
144.4135
 51
152.6418
  0
ARC
  8
0
 10
37.4045
 20
263.1512
 40
0.808784
 50
134.4363
 51
144.416
  0
ARC
  8
0
 10
37.8614
 20
262.6851
 40
1.46147
 50
129.1216
 51
134.434
  0
ARC
  8
0
 10
38.085
 20
262.4102
 40
1.81584
 50
124.3579
 51
129.1235
  0
ARC
  8
0
 10
38.6841
 20
261.5337
 40
2.87752
 50
119.597
 51
124.3566
  0
ARC
  8
0
 10
37.611
 20
263.423
 40
0.704707
 50
109.9719
 51
119.5979
  0
ARC
  8
0
 10
37.5538
 20
263.5802
 40
0.537425
 50
93.3385
 51
109.9714
  0
ARC
  8
0
 10
37.576
 20
263.1999
 40
0.918389
 50
80.6334
 51
93.3386
  0
ARC
  8
0
 10
37.5
 20
262.7387
 40
1.38582
 50
75.2243
 51
80.6338
  0
ARC
  8
0
 10
37.4849
 20
262.6818
 40
1.44466
 50
69.9251
 51
75.2233
  0
ARC
  8
0
 10
37.52
 20
262.7776
 40
1.34274
 50
63.5031
 51
69.9265
  0
ARC
  8
0
 10
37.6577
 20
263.054
 40
1.03388
 50
56.1797
 51
63.5011
  0
ARC
  8
0
 10
37.9089
 20
263.4289
 40
0.582562
 50
44.1314
 51
56.1803
  0
ARC
  8
0
 10
38.1174
 20
263.6312
 40
0.292129
 50
27.0864
 51
44.1324
  0
LINE
  8
0
 10
38.3775
 20
263.7642
 11
38.4604
 21
263.6021
  0
ARC
  8
0
 10
38.8617
 20
263.8073
 40
0.450773
 50
207.0842
 51
218.093
  0
ARC
  8
0
 10
38.7184
 20
263.6951
 40
0.268743
 50
218.0973
 51
232.3698
  0
ARC
  8
0
 10
35.0998
 20
259.0018
 40
5.6576
 50
51.5458
 51
52.3666
  0
ARC
  8
0
 10
38.4922
 20
263.2736
 40
0.202652
 50
47.2109
 51
51.5506
  0
ARC
  8
0
 10
38.5566
 20
263.3432
 40
0.10772
 50
17.3483
 51
47.2003
  0
ARC
  8
0
 10
38.4844
 20
263.3753
 40
0.175098
 50
348.153
 51
360.0059
  0
ARC
  8
0
 10
38.6096
 20
263.3652
 40
0.0527849
 50
297.3926
 51
330.7887
  0
ARC
  8
0
 10
38.4406
 20
263.6913
 40
0.420134
 50
285.7056
 51
297.3968
  0
ARC
  8
0
 10
38.2275
 20
264.4493
 40
1.20756
 50
282.4535
 51
285.7032
  0
ARC
  8
0
 10
38.3193
 20
264.0337
 40
0.781947
 50
278.4168
 51
282.4558
  0
ARC
  8
0
 10
38.6494
 20
261.8026
 40
1.47349
 50
98.4167
 51
103.4073
  0
ARC
  8
0
 10
38.3156
 20
263.2029
 40
0.0339126
 50
103.3983
 51
136.7508
  0
ARC
  8
0
 10
38.3404
 20
263.1824
 40
0.0660961
 50
138.5215
 51
180.0018
  0
ARC
  8
0
 10
39.6558
 20
263.2248
 40
1.38218
 50
181.76
 51
190.9945
  0
ARC
  8
0
 10
35.3032
 20
262.808
 40
2.99978
 50
360
 51
362.9275
  0
ARC
  8
0
 10
38.2612
 20
262.814
 40
0.0422048
 50
285.4331
 51
351.9314
  0
LINE
  8
0
 10
38.2724
 20
262.7733
 11
38.1518
 21
262.74
  0
ARC
  8
0
 10
38.1636
 20
262.6971
 40
0.0444711
 50
105.4333
 51
144.9436
  0
ARC
  8
0
 10
38.869
 20
262.2021
 40
0.906215
 50
144.9439
 51
153.5326
  0
ARC
  8
0
 10
37.552
 20
262.8579
 40
0.56502
 50
323.8402
 51
333.5315
  0
ARC
  8
0
 10
37.548
 20
262.8607
 40
0.569949
 50
314.1943
 51
323.8433
  0
ARC
  8
0
 10
37.4751
 20
262.9358
 40
0.674539
 50
305.022
 51
314.1925
  0
ARC
  8
0
 10
37.3641
 20
263.0941
 40
0.867872
 50
296.9397
 51
305.0224
  0
LINE
  8
0
 10
37.7573
 20
262.3204
 11
37.5768
 21
262.2286
  0
ARC
  8
0
 10
37.7623
 20
261.8635
 40
0.409552
 50
116.9398
 51
143.8752
  0
ARC
  8
0
 10
37.62
 20
261.9711
 40
0.231164
 50
144.6123
 51
180.0007
  0
ARC
  8
0
 10
37.6234
 20
261.9741
 40
0.234644
 50
180.737
 51
194.4253
  0
ARC
  8
0
 10
40.5691
 20
262.7318
 40
3.27623
 50
194.4253
 51
198.0804
  0
ARC
  8
0
 10
37.0836
 20
261.5939
 40
0.390289
 50
7.8104
 51
18.0806
  0
ARC
  8
0
 10
24.8713
 20
259.9189
 40
12.717
 50
6.0131
 51
7.81
  0
ARC
  8
0
 10
39.4289
 20
261.4523
 40
1.92118
 50
186.0132
 51
192.7421
  0
ARC
  8
0
 10
39.4746
 20
261.4626
 40
1.96802
 50
192.742
 51
199.3903
  0
ARC
  8
0
 10
39.1174
 20
261.3369
 40
1.58936
 50
199.3899
 51
208.8829
  0
ARC
  8
0
 10
38.0367
 20
260.7408
 40
0.355157
 50
208.884
 51
229.0471
  0
LINE
  8
0
 10
37.8039
 20
260.4725
 11
38.0504
 21
260.2587
  0
ARC
  8
0
 10
37.9032
 20
260.0891
 40
0.224567
 50
33.0769
 51
49.0443
  0
ARC
  8
0
 10
38.0302
 20
260.1718
 40
0.0729795
 50
4.8806
 51
33.0828
  0
LINE
  8
0
 10
38.1029
 20
260.178
 11
38.0334
 21
259.9071
  0
LINE
  8
0
 10
38.0334
 20
259.9071
 11
38.0282
 21
259.3358
  0
LINE
  8
0
 10
38.0282
 20
259.3358
 11
37.9756
 21
258.9185
  0
ARC
  8
0
 10
44.3032
 20
258.7934
 40
6.32881
 50
178.8677
 51
180.001
  0
ARC
  8
0
 10
42.7351
 20
259.0558
 40
4.76791
 50
183.1562
 51
186.5022
  0
ARC
  8
0
 10
24.57
 20
256.9853
 40
13.5148
 50
6.0768
 51
6.5029
  0
LINE
  8
0
 10
38.0088
 20
258.416
 11
38.0467
 21
258.0571
  0
ARC
  8
0
 10
43.2597
 20
258.6007
 40
5.24131
 50
185.953
 51
187.8473
  0
ARC
  8
0
 10
39.909
 20
258.1389
 40
1.85892
 50
187.8496
 51
191.0305
  0
ARC
  8
0
 10
36.8842
 20
257.5493
 40
1.22281
 50
1.2995
 51
11.0301
  0
ARC
  8
0
 10
38.006
 20
257.577
 40
0.100703
 50
326.8871
 51
359.9962
  0
ARC
  8
0
 10
38.036
 20
257.5592
 40
0.0658547
 50
295.4641
 51
325.5934
  0
ARC
  8
0
 10
36.8376
 20
260.0759
 40
2.8533
 50
290.9374
 51
295.4629
  0
ARC
  8
0
 10
38.09
 20
256.8026
 40
0.651461
 50
110.9369
 51
126.6142
  0
ARC
  8
0
 10
38.1529
 20
256.718
 40
0.756815
 50
126.616
 51
141.1547
  0
ARC
  8
0
 10
40.5982
 20
254.7488
 40
3.89648
 50
141.1544
 51
143.2155
  0
ARC
  8
0
 10
41.5552
 20
254.0331
 40
5.09147
 50
143.2145
 51
145.0172
  0
ARC
  8
0
 10
38.0783
 20
256.4661
 40
0.847883
 50
145.0175
 51
159.3255
  0
ARC
  8
0
 10
37.4105
 20
256.7654
 40
0.125453
 50
180.0004
 51
202.7773
  0
LINE
  8
0
 10
37.2948
 20
256.7169
 11
37.428
 21
256.5763
  0
ARC
  8
0
 10
37.3807
 20
256.5481
 40
0.0550646
 50
359.9944
 51
390.7931
  0
ARC
  8
0
 10
37.1687
 20
256.608
 40
0.273754
 50
329.1108
 51
347.35
  0
ARC
  8
0
 10
37.1471
 20
256.6209
 40
0.29887
 50
316.6524
 51
329.1083
  0
ARC
  8
0
 10
37.2599
 20
256.5145
 40
0.143779
 50
298.6553
 51
316.6532
  0
ARC
  8
0
 10
37.122
 20
256.7669
 40
0.431473
 50
282.9426
 51
298.6534
  0
ARC
  8
0
 10
36.956
 20
257.4888
 40
1.17218
 50
273.431
 51
282.944
  0
ARC
  8
0
 10
38.6487
 20
229.2491
 40
27.1182
 50
93.4301
 51
94.4296
  0
ARC
  8
0
 10
37.1637
 20
248.4206
 40
7.88935
 50
94.4307
 51
96.2837
  0
LINE
  8
0
 10
36.3002
 20
256.2625
 11
35.5676
 21
256.1818
  0
LINE
  8
0
 10
35.5676
 20
256.1818
 11
34.8572
 21
256.1456
  0
ARC
  8
0
 10
35.3972
 20
246.052
 40
10.108
 50
93.0629
 51
95.425
  0
ARC
  8
0
 10
35.3111
 20
246.9607
 40
9.19529
 50
95.4259
 51
97.9027
  0
ARC
  8
0
 10
24.7871
 20
322.7833
 40
67.3543
 50
277.4386
 51
277.902
  0
ARC
  8
0
 10
32.4177
 20
264.3369
 40
8.41178
 50
276.1284
 51
277.4401
  0
ARC
  8
0
 10
32.7486
 20
261.256
 40
5.31319
 50
271.7712
 51
276.1269
  0
ARC
  8
0
 10
32.9118
 20
255.9774
 40
0.0320936
 50
213.2323
 51
271.7767
  0
LINE
  8
0
 10
32.885
 20
255.9598
 11
32.885
 21
255.9598
  0
LINE
  8
0
 10
42.2795
 20
259.8341
 11
38.2855
 21
259.6291
  0
LINE
  8
0
 10
38.2855
 20
259.6291
 11
38.2855
 21
259.2665
  0
LINE
  8
0
 10
38.2855
 20
259.2665
 11
38.3455
 21
258.411
  0
ARC
  8
0
 10
27.4953
 20
256.4549
 40
11.0251
 50
4.2261
 51
10.22
  0
ARC
  8
0
 10
38.4073
 20
257.2673
 40
0.0831176
 50
290.0175
 51
359.9993
  0
LINE
  8
0
 10
38.4358
 20
257.1892
 11
38.3625
 21
257.1685
  0
ARC
  8
0
 10
38.5362
 20
256.5544
 40
0.638167
 50
105.7912
 51
118.6532
  0
ARC
  8
0
 10
38.6496
 20
256.3469
 40
0.874684
 50
118.6555
 51
129.6353
  0
ARC
  8
0
 10
40.2826
 20
254.3753
 40
3.43477
 50
129.6338
 51
133.5652
  0
ARC
  8
0
 10
38.1779
 20
256.5881
 40
0.380851
 50
133.5663
 51
145.3917
  0
ARC
  8
0
 10
38.0956
 20
256.6449
 40
0.280808
 50
145.3894
 51
167.384
  0
ARC
  8
0
 10
38.6688
 20
256.5432
 40
0.862745
 50
169.106
 51
180.0009
  0
ARC
  8
0
 10
-3.9352
 20
256.5427
 40
41.7412
 50
359.6455
 51
360.0007
  0
ARC
  8
0
 10
37.667
 20
256.2894
 40
0.13828
 50
337.6453
 51
357.9207
  0
ARC
  8
0
 10
37.6294
 20
256.3049
 40
0.178966
 50
310.3556
 51
337.6481
  0
ARC
  8
0
 10
37.4858
 20
256.4739
 40
0.400762
 50
292.2155
 51
310.3577
  0
ARC
  8
0
 10
36.7466
 20
258.2838
 40
2.35575
 50
279.1364
 51
292.2147
  0
ARC
  8
0
 10
36.467
 20
260.0225
 40
4.11685
 50
269.2522
 51
279.1361
  0
ARC
  8
0
 10
36.3961
 20
254.5884
 40
1.31769
 50
89.2527
 51
96.4759
  0
ARC
  8
0
 10
52.5332
 20
112.4194
 40
144.4
 50
96.4757
 51
97.165
  0
LINE
  8
0
 10
34.5225
 20
255.6914
 11
32.4267
 21
255.428
  0
LINE
  8
0
 10
32.4267
 20
255.428
 11
32.6273
 21
256.1576
  0
ARC
  8
0
 10
30.4775
 20
256.7689
 40
2.235
 50
344.1286
 51
357.1126
  0
ARC
  8
0
 10
21.247
 20
256.6562
 40
11.4626
 50
0.0003
 51
3.5247
  0
ARC
  8
0
 10
190.1407
 20
275.0549
 40
158.444
 50
186.1279
 51
186.4118
  0
ARC
  8
0
 10
34.9145
 20
258.3897
 40
2.3256
 50
183.7806
 51
186.13
  0
ARC
  8
0
 10
29.756
 20
258.049
 40
2.84417
 50
3.778
 51
17.5283
  0
ARC
  8
0
 10
32.3786
 20
258.8773
 40
0.0938601
 50
17.5279
 51
99.9685
  0
LINE
  8
0
 10
32.3624
 20
258.9697
 11
32.0508
 21
258.915
  0
ARC
  8
0
 10
31.9869
 20
259.2784
 40
0.369035
 50
264.3439
 51
279.9682
  0
ARC
  8
0
 10
32.887
 20
268.3682
 40
9.5032
 50
261.2754
 51
264.3451
  0
ARC
  8
0
 10
31.3848
 20
258.5796
 40
0.39998
 50
81.275
 51
89.5783
  0
ARC
  8
0
 10
30.8985
 20
192.5574
 40
66.424
 50
89.578
 51
90.2221
  0
ARC
  8
0
 10
30.6728
 20
250.8147
 40
8.16624
 50
90.2229
 51
92.7059
  0
ARC
  8
0
 10
30.6034
 20
252.2807
 40
6.69859
 50
92.7049
 51
95.4464
  0
ARC
  8
0
 10
30.2184
 20
256.3195
 40
2.64144
 50
95.4472
 51
104.2325
  0
ARC
  8
0
 10
30.0074
 20
257.1513
 40
1.78328
 50
104.232
 51
114.9293
  0
ARC
  8
0
 10
30.3093
 20
256.5019
 40
2.49949
 50
114.9297
 51
123.0551
  0
ARC
  8
0
 10
30.5848
 20
256.0785
 40
3.00462
 50
123.055
 51
130.465
  0
ARC
  8
0
 10
36.6587
 20
248.9582
 40
12.3636
 50
130.4654
 51
132.6004
  0
ARC
  8
0
 10
43.1606
 20
241.8871
 40
21.9696
 50
132.5997
 51
134.2015
  0
ARC
  8
0
 10
23.7185
 20
261.8788
 40
5.917
 50
310.4972
 51
314.2021
  0
ARC
  8
0
 10
26.6006
 20
258.5039
 40
1.47896
 50
303.0822
 51
310.4965
  0
ARC
  8
0
 10
26.9075
 20
258.0329
 40
0.916769
 50
299.2153
 51
303.0823
  0
ARC
  8
0
 10
17.1082
 20
275.5554
 40
20.9932
 50
298.4079
 51
299.2158
  0
ARC
  8
0
 10
29.4347
 20
252.7655
 40
4.91662
 50
118.4083
 51
122.224
  0
ARC
  8
0
 10
31.4389
 20
249.5856
 40
8.67546
 50
122.2233
 51
125.0957
  0
ARC
  8
0
 10
30.1195
 20
251.4632
 40
6.38067
 50
125.0957
 51
129.4358
  0
ARC
  8
0
 10
27.7458
 20
254.3494
 40
2.64369
 50
129.4364
 51
136.1813
  0
ARC
  8
0
 10
27.8649
 20
254.235
 40
2.80887
 50
136.1807
 51
141.6981
  0
ARC
  8
0
 10
29.1525
 20
253.2181
 40
4.44954
 50
141.6985
 51
146.0816
  0
ARC
  8
0
 10
32.9345
 20
250.6749
 40
9.00713
 50
146.0815
 51
148.4396
  0
ARC
  8
0
 10
34.0735
 20
249.9753
 40
10.3438
 50
148.4395
 51
150.6399
  0
ARC
  8
0
 10
12.6388
 20
262.0335
 40
14.2498
 50
328.219
 51
330.6399
  0
ARC
  8
0
 10
24.2741
 20
254.8247
 40
0.562335
 50
316.0111
 51
328.2197
  0
LINE
  8
0
 10
24.6786
 20
254.4341
 11
24.1429
 21
253.8791
  0
ARC
  8
0
 10
19.9392
 20
257.937
 40
5.84278
 50
311.2947
 51
316.0106
  0
ARC
  8
0
 10
23.4468
 20
253.9437
 40
0.527706
 50
295.5579
 51
311.2946
  0
ARC
  8
0
 10
35.4956
 20
228.7479
 40
27.4009
 50
115.5575
 51
116.3408
  0
ARC
  8
0
 10
23.5469
 20
252.8812
 40
0.471504
 50
116.3459
 51
122.3183
  0
LINE
  8
0
 10
23.2948
 20
253.2797
 11
23.2082
 21
253.1442
  0
LINE
  8
0
 10
23.2082
 20
253.1442
 11
23.6937
 21
253.0318
  0
LINE
  8
0
 10
23.6937
 20
253.0318
 11
24.0622
 21
253.0392
  0
ARC
  8
0
 10
23.9345
 20
252.9771
 40
0.142012
 50
0.0002
 51
25.9219
  0
ARC
  8
0
 10
21.4982
 20
253.7394
 40
2.68867
 50
334.7764
 51
343.528
  0
ARC
  8
0
 10
21.9065
 20
253.5471
 40
2.23729
 50
324.931
 51
334.7765
  0
ARC
  8
0
 10
22.9569
 20
252.8097
 40
0.953928
 50
309.8278
 51
324.9309
  0
LINE
  8
0
 10
23.5679
 20
252.0771
 11
23.1934
 21
251.7648
  0
ARC
  8
0
 10
16.8273
 20
259.3981
 40
9.93954
 50
307.3703
 51
309.8279
  0
ARC
  8
0
 10
22.6331
 20
251.7963
 40
0.374289
 50
294.6813
 51
307.3707
  0
ARC
  8
0
 10
23.7374
 20
249.3933
 40
2.27036
 50
114.6805
 51
119.6267
  0
ARC
  8
0
 10
22.6389
 20
251.3248
 40
0.0482979
 50
119.6276
 51
154.0442
  0
LINE
  8
0
 10
22.5955
 20
251.346
 11
22.5
 21
251.1499
  0
LINE
  8
0
 10
22.5
 20
251.1499
 11
22.5881
 21
251.158
  0
ARC
  8
0
 10
21.5867
 20
255.6129
 40
4.56602
 50
282.668
 51
286.2825
  0
ARC
  8
0
 10
22.7344
 20
251.6838
 40
0.472789
 50
286.2828
 51
297.5315
  0
LINE
  8
0
 10
22.9529
 20
251.2646
 11
23.4228
 21
251.5095
  0
ARC
  8
0
 10
15.3722
 20
266.954
 40
17.4168
 50
297.5314
 51
298.8462
  0
ARC
  8
0
 10
23.4835
 20
252.2278
 40
0.604466
 50
298.8458
 51
305.9076
  0
ARC
  8
0
 10
23.3171
 20
252.4575
 40
0.888121
 50
305.908
 51
312.6984
  0
ARC
  8
0
 10
18.17
 20
258.0357
 40
8.47818
 50
312.6982
 51
314.8947
  0
ARC
  8
0
 10
27.5035
 20
248.6678
 40
4.74575
 50
131.7967
 51
134.8948
  0
ARC
  8
0
 10
27.1064
 20
249.1121
 40
4.1499
 50
128.4837
 51
131.7969
  0
ARC
  8
0
 10
22.6535
 20
254.7135
 40
3.00582
 50
308.4836
 51
313.4725
  0
ARC
  8
0
 10
24.6337
 20
252.6247
 40
0.127573
 50
313.4729
 51
337.865
  0
LINE
  8
0
 10
24.7519
 20
252.5766
 11
24.9118
 21
252.9696
  0
LINE
  8
0
 10
24.9118
 20
252.9696
 11
24.9865
 21
253.0414
  0
LINE
  8
0
 10
24.9865
 20
253.0414
 11
25.0635
 21
252.8948
  0
LINE
  8
0
 10
25.0635
 20
252.8948
 11
25.2329
 21
253.0562
  0
ARC
  8
0
 10
24.9905
 20
253.2063
 40
0.285097
 50
328.229
 51
336.8941
  0
ARC
  8
0
 10
5.5127
 20
261.5164
 40
21.4616
 50
336.8948
 51
337.8928
  0
LINE
  8
0
 10
25.3965
 20
253.4395
 11
25.5904
 21
253.9168
  0
LINE
  8
0
 10
25.5904
 20
253.9168
 11
25.6954
 21
253.8177
  0
ARC
  8
0
 10
25.7028
 20
253.8996
 40
0.082271
 50
264.885
 51
309.8501
  0
ARC
  8
0
 10
25.6928
 20
253.9116
 40
0.097891
 50
309.8498
 51
350.8939
  0
LINE
  8
0
 10
25.7894
 20
253.8961
 11
25.748
 21
254.3534
  0
LINE
  8
0
 10
25.748
 20
254.3534
 11
25.8286
 21
254.7442
  0
LINE
  8
0
 10
25.8286
 20
254.7442
 11
25.9626
 21
254.5977
  0
LINE
  8
0
 10
25.9626
 20
254.5977
 11
26.064
 21
255.1482
  0
ARC
  8
0
 10
27.155
 20
255.0437
 40
1.09599
 50
159.2493
 51
174.5288
  0
ARC
  8
0
 10
27.6116
 20
254.8707
 40
1.58433
 50
146.5524
 51
159.2492
  0
ARC
  8
0
 10
33.3218
 20
251.0987
 40
8.42786
 50
143.0789
 51
146.5524
  0
ARC
  8
0
 10
27.1879
 20
255.7078
 40
0.755321
 50
131.4579
 51
143.0789
  0
LINE
  8
0
 10
26.6878
 20
256.2738
 11
26.9735
 21
256.5262
  0
LINE
  8
0
 10
26.9735
 20
256.5262
 11
26.932
 21
256.3567
  0
ARC
  8
0
 10
32.3424
 20
254.6301
 40
5.67923
 50
162.3009
 51
164.1704
  0
ARC
  8
0
 10
38.2917
 20
252.9433
 40
11.863
 50
164.1703
 51
165.4637
  0
ARC
  8
0
 10
41.9564
 20
251.9931
 40
15.6489
 50
165.4637
 51
167.3298
  0
ARC
  8
0
 10
36.1611
 20
253.2959
 40
9.70893
 50
167.3298
 51
169.6991
  0
ARC
  8
0
 10
29.1917
 20
254.5626
 40
2.62537
 50
169.6992
 51
179.1608
  0
ARC
  8
0
 10
28.3082
 20
254.601
 40
1.74157
 50
180
 51
190.8149
  0
ARC
  8
0
 10
27.9857
 20
254.5606
 40
1.41736
 50
191.654
 51
200.6203
  0
ARC
  8
0
 10
29.4191
 20
255.1
 40
2.94892
 50
200.6205
 51
206.8334
  0
ARC
  8
0
 10
29.8205
 20
255.303
 40
3.39872
 50
206.8333
 51
212.6193
  0
ARC
  8
0
 10
29.3987
 20
255.033
 40
2.89795
 50
212.6193
 51
218.8857
  0
ARC
  8
0
 10
28.3903
 20
254.2197
 40
1.60241
 50
218.8857
 51
229.3445
  0
ARC
  8
0
 10
28.4796
 20
254.3238
 40
1.73959
 50
229.3446
 51
239.3814
  0
ARC
  8
0
 10
26.5252
 20
251.0216
 40
2.09765
 50
50.4847
 51
59.3813
  0
ARC
  8
0
 10
27.6564
 20
252.3931
 40
0.319856
 50
27.5719
 51
50.4846
  0
ARC
  8
0
 10
27.7831
 20
252.4592
 40
0.176967
 50
4.9481
 51
27.5718
  0
ARC
  8
0
 10
26.7843
 20
252.4745
 40
1.17511
 50
354.908
 51
360.0001
  0
ARC
  8
0
 10
26.7157
 20
252.5896
 40
1.25836
 50
340.1199
 51
349.9594
  0
ARC
  8
0
 10
25.9442
 20
252.8685
 40
2.07867
 50
332.4682
 51
340.1202
  0
LINE
  8
0
 10
27.7875
 20
251.9076
 11
27.4249
 21
251.212
  0
ARC
  8
0
 10
24.9896
 20
252.4815
 40
2.74626
 50
325.6391
 51
332.468
  0
ARC
  8
0
 10
26.7922
 20
251.2491
 40
0.562706
 50
310.518
 51
325.6391
  0
ARC
  8
0
 10
29.6778
 20
247.8725
 40
3.87891
 50
130.518
 51
137.8383
  0
ARC
  8
0
 10
26.9103
 20
250.4061
 40
0.128503
 50
146.9831
 51
180
  0
LINE
  8
0
 10
26.7818
 20
250.4061
 11
26.9283
 21
249.4959
  0
ARC
  8
0
 10
26.9394
 20
249.4977
 40
0.0112589
 50
189.1369
 51
215.8293
  0
ARC
  8
0
 10
26.9745
 20
249.523
 40
0.0545121
 50
215.8416
 51
227.885
  0
ARC
  8
0
 10
19.4772
 20
241.2311
 40
11.1243
 50
43.4062
 51
47.8809
  0
ARC
  8
0
 10
26.05
 20
247.448
 40
2.07711
 50
33.0391
 51
43.4062
  0
LINE
  8
0
 10
27.7912
 20
248.5805
 11
28.4905
 21
247.5052
  0
ARC
  8
0
 10
28.6273
 20
247.5942
 40
0.163154
 50
213.0382
 51
228.3264
  0
ARC
  8
0
 10
28.6487
 20
247.6182
 40
0.195295
 50
228.3283
 51
242.2952
  0
LINE
  8
0
 10
28.5579
 20
247.4453
 11
28.8228
 21
247.3062
  0
LINE
  8
0
 10
28.8228
 20
247.3062
 11
28.9079
 21
247.2233
  0
ARC
  8
0
 10
28.1088
 20
246.3976
 40
1.14905
 50
42.2539
 51
45.9338
  0
ARC
  8
0
 10
28.2313
 20
246.509
 40
0.983427
 50
38.2754
 51
42.2533
  0
ARC
  8
0
 10
28.6792
 20
246.8624
 40
0.412961
 50
27.9699
 51
38.2758
  0
ARC
  8
0
 10
28.8907
 20
246.9747
 40
0.173485
 50
12.0396
 51
27.9698
  0
ARC
  8
0
 10
28.9137
 20
246.9796
 40
0.150002
 50
5.3083
 51
12.0406
  0
ARC
  8
0
 10
22.3137
 20
246.3665
 40
6.77836
 50
4.3063
 51
5.3073
  0
ARC
  8
0
 10
29.5658
 20
246.9126
 40
0.494298
 50
184.3054
 51
190.5602
  0
ARC
  8
0
 10
30.1342
 20
247.0186
 40
1.07248
 50
190.5617
 51
194.8068
  0
ARC
  8
0
 10
28.7365
 20
246.6491
 40
0.373247
 50
0
 51
14.8061
  0
ARC
  8
0
 10
29.0545
 20
246.6491
 40
0.0552293
 50
320.8598
 51
360.0002
  0
LINE
  8
0
 10
29.0974
 20
246.6142
 11
28.9582
 21
246.4433
  0
LINE
  8
0
 10
28.9582
 20
246.4433
 11
29.3023
 21
246.0222
  0
LINE
  8
0
 10
29.3023
 20
246.0222
 11
29.4526
 21
245.9682
  0
ARC
  8
0
 10
29.4584
 20
245.9845
 40
0.0172966
 50
250.2205
 51
327.0114
  0
ARC
  8
0
 10
29.2469
 20
246.1217
 40
0.269428
 50
327.0123
 51
345.12
  0
ARC
  8
0
 10
30.2838
 20
245.8462
 40
0.803404
 50
161.4122
 51
165.1184
  0
ARC
  8
0
 10
33.8957
 20
244.6316
 40
4.61406
 50
159.8668
 51
161.4132
  0
ARC
  8
0
 10
27.5122
 20
246.9718
 40
2.18485
 50
339.8668
 51
345.8221
  0
ARC
  8
0
 10
28.8658
 20
246.6299
 40
0.788782
 50
345.8218
 51
355.741
  0
LINE
  8
0
 10
29.6524
 20
246.5713
 11
29.6731
 21
246.8496
  0
ARC
  8
0
 10
14.404
 20
247.9866
 40
15.3113
 50
355.7412
 51
356.4497
  0
ARC
  8
0
 10
29.3783
 20
247.0384
 40
0.307734
 50
0.003
 51
2.5845
  0
ARC
  8
0
 10
29.439
 20
247.0258
 40
0.248067
 50
6.1316
 51
23.8791
  0
ARC
  8
0
 10
27.519
 20
246.1758
 40
2.34787
 50
23.8794
 51
29.6276
  0
ARC
  8
0
 10
28.6607
 20
246.8251
 40
1.03445
 50
29.6279
 51
39.2694
  0
ARC
  8
0
 10
29.0731
 20
247.1623
 40
0.501759
 50
39.2687
 51
53.1297
  0
LINE
  8
0
 10
29.3741
 20
247.5637
 11
29.1788
 21
247.7102
  0
ARC
  8
0
 10
29.2418
 20
247.7943
 40
0.105079
 50
210.3563
 51
233.1297
  0
ARC
  8
0
 10
33.727
 20
250.4212
 40
5.30289
 50
207.1716
 51
210.3568
  0
LINE
  8
0
 10
29.0093
 20
247.9996
 11
28.7236
 21
248.5561
  0
ARC
  8
0
 10
29.9254
 20
249.1729
 40
1.35078
 50
202.163
 51
207.1715
  0
ARC
  8
0
 10
36.5416
 20
251.868
 40
8.49492
 50
200.1662
 51
202.1629
  0
ARC
  8
0
 10
23.9895
 20
247.2581
 40
4.87692
 50
20.1661
 51
24.997
  0
ARC
  8
0
 10
27.015
 20
248.6687
 40
1.53883
 50
24.9969
 51
33.6024
  0
ARC
  8
0
 10
29.7257
 20
250.4699
 40
1.71579
 50
203.0514
 51
213.6024
  0
ARC
  8
0
 10
29.5862
 20
249.798
 40
1.43927
 50
177.209
 51
179.9999
  0
ARC
  8
0
 10
28.1649
 20
249.8603
 40
0.0180567
 50
120.9022
 51
154.154
  0
ARC
  8
0
 10
33.1335
 20
241.5602
 40
9.69161
 50
119.4903
 51
120.9055
  0
ARC
  8
0
 10
28.2903
 20
250.1238
 40
0.146624
 50
299.4901
 51
317.1692
  0
ARC
  8
0
 10
21.1382
 20
256.7539
 40
9.89913
 50
317.1693
 51
319.3125
  0
LINE
  8
0
 10
28.6445
 20
250.3003
 11
29.0618
 21
250.7858
  0
LINE
  8
0
 10
29.0618
 20
250.7858
 11
29.5562
 21
251.4474
  0
LINE
  8
0
 10
29.5562
 20
251.4474
 11
29.921
 21
251.921
  0
ARC
  8
0
 10
28.133
 20
253.1242
 40
2.15521
 50
326.0615
 51
330.4962
  0
ARC
  8
0
 10
19.1419
 20
258.212
 40
12.486
 50
330.4958
 51
332.3378
  0
ARC
  8
0
 10
12.3569
 20
261.7685
 40
20.1466
 50
332.3379
 51
333.2979
  0
ARC
  8
0
 10
22.9996
 20
256.4153
 40
8.23337
 50
333.2977
 51
334.7997
  0
ARC
  8
0
 10
29.0543
 20
253.5662
 40
1.54188
 50
334.7998
 51
345.9637
  0
ARC
  8
0
 10
29.0748
 20
253.561
 40
1.52068
 50
345.9638
 51
357.2056
  0
ARC
  8
0
 10
33.3144
 20
253.3541
 40
2.72393
 50
169.5497
 51
177.2058
  0
ARC
  8
0
 10
30.705
 20
253.8354
 40
0.0704965
 50
120.5082
 51
169.5469
  0
ARC
  8
0
 10
30.7051
 20
253.8352
 40
0.0707087
 50
72.6453
 51
120.5101
  0
ARC
  8
0
 10
30.0676
 20
251.7953
 40
2.20784
 50
64.3199
 51
72.6462
  0
ARC
  8
0
 10
31.8222
 20
255.4443
 40
1.84107
 50
244.3199
 51
253.4563
  0
ARC
  8
0
 10
33.1085
 20
259.7745
 40
6.35822
 50
253.456
 51
258.3686
  0
ARC
  8
0
 10
36.696
 20
277.2035
 40
24.1526
 50
258.3688
 51
259.648
  0
ARC
  8
0
 10
35.0453
 20
268.1666
 40
14.9662
 50
259.6478
 51
261.273
  0
ARC
  8
0
 10
34.19
 20
262.5943
 40
9.3287
 50
261.2731
 51
264.1001
  0
ARC
  8
0
 10
34.1656
 20
262.3595
 40
9.09259
 50
264.1005
 51
266.9639
  0
ARC
  8
0
 10
34.4811
 20
268.3079
 40
15.0494
 50
266.9639
 51
268.9655
  0
ARC
  8
0
 10
34.6966
 20
280.2276
 40
26.971
 50
268.9651
 51
270.4603
  0
ARC
  8
0
 10
34.8651
 20
259.2481
 40
5.99085
 50
270.4607
 51
277.722
  0
ARC
  8
0
 10
35.4054
 20
255.2638
 40
1.97005
 50
277.7216
 51
290.4016
  0
ARC
  8
0
 10
37.2489
 20
250.307
 40
3.31845
 50
100.1378
 51
110.4018
  0
ARC
  8
0
 10
36.6829
 20
253.4728
 40
0.102486
 50
38.9429
 51
100.1382
  0
ARC
  8
0
 10
36.727
 20
253.5085
 40
0.0457143
 50
2.5238
 51
38.946
  0
ARC
  8
0
 10
24.9022
 20
253.2346
 40
11.8737
 50
359.9995
 51
361.3312
  0
ARC
  8
0
 10
37.6137
 20
253.2345
 40
0.837798
 50
179.9995
 51
192.1646
  0
ARC
  8
0
 10
37.1443
 20
253.141
 40
0.359336
 50
193.3542
 51
213.7237
  0
ARC
  8
0
 10
35.2054
 20
251.8468
 40
1.97181
 50
28.0091
 51
33.7227
  0
ARC
  8
0
 10
36.8696
 20
252.732
 40
0.0868386
 50
0.5323
 51
28.0099
  0
ARC
  8
0
 10
36.9184
 20
252.7328
 40
0.038092
 50
336.6659
 51
359.9941
  0
ARC
  8
0
 10
36.2808
 20
253.0151
 40
0.735333
 50
330.7488
 51
336.1409
  0
ARC
  8
0
 10
38.542
 20
251.7487
 40
1.85628
 50
150.7473
 51
159.5682
  0
ARC
  8
0
 10
37.9675
 20
251.9628
 40
1.24319
 50
159.5693
 51
170.3532
  0
LINE
  8
0
 10
36.7418
 20
252.1711
 11
36.622
 21
251.4659
  0
LINE
  8
0
 10
36.622
 20
251.4659
 11
36.4281
 21
250.825
  0
LINE
  8
0
 10
36.4281
 20
250.825
 11
36.2764
 21
250.1257
  0
ARC
  8
0
 10
81.7422
 20
236.7645
 40
47.3884
 50
163.6234
 51
164.4016
  0
ARC
  8
0
 10
36.2169
 20
249.4789
 40
0.1211
 50
166.5774
 51
179.9949
  0
LINE
  8
0
 10
36.0958
 20
249.4789
 11
36.1106
 21
249.0904
  0
ARC
  8
0
 10
33.7148
 20
249.0903
 40
2.39582
 50
356.0993
 51
360.0012
  0
ARC
  8
0
 10
29.2336
 20
249.6597
 40
6.91033
 50
350.5735
 51
353.916
  0
ARC
  8
0
 10
32.9802
 20
249.0377
 40
3.11251
 50
345.2569
 51
350.5744
  0
ARC
  8
0
 10
35.3434
 20
248.4158
 40
0.66886
 50
333.7697
 51
345.2556
  0
LINE
  8
0
 10
35.9434
 20
248.1202
 11
35.8435
 21
247.9174
  0
LINE
  8
0
 10
35.8435
 20
247.9174
 11
35.8042
 21
247.6858
  0
ARC
  8
0
 10
35.2826
 20
247.8032
 40
0.534695
 50
338.5168
 51
347.3105
  0
ARC
  8
0
 10
35.4372
 20
247.7424
 40
0.368528
 50
327.9149
 51
338.5121
  0
ARC
  8
0
 10
35.2021
 20
247.8898
 40
0.645998
 50
321.7284
 51
327.9153
  0
ARC
  8
0
 10
34.6636
 20
248.3146
 40
1.33194
 50
317.4244
 51
321.732
  0
ARC
  8
0
 10
36.9846
 20
246.182
 40
1.82007
 50
137.423
 51
145.851
  0
ARC
  8
0
 10
35.664
 20
247.0778
 40
0.224294
 50
145.8502
 51
170.0153
  0
ARC
  8
0
 10
37.7017
 20
247.1168
 40
2.25864
 50
180.0017
 51
182.4501
  0
ARC
  8
0
 10
38.3754
 20
247.6662
 40
3.00056
 50
192.4321
 51
198.8423
  0
ARC
  8
0
 10
34.7915
 20
246.4432
 40
0.786212
 50
6.3408
 51
18.8433
  0
ARC
  8
0
 10
29.1179
 20
246.5301
 40
6.45498
 50
358.6448
 51
359.9994
  0
LINE
  8
0
 10
35.5711
 20
246.3774
 11
35.5708
 21
246.1991
  0
ARC
  8
0
 10
35.6145
 20
246.2049
 40
0.0440754
 50
187.4913
 51
249.7436
  0
LINE
  8
0
 10
35.5992
 20
246.1635
 11
36.3792
 21
245.8757
  0
LINE
  8
0
 10
36.3792
 20
245.8757
 11
36.4281
 21
246.0355
  0
ARC
  8
0
 10
36.0712
 20
246.0068
 40
0.358062
 50
4.6069
 51
13.4413
  0
ARC
  8
0
 10
32.4153
 20
245.133
 40
4.11686
 50
13.4413
 51
16.0442
  0
ARC
  8
0
 10
37.1754
 20
246.502
 40
0.836177
 50
188.2127
 51
196.0453
  0
ARC
  8
0
 10
40.4414
 20
246.9732
 40
4.13599
 50
184.6915
 51
188.2112
  0
LINE
  8
0
 10
36.3193
 20
246.6349
 11
36.2912
 21
246.9776
  0
ARC
  8
0
 10
40.2455
 20
247.3022
 40
3.9676
 50
180.0005
 51
184.6924
  0
ARC
  8
0
 10
37.1793
 20
247.3021
 40
0.901455
 50
170.1463
 51
179.9991
  0
ARC
  8
0
 10
37.1476
 20
247.3076
 40
0.869285
 50
161.0825
 51
170.1466
  0
ARC
  8
0
 10
40.4686
 20
246.1695
 40
4.37986
 50
157.0486
 51
161.0834
  0
ARC
  8
0
 10
30.1437
 20
250.542
 40
6.83276
 50
337.0481
 51
339.1998
  0
ARC
  8
0
 10
35.7534
 20
248.411
 40
0.831876
 50
339.2012
 51
345.3704
  0
LINE
  8
0
 10
36.5583
 20
248.2008
 11
36.6501
 21
248.5524
  0
ARC
  8
0
 10
38.8043
 20
247.99
 40
2.2264
 50
161.5384
 51
165.3695
  0
ARC
  8
0
 10
48.304
 20
244.8185
 40
12.2415
 50
159.9044
 51
161.5381
  0
ARC
  8
0
 10
49.291
 20
244.8179
 40
13.173
 50
156.1791
 51
161.3773
  0
ARC
  8
0
 10
38.3188
 20
249.7138
 40
1.15916
 50
151.0767
 51
158.5225
  0
LINE
  8
0
 10
37.3043
 20
250.2744
 11
37.6388
 21
250.8797
  0
ARC
  8
0
 10
34.8219
 20
252.4362
 40
3.2183
 50
331.0767
 51
336.2482
  0
ARC
  8
0
 10
34.5467
 20
252.5574
 40
3.51892
 50
336.2477
 51
341.1932
  0
ARC
  8
0
 10
22.6977
 20
256.5926
 40
16.0362
 50
341.1934
 51
342.0517
  0
ARC
  8
0
 10
16.7127
 20
258.5311
 40
22.3273
 50
342.0521
 51
342.7791
  0
ARC
  8
0
 10
-10.1566
 20
266.8596
 40
50.4578
 50
342.7788
 51
343.3009
  0
ARC
  8
0
 10
37.4069
 20
252.5907
 40
0.800069
 50
343.2952
 51
347.4467
  0
LINE
  8
0
 10
38.1879
 20
252.4168
 11
38.2929
 21
252.8889
  0
ARC
  8
0
 10
39.5498
 20
252.6092
 40
1.28758
 50
154.8129
 51
167.4525
  0
ARC
  8
0
 10
38.433
 20
253.1344
 40
0.0535128
 50
89.449
 51
154.8091
  0
ARC
  8
0
 10
38.4332
 20
253.1501
 40
0.0378193
 50
30.7541
 51
89.4526
  0
ARC
  8
0
 10
36.6003
 20
252.0594
 40
2.1707
 50
23.3358
 51
30.7544
  0
LINE
  8
0
 10
38.5934
 20
252.9193
 11
38.7703
 21
252.5093
  0
ARC
  8
0
 10
37.8309
 20
252.1041
 40
1.023
 50
15.5417
 51
23.3354
  0
ARC
  8
0
 10
31.9574
 20
250.4705
 40
7.11952
 50
12.5899
 51
15.5422
  0
ARC
  8
0
 10
32.7995
 20
250.6586
 40
6.25664
 50
9.7474
 51
12.59
  0
ARC
  8
0
 10
33.1366
 20
250.7166
 40
5.91456
 50
6.8231
 51
9.7468
  0
ARC
  8
0
 10
53.4072
 20
253.142
 40
14.5006
 50
186.8233
 51
188.5863
  0
ARC
  8
0
 10
40.0916
 20
251.1315
 40
1.03408
 50
188.5874
 51
195.1924
  0
ARC
  8
0
 10
40.2363
 20
251.1708
 40
1.18403
 50
195.191
 51
201.0576
  0
ARC
  8
0
 10
47.0259
 20
253.785
 40
8.45948
 50
201.0583
 51
203.2522
  0
ARC
  8
0
 10
38.2679
 20
250.0219
 40
1.07275
 50
8.4486
 51
23.2521
  0
ARC
  8
0
 10
38.2074
 20
250.1795
 40
1.12163
 50
351.6648
 51
359.9998
  0
ARC
  8
0
 10
39.1534
 20
250.0663
 40
0.171029
 50
323.1282
 51
343.2147
  0
ARC
  8
0
 10
39.2087
 20
250.0248
 40
0.101958
 50
297.0252
 51
323.1316
  0
ARC
  8
0
 10
39.0275
 20
250.3801
 40
0.500777
 50
282.0722
 51
297.023
  0
ARC
  8
0
 10
38.6667
 20
252.0666
 40
2.22544
 50
274.9965
 51
282.0729
  0
ARC
  8
0
 10
38.9456
 20
248.8774
 40
0.975978
 50
94.9963
 51
105.9312
  0
ARC
  8
0
 10
39.0804
 20
248.4048
 40
1.46738
 50
105.9312
 51
114.8447
  0
ARC
  8
0
 10
34.3258
 20
258.6739
 40
9.84905
 50
292.9635
 51
294.8445
  0
ARC
  8
0
 10
38.0517
 20
249.8806
 40
0.29893
 50
282.1532
 51
292.9657
  0
ARC
  8
0
 10
38.0953
 20
249.678
 40
0.0916791
 50
255.2776
 51
282.1508
  0
ARC
  8
0
 10
39.7673
 20
256.0413
 40
6.67098
 50
252.1559
 51
255.278
  0
LINE
  8
0
 10
37.7231
 20
249.6913
 11
37.507
 21
249.7608
  0
LINE
  8
0
 10
37.507
 20
249.7608
 11
37.2613
 21
249.0807
  0
LINE
  8
0
 10
37.2613
 20
249.0807
 11
37.2458
 21
249.0659
  0
LINE
  8
0
 10
37.2458
 20
249.0659
 11
37.5507
 21
249.1222
  0
ARC
  8
0
 10
38.3519
 20
244.7788
 40
4.41665
 50
98.1907
 51
100.4515
  0
ARC
  8
0
 10
37.734
 20
249.0715
 40
0.0796955
 50
81.3017
 51
98.1911
  0
LINE
  8
0
 10
37.7461
 20
249.1503
 11
38.0169
 21
249.1089
  0
ARC
  8
0
 10
38.0612
 20
249.3982
 40
0.2927
 50
261.3009
 51
274.8206
  0
ARC
  8
0
 10
37.9211
 20
251.0598
 40
1.96016
 50
274.8208
 51
280.0349
  0
ARC
  8
0
 10
35.9008
 20
262.4763
 40
13.5541
 50
280.0351
 51
280.7998
  0
ARC
  8
0
 10
35.0162
 20
267.1149
 40
18.2763
 50
280.7992
 51
281.4579
  0
ARC
  8
0
 10
30.9762
 20
287.0448
 40
38.6116
 50
281.4586
 51
281.9149
  0
ARC
  8
0
 10
27.6176
 20
302.9633
 40
54.8804
 50
281.9147
 51
282.2971
  0
ARC
  8
0
 10
48.3121
 20
208.0271
 40
42.2851
 50
101.7333
 51
102.2973
  0
ARC
  8
0
 10
41.2059
 20
242.2407
 40
7.34125
 50
100.379
 51
101.7319
  0
ARC
  8
0
 10
39.5694
 20
251.1752
 40
1.74187
 50
280.3801
 51
287.5751
  0
ARC
  8
0
 10
39.9215
 20
250.0637
 40
0.575941
 50
287.5755
 51
300.1049
  0
ARC
  8
0
 10
40.0485
 20
249.8447
 40
0.322777
 50
300.1054
 51
321.9155
  0
ARC
  8
0
 10
39.9342
 20
249.9342
 40
0.467903
 50
321.9138
 51
339.9944
  0
ARC
  8
0
 10
39.791
 20
249.9864
 40
0.620337
 50
339.9947
 51
358.8135
  0
ARC
  8
0
 10
39.9784
 20
249.9735
 40
0.432779
 50
0.0006
 51
21.4216
  0
LINE
  8
0
 10
40.3813
 20
250.1316
 11
40.2836
 21
250.3662
  0
ARC
  8
0
 10
41.1986
 20
250.7472
 40
0.99114
 50
192.2767
 51
202.6079
  0
ARC
  8
0
 10
40.9168
 20
250.6858
 40
0.702782
 50
179.9989
 51
192.2748
  0
LINE
  8
0
 10
40.2141
 20
250.6859
 11
40.2141
 21
250.9982
  0
LINE
  8
0
 10
40.2141
 20
250.9982
 11
40.1482
 21
251.6161
  0
LINE
  8
0
 10
40.1482
 20
251.6161
 11
40.1253
 21
252.4923
  0
LINE
  8
0
 10
40.1253
 20
252.4923
 11
40.1008
 21
253.3115
  0
ARC
  8
0
 10
43.6994
 20
253.3407
 40
3.59863
 50
180.0027
 51
180.4648
  0
ARC
  8
0
 10
119.4798
 20
251.6155
 40
79.3979
 50
178.5057
 51
178.7551
  0
ARC
  8
0
 10
28.5399
 20
253.6858
 40
11.5691
 50
0.0006
 51
1.4199
  0
ARC
  8
0
 10
38.8681
 20
253.9095
 40
1.23889
 50
2.913
 51
10.5618
  0
ARC
  8
0
 10
44.0631
 20
254.8782
 40
4.04564
 50
185.4312
 51
190.5625
  0
ARC
  8
0
 10
40.6151
 20
254.4953
 40
0.579487
 50
170.7923
 51
180.0014
  0
ARC
  8
0
 10
40.2196
 20
254.5419
 40
0.182428
 50
145.1332
 51
165.36
  0
ARC
  8
0
 10
41.7843
 20
253.4517
 40
2.08953
 50
139.1837
 51
145.1318
  0
ARC
  8
0
 10
37.5466
 20
257.1117
 40
3.50999
 50
319.1839
 51
323.4174
  0
ARC
  8
0
 10
35.7767
 20
258.4252
 40
5.71405
 50
323.4179
 51
326.7357
  0
ARC
  8
0
 10
34.0579
 20
259.5527
 40
7.76959
 50
326.736
 51
328.9634
  0
ARC
  8
0
 10
34.4796
 20
259.2991
 40
7.27754
 50
328.9623
 51
331.2637
  0
ARC
  8
0
 10
35.9392
 20
258.4988
 40
5.61292
 50
331.2639
 51
334.5135
  0
ARC
  8
0
 10
38.0196
 20
257.507
 40
3.30818
 50
334.5146
 51
338.7479
  0
ARC
  8
0
 10
38.1324
 20
257.4631
 40
3.18714
 50
338.7478
 51
341.9644
  0
ARC
  8
0
 10
31.1293
 20
259.7435
 40
10.5522
 50
341.9636
 51
343.7312
  0
ARC
  8
0
 10
23.7308
 20
261.9025
 40
18.2593
 50
343.7318
 51
344.6638
  0
ARC
  8
0
 10
38.7321
 20
257.7884
 40
2.70411
 50
344.6627
 51
347.085
  0
LINE
  8
0
 10
41.3678
 20
257.1841
 11
41.5091
 21
257.8005
  0
ARC
  8
0
 10
43.7889
 20
257.2778
 40
2.3389
 50
160.7896
 51
167.0861
  0
ARC
  8
0
 10
45.6508
 20
256.629
 40
4.31063
 50
156.1522
 51
160.7891
  0
ARC
  8
0
 10
45.0076
 20
256.9133
 40
3.60736
 50
150.4723
 51
156.1526
  0
ARC
  8
0
 10
44.4174
 20
257.2476
 40
2.92911
 50
144.1675
 51
150.4719
  0
ARC
  8
0
 10
37.6496
 20
262.1345
 40
5.41868
 50
324.1678
 51
328.1457
  0
ARC
  8
0
 10
41.6943
 20
259.6214
 40
0.656781
 50
328.1452
 51
339.5878
  0
ARC
  8
0
 10
44.8312
 20
258.454
 40
2.69035
 50
149.5499
 51
159.588
  0
ARC
  8
0
 10
42.6019
 20
259.7646
 40
0.104305
 50
96.7915
 51
149.5508
  0
LINE
  8
0
 10
42.5896
 20
259.8681
 11
46.2497
 21
260.304
  0
LINE
  8
0
 10
46.2497
 20
260.304
 11
46.5413
 21
260.3455
  0
LINE
  8
0
 10
46.5413
 20
260.3455
 11
46.8492
 21
260.2966
  0
ARC
  8
0
 10
46.83
 20
260.7174
 40
0.421179
 50
272.6076
 51
296.167
  0
ARC
  8
0
 10
46.9221
 20
260.5299
 40
0.212336
 50
296.1666
 51
329.5844
  0
LINE
  8
0
 10
47.1052
 20
260.4224
 11
47.2799
 21
260.7199
  0
LINE
  8
0
 10
47.2799
 20
260.7199
 11
47.3946
 21
260.8472
  0
ARC
  8
0
 10
46.9753
 20
261.1663
 40
0.526891
 50
322.7252
 51
354.7816
  0
ARC
  8
0
 10
47.1529
 20
261.1184
 40
0.34713
 50
359.9999
 51
394.9251
  0
LINE
  8
0
 10
47.4375
 20
261.3171
 11
47.3117
 21
261.4096
  0
LINE
  8
0
 10
47.3117
 20
261.4096
 11
46.975
 21
261.6857
  0
LINE
  8
0
 10
46.975
 20
261.6857
 11
46.5879
 21
261.975
  0
ARC
  8
0
 10
45.9293
 20
261.313
 40
0.933834
 50
45.1433
 51
52.5168
  0
ARC
  8
0
 10
46.4544
 20
261.9978
 40
0.070846
 50
52.5147
 51
79.5161
  0
ARC
  8
0
 10
46.4487
 20
261.9672
 40
0.102039
 50
79.5173
 51
117.5914
  0
ARC
  8
0
 10
46.6155
 20
261.6481
 40
0.462092
 50
117.5939
 51
135.2275
  0
ARC
  8
0
 10
47.1161
 20
261.1514
 40
1.16725
 50
135.226
 51
144.4759
  0
ARC
  8
0
 10
46.8484
 20
261.3425
 40
0.838351
 50
144.4774
 51
155.3966
  0
LINE
  8
0
 10
46.0862
 20
261.6916
 11
45.913
 21
261.3134
  0
ARC
  8
0
 10
47.8935
 20
260.4065
 40
2.1782
 50
155.3959
 51
165.5632
  0
ARC
  8
0
 10
45.8795
 20
260.9496
 40
0.0954445
 50
180.0008
 51
217.9704
  0
LINE
  8
0
 10
45.8042
 20
260.8909
 11
46.1291
 21
260.6407
  0
ARC
  8
0
 10
46.0598
 20
260.5921
 40
0.0847057
 50
359.9991
 51
395.0521
  0
ARC
  8
0
 10
46.0975
 20
260.6068
 40
0.0492661
 50
276.7137
 51
342.6464
  0
LINE
  8
0
 10
46.1032
 20
260.5578
 11
42.9603
 21
260.1878
  0
ARC
  8
0
 10
42.9535
 20
260.2454
 40
0.0579763
 50
209.4225
 51
276.7155
  0
ARC
  8
0
 10
43.2281
 20
260.3151
 40
0.339565
 50
179.9995
 51
196.8069
  0
ARC
  8
0
 10
43.1912
 20
260.2474
 40
0.310178
 50
137.5913
 51
167.3856
  0
ARC
  8
0
 10
43.4443
 20
260.0162
 40
0.652953
 50
117.1799
 51
137.5926
  0
ARC
  8
0
 10
42.4778
 20
261.8986
 40
1.46309
 50
297.1791
 51
306.5644
  0
ARC
  8
0
 10
43.0003
 20
261.1941
 40
0.585939
 50
306.5648
 51
321.4205
  0
ARC
  8
0
 10
49.7157
 20
255.8371
 40
8.0044
 50
138.2722
 51
141.4201
  0
ARC
  8
0
 10
43.8127
 20
261.1017
 40
0.0948446
 50
109.0416
 51
138.2746
  0
ARC
  8
0
 10
43.8057
 20
261.122
 40
0.0733157
 50
80.6477
 51
109.0343
  0
ARC
  8
0
 10
43.4236
 20
258.8003
 40
2.42624
 50
75.7684
 51
80.6541
  0
ARC
  8
0
 10
44.2509
 20
262.0621
 40
0.938851
 50
255.7675
 51
262.8048
  0
ARC
  8
0
 10
45.1215
 20
268.9585
 40
7.88992
 50
262.8047
 51
265.2309
  0
ARC
  8
0
 10
52.541
 20
357.914
 40
97.1544
 50
265.2321
 51
265.5274
  0
ARC
  8
0
 10
45.3084
 20
265.4464
 40
4.40432
 50
265.524
 51
266.9084
  0
ARC
  8
0
 10
45.1153
 20
261.8722
 40
0.824908
 50
266.9109
 51
283.1545
  0
ARC
  8
0
 10
45.2594
 20
261.2556
 40
0.191745
 50
283.1542
 51
317.2333
  0
ARC
  8
0
 10
45.286
 20
261.2311
 40
0.155609
 50
317.2299
 51
340.2694
  0
ARC
  8
0
 10
43.0486
 20
262.0334
 40
2.53246
 50
340.2738
 51
345.9488
  0
ARC
  8
0
 10
46.5215
 20
261.1641
 40
1.04763
 50
154.3232
 51
165.9479
  0
ARC
  8
0
 10
48.0683
 20
260.4205
 40
2.76384
 50
147.1738
 51
154.3231
  0
ARC
  8
0
 10
46.997
 20
261.1116
 40
1.48895
 50
139.0728
 51
147.1737
  0
ARC
  8
0
 10
46.3013
 20
261.7148
 40
0.568131
 50
125.9411
 51
139.073
  0
ARC
  8
0
 10
44.5055
 20
264.1919
 40
2.49136
 50
305.9409
 51
310.2
  0
ARC
  8
0
 10
46.09
 20
262.3169
 40
0.0365494
 50
310.1996
 51
345.934
  0
ARC
  8
0
 10
45.9813
 20
262.308
 40
0.14416
 50
0.0002
 51
22.5932
  0
ARC
  8
0
 10
44.896
 20
261.4567
 40
1.51869
 50
36.6584
 51
46.8989
  0
LINE
  8
0
 10
45.9337
 20
262.5655
 11
45.5763
 21
262.9
  0
ARC
  8
0
 10
45.4511
 20
262.7663
 40
0.183179
 50
46.8955
 51
52.8033
  0
ARC
  8
0
 10
-4.2677
 20
197.248
 40
82.4304
 50
52.8068
 51
53.0855
  0
ARC
  8
0
 10
38.7803
 20
254.552
 40
10.7584
 50
53.0869
 51
53.8483
  0
ARC
  8
0
 10
41.6762
 20
258.5163
 40
5.84906
 50
53.8455
 51
54.8781
  0
ARC
  8
0
 10
43.6261
 20
261.2884
 40
2.45985
 50
54.8793
 51
57.3891
  0
ARC
  8
0
 10
44.597
 20
262.8058
 40
0.65843
 50
57.3904
 51
62.2424
  0
LINE
  8
0
 10
44.9036
 20
263.3885
 11
44.2287
 21
263.7437
  0
LINE
  8
0
 10
44.2287
 20
263.7437
 11
44.0881
 21
263.9524
  0
ARC
  8
0
 10
43.3284
 20
263.4099
 40
0.933534
 50
35.5291
 51
46.8071
  0
ARC
  8
0
 10
43.2087
 20
263.2824
 40
1.10843
 50
46.8072
 51
57.1545
  0
ARC
  8
0
 10
43.2678
 20
263.374
 40
0.999369
 50
57.1535
 51
69.9346
  0
ARC
  8
0
 10
43.2611
 20
263.3557
 40
1.01888
 50
69.9363
 51
82.5937
  0
ARC
  8
0
 10
43.2733
 20
263.4494
 40
0.924347
 50
82.5926
 51
94.3838
  0
ARC
  8
0
 10
43.2056
 20
264.3322
 40
0.0389944
 50
94.3862
 51
154.399
  0
ARC
  8
0
 10
43.4152
 20
264.349
 40
0.244725
 50
179.9996
 51
187.1617
  0
ARC
  8
0
 10
44.6404
 20
265.2633
 40
1.74579
 50
212.7657
 51
220.2582
  0
ARC
  8
0
 10
42.3934
 20
263.3606
 40
1.19865
 50
31.9108
 51
40.2569
  0
ARC
  8
0
 10
41.9367
 20
263.0761
 40
1.73666
 50
24.9804
 51
31.9124
  0
LINE
  8
0
 10
43.5109
 20
263.8095
 11
43.5975
 21
263.5934
  0
LINE
  8
0
 10
43.5975
 20
263.5934
 11
43.3303
 21
263.6275
  0
LINE
  8
0
 10
43.3303
 20
263.6275
 11
43.1216
 21
263.552
  0
LINE
  8
0
 10
43.1216
 20
263.552
 11
43.2556
 21
263.4188
  0
LINE
  8
0
 10
43.2556
 20
263.4188
 11
42.9995
 21
263.3922
  0
ARC
  8
0
 10
42.8654
 20
261.6206
 40
1.77661
 50
85.6708
 51
92.519
  0
ARC
  8
0
 10
42.8312
 20
262.3987
 40
0.997739
 50
92.5201
 51
101.6625
  0
ARC
  8
0
 10
42.6984
 20
263.042
 40
0.340964
 50
101.6633
 51
116.2128
  0
ARC
  8
0
 10
42.5597
 20
263.3238
 40
0.0267537
 50
116.2121
 51
169.957
  0
LINE
  8
0
 10
42.5333
 20
263.3285
 11
42.6576
 21
263.2553
  0
LINE
  8
0
 10
42.6576
 20
263.2553
 11
42.7627
 21
263.1953
  0
LINE
  8
0
 10
42.7627
 20
263.1953
 11
42.6858
 21
263.1672
  0
LINE
  8
0
 10
42.6858
 20
263.1672
 11
42.4208
 21
263.1124
  0
LINE
  8
0
 10
42.4208
 20
263.1124
 11
42.133
 21
262.9918
  0
ARC
  8
0
 10
42.3402
 20
262.3089
 40
0.713637
 50
106.8855
 51
117.7467
  0
ARC
  8
0
 10
42.043
 20
262.8739
 40
0.0752603
 50
117.7485
 51
151.6364
  0
ARC
  8
0
 10
42.4508
 20
262.8491
 40
0.47786
 50
172.7238
 51
180.0015
  0
ARC
  8
0
 10
42.0655
 20
262.8848
 40
0.0991927
 50
201.0864
 51
242.9947
  0
LINE
  8
0
 10
42.0205
 20
262.7964
 11
42.0974
 21
262.7572
  0
LINE
  8
0
 10
42.0974
 20
262.7572
 11
41.6875
 21
262.6218
  0
LINE
  8
0
 10
41.6875
 20
262.6218
 11
41.2531
 21
262.4642
  0
ARC
  8
0
 10
41.4655
 20
261.8082
 40
0.689514
 50
107.9462
 51
118.8093
  0
ARC
  8
0
 10
41.1457
 20
262.3897
 40
0.0259019
 50
118.8187
 51
177.2878
  0
ARC
  8
0
 10
41.1546
 20
262.3909
 40
0.0347268
 50
180.0051
 51
225.5767
  0
ARC
  8
0
 10
41.2628
 20
262.5148
 40
0.199154
 50
228.2882
 51
247.9235
  0
LINE
  8
0
 10
41.1879
 20
262.3302
 11
41.3211
 21
262.2762
  0
LINE
  8
0
 10
41.3211
 20
262.2762
 11
41.0651
 21
262.197
  0
ARC
  8
0
 10
34.0464
 20
294.4692
 40
33.0266
 50
281.2835
 51
282.2699
  0
ARC
  8
0
 10
40.462
 20
262.3139
 40
0.237547
 50
269.6268
 51
281.2765
  0
ARC
  8
0
 10
40.4566
 20
261.4581
 40
0.618274
 50
89.6346
 51
103.3353
  0
ARC
  8
0
 10
40.3665
 20
261.838
 40
0.227916
 50
103.3316
 51
125.9905
  0
ARC
  8
0
 10
40.3022
 20
261.9265
 40
0.118515
 50
125.9919
 51
161.3223
  0
ARC
  8
0
 10
40.35
 20
261.9644
 40
0.160036
 50
180.0021
 51
197.136
  0
ARC
  8
0
 10
40.2421
 20
261.9498
 40
0.0556203
 50
215.8128
 51
263.5836
  0
ARC
  8
0
 10
40.356
 20
262.9622
 40
1.07434
 50
263.5807
 51
274.1531
  0
ARC
  8
0
 10
40.53
 20
260.5667
 40
1.32744
 50
83.9074
 51
94.1537
  0
ARC
  8
0
 10
40.6677
 20
261.8566
 40
0.0302011
 50
11.3054
 51
83.9112
  0
ARC
  8
0
 10
40.6744
 20
261.8625
 40
0.0229084
 50
303.3676
 51
359.994
  0
ARC
  8
0
 10
39.4291
 20
264.9456
 40
3.3475
 50
286.8567
 51
292.0718
  0
LINE
  8
0
 10
40.3998
 20
261.7419
 11
39.904
 21
261.5917
  0
ARC
  8
0
 10
40.1381
 20
260.819
 40
0.807397
 50
106.857
 51
122.0441
  0
ARC
  8
0
 10
39.9165
 20
261.1729
 40
0.389773
 50
122.0418
 51
143.9695
  0
ARC
  8
0
 10
39.7069
 20
261.3254
 40
0.130567
 50
143.969
 51
171.8039
  0
ARC
  8
0
 10
39.6399
 20
261.344
 40
0.062206
 50
180.0035
 51
213.4835
  0
ARC
  8
0
 10
39.6215
 20
261.3396
 40
0.0449036
 50
221.67
 51
259.9721
  0
ARC
  8
0
 10
39.7463
 20
262.0455
 40
0.761772
 50
259.9761
 51
269.1131
  0
LINE
  8
0
 10
39.7345
 20
261.2838
 11
39.8566
 21
261.2572
  0
LINE
  8
0
 10
39.8566
 20
261.2572
 11
39.6709
 21
261.1084
  0
ARC
  8
0
 10
39.463
 20
261.3681
 40
0.332627
 50
278.9979
 51
308.6877
  0
ARC
  8
0
 10
39.2789
 20
262.5306
 40
1.50963
 50
265.1834
 51
278.998
  0
ARC
  8
0
 10
39.0792
 20
260.1606
 40
0.868777
 50
85.1831
 51
100.0759
  0
ARC
  8
0
 10
39.0208
 20
260.489
 40
0.535248
 50
100.0762
 51
119.0833
  0
ARC
  8
0
 10
38.8587
 20
260.7804
 40
0.201737
 50
119.0832
 51
139.4471
  0
ARC
  8
0
 10
38.7596
 20
260.8849
 40
0.0603413
 50
153.796
 51
179.9964
  0
LINE
  8
0
 10
38.6992
 20
260.8849
 11
38.8643
 21
260.8021
  0
ARC
  8
0
 10
38.722
 20
260.5134
 40
0.321773
 50
46.4084
 51
63.7593
  0
ARC
  8
0
 10
38.9094
 20
260.714
 40
0.0473739
 50
359.9977
 51
403.317
  0
LINE
  8
0
 10
38.9568
 20
260.714
 11
38.6089
 21
260.526
  0
LINE
  8
0
 10
38.6089
 20
260.526
 11
38.4417
 21
260.3566
  0
LINE
  8
0
 10
38.4417
 20
260.3566
 11
38.5675
 21
260.3247
  0
LINE
  8
0
 10
38.5675
 20
260.3247
 11
38.4151
 21
260.1353
  0
ARC
  8
0
 10
39.2667
 20
259.9995
 40
0.8624
 50
170.9428
 51
180.0005
  0
ARC
  8
0
 10
38.4611
 20
260.015
 40
0.0588776
 50
195.2536
 51
272.7171
  0
LINE
  8
0
 10
38.4639
 20
259.9562
 11
42.5015
 21
260.1479
  0
LINE
  8
0
 10
42.5015
 20
260.1479
 11
42.2795
 21
259.8341
  0
LINE
  8
0
 10
42.2795
 20
259.8341
 11
42.2795
 21
259.8341
  0
LINE
  8
0
 10
32.5451
 20
245.6285
 11
31.9531
 21
246.0096
  0
ARC
  8
0
 10
31.9766
 20
246.0343
 40
0.0340496
 50
180.0061
 51
226.4499
  0
ARC
  8
0
 10
32.206
 20
245.9841
 40
0.268189
 50
149.9495
 51
169.2139
  0
ARC
  8
0
 10
30.7509
 20
246.8259
 40
1.41287
 50
329.9504
 51
338.2496
  0
ARC
  8
0
 10
31.7448
 20
246.4294
 40
0.342809
 50
338.2525
 51
355.1472
  0
ARC
  8
0
 10
30.8892
 20
246.4004
 40
1.19711
 50
359.9985
 51
363.4958
  0
ARC
  8
0
 10
29.7847
 20
246.1358
 40
2.32404
 50
8.3527
 51
13.2262
  0
ARC
  8
0
 10
36.9203
 20
247.8129
 40
5.006
 50
190.7849
 51
193.2263
  0
ARC
  8
0
 10
33.5355
 20
247.168
 40
1.56031
 50
186.4097
 51
190.7831
  0
ARC
  8
0
 10
27.1391
 20
246.4494
 40
4.87634
 50
6.4107
 51
9.0646
  0
ARC
  8
0
 10
31.821
 20
247.1963
 40
0.135232
 50
9.0659
 51
25.0531
  0
ARC
  8
0
 10
31.5457
 20
247.0677
 40
0.43916
 50
25.0514
 51
49.1481
  0
ARC
  8
0
 10
29.9769
 20
245.2535
 40
2.8375
 50
49.1488
 51
58.5696
  0
ARC
  8
0
 10
33.1139
 20
250.3867
 40
3.17832
 50
233.7711
 51
238.5698
  0
ARC
  8
0
 10
37.2331
 20
256.0087
 40
10.1478
 50
231.0856
 51
233.7706
  0
ARC
  8
0
 10
51.6402
 20
273.8541
 40
33.0831
 50
230.0798
 51
231.0853
  0
ARC
  8
0
 10
44.0598
 20
264.795
 40
21.2708
 50
228.8269
 51
230.0807
  0
ARC
  8
0
 10
33.7206
 20
252.9734
 40
5.56575
 50
225.1275
 51
228.8266
  0
ARC
  8
0
 10
33.4572
 20
252.7089
 40
5.19246
 50
221.2976
 51
225.1274
  0
ARC
  8
0
 10
30.4339
 20
250.0531
 40
1.16834
 50
210.6792
 51
221.2977
  0
ARC
  8
0
 10
29.7312
 20
249.6362
 40
0.351242
 50
191.2477
 51
210.6791
  0
ARC
  8
0
 10
30.3671
 20
249.6613
 40
0.984836
 50
180.0005
 51
185.4578
  0
ARC
  8
0
 10
30.4403
 20
249.554
 40
1.06349
 50
164.9387
 51
174.2093
  0
LINE
  8
0
 10
29.4133
 20
249.8304
 11
29.4681
 21
250.0339
  0
LINE
  8
0
 10
29.4681
 20
250.0339
 11
29.5466
 21
250.3306
  0
ARC
  8
0
 10
19.7379
 20
253.1536
 40
10.2068
 50
343.9442
 51
345.4877
  0
ARC
  8
0
 10
28.9661
 20
250.7649
 40
0.674463
 50
345.4869
 51
351.4942
  0
ARC
  8
0
 10
44.8507
 20
248.3895
 40
15.3868
 50
170.3889
 51
171.4949
  0
ARC
  8
0
 10
29.8467
 20
250.9302
 40
0.169218
 50
159.8275
 51
170.386
  0
ARC
  8
0
 10
29.9393
 20
250.8962
 40
0.267861
 50
145.8604
 51
159.8314
  0
ARC
  8
0
 10
31.7357
 20
249.6781
 40
2.43826
 50
141.2389
 51
145.8593
  0
ARC
  8
0
 10
26.6537
 20
253.7584
 40
4.0791
 50
321.2397
 51
325.3634
  0
ARC
  8
0
 10
28.1922
 20
252.6956
 40
2.20914
 50
325.3619
 51
330.9665
  0
LINE
  8
0
 10
30.1238
 20
251.6235
 11
30.3961
 21
252.1141
  0
LINE
  8
0
 10
30.3961
 20
252.1141
 11
30.6655
 21
252.5715
  0
ARC
  8
0
 10
34.839
 20
250.6818
 40
4.58143
 50
153.0182
 51
155.64
  0
ARC
  8
0
 10
31.8519
 20
252.2025
 40
1.22946
 50
147.9544
 51
153.0167
  0
ARC
  8
0
 10
30.984
 20
252.7459
 40
0.205482
 50
128.9292
 51
147.957
  0
ARC
  8
0
 10
30.8869
 20
252.866
 40
0.0510396
 50
90.187
 51
128.9262
  0
ARC
  8
0
 10
30.887
 20
252.8444
 40
0.0726502
 50
50.2343
 51
90.1892
  0
ARC
  8
0
 10
30.7718
 20
252.706
 40
0.252721
 50
29.1235
 51
50.2332
  0
ARC
  8
0
 10
30.1115
 20
252.3381
 40
1.00855
 50
17.4539
 51
29.1231
  0
ARC
  8
0
 10
29.6621
 20
252.1968
 40
1.47966
 50
7.8269
 51
17.4557
  0
ARC
  8
0
 10
16.4128
 20
250.3756
 40
14.8535
 50
6.3676
 51
7.8265
  0
ARC
  8
0
 10
29.0814
 20
251.7895
 40
2.10632
 50
2.4913
 51
6.366
  0
ARC
  8
0
 10
16.4696
 20
251.6967
 40
14.7173
 50
359.9997
 51
360.7177
  0
ARC
  8
0
 10
26.7836
 20
251.833
 40
4.40543
 50
355.0265
 51
358.2258
  0
ARC
  8
0
 10
25.5467
 20
251.9407
 40
5.64701
 50
351.9213
 51
355.0259
  0
ARC
  8
0
 10
29.6503
 20
251.3582
 40
1.50224
 50
345.9011
 51
351.9225
  0
LINE
  8
0
 10
31.1073
 20
250.9922
 11
30.9889
 21
250.5208
  0
ARC
  8
0
 10
26.6234
 20
251.6173
 40
4.5011
 50
342.2733
 51
345.9003
  0
ARC
  8
0
 10
30.6095
 20
250.3432
 40
0.316233
 50
328.5593
 51
342.2731
  0
LINE
  8
0
 10
30.8793
 20
250.1782
 11
30.7839
 21
250.0221
  0
ARC
  8
0
 10
30.8337
 20
249.9916
 40
0.0583798
 50
148.551
 51
171.7909
  0
ARC
  8
0
 10
36.3617
 20
249.195
 40
5.64352
 50
171.8
 51
174.1476
  0
ARC
  8
0
 10
31.9207
 20
249.6502
 40
1.17918
 50
174.1459
 51
179.9991
  0
ARC
  8
0
 10
31.4915
 20
249.6502
 40
0.750053
 50
180.0012
 51
187.342
  0
ARC
  8
0
 10
31.2893
 20
249.6241
 40
0.546139
 50
187.3392
 51
196.9493
  0
ARC
  8
0
 10
31.9033
 20
249.8113
 40
1.18801
 50
196.9521
 51
203.4638
  0
ARC
  8
0
 10
32.223
 20
249.95
 40
1.53658
 50
203.4616
 51
208.5421
  0
ARC
  8
0
 10
31.1857
 20
249.3859
 40
0.355806
 50
208.5456
 51
219.1152
  0
LINE
  8
0
 10
30.9097
 20
249.1614
 11
31.2708
 21
248.8343
  0
LINE
  8
0
 10
31.2708
 20
248.8343
 11
31.7311
 21
248.4118
  0
ARC
  8
0
 10
33.4255
 20
250.2574
 40
2.50546
 50
227.4478
 51
231.0893
  0
ARC
  8
0
 10
37.0655
 20
254.7669
 40
8.30069
 50
231.0895
 51
233.09
  0
ARC
  8
0
 10
28.6441
 20
243.5549
 40
5.72172
 50
52.0602
 51
53.089
  0
ARC
  8
0
 10
30.4434
 20
245.8628
 40
2.79532
 50
50.5905
 51
52.0623
  0
ARC
  8
0
 10
31.6453
 20
247.3255
 40
0.90209
 50
41.7788
 51
50.5892
  0
ARC
  8
0
 10
31.9354
 20
247.5847
 40
0.513102
 50
30.0885
 51
41.7792
  0
ARC
  8
0
 10
31.5222
 20
247.3453
 40
0.990702
 50
24.9248
 51
30.0873
  0
ARC
  8
0
 10
31.1144
 20
247.1557
 40
1.44035
 50
20.6454
 51
24.9265
  0
ARC
  8
0
 10
27.1272
 20
245.6535
 40
5.70116
 50
18.485
 51
20.6443
  0
ARC
  8
0
 10
32.2244
 20
247.3576
 40
0.326667
 50
9.4571
 51
18.487
  0
ARC
  8
0
 10
32.1652
 20
247.3585
 40
0.385054
 50
0.0006
 51
7.8774
  0
ARC
  8
0
 10
30.7461
 20
247.4082
 40
1.80482
 50
354.1191
 51
358.4212
  0
ARC
  8
0
 10
34.5641
 20
247.0149
 40
2.0334
 50
174.1192
 51
178.21
  0
ARC
  8
0
 10
32.7964
 20
247.0784
 40
0.264652
 50
180.0002
 51
189.7069
  0
LINE
  8
0
 10
32.5355
 20
247.0338
 11
32.571
 21
246.8592
  0
ARC
  8
0
 10
32.2365
 20
246.7911
 40
0.341435
 50
0.002
 51
11.4985
  0
ARC
  8
0
 10
30.7088
 20
246.7911
 40
1.8691
 50
355.0923
 51
359.9992
  0
ARC
  8
0
 10
48.7435
 20
245.2425
 40
16.232
 50
175.0919
 51
175.5317
  0
ARC
  8
0
 10
37.0294
 20
246.1582
 40
4.48214
 50
175.5353
 51
176.3719
  0
ARC
  8
0
 10
36.0895
 20
246.4419
 40
3.53324
 50
180.0016
 51
182.2771
  0
ARC
  8
0
 10
32.8106
 20
246.3275
 40
0.252931
 50
185.9035
 51
203.3714
  0
LINE
  8
0
 10
32.5784
 20
246.2272
 11
32.6539
 21
246.0525
  0
ARC
  8
0
 10
32.6172
 20
246.0411
 40
0.0384211
 50
0.0103
 51
17.3047
  0
ARC
  8
0
 10
22.8743
 20
247.083
 40
9.83673
 50
352.5198
 51
353.9201
  0
ARC
  8
0
 10
32.1087
 20
245.8705
 40
0.523069
 50
345.1729
 51
352.5196
  0
ARC
  8
0
 10
32.1619
 20
245.8564
 40
0.468
 50
337.4067
 51
345.1742
  0
ARC
  8
0
 10
32.4638
 20
245.7308
 40
0.140986
 50
314.5633
 51
337.4067
  0
ARC
  8
0
 10
32.5528
 20
245.6404
 40
0.0141638
 50
237.2284
 51
314.5624
  0
LINE
  8
0
 10
32.5451
 20
245.6285
 11
32.5451
 21
245.6285
  0
LINE
  8
0
 10
35.8713
 20
258.0299
 11
35.8713
 21
258.323
  0
LINE
  8
0
 10
35.8713
 20
258.323
 11
35.1061
 21
258.323
  0
ARC
  8
0
 10
41.6207
 20
255.5245
 40
7.09022
 50
155.6405
 51
156.7529
  0
ARC
  8
0
 10
36.7707
 20
257.7205
 40
1.76625
 50
153.4134
 51
155.6424
  0
ARC
  8
0
 10
36.8644
 20
257.6735
 40
1.87109
 50
149.5322
 51
153.4099
  0
ARC
  8
0
 10
37.5411
 20
257.2756
 40
2.65608
 50
146.2819
 51
149.5363
  0
ARC
  8
0
 10
37.6993
 20
257.1698
 40
2.84641
 50
142.0042
 51
146.2799
  0
ARC
  8
0
 10
36.2588
 20
258.2951
 40
1.01846
 50
134.8536
 51
142.0046
  0
LINE
  8
0
 10
35.5405
 20
259.0171
 11
35.6855
 21
259.1614
  0
ARC
  8
0
 10
34.8649
 20
259.9864
 40
1.16361
 50
314.8504
 51
317.5417
  0
ARC
  8
0
 10
35.2711
 20
259.6146
 40
0.612999
 50
317.5493
 51
321.2575
  0
ARC
  8
0
 10
35.3206
 20
259.5749
 40
0.549438
 50
321.2542
 51
328.9887
  0
ARC
  8
0
 10
35.3017
 20
259.5863
 40
0.571596
 50
328.9861
 51
336.5694
  0
ARC
  8
0
 10
35.3091
 20
259.5831
 40
0.563494
 50
336.5724
 51
342.4004
  0
ARC
  8
0
 10
35.3434
 20
259.5722
 40
0.527548
 50
342.3975
 51
348.4207
  0
ARC
  8
0
 10
35.3396
 20
259.573
 40
0.531387
 50
348.4235
 51
354.4739
  0
ARC
  8
0
 10
35.2339
 20
259.5811
 40
0.637372
 50
354.6657
 51
359.9987
  0
ARC
  8
0
 10
35.2632
 20
259.579
 40
0.608042
 50
0.1953
 51
11.0506
  0
ARC
  8
0
 10
35.3146
 20
259.589
 40
0.555661
 50
11.0489
 51
22.4065
  0
ARC
  8
0
 10
35.3209
 20
259.5916
 40
0.548907
 50
22.4079
 51
34.0078
  0
ARC
  8
0
 10
35.3082
 20
259.5831
 40
0.564173
 50
34.0071
 51
45.4486
  0
ARC
  8
0
 10
35.3039
 20
259.5787
 40
0.570302
 50
45.4496
 51
56.6765
  0
ARC
  8
0
 10
35.2876
 20
259.5538
 40
0.600078
 50
56.6756
 51
67.6192
  0
ARC
  8
0
 10
35.2895
 20
259.5585
 40
0.594961
 50
67.6208
 51
78.5782
  0
ARC
  8
0
 10
35.301
 20
259.6156
 40
0.536748
 50
78.5753
 51
90.1138
  0
ARC
  8
0
 10
35.3011
 20
259.616
 40
0.536379
 50
90.1168
 51
101.5399
  0
ARC
  8
0
 10
35.313
 20
259.5574
 40
0.596134
 50
101.5372
 51
112.3708
  0
ARC
  8
0
 10
35.3151
 20
259.5525
 40
0.601492
 50
112.3742
 51
123.3262
  0
ARC
  8
0
 10
35.2948
 20
259.5833
 40
0.564589
 50
123.3222
 51
134.6273
  0
ARC
  8
0
 10
35.2954
 20
259.5826
 40
0.565532
 50
134.6305
 51
146.0516
  0
ARC
  8
0
 10
35.3174
 20
259.5678
 40
0.592076
 50
146.0492
 51
157.2106
  0
ARC
  8
0
 10
35.311
 20
259.5705
 40
0.585098
 50
157.2083
 51
163.2606
  0
ARC
  8
0
 10
35.1021
 20
259.6334
 40
0.366959
 50
163.2682
 51
170.9127
  0
ARC
  8
0
 10
35.314
 20
259.5994
 40
0.581565
 50
170.907
 51
175.0121
  0
ARC
  8
0
 10
36.327
 20
259.5111
 40
1.59839
 50
175.0145
 51
177.4905
  0
LINE
  8
0
 10
34.7302
 20
259.581
 11
35.0239
 21
259.581
  0
ARC
  8
0
 10
35.6618
 20
259.5737
 40
0.637867
 50
176.0793
 51
179.3395
  0
ARC
  8
0
 10
35.1802
 20
259.6067
 40
0.155149
 50
169.4735
 51
176.0885
  0
ARC
  8
0
 10
35.1922
 20
259.6045
 40
0.167335
 50
161.5714
 51
169.4731
  0
ARC
  8
0
 10
35.3177
 20
259.5626
 40
0.299699
 50
155.6581
 51
161.5606
  0
ARC
  8
0
 10
35.3713
 20
259.5384
 40
0.358537
 50
146.4166
 51
155.6609
  0
ARC
  8
0
 10
35.3052
 20
259.5823
 40
0.27914
 50
135.9404
 51
146.4204
  0
ARC
  8
0
 10
35.2994
 20
259.5879
 40
0.271096
 50
124.1104
 51
135.9343
  0
ARC
  8
0
 10
35.298
 20
259.59
 40
0.268569
 50
112.239
 51
124.1187
  0
ARC
  8
0
 10
35.2974
 20
259.5915
 40
0.266869
 50
100.9156
 51
112.2345
  0
ARC
  8
0
 10
35.2988
 20
259.584
 40
0.274567
 50
89.7576
 51
100.916
  0
ARC
  8
0
 10
35.2988
 20
259.5815
 40
0.277064
 50
78.3118
 51
89.7586
  0
ARC
  8
0
 10
35.2996
 20
259.5854
 40
0.273109
 50
66.7798
 51
78.3102
  0
ARC
  8
0
 10
35.2993
 20
259.5847
 40
0.273862
 50
55.7569
 51
66.7791
  0
ARC
  8
0
 10
35.2886
 20
259.5689
 40
0.292891
 50
45.102
 51
55.7599
  0
ARC
  8
0
 10
35.2906
 20
259.5709
 40
0.290066
 50
33.9102
 51
45.1041
  0
ARC
  8
0
 10
35.322
 20
259.5921
 40
0.252218
 50
21.8947
 51
33.9023
  0
ARC
  8
0
 10
35.318
 20
259.5905
 40
0.256542
 50
10.764
 51
21.8969
  0
ARC
  8
0
 10
35.2321
 20
259.5741
 40
0.344015
 50
1.1573
 51
10.7676
  0
ARC
  8
0
 10
35.0039
 20
259.5811
 40
0.572096
 50
356.5513
 51
359.996
  0
ARC
  8
0
 10
35.31
 20
259.568
 40
0.265799
 50
348.8704
 51
355.4039
  0
ARC
  8
0
 10
35.3203
 20
259.5659
 40
0.255338
 50
342.5178
 51
348.872
  0
ARC
  8
0
 10
35.3182
 20
259.5666
 40
0.25752
 50
336.1791
 51
342.5064
  0
ARC
  8
0
 10
35.3318
 20
259.5606
 40
0.242625
 50
329.3028
 51
336.1874
  0
ARC
  8
0
 10
35.3736
 20
259.5358
 40
0.194056
 50
321.5983
 51
329.2975
  0
ARC
  8
0
 10
35.3649
 20
259.5426
 40
0.205078
 50
317.1827
 51
321.609
  0
ARC
  8
0
 10
35.1241
 20
259.766
 40
0.53355
 50
314.4261
 51
317.17
  0
LINE
  8
0
 10
35.4976
 20
259.3849
 11
35.2719
 21
259.1637
  0
ARC
  8
0
 10
35.9097
 20
258.513
 40
0.911116
 50
134.4302
 51
144.6084
  0
ARC
  8
0
 10
37.891
 20
257.1055
 40
3.34151
 50
144.6094
 51
149.9191
  0
ARC
  8
0
 10
36.9223
 20
257.6666
 40
2.22209
 50
149.9187
 51
156.1916
  0
ARC
  8
0
 10
36.7462
 20
257.7443
 40
2.02961
 50
156.1917
 51
162.7556
  0
ARC
  8
0
 10
36.5345
 20
257.8099
 40
1.80797
 50
162.7538
 51
166.1833
  0
ARC
  8
0
 10
41.8588
 20
256.5008
 40
7.29084
 50
166.1858
 51
167.8934
  0
LINE
  8
0
 10
34.7302
 20
258.0299
 11
35.8713
 21
258.0299
  0
LINE
  8
0
 10
35.8713
 20
258.0299
 11
35.8713
 21
258.0299
  0
ENDSEC
  0
EOF