  0
SECTION
  2
HEADER
  9
$ACADVER
  1
AC1009
  0
ENDSEC
  0
SECTION
  2
TABLES
  0
TABLE
  2
STYLE
 70
   1
  0
STYLE
  2
STANDARD
 70
    64
 40
0.0
 41
1.0
 50
0.0
 71
     0
 42
1.0
  3
txt
  4

  0
ENDTAB
  0
ENDSEC
  0
SECTION
  2
ENTITIES
  0
ARC
  8
0
 10
1.5
 20
16.5
 40
1.5
 50
180
 51
270
  0
ARC
  8
0
 10
22.5
 20
16.5
 40
1.5
 50
270
 51
360
  0
ARC
  8
0
 10
22.5
 20
37.5
 40
1.5
 50
0
 51
90
  0
ARC
  8
0
 10
1.5
 20
37.5
 40
1.5
 50
90
 51
180
  0
POLYLINE
  8
0
 66
     1
 10
0
 20
0
  0
VERTEX
  8
0
 10
1.5
 20
15
  0
VERTEX
  8
0
 10
22.5
 20
15
  0
SEQEND
  0
POLYLINE
  8
0
 66
     1
 10
0
 20
0
  0
VERTEX
  8
0
 10
24
 20
16.5
  0
VERTEX
  8
0
 10
24
 20
37.5
  0
SEQEND
  0
POLYLINE
  8
0
 66
     1
 10
0
 20
0
  0
VERTEX
  8
0
 10
22.5
 20
39
  0
VERTEX
  8
0
 10
1.5
 20
39
  0
SEQEND
  0
POLYLINE
  8
0
 66
     1
 10
0
 20
0
  0
VERTEX
  8
0
 10
0
 20
37.5
  0
VERTEX
  8
0
 10
0
 20
16.5
  0
SEQEND
  0
ARC
  8
0
 10
1.5
 20
16.5
 40
1.5
 50
180
 51
270
  0
ARC
  8
0
 10
1.5
 20
16.5
 40
1
 50
180
 51
270
  0
ARC
  8
0
 10
22.5
 20
16.5
 40
1.5
 50
270
 51
360
  0
ARC
  8
0
 10
22.5
 20
16.5
 40
1
 50
270
 51
360
  0
ARC
  8
0
 10
22.5
 20
37.5
 40
1.5
 50
0
 51
90
  0
ARC
  8
0
 10
22.5
 20
37.5
 40
1
 50
0
 51
90
  0
ARC
  8
0
 10
1.5
 20
37.5
 40
1.5
 50
90
 51
180
  0
ARC
  8
0
 10
1.5
 20
37.5
 40
1
 50
90
 51
180
  0
POLYLINE
  8
0
 66
     1
 10
0
 20
0
  0
VERTEX
  8
0
 10
1.5
 20
15.5
  0
VERTEX
  8
0
 10
22.5
 20
15.5
  0
SEQEND
  0
POLYLINE
  8
0
 66
     1
 10
0
 20
0
  0
VERTEX
  8
0
 10
22.5
 20
15
  0
VERTEX
  8
0
 10
1.5
 20
15
  0
SEQEND
  0
POLYLINE
  8
0
 66
     1
 10
0
 20
0
  0
VERTEX
  8
0
 10
23.5
 20
16.5
  0
VERTEX
  8
0
 10
23.5
 20
37.5
  0
SEQEND
  0
POLYLINE
  8
0
 66
     1
 10
0
 20
0
  0
VERTEX
  8
0
 10
24
 20
37.5
  0
VERTEX
  8
0
 10
24
 20
16.5
  0
SEQEND
  0
POLYLINE
  8
0
 66
     1
 10
0
 20
0
  0
VERTEX
  8
0
 10
22.5
 20
38.5
  0
VERTEX
  8
0
 10
1.5
 20
38.5
  0
SEQEND
  0
POLYLINE
  8
0
 66
     1
 10
0
 20
0
  0
VERTEX
  8
0
 10
1.5
 20
39
  0
VERTEX
  8
0
 10
22.5
 20
39
  0
SEQEND
  0
POLYLINE
  8
0
 66
     1
 10
0
 20
0
  0
VERTEX
  8
0
 10
0.5
 20
37.5
  0
VERTEX
  8
0
 10
0.5
 20
16.5
  0
SEQEND
  0
POLYLINE
  8
0
 66
     1
 10
0
 20
0
  0
VERTEX
  8
0
 10
0
 20
16.5
  0
VERTEX
  8
0
 10
0
 20
37.5
  0
SEQEND
  0
POLYLINE
  8
0
 66
     1
 10
0
 20
0
  0
VERTEX
  8
0
 10
26.6315
 20
33.2547
  0
VERTEX
  8
0
 10
26.618
 20
33.4001
  0
VERTEX
  8
0
 10
26.6707
 20
33.4224
  0
VERTEX
  8
0
 10
26.7158
 20
33.4707
  0
VERTEX
  8
0
 10
26.7328
 20
33.5072
  0
VERTEX
  8
0
 10
26.7432
 20
33.5571
  0
VERTEX
  8
0
 10
26.747
 20
33.6204
  0
VERTEX
  8
0
 10
26.7394
 20
33.6849
  0
VERTEX
  8
0
 10
26.715
 20
33.7423
  0
VERTEX
  8
0
 10
26.6917
 20
33.7741
  0
VERTEX
  8
0
 10
26.6624
 20
33.8027
  0
VERTEX
  8
0
 10
26.627
 20
33.8281
  0
VERTEX
  8
0
 10
26.5856
 20
33.8503
  0
VERTEX
  8
0
 10
26.5381
 20
33.8694
  0
VERTEX
  8
0
 10
26.4846
 20
33.8852
  0
VERTEX
  8
0
 10
26.3934
 20
33.9022
  0
VERTEX
  8
0
 10
26.2989
 20
33.9079
  0
VERTEX
  8
0
 10
26.2829
 20
33.9077
  0
VERTEX
  8
0
 10
26.2685
 20
33.9071
  0
VERTEX
  8
0
 10
26.3025
 20
33.8834
  0
VERTEX
  8
0
 10
26.3324
 20
33.8574
  0
VERTEX
  8
0
 10
26.3584
 20
33.8292
  0
VERTEX
  8
0
 10
26.3805
 20
33.7987
  0
VERTEX
  8
0
 10
26.3985
 20
33.766
  0
VERTEX
  8
0
 10
26.4126
 20
33.7311
  0
VERTEX
  8
0
 10
26.4227
 20
33.6939
  0
VERTEX
  8
0
 10
26.4289
 20
33.6545
  0
VERTEX
  8
0
 10
26.431
 20
33.6128
  0
VERTEX
  8
0
 10
26.4279
 20
33.5593
  0
VERTEX
  8
0
 10
26.418
 20
33.5094
  0
VERTEX
  8
0
 10
26.4012
 20
33.4629
  0
VERTEX
  8
0
 10
26.3777
 20
33.42
  0
VERTEX
  8
0
 10
26.3473
 20
33.3805
  0
VERTEX
  8
0
 10
26.3101
 20
33.3446
  0
VERTEX
  8
0
 10
26.2617
 20
33.3098
  0
VERTEX
  8
0
 10
26.209
 20
33.2827
  0
VERTEX
  8
0
 10
26.1521
 20
33.2634
  0
VERTEX
  8
0
 10
26.0908
 20
33.2518
  0
VERTEX
  8
0
 10
26.0253
 20
33.2479
  0
VERTEX
  8
0
 10
25.9643
 20
33.251
  0
VERTEX
  8
0
 10
25.9075
 20
33.2602
  0
VERTEX
  8
0
 10
25.8548
 20
33.2755
  0
VERTEX
  8
0
 10
25.8064
 20
33.297
  0
VERTEX
  8
0
 10
25.7621
 20
33.3245
  0
VERTEX
  8
0
 10
25.722
 20
33.3583
  0
VERTEX
  8
0
 10
25.6871
 20
33.3966
  0
VERTEX
  8
0
 10
25.6585
 20
33.4382
  0
VERTEX
  8
0
 10
25.6362
 20
33.4829
  0
VERTEX
  8
0
 10
25.6202
 20
33.5308
  0
VERTEX
  8
0
 10
25.6105
 20
33.5819
  0
VERTEX
  8
0
 10
25.607
 20
33.6362
  0
VERTEX
  8
0
 10
25.6141
 20
33.7165
  0
VERTEX
  8
0
 10
25.6363
 20
33.7909
  0
VERTEX
  8
0
 10
25.6737
 20
33.8595
  0
VERTEX
  8
0
 10
25.7242
 20
33.9197
  0
VERTEX
  8
0
 10
25.7855
 20
33.9691
  0
VERTEX
  8
0
 10
25.8578
 20
34.0077
  0
VERTEX
  8
0
 10
25.9103
 20
34.0265
  0
VERTEX
  8
0
 10
25.9714
 20
34.0411
  0
VERTEX
  8
0
 10
26.041
 20
34.0516
  0
VERTEX
  8
0
 10
26.1191
 20
34.0578
  0
VERTEX
  8
0
 10
26.2056
 20
34.0599
  0
VERTEX
  8
0
 10
26.2541
 20
34.0593
  0
VERTEX
  8
0
 10
26.3007
 20
34.0574
  0
VERTEX
  8
0
 10
26.3455
 20
34.0542
  0
VERTEX
  8
0
 10
26.3884
 20
34.0498
  0
VERTEX
  8
0
 10
26.4295
 20
34.0441
  0
VERTEX
  8
0
 10
26.4688
 20
34.0372
  0
VERTEX
  8
0
 10
26.5063
 20
34.029
  0
VERTEX
  8
0
 10
26.5419
 20
34.0195
  0
VERTEX
  8
0
 10
26.5757
 20
34.0087
  0
VERTEX
  8
0
 10
26.6077
 20
33.9967
  0
VERTEX
  8
0
 10
26.6378
 20
33.9835
  0
VERTEX
  8
0
 10
26.6661
 20
33.9689
  0
VERTEX
  8
0
 10
26.6926
 20
33.9532
  0
VERTEX
  8
0
 10
26.7173
 20
33.9361
  0
VERTEX
  8
0
 10
26.7401
 20
33.9178
  0
VERTEX
  8
0
 10
26.7611
 20
33.8982
  0
VERTEX
  8
0
 10
26.7802
 20
33.8773
  0
VERTEX
  8
0
 10
26.7976
 20
33.8552
  0
VERTEX
  8
0
 10
26.8297
 20
33.8025
  0
VERTEX
  8
0
 10
26.8527
 20
33.7453
  0
VERTEX
  8
0
 10
26.8664
 20
33.6837
  0
VERTEX
  8
0
 10
26.871
 20
33.6177
  0
VERTEX
  8
0
 10
26.8692
 20
33.5616
  0
VERTEX
  8
0
 10
26.8638
 20
33.511
  0
VERTEX
  8
0
 10
26.8548
 20
33.4661
  0
VERTEX
  8
0
 10
26.8422
 20
33.4268
  0
VERTEX
  8
0
 10
26.8261
 20
33.3931
  0
VERTEX
  8
0
 10
26.8063
 20
33.365
  0
VERTEX
  8
0
 10
26.7635
 20
33.3208
  0
VERTEX
  8
0
 10
26.7201
 20
33.2877
  0
VERTEX
  8
0
 10
26.6761
 20
33.2657
  0
VERTEX
  8
0
 10
26.6315
 20
33.2547
  0
VERTEX
  8
0
 10
26.6315
 20
33.2547
  0
SEQEND
  0
POLYLINE
  8
0
 66
     1
 10
0
 20
0
  0
VERTEX
  8
0
 10
26.016
 20
33.8919
  0
VERTEX
  8
0
 10
25.9428
 20
33.8853
  0
VERTEX
  8
0
 10
25.8777
 20
33.8653
  0
VERTEX
  8
0
 10
25.8206
 20
33.8321
  0
VERTEX
  8
0
 10
25.7818
 20
33.7964
  0
VERTEX
  8
0
 10
25.7539
 20
33.755
  0
VERTEX
  8
0
 10
25.737
 20
33.7079
  0
VERTEX
  8
0
 10
25.731
 20
33.6551
  0
VERTEX
  8
0
 10
25.7345
 20
33.6113
  0
VERTEX
  8
0
 10
25.7457
 20
33.5708
  0
VERTEX
  8
0
 10
25.7644
 20
33.5337
  0
VERTEX
  8
0
 10
25.7908
 20
33.5
  0
VERTEX
  8
0
 10
25.8249
 20
33.4697
  0
VERTEX
  8
0
 10
25.8855
 20
33.4335
  0
VERTEX
  8
0
 10
25.9534
 20
33.4116
  0
VERTEX
  8
0
 10
26.0286
 20
33.4039
  0
VERTEX
  8
0
 10
26.1
 20
33.411
  0
VERTEX
  8
0
 10
26.1628
 20
33.4331
  0
VERTEX
  8
0
 10
26.2172
 20
33.4705
  0
VERTEX
  8
0
 10
26.2513
 20
33.5077
  0
VERTEX
  8
0
 10
26.2756
 20
33.5501
  0
VERTEX
  8
0
 10
26.2902
 20
33.5979
  0
VERTEX
  8
0
 10
26.295
 20
33.6509
  0
VERTEX
  8
0
 10
26.2898
 20
33.7058
  0
VERTEX
  8
0
 10
26.2743
 20
33.7543
  0
VERTEX
  8
0
 10
26.2484
 20
33.7964
  0
VERTEX
  8
0
 10
26.2121
 20
33.8321
  0
VERTEX
  8
0
 10
26.1562
 20
33.8653
  0
VERTEX
  8
0
 10
26.0908
 20
33.8853
  0
VERTEX
  8
0
 10
26.016
 20
33.8919
  0
VERTEX
  8
0
 10
26.016
 20
33.8919
  0
SEQEND
  0
POLYLINE
  8
0
 66
     1
 10
0
 20
0
  0
VERTEX
  8
0
 10
26.855
 20
34.2959
  0
VERTEX
  8
0
 10
26.679
 20
34.2959
  0
VERTEX
  8
0
 10
26.679
 20
34.4679
  0
VERTEX
  8
0
 10
26.855
 20
34.4679
  0
VERTEX
  8
0
 10
26.855
 20
34.2959
  0
SEQEND
  0
POLYLINE
  8
0
 66
     1
 10
0
 20
0
  0
VERTEX
  8
0
 10
26.5241
 20
34.6999
  0
VERTEX
  8
0
 10
26.504
 20
34.8525
  0
VERTEX
  8
0
 10
26.5374
 20
34.8601
  0
VERTEX
  8
0
 10
26.5683
 20
34.8691
  0
VERTEX
  8
0
 10
26.5967
 20
34.8797
  0
VERTEX
  8
0
 10
26.6227
 20
34.8918
  0
VERTEX
  8
0
 10
26.6462
 20
34.9054
  0
VERTEX
  8
0
 10
26.6672
 20
34.9205
  0
VERTEX
  8
0
 10
26.6858
 20
34.9371
  0
VERTEX
  8
0
 10
26.702
 20
34.9552
  0
VERTEX
  8
0
 10
26.7156
 20
34.9749
  0
VERTEX
  8
0
 10
26.7268
 20
34.996
  0
VERTEX
  8
0
 10
26.7356
 20
35.0187
  0
VERTEX
  8
0
 10
26.7418
 20
35.0429
  0
VERTEX
  8
0
 10
26.7457
 20
35.0686
  0
VERTEX
  8
0
 10
26.747
 20
35.0959
  0
VERTEX
  8
0
 10
26.7427
 20
35.1483
  0
VERTEX
  8
0
 10
26.729
 20
35.1961
  0
VERTEX
  8
0
 10
26.7058
 20
35.2394
  0
VERTEX
  8
0
 10
26.6731
 20
35.2781
  0
VERTEX
  8
0
 10
26.6196
 20
35.3187
  0
VERTEX
  8
0
 10
26.5586
 20
35.3433
  0
VERTEX
  8
0
 10
26.4902
 20
35.3519
  0
VERTEX
  8
0
 10
26.4249
 20
35.3447
  0
VERTEX
  8
0
 10
26.3677
 20
35.3217
  0
VERTEX
  8
0
 10
26.3186
 20
35.283
  0
VERTEX
  8
0
 10
26.2811
 20
35.2325
  0
VERTEX
  8
0
 10
26.2585
 20
35.1741
  0
VERTEX
  8
0
 10
26.251
 20
35.1077
  0
VERTEX
  8
0
 10
26.2546
 20
35.0577
  0
VERTEX
  8
0
 10
26.2651
 20
34.9996
  0
VERTEX
  8
0
 10
26.135
 20
35.0164
  0
VERTEX
  8
0
 10
26.135
 20
35.0267
  0
VERTEX
  8
0
 10
26.135
 20
35.0408
  0
VERTEX
  8
0
 10
26.1294
 20
35.1067
  0
VERTEX
  8
0
 10
26.1127
 20
35.1644
  0
VERTEX
  8
0
 10
26.0847
 20
35.2138
  0
VERTEX
  8
0
 10
26.0537
 20
35.2477
  0
VERTEX
  8
0
 10
26.017
 20
35.272
  0
VERTEX
  8
0
 10
25.9745
 20
35.2867
  0
VERTEX
  8
0
 10
25.9262
 20
35.2919
  0
VERTEX
  8
0
 10
25.8719
 20
35.286
  0
VERTEX
  8
0
 10
25.8251
 20
35.267
  0
VERTEX
  8
0
 10
25.7856
 20
35.2351
  0
VERTEX
  8
0
 10
25.7557
 20
35.1933
  0
VERTEX
  8
0
 10
25.7375
 20
35.1449
  0
VERTEX
  8
0
 10
25.731
 20
35.0898
  0
VERTEX
  8
0
 10
25.7321
 20
35.0618
  0
VERTEX
  8
0
 10
25.7359
 20
35.0356
  0
VERTEX
  8
0
 10
25.7424
 20
35.0113
  0
VERTEX
  8
0
 10
25.7516
 20
34.9887
  0
VERTEX
  8
0
 10
25.7635
 20
34.9679
  0
VERTEX
  8
0
 10
25.7781
 20
34.9489
  0
VERTEX
  8
0
 10
25.7955
 20
34.9318
  0
VERTEX
  8
0
 10
25.8155
 20
34.9164
  0
VERTEX
  8
0
 10
25.8382
 20
34.9029
  0
VERTEX
  8
0
 10
25.8636
 20
34.8911
  0
VERTEX
  8
0
 10
25.8918
 20
34.8812
  0
VERTEX
  8
0
 10
25.9226
 20
34.873
  0
VERTEX
  8
0
 10
25.9561
 20
34.8667
  0
VERTEX
  8
0
 10
25.929
 20
34.7151
  0
VERTEX
  8
0
 10
25.8581
 20
34.733
  0
VERTEX
  8
0
 10
25.7951
 20
34.7596
  0
VERTEX
  8
0
 10
25.7403
 20
34.7951
  0
VERTEX
  8
0
 10
25.6935
 20
34.8393
  0
VERTEX
  8
0
 10
25.656
 20
34.8913
  0
VERTEX
  8
0
 10
25.6291
 20
34.9498
  0
VERTEX
  8
0
 10
25.6128
 20
35.0149
  0
VERTEX
  8
0
 10
25.607
 20
35.0865
  0
VERTEX
  8
0
 10
25.6167
 20
35.1794
  0
VERTEX
  8
0
 10
25.6475
 20
35.266
  0
VERTEX
  8
0
 10
25.6994
 20
35.3447
  0
VERTEX
  8
0
 10
25.769
 20
35.4024
  0
VERTEX
  8
0
 10
25.8465
 20
35.4365
  0
VERTEX
  8
0
 10
25.9285
 20
35.4479
  0
VERTEX
  8
0
 10
25.9656
 20
35.4458
  0
VERTEX
  8
0
 10
26.0004
 20
35.4396
  0
VERTEX
  8
0
 10
26.0329
 20
35.4292
  0
VERTEX
  8
0
 10
26.063
 20
35.4146
  0
VERTEX
  8
0
 10
26.0909
 20
35.3958
  0
VERTEX
  8
0
 10
26.1164
 20
35.3729
  0
VERTEX
  8
0
 10
26.1396
 20
35.3458
  0
VERTEX
  8
0
 10
26.1605
 20
35.3145
  0
VERTEX
  8
0
 10
26.1791
 20
35.279
  0
VERTEX
  8
0
 10
26.2027
 20
35.3487
  0
VERTEX
  8
0
 10
26.2388
 20
35.4067
  0
VERTEX
  8
0
 10
26.2871
 20
35.4533
  0
VERTEX
  8
0
 10
26.3442
 20
35.4859
  0
VERTEX
  8
0
 10
26.4098
 20
35.5054
  0
VERTEX
  8
0
 10
26.4837
 20
35.5119
  0
VERTEX
  8
0
 10
26.5366
 20
35.5086
  0
VERTEX
  8
0
 10
26.5866
 20
35.4988
  0
VERTEX
  8
0
 10
26.6338
 20
35.4824
  0
VERTEX
  8
0
 10
26.6782
 20
35.4595
  0
VERTEX
  8
0
 10
26.7197
 20
35.43
  0
VERTEX
  8
0
 10
26.7584
 20
35.3939
  0
VERTEX
  8
0
 10
26.7925
 20
35.3528
  0
VERTEX
  8
0
 10
26.8206
 20
35.3082
  0
VERTEX
  8
0
 10
26.8424
 20
35.26
  0
VERTEX
  8
0
 10
26.8581
 20
35.2082
  0
VERTEX
  8
0
 10
26.8677
 20
35.1529
  0
VERTEX
  8
0
 10
26.871
 20
35.0941
  0
VERTEX
  8
0
 10
26.8673
 20
35.0316
  0
VERTEX
  8
0
 10
26.856
 20
34.9735
  0
VERTEX
  8
0
 10
26.8372
 20
34.9196
  0
VERTEX
  8
0
 10
26.8108
 20
34.87
  0
VERTEX
  8
0
 10
26.777
 20
34.8247
  0
VERTEX
  8
0
 10
26.7367
 20
34.7852
  0
VERTEX
  8
0
 10
26.6914
 20
34.753
  0
VERTEX
  8
0
 10
26.6408
 20
34.728
  0
VERTEX
  8
0
 10
26.5851
 20
34.7103
  0
VERTEX
  8
0
 10
26.5241
 20
34.6999
  0
VERTEX
  8
0
 10
26.5241
 20
34.6999
  0
SEQEND
  0
LINE
  8
0
 10
26.25
 20
35.8056
 11
26.25
 21
39
  0
LINE
  8
0
 10
26.5183
 20
38.4633
 11
26.25
 21
39
  0
LINE
  8
0
 10
25.9817
 20
38.4633
 11
26.25
 21
39
  0
LINE
  8
0
 10
26.55
 20
39
 11
24.75
 21
39
  0
LINE
  8
0
 10
26.25
 20
32.9438
 11
26.25
 21
29.7494
  0
LINE
  8
0
 10
25.9817
 20
30.286
 11
26.25
 21
29.7494
  0
LINE
  8
0
 10
26.5183
 20
30.286
 11
26.25
 21
29.7494
  0
LINE
  8
0
 10
26.55
 20
29.7494
 11
24.75
 21
29.7494
  0
POLYLINE
  8
0
 66
     1
 10
0
 20
0
  0
VERTEX
  8
0
 10
26.5268
 20
25.8719
  0
VERTEX
  8
0
 10
26.5133
 20
26.0316
  0
VERTEX
  8
0
 10
26.5455
 20
26.0375
  0
VERTEX
  8
0
 10
26.5753
 20
26.0452
  0
VERTEX
  8
0
 10
26.6028
 20
26.0545
  0
VERTEX
  8
0
 10
26.6278
 20
26.0656
  0
VERTEX
  8
0
 10
26.6504
 20
26.0783
  0
VERTEX
  8
0
 10
26.6707
 20
26.0928
  0
VERTEX
  8
0
 10
26.6886
 20
26.1089
  0
VERTEX
  8
0
 10
26.7041
 20
26.1268
  0
VERTEX
  8
0
 10
26.7172
 20
26.1464
  0
VERTEX
  8
0
 10
26.7279
 20
26.1677
  0
VERTEX
  8
0
 10
26.7363
 20
26.1907
  0
VERTEX
  8
0
 10
26.7423
 20
26.2154
  0
VERTEX
  8
0
 10
26.7458
 20
26.2418
  0
VERTEX
  8
0
 10
26.747
 20
26.2699
  0
VERTEX
  8
0
 10
26.7433
 20
26.3166
  0
VERTEX
  8
0
 10
26.7322
 20
26.3594
  0
VERTEX
  8
0
 10
26.7137
 20
26.3983
  0
VERTEX
  8
0
 10
26.6879
 20
26.4333
  0
VERTEX
  8
0
 10
26.6546
 20
26.4643
  0
VERTEX
  8
0
 10
26.5941
 20
26.5019
  0
VERTEX
  8
0
 10
26.5246
 20
26.5244
  0
VERTEX
  8
0
 10
26.4461
 20
26.5319
  0
VERTEX
  8
0
 10
26.3869
 20
26.5275
  0
VERTEX
  8
0
 10
26.3336
 20
26.5144
  0
VERTEX
  8
0
 10
26.2862
 20
26.4925
  0
VERTEX
  8
0
 10
26.2448
 20
26.4618
  0
VERTEX
  8
0
 10
26.2111
 20
26.4233
  0
VERTEX
  8
0
 10
26.1869
 20
26.3781
  0
VERTEX
  8
0
 10
26.1722
 20
26.3261
  0
VERTEX
  8
0
 10
26.167
 20
26.2674
  0
VERTEX
  8
0
 10
26.1701
 20
26.2208
  0
VERTEX
  8
0
 10
26.1797
 20
26.1777
  0
VERTEX
  8
0
 10
26.196
 20
26.1383
  0
VERTEX
  8
0
 10
26.2189
 20
26.1025
  0
VERTEX
  8
0
 10
26.2484
 20
26.0703
  0
VERTEX
  8
0
 10
26.2845
 20
26.0417
  0
VERTEX
  8
0
 10
26.266
 20
25.8989
  0
VERTEX
  8
0
 10
25.631
 20
26.0189
  0
VERTEX
  8
0
 10
25.631
 20
26.6343
  0
VERTEX
  8
0
 10
25.775
 20
26.6343
  0
VERTEX
  8
0
 10
25.775
 20
26.1424
  0
VERTEX
  8
0
 10
26.1084
 20
26.0753
  0
VERTEX
  8
0
 10
26.0658
 20
26.1505
  0
VERTEX
  8
0
 10
26.04
 20
26.2282
  0
VERTEX
  8
0
 10
26.031
 20
26.3083
  0
VERTEX
  8
0
 10
26.034
 20
26.3627
  0
VERTEX
  8
0
 10
26.0436
 20
26.4139
  0
VERTEX
  8
0
 10
26.0597
 20
26.4618
  0
VERTEX
  8
0
 10
26.0823
 20
26.5065
  0
VERTEX
  8
0
 10
26.1115
 20
26.5478
  0
VERTEX
  8
0
 10
26.1473
 20
26.5859
  0
VERTEX
  8
0
 10
26.1868
 20
26.6183
  0
VERTEX
  8
0
 10
26.2294
 20
26.6448
  0
VERTEX
  8
0
 10
26.2751
 20
26.6654
  0
VERTEX
  8
0
 10
26.324
 20
26.6801
  0
VERTEX
  8
0
 10
26.376
 20
26.689
  0
VERTEX
  8
0
 10
26.4312
 20
26.6919
  0
VERTEX
  8
0
 10
26.4962
 20
26.688
  0
VERTEX
  8
0
 10
26.5577
 20
26.6763
  0
VERTEX
  8
0
 10
26.6156
 20
26.6567
  0
VERTEX
  8
0
 10
26.6701
 20
26.6293
  0
VERTEX
  8
0
 10
26.721
 20
26.594
  0
VERTEX
  8
0
 10
26.756
 20
26.563
  0
VERTEX
  8
0
 10
26.7863
 20
26.5291
  0
VERTEX
  8
0
 10
26.812
 20
26.4926
  0
VERTEX
  8
0
 10
26.8331
 20
26.4534
  0
VERTEX
  8
0
 10
26.8495
 20
26.4114
  0
VERTEX
  8
0
 10
26.8613
 20
26.3668
  0
VERTEX
  8
0
 10
26.8685
 20
26.3194
  0
VERTEX
  8
0
 10
26.871
 20
26.2693
  0
VERTEX
  8
0
 10
26.8674
 20
26.2058
  0
VERTEX
  8
0
 10
26.8566
 20
26.1468
  0
VERTEX
  8
0
 10
26.8386
 20
26.0925
  0
VERTEX
  8
0
 10
26.8134
 20
26.0428
  0
VERTEX
  8
0
 10
26.781
 20
25.9976
  0
VERTEX
  8
0
 10
26.7412
 20
25.9575
  0
VERTEX
  8
0
 10
26.6959
 20
25.9248
  0
VERTEX
  8
0
 10
26.645
 20
25.8997
  0
VERTEX
  8
0
 10
26.5887
 20
25.8821
  0
VERTEX
  8
0
 10
26.5268
 20
25.8719
  0
VERTEX
  8
0
 10
26.5268
 20
25.8719
  0
SEQEND
  0
POLYLINE
  8
0
 66
     1
 10
0
 20
0
  0
VERTEX
  8
0
 10
26.855
 20
26.9239
  0
VERTEX
  8
0
 10
26.679
 20
26.9239
  0
VERTEX
  8
0
 10
26.679
 20
27.0959
  0
VERTEX
  8
0
 10
26.855
 20
27.0959
  0
VERTEX
  8
0
 10
26.855
 20
26.9239
  0
SEQEND
  0
POLYLINE
  8
0
 66
     1
 10
0
 20
0
  0
VERTEX
  8
0
 10
26.855
 20
27.8119
  0
VERTEX
  8
0
 10
26.555
 20
27.8119
  0
VERTEX
  8
0
 10
26.555
 20
27.2759
  0
VERTEX
  8
0
 10
26.415
 20
27.2759
  0
VERTEX
  8
0
 10
25.615
 20
27.8408
  0
VERTEX
  8
0
 10
25.615
 20
27.9639
  0
VERTEX
  8
0
 10
26.415
 20
27.9639
  0
VERTEX
  8
0
 10
26.415
 20
28.132
  0
VERTEX
  8
0
 10
26.555
 20
28.132
  0
VERTEX
  8
0
 10
26.555
 20
27.9639
  0
VERTEX
  8
0
 10
26.855
 20
27.9639
  0
VERTEX
  8
0
 10
26.855
 20
27.8119
  0
SEQEND
  0
POLYLINE
  8
0
 66
     1
 10
0
 20
0
  0
VERTEX
  8
0
 10
26.415
 20
27.8119
  0
VERTEX
  8
0
 10
25.864
 20
27.8119
  0
VERTEX
  8
0
 10
26.4154
 20
27.4275
  0
VERTEX
  8
0
 10
26.415
 20
27.8119
  0
SEQEND
  0
LINE
  8
0
 10
26.25
 20
28.4309
 11
26.25
 21
29.7494
  0
LINE
  8
0
 10
26.5183
 20
29.2127
 11
26.25
 21
29.7494
  0
LINE
  8
0
 10
25.9817
 20
29.2127
 11
26.25
 21
29.7494
  0
LINE
  8
0
 10
26.25
 20
25.5691
 11
26.25
 21
24.2506
  0
LINE
  8
0
 10
25.9817
 20
24.7873
 11
26.25
 21
24.2506
  0
LINE
  8
0
 10
26.5183
 20
24.7873
 11
26.25
 21
24.2506
  0
LINE
  8
0
 10
26.55
 20
24.2506
 11
24.75
 21
24.2506
  0
POLYLINE
  8
0
 66
     1
 10
0
 20
0
  0
VERTEX
  8
0
 10
1.407
 20
12.2999
  0
VERTEX
  8
0
 10
1.407
 20
12.1519
  0
VERTEX
  8
0
 10
0.591
 20
12.1519
  0
VERTEX
  8
0
 10
0.5933
 20
12.1956
  0
VERTEX
  8
0
 10
0.6026
 20
12.2399
  0
VERTEX
  8
0
 10
0.6187
 20
12.2849
  0
VERTEX
  8
0
 10
0.6417
 20
12.3305
  0
VERTEX
  8
0
 10
0.6716
 20
12.3768
  0
VERTEX
  8
0
 10
0.7083
 20
12.4238
  0
VERTEX
  8
0
 10
0.7616
 20
12.4818
  0
VERTEX
  8
0
 10
0.828
 20
12.5446
  0
VERTEX
  8
0
 10
0.9075
 20
12.6124
  0
VERTEX
  8
0
 10
0.9645
 20
12.6599
  0
VERTEX
  8
0
 10
1.0146
 20
12.7032
  0
VERTEX
  8
0
 10
1.0578
 20
12.7423
  0
VERTEX
  8
0
 10
1.0941
 20
12.7771
  0
VERTEX
  8
0
 10
1.1236
 20
12.8078
  0
VERTEX
  8
0
 10
1.1625
 20
12.8535
  0
VERTEX
  8
0
 10
1.1944
 20
12.8977
  0
VERTEX
  8
0
 10
1.2192
 20
12.9405
  0
VERTEX
  8
0
 10
1.2369
 20
12.9819
  0
VERTEX
  8
0
 10
1.2475
 20
13.0217
  0
VERTEX
  8
0
 10
1.251
 20
13.0601
  0
VERTEX
  8
0
 10
1.2433
 20
13.1206
  0
VERTEX
  8
0
 10
1.2203
 20
13.173
  0
VERTEX
  8
0
 10
1.1818
 20
13.2173
  0
VERTEX
  8
0
 10
1.1344
 20
13.2495
  0
VERTEX
  8
0
 10
1.0798
 20
13.269
  0
VERTEX
  8
0
 10
1.0181
 20
13.2759
  0
VERTEX
  8
0
 10
0.9646
 20
13.272
  0
VERTEX
  8
0
 10
0.9172
 20
13.2595
  0
VERTEX
  8
0
 10
0.876
 20
13.2383
  0
VERTEX
  8
0
 10
0.8409
 20
13.2084
  0
VERTEX
  8
0
 10
0.8051
 20
13.1576
  0
VERTEX
  8
0
 10
0.7835
 20
13.0963
  0
VERTEX
  8
0
 10
0.7759
 20
13.0246
  0
VERTEX
  8
0
 10
0.6198
 20
13.0407
  0
VERTEX
  8
0
 10
0.6273
 20
13.0966
  0
VERTEX
  8
0
 10
0.6399
 20
13.1479
  0
VERTEX
  8
0
 10
0.6575
 20
13.1947
  0
VERTEX
  8
0
 10
0.6801
 20
13.2369
  0
VERTEX
  8
0
 10
0.7078
 20
13.2745
  0
VERTEX
  8
0
 10
0.7404
 20
13.3076
  0
VERTEX
  8
0
 10
0.7854
 20
13.3408
  0
VERTEX
  8
0
 10
0.836
 20
13.3667
  0
VERTEX
  8
0
 10
0.8922
 20
13.3851
  0
VERTEX
  8
0
 10
0.954
 20
13.3962
  0
VERTEX
  8
0
 10
1.0214
 20
13.3999
  0
VERTEX
  8
0
 10
1.0846
 20
13.3964
  0
VERTEX
  8
0
 10
1.1433
 20
13.3857
  0
VERTEX
  8
0
 10
1.1975
 20
13.3679
  0
VERTEX
  8
0
 10
1.2471
 20
13.343
  0
VERTEX
  8
0
 10
1.2923
 20
13.311
  0
VERTEX
  8
0
 10
1.3273
 20
13.2775
  0
VERTEX
  8
0
 10
1.356
 20
13.2404
  0
VERTEX
  8
0
 10
1.3783
 20
13.1997
  0
VERTEX
  8
0
 10
1.3943
 20
13.1552
  0
VERTEX
  8
0
 10
1.4038
 20
13.1071
  0
VERTEX
  8
0
 10
1.407
 20
13.0553
  0
VERTEX
  8
0
 10
1.4034
 20
13.0059
  0
VERTEX
  8
0
 10
1.3924
 20
12.9563
  0
VERTEX
  8
0
 10
1.3741
 20
12.9067
  0
VERTEX
  8
0
 10
1.3485
 20
12.8569
  0
VERTEX
  8
0
 10
1.3156
 20
12.8071
  0
VERTEX
  8
0
 10
1.2754
 20
12.7572
  0
VERTEX
  8
0
 10
1.2428
 20
12.7222
  0
VERTEX
  8
0
 10
1.2032
 20
12.6828
  0
VERTEX
  8
0
 10
1.1564
 20
12.6391
  0
VERTEX
  8
0
 10
1.1026
 20
12.5911
  0
VERTEX
  8
0
 10
1.0417
 20
12.5387
  0
VERTEX
  8
0
 10
1.0014
 20
12.5048
  0
VERTEX
  8
0
 10
0.9684
 20
12.4767
  0
VERTEX
  8
0
 10
0.9426
 20
12.4545
  0
VERTEX
  8
0
 10
0.924
 20
12.4382
  0
VERTEX
  8
0
 10
0.9126
 20
12.4278
  0
VERTEX
  8
0
 10
0.8495
 20
12.3628
  0
VERTEX
  8
0
 10
0.8021
 20
12.2999
  0
VERTEX
  8
0
 10
1.407
 20
12.2999
  0
SEQEND
  0
LINE
  8
0
 10
2
 20
12.45
 11
2
 21
14.25
  0
LINE
  8
0
 10
0
 20
12.45
 11
0
 21
14.25
  0
POLYLINE
  8
0
 66
     1
 10
0
 20
0
  0
VERTEX
  8
0
 10
11.923
 20
12.2999
  0
VERTEX
  8
0
 10
11.923
 20
12.1519
  0
VERTEX
  8
0
 10
11.107
 20
12.1519
  0
VERTEX
  8
0
 10
11.1093
 20
12.1956
  0
VERTEX
  8
0
 10
11.1186
 20
12.2399
  0
VERTEX
  8
0
 10
11.1347
 20
12.2849
  0
VERTEX
  8
0
 10
11.1577
 20
12.3305
  0
VERTEX
  8
0
 10
11.1876
 20
12.3768
  0
VERTEX
  8
0
 10
11.2243
 20
12.4238
  0
VERTEX
  8
0
 10
11.2776
 20
12.4818
  0
VERTEX
  8
0
 10
11.344
 20
12.5446
  0
VERTEX
  8
0
 10
11.4235
 20
12.6124
  0
VERTEX
  8
0
 10
11.4805
 20
12.6599
  0
VERTEX
  8
0
 10
11.5306
 20
12.7032
  0
VERTEX
  8
0
 10
11.5738
 20
12.7423
  0
VERTEX
  8
0
 10
11.6101
 20
12.7771
  0
VERTEX
  8
0
 10
11.6396
 20
12.8078
  0
VERTEX
  8
0
 10
11.6785
 20
12.8535
  0
VERTEX
  8
0
 10
11.7104
 20
12.8977
  0
VERTEX
  8
0
 10
11.7352
 20
12.9405
  0
VERTEX
  8
0
 10
11.7529
 20
12.9819
  0
VERTEX
  8
0
 10
11.7635
 20
13.0217
  0
VERTEX
  8
0
 10
11.767
 20
13.0601
  0
VERTEX
  8
0
 10
11.7593
 20
13.1206
  0
VERTEX
  8
0
 10
11.7363
 20
13.173
  0
VERTEX
  8
0
 10
11.6978
 20
13.2173
  0
VERTEX
  8
0
 10
11.6504
 20
13.2495
  0
VERTEX
  8
0
 10
11.5958
 20
13.269
  0
VERTEX
  8
0
 10
11.5341
 20
13.2759
  0
VERTEX
  8
0
 10
11.4806
 20
13.272
  0
VERTEX
  8
0
 10
11.4332
 20
13.2595
  0
VERTEX
  8
0
 10
11.392
 20
13.2383
  0
VERTEX
  8
0
 10
11.3569
 20
13.2084
  0
VERTEX
  8
0
 10
11.3211
 20
13.1576
  0
VERTEX
  8
0
 10
11.2995
 20
13.0963
  0
VERTEX
  8
0
 10
11.2919
 20
13.0246
  0
VERTEX
  8
0
 10
11.1358
 20
13.0407
  0
VERTEX
  8
0
 10
11.1433
 20
13.0966
  0
VERTEX
  8
0
 10
11.1559
 20
13.1479
  0
VERTEX
  8
0
 10
11.1735
 20
13.1947
  0
VERTEX
  8
0
 10
11.1961
 20
13.2369
  0
VERTEX
  8
0
 10
11.2238
 20
13.2745
  0
VERTEX
  8
0
 10
11.2564
 20
13.3076
  0
VERTEX
  8
0
 10
11.3014
 20
13.3408
  0
VERTEX
  8
0
 10
11.352
 20
13.3667
  0
VERTEX
  8
0
 10
11.4082
 20
13.3851
  0
VERTEX
  8
0
 10
11.47
 20
13.3962
  0
VERTEX
  8
0
 10
11.5374
 20
13.3999
  0
VERTEX
  8
0
 10
11.6006
 20
13.3964
  0
VERTEX
  8
0
 10
11.6593
 20
13.3857
  0
VERTEX
  8
0
 10
11.7135
 20
13.3679
  0
VERTEX
  8
0
 10
11.7631
 20
13.343
  0
VERTEX
  8
0
 10
11.8083
 20
13.311
  0
VERTEX
  8
0
 10
11.8433
 20
13.2775
  0
VERTEX
  8
0
 10
11.872
 20
13.2404
  0
VERTEX
  8
0
 10
11.8943
 20
13.1997
  0
VERTEX
  8
0
 10
11.9103
 20
13.1552
  0
VERTEX
  8
0
 10
11.9198
 20
13.1071
  0
VERTEX
  8
0
 10
11.923
 20
13.0553
  0
VERTEX
  8
0
 10
11.9194
 20
13.0059
  0
VERTEX
  8
0
 10
11.9084
 20
12.9563
  0
VERTEX
  8
0
 10
11.8901
 20
12.9067
  0
VERTEX
  8
0
 10
11.8645
 20
12.8569
  0
VERTEX
  8
0
 10
11.8316
 20
12.8071
  0
VERTEX
  8
0
 10
11.7914
 20
12.7572
  0
VERTEX
  8
0
 10
11.7588
 20
12.7222
  0
VERTEX
  8
0
 10
11.7192
 20
12.6828
  0
VERTEX
  8
0
 10
11.6724
 20
12.6391
  0
VERTEX
  8
0
 10
11.6186
 20
12.5911
  0
VERTEX
  8
0
 10
11.5577
 20
12.5387
  0
VERTEX
  8
0
 10
11.5174
 20
12.5048
  0
VERTEX
  8
0
 10
11.4844
 20
12.4767
  0
VERTEX
  8
0
 10
11.4586
 20
12.4545
  0
VERTEX
  8
0
 10
11.44
 20
12.4382
  0
VERTEX
  8
0
 10
11.4286
 20
12.4278
  0
VERTEX
  8
0
 10
11.3655
 20
12.3628
  0
VERTEX
  8
0
 10
11.3181
 20
12.2999
  0
VERTEX
  8
0
 10
11.923
 20
12.2999
  0
SEQEND
  0
POLYLINE
  8
0
 66
     1
 10
0
 20
0
  0
VERTEX
  8
0
 10
12.087
 20
12.7675
  0
VERTEX
  8
0
 10
12.0877
 20
12.8181
  0
VERTEX
  8
0
 10
12.0898
 20
12.8665
  0
VERTEX
  8
0
 10
12.0933
 20
12.913
  0
VERTEX
  8
0
 10
12.0982
 20
12.9573
  0
VERTEX
  8
0
 10
12.1045
 20
12.9996
  0
VERTEX
  8
0
 10
12.1122
 20
13.0397
  0
VERTEX
  8
0
 10
12.1213
 20
13.0778
  0
VERTEX
  8
0
 10
12.1318
 20
13.1139
  0
VERTEX
  8
0
 10
12.1437
 20
13.1478
  0
VERTEX
  8
0
 10
12.157
 20
13.1797
  0
VERTEX
  8
0
 10
12.1717
 20
13.2095
  0
VERTEX
  8
0
 10
12.1878
 20
13.2372
  0
VERTEX
  8
0
 10
12.2053
 20
13.2628
  0
VERTEX
  8
0
 10
12.2242
 20
13.2864
  0
VERTEX
  8
0
 10
12.2445
 20
13.3079
  0
VERTEX
  8
0
 10
12.2662
 20
13.3273
  0
VERTEX
  8
0
 10
12.3132
 20
13.3587
  0
VERTEX
  8
0
 10
12.3664
 20
13.3813
  0
VERTEX
  8
0
 10
12.4256
 20
13.3951
  0
VERTEX
  8
0
 10
12.491
 20
13.3999
  0
VERTEX
  8
0
 10
12.5834
 20
13.3902
  0
VERTEX
  8
0
 10
12.666
 20
13.3594
  0
VERTEX
  8
0
 10
12.7002
 20
13.3383
  0
VERTEX
  8
0
 10
12.7318
 20
13.3125
  0
VERTEX
  8
0
 10
12.7608
 20
13.282
  0
VERTEX
  8
0
 10
12.7873
 20
13.2469
  0
VERTEX
  8
0
 10
12.8111
 20
13.2071
  0
VERTEX
  8
0
 10
12.8324
 20
13.1626
  0
VERTEX
  8
0
 10
12.8511
 20
13.1135
  0
VERTEX
  8
0
 10
12.8671
 20
13.0597
  0
VERTEX
  8
0
 10
12.8793
 20
13.0015
  0
VERTEX
  8
0
 10
12.8881
 20
12.9334
  0
VERTEX
  8
0
 10
12.8933
 20
12.8554
  0
VERTEX
  8
0
 10
12.895
 20
12.7675
  0
VERTEX
  8
0
 10
12.8942
 20
12.7137
  0
VERTEX
  8
0
 10
12.8918
 20
12.6623
  0
VERTEX
  8
0
 10
12.8879
 20
12.6133
  0
VERTEX
  8
0
 10
12.8823
 20
12.5666
  0
VERTEX
  8
0
 10
12.8751
 20
12.5223
  0
VERTEX
  8
0
 10
12.8664
 20
12.4803
  0
VERTEX
  8
0
 10
12.856
 20
12.4407
  0
VERTEX
  8
0
 10
12.8441
 20
12.4034
  0
VERTEX
  8
0
 10
12.8305
 20
12.3685
  0
VERTEX
  8
0
 10
12.8154
 20
12.336
  0
VERTEX
  8
0
 10
12.7987
 20
12.3058
  0
VERTEX
  8
0
 10
12.7803
 20
12.2779
  0
VERTEX
  8
0
 10
12.7604
 20
12.2524
  0
VERTEX
  8
0
 10
12.7389
 20
12.2293
  0
VERTEX
  8
0
 10
12.7158
 20
12.2085
  0
VERTEX
  8
0
 10
12.6688
 20
12.1771
  0
VERTEX
  8
0
 10
12.6157
 20
12.1545
  0
VERTEX
  8
0
 10
12.5564
 20
12.1408
  0
VERTEX
  8
0
 10
12.491
 20
12.1359
  0
VERTEX
  8
0
 10
12.4695
 20
12.1363
  0
VERTEX
  8
0
 10
12.4486
 20
12.1376
  0
VERTEX
  8
0
 10
12.4283
 20
12.1398
  0
VERTEX
  8
0
 10
12.4086
 20
12.143
  0
VERTEX
  8
0
 10
12.3894
 20
12.1471
  0
VERTEX
  8
0
 10
12.3709
 20
12.1521
  0
VERTEX
  8
0
 10
12.3529
 20
12.158
  0
VERTEX
  8
0
 10
12.3355
 20
12.1649
  0
VERTEX
  8
0
 10
12.3187
 20
12.1727
  0
VERTEX
  8
0
 10
12.3025
 20
12.1814
  0
VERTEX
  8
0
 10
12.2869
 20
12.191
  0
VERTEX
  8
0
 10
12.2718
 20
12.2016
  0
VERTEX
  8
0
 10
12.2574
 20
12.2131
  0
VERTEX
  8
0
 10
12.2435
 20
12.2255
  0
VERTEX
  8
0
 10
12.2303
 20
12.2389
  0
VERTEX
  8
0
 10
12.2176
 20
12.2532
  0
VERTEX
  8
0
 10
12.2055
 20
12.2684
  0
VERTEX
  8
0
 10
12.194
 20
12.2845
  0
VERTEX
  8
0
 10
12.1831
 20
12.3016
  0
VERTEX
  8
0
 10
12.1727
 20
12.3196
  0
VERTEX
  8
0
 10
12.163
 20
12.3385
  0
VERTEX
  8
0
 10
12.1538
 20
12.3584
  0
VERTEX
  8
0
 10
12.1453
 20
12.3792
  0
VERTEX
  8
0
 10
12.1373
 20
12.4009
  0
VERTEX
  8
0
 10
12.1299
 20
12.4235
  0
VERTEX
  8
0
 10
12.1231
 20
12.4471
  0
VERTEX
  8
0
 10
12.1169
 20
12.4716
  0
VERTEX
  8
0
 10
12.1112
 20
12.497
  0
VERTEX
  8
0
 10
12.1062
 20
12.5233
  0
VERTEX
  8
0
 10
12.1018
 20
12.5506
  0
VERTEX
  8
0
 10
12.0979
 20
12.5788
  0
VERTEX
  8
0
 10
12.0946
 20
12.6079
  0
VERTEX
  8
0
 10
12.0919
 20
12.638
  0
VERTEX
  8
0
 10
12.0898
 20
12.669
  0
VERTEX
  8
0
 10
12.0883
 20
12.7009
  0
VERTEX
  8
0
 10
12.0874
 20
12.7337
  0
VERTEX
  8
0
 10
12.087
 20
12.7675
  0
VERTEX
  8
0
 10
12.087
 20
12.7675
  0
SEQEND
  0
POLYLINE
  8
0
 66
     1
 10
0
 20
0
  0
VERTEX
  8
0
 10
12.243
 20
12.7679
  0
VERTEX
  8
0
 10
12.2443
 20
12.6889
  0
VERTEX
  8
0
 10
12.2483
 20
12.6177
  0
VERTEX
  8
0
 10
12.2549
 20
12.5544
  0
VERTEX
  8
0
 10
12.2641
 20
12.4989
  0
VERTEX
  8
0
 10
12.276
 20
12.4513
  0
VERTEX
  8
0
 10
12.2884
 20
12.4151
  0
VERTEX
  8
0
 10
12.3028
 20
12.3827
  0
VERTEX
  8
0
 10
12.3192
 20
12.3541
  0
VERTEX
  8
0
 10
12.3377
 20
12.3292
  0
VERTEX
  8
0
 10
12.3581
 20
12.3082
  0
VERTEX
  8
0
 10
12.3807
 20
12.291
  0
VERTEX
  8
0
 10
12.4052
 20
12.2775
  0
VERTEX
  8
0
 10
12.4318
 20
12.2679
  0
VERTEX
  8
0
 10
12.4604
 20
12.262
  0
VERTEX
  8
0
 10
12.491
 20
12.2599
  0
VERTEX
  8
0
 10
12.5084
 20
12.2605
  0
VERTEX
  8
0
 10
12.5252
 20
12.2623
  0
VERTEX
  8
0
 10
12.5413
 20
12.2654
  0
VERTEX
  8
0
 10
12.5568
 20
12.2699
  0
VERTEX
  8
0
 10
12.5717
 20
12.2756
  0
VERTEX
  8
0
 10
12.5859
 20
12.2827
  0
VERTEX
  8
0
 10
12.5995
 20
12.291
  0
VERTEX
  8
0
 10
12.6125
 20
12.3007
  0
VERTEX
  8
0
 10
12.6248
 20
12.3117
  0
VERTEX
  8
0
 10
12.6365
 20
12.3239
  0
VERTEX
  8
0
 10
12.6476
 20
12.3375
  0
VERTEX
  8
0
 10
12.658
 20
12.3524
  0
VERTEX
  8
0
 10
12.6678
 20
12.3686
  0
VERTEX
  8
0
 10
12.677
 20
12.3861
  0
VERTEX
  8
0
 10
12.6856
 20
12.4049
  0
VERTEX
  8
0
 10
12.6935
 20
12.425
  0
VERTEX
  8
0
 10
12.7007
 20
12.4464
  0
VERTEX
  8
0
 10
12.7074
 20
12.4691
  0
VERTEX
  8
0
 10
12.7134
 20
12.4931
  0
VERTEX
  8
0
 10
12.7188
 20
12.5184
  0
VERTEX
  8
0
 10
12.7235
 20
12.545
  0
VERTEX
  8
0
 10
12.7276
 20
12.573
  0
VERTEX
  8
0
 10
12.7311
 20
12.6022
  0
VERTEX
  8
0
 10
12.734
 20
12.6327
  0
VERTEX
  8
0
 10
12.7362
 20
12.6646
  0
VERTEX
  8
0
 10
12.7378
 20
12.6977
  0
VERTEX
  8
0
 10
12.7387
 20
12.7322
  0
VERTEX
  8
0
 10
12.739
 20
12.7679
  0
VERTEX
  8
0
 10
12.7377
 20
12.847
  0
VERTEX
  8
0
 10
12.7337
 20
12.9182
  0
VERTEX
  8
0
 10
12.7271
 20
12.9815
  0
VERTEX
  8
0
 10
12.7179
 20
13.0369
  0
VERTEX
  8
0
 10
12.706
 20
13.0845
  0
VERTEX
  8
0
 10
12.6935
 20
13.1207
  0
VERTEX
  8
0
 10
12.6789
 20
13.1532
  0
VERTEX
  8
0
 10
12.6623
 20
13.1818
  0
VERTEX
  8
0
 10
12.6437
 20
13.2066
  0
VERTEX
  8
0
 10
12.6231
 20
13.2276
  0
VERTEX
  8
0
 10
12.6004
 20
13.2449
  0
VERTEX
  8
0
 10
12.5757
 20
13.2583
  0
VERTEX
  8
0
 10
12.5489
 20
13.268
  0
VERTEX
  8
0
 10
12.5201
 20
13.2738
  0
VERTEX
  8
0
 10
12.4893
 20
13.2759
  0
VERTEX
  8
0
 10
12.4395
 20
13.2707
  0
VERTEX
  8
0
 10
12.395
 20
13.2541
  0
VERTEX
  8
0
 10
12.3557
 20
13.2263
  0
VERTEX
  8
0
 10
12.3217
 20
13.187
  0
VERTEX
  8
0
 10
12.3068
 20
13.1627
  0
VERTEX
  8
0
 10
12.2934
 20
13.1345
  0
VERTEX
  8
0
 10
12.2816
 20
13.1024
  0
VERTEX
  8
0
 10
12.2714
 20
13.0663
  0
VERTEX
  8
0
 10
12.2627
 20
13.0264
  0
VERTEX
  8
0
 10
12.2556
 20
12.9825
  0
VERTEX
  8
0
 10
12.2501
 20
12.9347
  0
VERTEX
  8
0
 10
12.2462
 20
12.883
  0
VERTEX
  8
0
 10
12.2438
 20
12.8274
  0
VERTEX
  8
0
 10
12.243
 20
12.7679
  0
VERTEX
  8
0
 10
12.243
 20
12.7679
  0
SEQEND
  0
LINE
  8
0
 10
13.1984
 20
12.75
 11
22
 21
12.75
  0
LINE
  8
0
 10
21.4633
 20
12.4817
 11
22
 21
12.75
  0
LINE
  8
0
 10
21.4633
 20
13.0183
 11
22
 21
12.75
  0
LINE
  8
0
 10
22
 20
12.45
 11
22
 21
14.25
  0
LINE
  8
0
 10
10.8016
 20
12.75
 11
2
 21
12.75
  0
LINE
  8
0
 10
2.5367
 20
13.0183
 11
2
 21
12.75
  0
LINE
  8
0
 10
2.5367
 20
12.4817
 11
2
 21
12.75
  0
POLYLINE
  8
0
 66
     1
 10
0
 20
0
  0
VERTEX
  8
0
 10
23.407
 20
12.2999
  0
VERTEX
  8
0
 10
23.407
 20
12.1519
  0
VERTEX
  8
0
 10
22.591
 20
12.1519
  0
VERTEX
  8
0
 10
22.5933
 20
12.1956
  0
VERTEX
  8
0
 10
22.6026
 20
12.2399
  0
VERTEX
  8
0
 10
22.6187
 20
12.2849
  0
VERTEX
  8
0
 10
22.6417
 20
12.3305
  0
VERTEX
  8
0
 10
22.6716
 20
12.3768
  0
VERTEX
  8
0
 10
22.7083
 20
12.4238
  0
VERTEX
  8
0
 10
22.7616
 20
12.4818
  0
VERTEX
  8
0
 10
22.828
 20
12.5446
  0
VERTEX
  8
0
 10
22.9075
 20
12.6124
  0
VERTEX
  8
0
 10
22.9645
 20
12.6599
  0
VERTEX
  8
0
 10
23.0146
 20
12.7032
  0
VERTEX
  8
0
 10
23.0578
 20
12.7423
  0
VERTEX
  8
0
 10
23.0941
 20
12.7771
  0
VERTEX
  8
0
 10
23.1236
 20
12.8078
  0
VERTEX
  8
0
 10
23.1625
 20
12.8535
  0
VERTEX
  8
0
 10
23.1944
 20
12.8977
  0
VERTEX
  8
0
 10
23.2192
 20
12.9405
  0
VERTEX
  8
0
 10
23.2369
 20
12.9819
  0
VERTEX
  8
0
 10
23.2475
 20
13.0217
  0
VERTEX
  8
0
 10
23.251
 20
13.0601
  0
VERTEX
  8
0
 10
23.2433
 20
13.1206
  0
VERTEX
  8
0
 10
23.2203
 20
13.173
  0
VERTEX
  8
0
 10
23.1818
 20
13.2173
  0
VERTEX
  8
0
 10
23.1344
 20
13.2495
  0
VERTEX
  8
0
 10
23.0798
 20
13.269
  0
VERTEX
  8
0
 10
23.0181
 20
13.2759
  0
VERTEX
  8
0
 10
22.9646
 20
13.272
  0
VERTEX
  8
0
 10
22.9172
 20
13.2595
  0
VERTEX
  8
0
 10
22.876
 20
13.2383
  0
VERTEX
  8
0
 10
22.8409
 20
13.2084
  0
VERTEX
  8
0
 10
22.8051
 20
13.1576
  0
VERTEX
  8
0
 10
22.7835
 20
13.0963
  0
VERTEX
  8
0
 10
22.7759
 20
13.0246
  0
VERTEX
  8
0
 10
22.6198
 20
13.0407
  0
VERTEX
  8
0
 10
22.6273
 20
13.0966
  0
VERTEX
  8
0
 10
22.6399
 20
13.1479
  0
VERTEX
  8
0
 10
22.6575
 20
13.1947
  0
VERTEX
  8
0
 10
22.6801
 20
13.2369
  0
VERTEX
  8
0
 10
22.7078
 20
13.2745
  0
VERTEX
  8
0
 10
22.7404
 20
13.3076
  0
VERTEX
  8
0
 10
22.7854
 20
13.3408
  0
VERTEX
  8
0
 10
22.836
 20
13.3667
  0
VERTEX
  8
0
 10
22.8922
 20
13.3851
  0
VERTEX
  8
0
 10
22.954
 20
13.3962
  0
VERTEX
  8
0
 10
23.0214
 20
13.3999
  0
VERTEX
  8
0
 10
23.0846
 20
13.3964
  0
VERTEX
  8
0
 10
23.1433
 20
13.3857
  0
VERTEX
  8
0
 10
23.1975
 20
13.3679
  0
VERTEX
  8
0
 10
23.2471
 20
13.343
  0
VERTEX
  8
0
 10
23.2923
 20
13.311
  0
VERTEX
  8
0
 10
23.3273
 20
13.2775
  0
VERTEX
  8
0
 10
23.356
 20
13.2404
  0
VERTEX
  8
0
 10
23.3783
 20
13.1997
  0
VERTEX
  8
0
 10
23.3943
 20
13.1552
  0
VERTEX
  8
0
 10
23.4038
 20
13.1071
  0
VERTEX
  8
0
 10
23.407
 20
13.0553
  0
VERTEX
  8
0
 10
23.4034
 20
13.0059
  0
VERTEX
  8
0
 10
23.3924
 20
12.9563
  0
VERTEX
  8
0
 10
23.3741
 20
12.9067
  0
VERTEX
  8
0
 10
23.3485
 20
12.8569
  0
VERTEX
  8
0
 10
23.3156
 20
12.8071
  0
VERTEX
  8
0
 10
23.2754
 20
12.7572
  0
VERTEX
  8
0
 10
23.2428
 20
12.7222
  0
VERTEX
  8
0
 10
23.2032
 20
12.6828
  0
VERTEX
  8
0
 10
23.1564
 20
12.6391
  0
VERTEX
  8
0
 10
23.1026
 20
12.5911
  0
VERTEX
  8
0
 10
23.0417
 20
12.5387
  0
VERTEX
  8
0
 10
23.0014
 20
12.5048
  0
VERTEX
  8
0
 10
22.9684
 20
12.4767
  0
VERTEX
  8
0
 10
22.9426
 20
12.4545
  0
VERTEX
  8
0
 10
22.924
 20
12.4382
  0
VERTEX
  8
0
 10
22.9126
 20
12.4278
  0
VERTEX
  8
0
 10
22.8495
 20
12.3628
  0
VERTEX
  8
0
 10
22.8021
 20
12.2999
  0
VERTEX
  8
0
 10
23.407
 20
12.2999
  0
SEQEND
  0
LINE
  8
0
 10
24
 20
12.45
 11
24
 21
14.25
  0
LINE
  8
0
 10
22
 20
12.45
 11
22
 21
14.25
  0
POLYLINE
  8
0
 66
     1
 10
0
 20
0
  0
VERTEX
  8
0
 10
26.6315
 20
18.5067
  0
VERTEX
  8
0
 10
26.618
 20
18.6521
  0
VERTEX
  8
0
 10
26.6707
 20
18.6744
  0
VERTEX
  8
0
 10
26.7158
 20
18.7227
  0
VERTEX
  8
0
 10
26.7328
 20
18.7592
  0
VERTEX
  8
0
 10
26.7432
 20
18.8091
  0
VERTEX
  8
0
 10
26.747
 20
18.8724
  0
VERTEX
  8
0
 10
26.7394
 20
18.9369
  0
VERTEX
  8
0
 10
26.715
 20
18.9943
  0
VERTEX
  8
0
 10
26.6917
 20
19.0261
  0
VERTEX
  8
0
 10
26.6624
 20
19.0546
  0
VERTEX
  8
0
 10
26.627
 20
19.0801
  0
VERTEX
  8
0
 10
26.5856
 20
19.1023
  0
VERTEX
  8
0
 10
26.5381
 20
19.1214
  0
VERTEX
  8
0
 10
26.4846
 20
19.1372
  0
VERTEX
  8
0
 10
26.3934
 20
19.1542
  0
VERTEX
  8
0
 10
26.2989
 20
19.1599
  0
VERTEX
  8
0
 10
26.2829
 20
19.1597
  0
VERTEX
  8
0
 10
26.2685
 20
19.1591
  0
VERTEX
  8
0
 10
26.3025
 20
19.1354
  0
VERTEX
  8
0
 10
26.3324
 20
19.1094
  0
VERTEX
  8
0
 10
26.3584
 20
19.0812
  0
VERTEX
  8
0
 10
26.3805
 20
19.0507
  0
VERTEX
  8
0
 10
26.3985
 20
19.018
  0
VERTEX
  8
0
 10
26.4126
 20
18.9831
  0
VERTEX
  8
0
 10
26.4227
 20
18.9459
  0
VERTEX
  8
0
 10
26.4289
 20
18.9065
  0
VERTEX
  8
0
 10
26.431
 20
18.8648
  0
VERTEX
  8
0
 10
26.4279
 20
18.8113
  0
VERTEX
  8
0
 10
26.418
 20
18.7614
  0
VERTEX
  8
0
 10
26.4012
 20
18.7149
  0
VERTEX
  8
0
 10
26.3777
 20
18.672
  0
VERTEX
  8
0
 10
26.3473
 20
18.6325
  0
VERTEX
  8
0
 10
26.3101
 20
18.5966
  0
VERTEX
  8
0
 10
26.2617
 20
18.5618
  0
VERTEX
  8
0
 10
26.209
 20
18.5347
  0
VERTEX
  8
0
 10
26.1521
 20
18.5154
  0
VERTEX
  8
0
 10
26.0908
 20
18.5038
  0
VERTEX
  8
0
 10
26.0253
 20
18.4999
  0
VERTEX
  8
0
 10
25.9643
 20
18.503
  0
VERTEX
  8
0
 10
25.9075
 20
18.5122
  0
VERTEX
  8
0
 10
25.8548
 20
18.5275
  0
VERTEX
  8
0
 10
25.8064
 20
18.549
  0
VERTEX
  8
0
 10
25.7621
 20
18.5765
  0
VERTEX
  8
0
 10
25.722
 20
18.6103
  0
VERTEX
  8
0
 10
25.6871
 20
18.6486
  0
VERTEX
  8
0
 10
25.6585
 20
18.6902
  0
VERTEX
  8
0
 10
25.6362
 20
18.7349
  0
VERTEX
  8
0
 10
25.6202
 20
18.7828
  0
VERTEX
  8
0
 10
25.6105
 20
18.8339
  0
VERTEX
  8
0
 10
25.607
 20
18.8882
  0
VERTEX
  8
0
 10
25.6141
 20
18.9685
  0
VERTEX
  8
0
 10
25.6363
 20
19.0429
  0
VERTEX
  8
0
 10
25.6737
 20
19.1115
  0
VERTEX
  8
0
 10
25.7242
 20
19.1717
  0
VERTEX
  8
0
 10
25.7855
 20
19.2211
  0
VERTEX
  8
0
 10
25.8578
 20
19.2597
  0
VERTEX
  8
0
 10
25.9103
 20
19.2785
  0
VERTEX
  8
0
 10
25.9714
 20
19.2931
  0
VERTEX
  8
0
 10
26.041
 20
19.3036
  0
VERTEX
  8
0
 10
26.1191
 20
19.3098
  0
VERTEX
  8
0
 10
26.2056
 20
19.3119
  0
VERTEX
  8
0
 10
26.2541
 20
19.3113
  0
VERTEX
  8
0
 10
26.3007
 20
19.3094
  0
VERTEX
  8
0
 10
26.3455
 20
19.3062
  0
VERTEX
  8
0
 10
26.3884
 20
19.3018
  0
VERTEX
  8
0
 10
26.4295
 20
19.2961
  0
VERTEX
  8
0
 10
26.4688
 20
19.2892
  0
VERTEX
  8
0
 10
26.5063
 20
19.281
  0
VERTEX
  8
0
 10
26.5419
 20
19.2715
  0
VERTEX
  8
0
 10
26.5757
 20
19.2607
  0
VERTEX
  8
0
 10
26.6077
 20
19.2487
  0
VERTEX
  8
0
 10
26.6378
 20
19.2355
  0
VERTEX
  8
0
 10
26.6661
 20
19.2209
  0
VERTEX
  8
0
 10
26.6926
 20
19.2052
  0
VERTEX
  8
0
 10
26.7173
 20
19.1881
  0
VERTEX
  8
0
 10
26.7401
 20
19.1698
  0
VERTEX
  8
0
 10
26.7611
 20
19.1502
  0
VERTEX
  8
0
 10
26.7802
 20
19.1293
  0
VERTEX
  8
0
 10
26.7976
 20
19.1072
  0
VERTEX
  8
0
 10
26.8297
 20
19.0545
  0
VERTEX
  8
0
 10
26.8527
 20
18.9973
  0
VERTEX
  8
0
 10
26.8664
 20
18.9357
  0
VERTEX
  8
0
 10
26.871
 20
18.8697
  0
VERTEX
  8
0
 10
26.8692
 20
18.8136
  0
VERTEX
  8
0
 10
26.8638
 20
18.763
  0
VERTEX
  8
0
 10
26.8548
 20
18.7181
  0
VERTEX
  8
0
 10
26.8422
 20
18.6788
  0
VERTEX
  8
0
 10
26.8261
 20
18.6451
  0
VERTEX
  8
0
 10
26.8063
 20
18.617
  0
VERTEX
  8
0
 10
26.7635
 20
18.5728
  0
VERTEX
  8
0
 10
26.7201
 20
18.5397
  0
VERTEX
  8
0
 10
26.6761
 20
18.5177
  0
VERTEX
  8
0
 10
26.6315
 20
18.5067
  0
VERTEX
  8
0
 10
26.6315
 20
18.5067
  0
SEQEND
  0
POLYLINE
  8
0
 66
     1
 10
0
 20
0
  0
VERTEX
  8
0
 10
26.016
 20
19.1439
  0
VERTEX
  8
0
 10
25.9428
 20
19.1373
  0
VERTEX
  8
0
 10
25.8777
 20
19.1173
  0
VERTEX
  8
0
 10
25.8206
 20
19.0841
  0
VERTEX
  8
0
 10
25.7818
 20
19.0484
  0
VERTEX
  8
0
 10
25.7539
 20
19.007
  0
VERTEX
  8
0
 10
25.737
 20
18.9599
  0
VERTEX
  8
0
 10
25.731
 20
18.9071
  0
VERTEX
  8
0
 10
25.7345
 20
18.8633
  0
VERTEX
  8
0
 10
25.7457
 20
18.8228
  0
VERTEX
  8
0
 10
25.7644
 20
18.7857
  0
VERTEX
  8
0
 10
25.7908
 20
18.752
  0
VERTEX
  8
0
 10
25.8249
 20
18.7217
  0
VERTEX
  8
0
 10
25.8855
 20
18.6855
  0
VERTEX
  8
0
 10
25.9534
 20
18.6636
  0
VERTEX
  8
0
 10
26.0286
 20
18.6559
  0
VERTEX
  8
0
 10
26.1
 20
18.663
  0
VERTEX
  8
0
 10
26.1628
 20
18.6851
  0
VERTEX
  8
0
 10
26.2172
 20
18.7225
  0
VERTEX
  8
0
 10
26.2513
 20
18.7597
  0
VERTEX
  8
0
 10
26.2756
 20
18.8021
  0
VERTEX
  8
0
 10
26.2902
 20
18.8499
  0
VERTEX
  8
0
 10
26.295
 20
18.9029
  0
VERTEX
  8
0
 10
26.2898
 20
18.9578
  0
VERTEX
  8
0
 10
26.2743
 20
19.0063
  0
VERTEX
  8
0
 10
26.2484
 20
19.0484
  0
VERTEX
  8
0
 10
26.2121
 20
19.0841
  0
VERTEX
  8
0
 10
26.1562
 20
19.1173
  0
VERTEX
  8
0
 10
26.0908
 20
19.1373
  0
VERTEX
  8
0
 10
26.016
 20
19.1439
  0
VERTEX
  8
0
 10
26.016
 20
19.1439
  0
SEQEND
  0
POLYLINE
  8
0
 66
     1
 10
0
 20
0
  0
VERTEX
  8
0
 10
26.855
 20
19.5479
  0
VERTEX
  8
0
 10
26.679
 20
19.5479
  0
VERTEX
  8
0
 10
26.679
 20
19.7199
  0
VERTEX
  8
0
 10
26.855
 20
19.7199
  0
VERTEX
  8
0
 10
26.855
 20
19.5479
  0
SEQEND
  0
POLYLINE
  8
0
 66
     1
 10
0
 20
0
  0
VERTEX
  8
0
 10
26.5241
 20
19.9479
  0
VERTEX
  8
0
 10
26.504
 20
20.1005
  0
VERTEX
  8
0
 10
26.5374
 20
20.1081
  0
VERTEX
  8
0
 10
26.5683
 20
20.1171
  0
VERTEX
  8
0
 10
26.5967
 20
20.1277
  0
VERTEX
  8
0
 10
26.6227
 20
20.1398
  0
VERTEX
  8
0
 10
26.6462
 20
20.1534
  0
VERTEX
  8
0
 10
26.6672
 20
20.1685
  0
VERTEX
  8
0
 10
26.6858
 20
20.1851
  0
VERTEX
  8
0
 10
26.702
 20
20.2032
  0
VERTEX
  8
0
 10
26.7156
 20
20.2229
  0
VERTEX
  8
0
 10
26.7268
 20
20.244
  0
VERTEX
  8
0
 10
26.7356
 20
20.2667
  0
VERTEX
  8
0
 10
26.7418
 20
20.2909
  0
VERTEX
  8
0
 10
26.7457
 20
20.3166
  0
VERTEX
  8
0
 10
26.747
 20
20.3439
  0
VERTEX
  8
0
 10
26.7427
 20
20.3963
  0
VERTEX
  8
0
 10
26.729
 20
20.4441
  0
VERTEX
  8
0
 10
26.7058
 20
20.4874
  0
VERTEX
  8
0
 10
26.6731
 20
20.5261
  0
VERTEX
  8
0
 10
26.6196
 20
20.5667
  0
VERTEX
  8
0
 10
26.5586
 20
20.5913
  0
VERTEX
  8
0
 10
26.4902
 20
20.5999
  0
VERTEX
  8
0
 10
26.4249
 20
20.5927
  0
VERTEX
  8
0
 10
26.3677
 20
20.5697
  0
VERTEX
  8
0
 10
26.3186
 20
20.531
  0
VERTEX
  8
0
 10
26.2811
 20
20.4805
  0
VERTEX
  8
0
 10
26.2585
 20
20.4221
  0
VERTEX
  8
0
 10
26.251
 20
20.3557
  0
VERTEX
  8
0
 10
26.2546
 20
20.3057
  0
VERTEX
  8
0
 10
26.2651
 20
20.2476
  0
VERTEX
  8
0
 10
26.135
 20
20.2644
  0
VERTEX
  8
0
 10
26.135
 20
20.2747
  0
VERTEX
  8
0
 10
26.135
 20
20.2888
  0
VERTEX
  8
0
 10
26.1294
 20
20.3547
  0
VERTEX
  8
0
 10
26.1127
 20
20.4124
  0
VERTEX
  8
0
 10
26.0847
 20
20.4618
  0
VERTEX
  8
0
 10
26.0537
 20
20.4957
  0
VERTEX
  8
0
 10
26.017
 20
20.52
  0
VERTEX
  8
0
 10
25.9745
 20
20.5347
  0
VERTEX
  8
0
 10
25.9262
 20
20.5399
  0
VERTEX
  8
0
 10
25.8719
 20
20.534
  0
VERTEX
  8
0
 10
25.8251
 20
20.515
  0
VERTEX
  8
0
 10
25.7856
 20
20.4831
  0
VERTEX
  8
0
 10
25.7557
 20
20.4413
  0
VERTEX
  8
0
 10
25.7375
 20
20.3929
  0
VERTEX
  8
0
 10
25.731
 20
20.3378
  0
VERTEX
  8
0
 10
25.7321
 20
20.3098
  0
VERTEX
  8
0
 10
25.7359
 20
20.2836
  0
VERTEX
  8
0
 10
25.7424
 20
20.2593
  0
VERTEX
  8
0
 10
25.7516
 20
20.2367
  0
VERTEX
  8
0
 10
25.7635
 20
20.2159
  0
VERTEX
  8
0
 10
25.7781
 20
20.1969
  0
VERTEX
  8
0
 10
25.7955
 20
20.1798
  0
VERTEX
  8
0
 10
25.8155
 20
20.1644
  0
VERTEX
  8
0
 10
25.8382
 20
20.1509
  0
VERTEX
  8
0
 10
25.8636
 20
20.1391
  0
VERTEX
  8
0
 10
25.8918
 20
20.1292
  0
VERTEX
  8
0
 10
25.9226
 20
20.121
  0
VERTEX
  8
0
 10
25.9561
 20
20.1147
  0
VERTEX
  8
0
 10
25.929
 20
19.9631
  0
VERTEX
  8
0
 10
25.8581
 20
19.981
  0
VERTEX
  8
0
 10
25.7951
 20
20.0076
  0
VERTEX
  8
0
 10
25.7403
 20
20.0431
  0
VERTEX
  8
0
 10
25.6935
 20
20.0873
  0
VERTEX
  8
0
 10
25.656
 20
20.1393
  0
VERTEX
  8
0
 10
25.6291
 20
20.1978
  0
VERTEX
  8
0
 10
25.6128
 20
20.2629
  0
VERTEX
  8
0
 10
25.607
 20
20.3345
  0
VERTEX
  8
0
 10
25.6167
 20
20.4274
  0
VERTEX
  8
0
 10
25.6475
 20
20.514
  0
VERTEX
  8
0
 10
25.6994
 20
20.5927
  0
VERTEX
  8
0
 10
25.769
 20
20.6504
  0
VERTEX
  8
0
 10
25.8465
 20
20.6845
  0
VERTEX
  8
0
 10
25.9285
 20
20.6959
  0
VERTEX
  8
0
 10
25.9656
 20
20.6938
  0
VERTEX
  8
0
 10
26.0004
 20
20.6876
  0
VERTEX
  8
0
 10
26.0329
 20
20.6772
  0
VERTEX
  8
0
 10
26.063
 20
20.6626
  0
VERTEX
  8
0
 10
26.0909
 20
20.6438
  0
VERTEX
  8
0
 10
26.1164
 20
20.6209
  0
VERTEX
  8
0
 10
26.1396
 20
20.5938
  0
VERTEX
  8
0
 10
26.1605
 20
20.5625
  0
VERTEX
  8
0
 10
26.1791
 20
20.527
  0
VERTEX
  8
0
 10
26.2027
 20
20.5967
  0
VERTEX
  8
0
 10
26.2388
 20
20.6547
  0
VERTEX
  8
0
 10
26.2871
 20
20.7013
  0
VERTEX
  8
0
 10
26.3442
 20
20.7339
  0
VERTEX
  8
0
 10
26.4098
 20
20.7534
  0
VERTEX
  8
0
 10
26.4837
 20
20.7599
  0
VERTEX
  8
0
 10
26.5366
 20
20.7566
  0
VERTEX
  8
0
 10
26.5866
 20
20.7468
  0
VERTEX
  8
0
 10
26.6338
 20
20.7304
  0
VERTEX
  8
0
 10
26.6782
 20
20.7075
  0
VERTEX
  8
0
 10
26.7197
 20
20.678
  0
VERTEX
  8
0
 10
26.7584
 20
20.6419
  0
VERTEX
  8
0
 10
26.7925
 20
20.6008
  0
VERTEX
  8
0
 10
26.8206
 20
20.5562
  0
VERTEX
  8
0
 10
26.8424
 20
20.508
  0
VERTEX
  8
0
 10
26.8581
 20
20.4562
  0
VERTEX
  8
0
 10
26.8677
 20
20.4009
  0
VERTEX
  8
0
 10
26.871
 20
20.3421
  0
VERTEX
  8
0
 10
26.8673
 20
20.2796
  0
VERTEX
  8
0
 10
26.856
 20
20.2215
  0
VERTEX
  8
0
 10
26.8372
 20
20.1676
  0
VERTEX
  8
0
 10
26.8108
 20
20.118
  0
VERTEX
  8
0
 10
26.777
 20
20.0727
  0
VERTEX
  8
0
 10
26.7367
 20
20.0332
  0
VERTEX
  8
0
 10
26.6914
 20
20.001
  0
VERTEX
  8
0
 10
26.6408
 20
19.976
  0
VERTEX
  8
0
 10
26.5851
 20
19.9583
  0
VERTEX
  8
0
 10
26.5241
 20
19.9479
  0
VERTEX
  8
0
 10
26.5241
 20
19.9479
  0
SEQEND
  0
LINE
  8
0
 10
26.25
 20
21.0562
 11
26.25
 21
24.2506
  0
LINE
  8
0
 10
26.5183
 20
23.714
 11
26.25
 21
24.2506
  0
LINE
  8
0
 10
25.9817
 20
23.714
 11
26.25
 21
24.2506
  0
LINE
  8
0
 10
26.55
 20
24.2506
 11
24.75
 21
24.2506
  0
LINE
  8
0
 10
26.25
 20
18.1944
 11
26.25
 21
15
  0
LINE
  8
0
 10
25.9817
 20
15.5367
 11
26.25
 21
15
  0
LINE
  8
0
 10
26.5183
 20
15.5367
 11
26.25
 21
15
  0
LINE
  8
0
 10
26.55
 20
15
 11
24.75
 21
15
  0
POLYLINE
  8
0
 66
     1
 10
0
 20
0
  0
VERTEX
  8
0
 10
29.707
 20
26.9239
  0
VERTEX
  8
0
 10
29.855
 20
26.9239
  0
VERTEX
  8
0
 10
29.855
 20
26.1079
  0
VERTEX
  8
0
 10
29.8114
 20
26.1102
  0
VERTEX
  8
0
 10
29.767
 20
26.1195
  0
VERTEX
  8
0
 10
29.7221
 20
26.1356
  0
VERTEX
  8
0
 10
29.6764
 20
26.1586
  0
VERTEX
  8
0
 10
29.6301
 20
26.1885
  0
VERTEX
  8
0
 10
29.5831
 20
26.2252
  0
VERTEX
  8
0
 10
29.5252
 20
26.2785
  0
VERTEX
  8
0
 10
29.4623
 20
26.3449
  0
VERTEX
  8
0
 10
29.3945
 20
26.4244
  0
VERTEX
  8
0
 10
29.347
 20
26.4814
  0
VERTEX
  8
0
 10
29.3037
 20
26.5315
  0
VERTEX
  8
0
 10
29.2647
 20
26.5747
  0
VERTEX
  8
0
 10
29.2298
 20
26.611
  0
VERTEX
  8
0
 10
29.1991
 20
26.6405
  0
VERTEX
  8
0
 10
29.1534
 20
26.6794
  0
VERTEX
  8
0
 10
29.1092
 20
26.7113
  0
VERTEX
  8
0
 10
29.0664
 20
26.7361
  0
VERTEX
  8
0
 10
29.0251
 20
26.7538
  0
VERTEX
  8
0
 10
28.9852
 20
26.7644
  0
VERTEX
  8
0
 10
28.9468
 20
26.7679
  0
VERTEX
  8
0
 10
28.8863
 20
26.7602
  0
VERTEX
  8
0
 10
28.8339
 20
26.7372
  0
VERTEX
  8
0
 10
28.7896
 20
26.6987
  0
VERTEX
  8
0
 10
28.7575
 20
26.6513
  0
VERTEX
  8
0
 10
28.7379
 20
26.5967
  0
VERTEX
  8
0
 10
28.731
 20
26.535
  0
VERTEX
  8
0
 10
28.7349
 20
26.4815
  0
VERTEX
  8
0
 10
28.7475
 20
26.4341
  0
VERTEX
  8
0
 10
28.7687
 20
26.3929
  0
VERTEX
  8
0
 10
28.7986
 20
26.3578
  0
VERTEX
  8
0
 10
28.8493
 20
26.322
  0
VERTEX
  8
0
 10
28.9106
 20
26.3004
  0
VERTEX
  8
0
 10
28.9823
 20
26.2928
  0
VERTEX
  8
0
 10
28.9661
 20
26.1367
  0
VERTEX
  8
0
 10
28.9103
 20
26.1442
  0
VERTEX
  8
0
 10
28.859
 20
26.1568
  0
VERTEX
  8
0
 10
28.8122
 20
26.1744
  0
VERTEX
  8
0
 10
28.7701
 20
26.197
  0
VERTEX
  8
0
 10
28.7324
 20
26.2247
  0
VERTEX
  8
0
 10
28.6994
 20
26.2573
  0
VERTEX
  8
0
 10
28.6661
 20
26.3023
  0
VERTEX
  8
0
 10
28.6403
 20
26.3529
  0
VERTEX
  8
0
 10
28.6218
 20
26.4091
  0
VERTEX
  8
0
 10
28.6107
 20
26.4709
  0
VERTEX
  8
0
 10
28.607
 20
26.5383
  0
VERTEX
  8
0
 10
28.6106
 20
26.6015
  0
VERTEX
  8
0
 10
28.6213
 20
26.6602
  0
VERTEX
  8
0
 10
28.639
 20
26.7144
  0
VERTEX
  8
0
 10
28.6639
 20
26.764
  0
VERTEX
  8
0
 10
28.696
 20
26.8092
  0
VERTEX
  8
0
 10
28.7294
 20
26.8442
  0
VERTEX
  8
0
 10
28.7665
 20
26.8729
  0
VERTEX
  8
0
 10
28.8073
 20
26.8952
  0
VERTEX
  8
0
 10
28.8517
 20
26.9112
  0
VERTEX
  8
0
 10
28.8999
 20
26.9207
  0
VERTEX
  8
0
 10
28.9516
 20
26.9239
  0
VERTEX
  8
0
 10
29.0011
 20
26.9203
  0
VERTEX
  8
0
 10
29.0506
 20
26.9093
  0
VERTEX
  8
0
 10
29.1003
 20
26.891
  0
VERTEX
  8
0
 10
29.15
 20
26.8654
  0
VERTEX
  8
0
 10
29.1998
 20
26.8325
  0
VERTEX
  8
0
 10
29.2498
 20
26.7923
  0
VERTEX
  8
0
 10
29.2848
 20
26.7597
  0
VERTEX
  8
0
 10
29.3241
 20
26.7201
  0
VERTEX
  8
0
 10
29.3678
 20
26.6733
  0
VERTEX
  8
0
 10
29.4159
 20
26.6195
  0
VERTEX
  8
0
 10
29.4682
 20
26.5586
  0
VERTEX
  8
0
 10
29.5022
 20
26.5183
  0
VERTEX
  8
0
 10
29.5303
 20
26.4853
  0
VERTEX
  8
0
 10
29.5525
 20
26.4595
  0
VERTEX
  8
0
 10
29.5688
 20
26.4409
  0
VERTEX
  8
0
 10
29.5791
 20
26.4295
  0
VERTEX
  8
0
 10
29.6441
 20
26.3664
  0
VERTEX
  8
0
 10
29.707
 20
26.319
  0
VERTEX
  8
0
 10
29.707
 20
26.9239
  0
SEQEND
  0
POLYLINE
  8
0
 66
     1
 10
0
 20
0
  0
VERTEX
  8
0
 10
29.855
 20
27.5759
  0
VERTEX
  8
0
 10
29.555
 20
27.5759
  0
VERTEX
  8
0
 10
29.555
 20
27.0399
  0
VERTEX
  8
0
 10
29.415
 20
27.0399
  0
VERTEX
  8
0
 10
28.615
 20
27.6048
  0
VERTEX
  8
0
 10
28.615
 20
27.7279
  0
VERTEX
  8
0
 10
29.415
 20
27.7279
  0
VERTEX
  8
0
 10
29.415
 20
27.896
  0
VERTEX
  8
0
 10
29.555
 20
27.896
  0
VERTEX
  8
0
 10
29.555
 20
27.7279
  0
VERTEX
  8
0
 10
29.855
 20
27.7279
  0
VERTEX
  8
0
 10
29.855
 20
27.5759
  0
SEQEND
  0
POLYLINE
  8
0
 66
     1
 10
0
 20
0
  0
VERTEX
  8
0
 10
29.415
 20
27.5759
  0
VERTEX
  8
0
 10
28.864
 20
27.5759
  0
VERTEX
  8
0
 10
29.4154
 20
27.1915
  0
VERTEX
  8
0
 10
29.415
 20
27.5759
  0
SEQEND
  0
LINE
  8
0
 10
29.25
 20
28.1984
 11
29.25
 21
39
  0
LINE
  8
0
 10
29.5183
 20
38.4633
 11
29.25
 21
39
  0
LINE
  8
0
 10
28.9817
 20
38.4633
 11
29.25
 21
39
  0
LINE
  8
0
 10
29.55
 20
39
 11
24.3
 21
39
  0
LINE
  8
0
 10
29.25
 20
25.8016
 11
29.25
 21
15
  0
LINE
  8
0
 10
28.9817
 20
15.5367
 11
29.25
 21
15
  0
LINE
  8
0
 10
29.5183
 20
15.5367
 11
29.25
 21
15
  0
LINE
  8
0
 10
29.55
 20
15
 11
24.3
 21
15
  0
POLYLINE
  8
0
 66
     1
 10
0
 20
0
  0
VERTEX
  8
0
 10
11.923
 20
9.2999
  0
VERTEX
  8
0
 10
11.923
 20
9.1519
  0
VERTEX
  8
0
 10
11.107
 20
9.1519
  0
VERTEX
  8
0
 10
11.1093
 20
9.1956
  0
VERTEX
  8
0
 10
11.1186
 20
9.2399
  0
VERTEX
  8
0
 10
11.1347
 20
9.2849
  0
VERTEX
  8
0
 10
11.1577
 20
9.3305
  0
VERTEX
  8
0
 10
11.1876
 20
9.3768
  0
VERTEX
  8
0
 10
11.2243
 20
9.4238
  0
VERTEX
  8
0
 10
11.2776
 20
9.4818
  0
VERTEX
  8
0
 10
11.344
 20
9.5446
  0
VERTEX
  8
0
 10
11.4235
 20
9.6124
  0
VERTEX
  8
0
 10
11.4805
 20
9.6599
  0
VERTEX
  8
0
 10
11.5306
 20
9.7032
  0
VERTEX
  8
0
 10
11.5738
 20
9.7423
  0
VERTEX
  8
0
 10
11.6101
 20
9.7771
  0
VERTEX
  8
0
 10
11.6396
 20
9.8078
  0
VERTEX
  8
0
 10
11.6785
 20
9.8535
  0
VERTEX
  8
0
 10
11.7104
 20
9.8977
  0
VERTEX
  8
0
 10
11.7352
 20
9.9405
  0
VERTEX
  8
0
 10
11.7529
 20
9.9819
  0
VERTEX
  8
0
 10
11.7635
 20
10.0217
  0
VERTEX
  8
0
 10
11.767
 20
10.0601
  0
VERTEX
  8
0
 10
11.7593
 20
10.1206
  0
VERTEX
  8
0
 10
11.7363
 20
10.173
  0
VERTEX
  8
0
 10
11.6978
 20
10.2173
  0
VERTEX
  8
0
 10
11.6504
 20
10.2495
  0
VERTEX
  8
0
 10
11.5958
 20
10.269
  0
VERTEX
  8
0
 10
11.5341
 20
10.2759
  0
VERTEX
  8
0
 10
11.4806
 20
10.272
  0
VERTEX
  8
0
 10
11.4332
 20
10.2595
  0
VERTEX
  8
0
 10
11.392
 20
10.2383
  0
VERTEX
  8
0
 10
11.3569
 20
10.2084
  0
VERTEX
  8
0
 10
11.3211
 20
10.1576
  0
VERTEX
  8
0
 10
11.2995
 20
10.0963
  0
VERTEX
  8
0
 10
11.2919
 20
10.0246
  0
VERTEX
  8
0
 10
11.1358
 20
10.0407
  0
VERTEX
  8
0
 10
11.1433
 20
10.0966
  0
VERTEX
  8
0
 10
11.1559
 20
10.1479
  0
VERTEX
  8
0
 10
11.1735
 20
10.1947
  0
VERTEX
  8
0
 10
11.1961
 20
10.2369
  0
VERTEX
  8
0
 10
11.2238
 20
10.2745
  0
VERTEX
  8
0
 10
11.2564
 20
10.3076
  0
VERTEX
  8
0
 10
11.3014
 20
10.3408
  0
VERTEX
  8
0
 10
11.352
 20
10.3667
  0
VERTEX
  8
0
 10
11.4082
 20
10.3851
  0
VERTEX
  8
0
 10
11.47
 20
10.3962
  0
VERTEX
  8
0
 10
11.5374
 20
10.3999
  0
VERTEX
  8
0
 10
11.6006
 20
10.3964
  0
VERTEX
  8
0
 10
11.6593
 20
10.3857
  0
VERTEX
  8
0
 10
11.7135
 20
10.3679
  0
VERTEX
  8
0
 10
11.7631
 20
10.343
  0
VERTEX
  8
0
 10
11.8083
 20
10.311
  0
VERTEX
  8
0
 10
11.8433
 20
10.2775
  0
VERTEX
  8
0
 10
11.872
 20
10.2404
  0
VERTEX
  8
0
 10
11.8943
 20
10.1997
  0
VERTEX
  8
0
 10
11.9103
 20
10.1552
  0
VERTEX
  8
0
 10
11.9198
 20
10.1071
  0
VERTEX
  8
0
 10
11.923
 20
10.0553
  0
VERTEX
  8
0
 10
11.9194
 20
10.0059
  0
VERTEX
  8
0
 10
11.9084
 20
9.9563
  0
VERTEX
  8
0
 10
11.8901
 20
9.9067
  0
VERTEX
  8
0
 10
11.8645
 20
9.8569
  0
VERTEX
  8
0
 10
11.8316
 20
9.8071
  0
VERTEX
  8
0
 10
11.7914
 20
9.7572
  0
VERTEX
  8
0
 10
11.7588
 20
9.7222
  0
VERTEX
  8
0
 10
11.7192
 20
9.6828
  0
VERTEX
  8
0
 10
11.6724
 20
9.6391
  0
VERTEX
  8
0
 10
11.6186
 20
9.5911
  0
VERTEX
  8
0
 10
11.5577
 20
9.5387
  0
VERTEX
  8
0
 10
11.5174
 20
9.5048
  0
VERTEX
  8
0
 10
11.4844
 20
9.4767
  0
VERTEX
  8
0
 10
11.4586
 20
9.4545
  0
VERTEX
  8
0
 10
11.44
 20
9.4382
  0
VERTEX
  8
0
 10
11.4286
 20
9.4278
  0
VERTEX
  8
0
 10
11.3655
 20
9.3628
  0
VERTEX
  8
0
 10
11.3181
 20
9.2999
  0
VERTEX
  8
0
 10
11.923
 20
9.2999
  0
SEQEND
  0
POLYLINE
  8
0
 66
     1
 10
0
 20
0
  0
VERTEX
  8
0
 10
12.575
 20
9.1519
  0
VERTEX
  8
0
 10
12.575
 20
9.4519
  0
VERTEX
  8
0
 10
12.039
 20
9.4519
  0
VERTEX
  8
0
 10
12.039
 20
9.5919
  0
VERTEX
  8
0
 10
12.6039
 20
10.3919
  0
VERTEX
  8
0
 10
12.727
 20
10.3919
  0
VERTEX
  8
0
 10
12.727
 20
9.5919
  0
VERTEX
  8
0
 10
12.8951
 20
9.5919
  0
VERTEX
  8
0
 10
12.8951
 20
9.4519
  0
VERTEX
  8
0
 10
12.727
 20
9.4519
  0
VERTEX
  8
0
 10
12.727
 20
9.1519
  0
VERTEX
  8
0
 10
12.575
 20
9.1519
  0
SEQEND
  0
POLYLINE
  8
0
 66
     1
 10
0
 20
0
  0
VERTEX
  8
0
 10
12.575
 20
9.5919
  0
VERTEX
  8
0
 10
12.575
 20
10.1429
  0
VERTEX
  8
0
 10
12.1906
 20
9.5915
  0
VERTEX
  8
0
 10
12.575
 20
9.5919
  0
SEQEND
  0
LINE
  8
0
 10
13.1984
 20
9.75
 11
24
 21
9.75
  0
LINE
  8
0
 10
23.4633
 20
9.4817
 11
24
 21
9.75
  0
LINE
  8
0
 10
23.4633
 20
10.0183
 11
24
 21
9.75
  0
LINE
  8
0
 10
24
 20
9.45
 11
24
 21
14.7
  0
LINE
  8
0
 10
10.8016
 20
9.75
 11
0
 21
9.75
  0
LINE
  8
0
 10
0.5367
 20
10.0183
 11
0
 21
9.75
  0
LINE
  8
0
 10
0.5367
 20
9.4817
 11
0
 21
9.75
  0
LINE
  8
0
 10
0
 20
9.45
 11
0
 21
14.7
  0
POLYLINE
  8
0
 66
     1
 10
0
 20
0
  0
VERTEX
  8
0
 10
0.455
 20
7.1599
  0
VERTEX
  8
0
 10
0.303
 20
7.1599
  0
VERTEX
  8
0
 10
0.303
 20
8.1322
  0
VERTEX
  8
0
 10
0.2159
 20
8.0612
  0
VERTEX
  8
0
 10
0.1146
 20
8.0002
  0
VERTEX
  8
0
 10
-0.001
 20
7.949
  0
VERTEX
  8
0
 10
-0.001
 20
8.0964
  0
VERTEX
  8
0
 10
0.0558
 20
8.1248
  0
VERTEX
  8
0
 10
0.1084
 20
8.1548
  0
VERTEX
  8
0
 10
0.1566
 20
8.1863
  0
VERTEX
  8
0
 10
0.2007
 20
8.2194
  0
VERTEX
  8
0
 10
0.2405
 20
8.254
  0
VERTEX
  8
0
 10
0.276
 20
8.2901
  0
VERTEX
  8
0
 10
0.3073
 20
8.3278
  0
VERTEX
  8
0
 10
0.3343
 20
8.3671
  0
VERTEX
  8
0
 10
0.3571
 20
8.4079
  0
VERTEX
  8
0
 10
0.455
 20
8.4079
  0
VERTEX
  8
0
 10
0.455
 20
7.1599
  0
SEQEND
  0
POLYLINE
  8
0
 66
     1
 10
0
 20
0
  0
VERTEX
  8
0
 10
0.923
 20
7.1599
  0
VERTEX
  8
0
 10
0.923
 20
7.3359
  0
VERTEX
  8
0
 10
1.095
 20
7.3359
  0
VERTEX
  8
0
 10
1.095
 20
7.1599
  0
VERTEX
  8
0
 10
0.923
 20
7.1599
  0
SEQEND
  0
POLYLINE
  8
0
 66
     1
 10
0
 20
0
  0
VERTEX
  8
0
 10
1.319
 20
7.4882
  0
VERTEX
  8
0
 10
1.4787
 20
7.5016
  0
VERTEX
  8
0
 10
1.4846
 20
7.4694
  0
VERTEX
  8
0
 10
1.4923
 20
7.4396
  0
VERTEX
  8
0
 10
1.5016
 20
7.4122
  0
VERTEX
  8
0
 10
1.5127
 20
7.3871
  0
VERTEX
  8
0
 10
1.5254
 20
7.3645
  0
VERTEX
  8
0
 10
1.5399
 20
7.3442
  0
VERTEX
  8
0
 10
1.556
 20
7.3263
  0
VERTEX
  8
0
 10
1.5739
 20
7.3108
  0
VERTEX
  8
0
 10
1.5935
 20
7.2977
  0
VERTEX
  8
0
 10
1.6148
 20
7.287
  0
VERTEX
  8
0
 10
1.6378
 20
7.2787
  0
VERTEX
  8
0
 10
1.6625
 20
7.2727
  0
VERTEX
  8
0
 10
1.6889
 20
7.2691
  0
VERTEX
  8
0
 10
1.717
 20
7.2679
  0
VERTEX
  8
0
 10
1.7637
 20
7.2716
  0
VERTEX
  8
0
 10
1.8065
 20
7.2827
  0
VERTEX
  8
0
 10
1.8454
 20
7.3012
  0
VERTEX
  8
0
 10
1.8804
 20
7.3271
  0
VERTEX
  8
0
 10
1.9114
 20
7.3604
  0
VERTEX
  8
0
 10
1.949
 20
7.4209
  0
VERTEX
  8
0
 10
1.9715
 20
7.4904
  0
VERTEX
  8
0
 10
1.979
 20
7.5689
  0
VERTEX
  8
0
 10
1.9746
 20
7.6281
  0
VERTEX
  8
0
 10
1.9615
 20
7.6814
  0
VERTEX
  8
0
 10
1.9396
 20
7.7287
  0
VERTEX
  8
0
 10
1.9089
 20
7.7702
  0
VERTEX
  8
0
 10
1.8704
 20
7.8039
  0
VERTEX
  8
0
 10
1.8252
 20
7.8281
  0
VERTEX
  8
0
 10
1.7732
 20
7.8428
  0
VERTEX
  8
0
 10
1.7145
 20
7.8479
  0
VERTEX
  8
0
 10
1.6679
 20
7.8449
  0
VERTEX
  8
0
 10
1.6248
 20
7.8352
  0
VERTEX
  8
0
 10
1.5854
 20
7.819
  0
VERTEX
  8
0
 10
1.5496
 20
7.7961
  0
VERTEX
  8
0
 10
1.5174
 20
7.7665
  0
VERTEX
  8
0
 10
1.4888
 20
7.7304
  0
VERTEX
  8
0
 10
1.346
 20
7.7489
  0
VERTEX
  8
0
 10
1.4659
 20
8.3839
  0
VERTEX
  8
0
 10
2.0813
 20
8.3839
  0
VERTEX
  8
0
 10
2.0813
 20
8.2399
  0
VERTEX
  8
0
 10
1.5894
 20
8.2399
  0
VERTEX
  8
0
 10
1.5223
 20
7.9065
  0
VERTEX
  8
0
 10
1.5976
 20
7.9491
  0
VERTEX
  8
0
 10
1.6753
 20
7.975
  0
VERTEX
  8
0
 10
1.7554
 20
7.9839
  0
VERTEX
  8
0
 10
1.8098
 20
7.9809
  0
VERTEX
  8
0
 10
1.861
 20
7.9714
  0
VERTEX
  8
0
 10
1.9089
 20
7.9553
  0
VERTEX
  8
0
 10
1.9536
 20
7.9326
  0
VERTEX
  8
0
 10
1.9949
 20
7.9034
  0
VERTEX
  8
0
 10
2.033
 20
7.8677
  0
VERTEX
  8
0
 10
2.0654
 20
7.8282
  0
VERTEX
  8
0
 10
2.0919
 20
7.7856
  0
VERTEX
  8
0
 10
2.1125
 20
7.7398
  0
VERTEX
  8
0
 10
2.1272
 20
7.6909
  0
VERTEX
  8
0
 10
2.1361
 20
7.6389
  0
VERTEX
  8
0
 10
2.139
 20
7.5837
  0
VERTEX
  8
0
 10
2.1351
 20
7.5188
  0
VERTEX
  8
0
 10
2.1234
 20
7.4573
  0
VERTEX
  8
0
 10
2.1038
 20
7.3993
  0
VERTEX
  8
0
 10
2.0764
 20
7.3449
  0
VERTEX
  8
0
 10
2.0411
 20
7.2939
  0
VERTEX
  8
0
 10
2.0101
 20
7.2589
  0
VERTEX
  8
0
 10
1.9762
 20
7.2286
  0
VERTEX
  8
0
 10
1.9397
 20
7.2029
  0
VERTEX
  8
0
 10
1.9005
 20
7.1818
  0
VERTEX
  8
0
 10
1.8585
 20
7.1654
  0
VERTEX
  8
0
 10
1.8139
 20
7.1536
  0
VERTEX
  8
0
 10
1.7665
 20
7.1464
  0
VERTEX
  8
0
 10
1.7164
 20
7.1439
  0
VERTEX
  8
0
 10
1.6529
 20
7.1475
  0
VERTEX
  8
0
 10
1.5939
 20
7.1583
  0
VERTEX
  8
0
 10
1.5396
 20
7.1763
  0
VERTEX
  8
0
 10
1.4899
 20
7.2016
  0
VERTEX
  8
0
 10
1.4447
 20
7.234
  0
VERTEX
  8
0
 10
1.4046
 20
7.2738
  0
VERTEX
  8
0
 10
1.372
 20
7.3191
  0
VERTEX
  8
0
 10
1.3468
 20
7.3699
  0
VERTEX
  8
0
 10
1.3292
 20
7.4263
  0
VERTEX
  8
0
 10
1.319
 20
7.4882
  0
VERTEX
  8
0
 10
1.319
 20
7.4882
  0
SEQEND
  0
POLYLINE
  8
0
 66
     1
 10
0
 20
0
  0
VERTEX
  8
0
 10
2.337
 20
7.9639
  0
VERTEX
  8
0
 10
2.295
 20
8.1983
  0
VERTEX
  8
0
 10
2.295
 20
8.3999
  0
VERTEX
  8
0
 10
2.467
 20
8.3999
  0
VERTEX
  8
0
 10
2.467
 20
8.1983
  0
VERTEX
  8
0
 10
2.4293
 20
7.9639
  0
VERTEX
  8
0
 10
2.337
 20
7.9639
  0
SEQEND
  0
POLYLINE
  8
0
 66
     1
 10
0
 20
0
  0
VERTEX
  8
0
 10
2.6161
 20
7.9639
  0
VERTEX
  8
0
 10
2.575
 20
8.1983
  0
VERTEX
  8
0
 10
2.575
 20
8.3999
  0
VERTEX
  8
0
 10
2.747
 20
8.3999
  0
VERTEX
  8
0
 10
2.747
 20
8.1983
  0
VERTEX
  8
0
 10
2.7068
 20
7.9639
  0
VERTEX
  8
0
 10
2.6161
 20
7.9639
  0
SEQEND
  0
POLYLINE
  8
0
 66
     1
 10
0
 20
0
  0
VERTEX
  8
0
 10
3.763
 20
7.1599
  0
VERTEX
  8
0
 10
3.763
 20
8.3999
  0
VERTEX
  8
0
 10
4.311
 20
8.3999
  0
VERTEX
  8
0
 10
4.3982
 20
8.3974
  0
VERTEX
  8
0
 10
4.471
 20
8.3898
  0
VERTEX
  8
0
 10
4.5293
 20
8.3771
  0
VERTEX
  8
0
 10
4.5823
 20
8.3564
  0
VERTEX
  8
0
 10
4.6284
 20
8.328
  0
VERTEX
  8
0
 10
4.6675
 20
8.2921
  0
VERTEX
  8
0
 10
4.6996
 20
8.2485
  0
VERTEX
  8
0
 10
4.7378
 20
8.1599
  0
VERTEX
  8
0
 10
4.751
 20
8.0616
  0
VERTEX
  8
0
 10
4.7504
 20
8.0348
  0
VERTEX
  8
0
 10
4.7482
 20
8.009
  0
VERTEX
  8
0
 10
4.7443
 20
7.9843
  0
VERTEX
  8
0
 10
4.7389
 20
7.9607
  0
VERTEX
  8
0
 10
4.7319
 20
7.9381
  0
VERTEX
  8
0
 10
4.7234
 20
7.9167
  0
VERTEX
  8
0
 10
4.7132
 20
7.8963
  0
VERTEX
  8
0
 10
4.7014
 20
7.877
  0
VERTEX
  8
0
 10
4.6881
 20
7.8587
  0
VERTEX
  8
0
 10
4.6731
 20
7.8416
  0
VERTEX
  8
0
 10
4.6566
 20
7.8255
  0
VERTEX
  8
0
 10
4.6385
 20
7.8105
  0
VERTEX
  8
0
 10
4.6187
 20
7.7966
  0
VERTEX
  8
0
 10
4.5974
 20
7.7838
  0
VERTEX
  8
0
 10
4.5745
 20
7.772
  0
VERTEX
  8
0
 10
4.5501
 20
7.7613
  0
VERTEX
  8
0
 10
4.524
 20
7.7517
  0
VERTEX
  8
0
 10
4.4963
 20
7.7432
  0
VERTEX
  8
0
 10
4.4671
 20
7.7358
  0
VERTEX
  8
0
 10
4.4362
 20
7.7294
  0
VERTEX
  8
0
 10
4.4038
 20
7.7241
  0
VERTEX
  8
0
 10
4.4614
 20
7.693
  0
VERTEX
  8
0
 10
4.5025
 20
7.6624
  0
VERTEX
  8
0
 10
4.5741
 20
7.586
  0
VERTEX
  8
0
 10
4.6385
 20
7.4974
  0
VERTEX
  8
0
 10
4.8537
 20
7.1599
  0
VERTEX
  8
0
 10
4.6504
 20
7.1599
  0
VERTEX
  8
0
 10
4.4848
 20
7.422
  0
VERTEX
  8
0
 10
4.4337
 20
7.5008
  0
VERTEX
  8
0
 10
4.3936
 20
7.5587
  0
VERTEX
  8
0
 10
4.3338
 20
7.632
  0
VERTEX
  8
0
 10
4.2828
 20
7.6769
  0
VERTEX
  8
0
 10
4.2456
 20
7.6975
  0
VERTEX
  8
0
 10
4.2085
 20
7.71
  0
VERTEX
  8
0
 10
4.1726
 20
7.7144
  0
VERTEX
  8
0
 10
4.1172
 20
7.7159
  0
VERTEX
  8
0
 10
3.927
 20
7.7159
  0
VERTEX
  8
0
 10
3.927
 20
7.1599
  0
VERTEX
  8
0
 10
3.763
 20
7.1599
  0
SEQEND
  0
POLYLINE
  8
0
 66
     1
 10
0
 20
0
  0
VERTEX
  8
0
 10
3.927
 20
7.8559
  0
VERTEX
  8
0
 10
4.2786
 20
7.8559
  0
VERTEX
  8
0
 10
4.3286
 20
7.8574
  0
VERTEX
  8
0
 10
4.374
 20
7.862
  0
VERTEX
  8
0
 10
4.4149
 20
7.8695
  0
VERTEX
  8
0
 10
4.4511
 20
7.8801
  0
VERTEX
  8
0
 10
4.4827
 20
7.8937
  0
VERTEX
  8
0
 10
4.5098
 20
7.9103
  0
VERTEX
  8
0
 10
4.5323
 20
7.93
  0
VERTEX
  8
0
 10
4.5501
 20
7.9527
  0
VERTEX
  8
0
 10
4.5748
 20
8.0061
  0
VERTEX
  8
0
 10
4.583
 20
8.0637
  0
VERTEX
  8
0
 10
4.5778
 20
8.1133
  0
VERTEX
  8
0
 10
4.5621
 20
8.1561
  0
VERTEX
  8
0
 10
4.5361
 20
8.192
  0
VERTEX
  8
0
 10
4.4995
 20
8.221
  0
VERTEX
  8
0
 10
4.4491
 20
8.2449
  0
VERTEX
  8
0
 10
4.3886
 20
8.2592
  0
VERTEX
  8
0
 10
4.3183
 20
8.2639
  0
VERTEX
  8
0
 10
3.927
 20
8.2639
  0
VERTEX
  8
0
 10
3.927
 20
7.8559
  0
SEQEND
  0
POLYLINE
  8
0
 66
     1
 10
0
 20
0
  0
VERTEX
  8
0
 10
5.5795
 20
7.2745
  0
VERTEX
  8
0
 10
5.5279
 20
7.2348
  0
VERTEX
  8
0
 10
5.475
 20
7.2023
  0
VERTEX
  8
0
 10
5.4206
 20
7.177
  0
VERTEX
  8
0
 10
5.3649
 20
7.1588
  0
VERTEX
  8
0
 10
5.3079
 20
7.1478
  0
VERTEX
  8
0
 10
5.2495
 20
7.1439
  0
VERTEX
  8
0
 10
5.1671
 20
7.1503
  0
VERTEX
  8
0
 10
5.0956
 20
7.1706
  0
VERTEX
  8
0
 10
5.035
 20
7.2047
  0
VERTEX
  8
0
 10
5.0022
 20
7.2345
  0
VERTEX
  8
0
 10
4.9766
 20
7.269
  0
VERTEX
  8
0
 10
4.9582
 20
7.3082
  0
VERTEX
  8
0
 10
4.947
 20
7.3521
  0
VERTEX
  8
0
 10
4.943
 20
7.4008
  0
VERTEX
  8
0
 10
4.9458
 20
7.4432
  0
VERTEX
  8
0
 10
4.9546
 20
7.4825
  0
VERTEX
  8
0
 10
4.9696
 20
7.5187
  0
VERTEX
  8
0
 10
4.9906
 20
7.5518
  0
VERTEX
  8
0
 10
5.0177
 20
7.5818
  0
VERTEX
  8
0
 10
5.051
 20
7.6087
  0
VERTEX
  8
0
 10
5.1016
 20
7.6376
  0
VERTEX
  8
0
 10
5.1606
 20
7.6585
  0
VERTEX
  8
0
 10
5.2158
 20
7.6701
  0
VERTEX
  8
0
 10
5.2955
 20
7.6813
  0
VERTEX
  8
0
 10
5.3668
 20
7.6907
  0
VERTEX
  8
0
 10
5.4295
 20
7.7006
  0
VERTEX
  8
0
 10
5.4836
 20
7.7111
  0
VERTEX
  8
0
 10
5.5292
 20
7.7221
  0
VERTEX
  8
0
 10
5.5662
 20
7.7337
  0
VERTEX
  8
0
 10
5.5664
 20
7.7601
  0
VERTEX
  8
0
 10
5.567
 20
7.7734
  0
VERTEX
  8
0
 10
5.5622
 20
7.8293
  0
VERTEX
  8
0
 10
5.5479
 20
7.8729
  0
VERTEX
  8
0
 10
5.524
 20
7.9044
  0
VERTEX
  8
0
 10
5.4793
 20
7.9326
  0
VERTEX
  8
0
 10
5.4217
 20
7.9498
  0
VERTEX
  8
0
 10
5.3511
 20
7.9559
  0
VERTEX
  8
0
 10
5.2883
 20
7.9523
  0
VERTEX
  8
0
 10
5.2368
 20
7.9404
  0
VERTEX
  8
0
 10
5.1968
 20
7.9202
  0
VERTEX
  8
0
 10
5.164
 20
7.8882
  0
VERTEX
  8
0
 10
5.1376
 20
7.8429
  0
VERTEX
  8
0
 10
5.1176
 20
7.7844
  0
VERTEX
  8
0
 10
4.9691
 20
7.8046
  0
VERTEX
  8
0
 10
4.9809
 20
7.8487
  0
VERTEX
  8
0
 10
4.9965
 20
7.889
  0
VERTEX
  8
0
 10
5.0159
 20
7.9252
  0
VERTEX
  8
0
 10
5.0391
 20
7.9576
  0
VERTEX
  8
0
 10
5.066
 20
7.9861
  0
VERTEX
  8
0
 10
5.0968
 20
8.0106
  0
VERTEX
  8
0
 10
5.1313
 20
8.0312
  0
VERTEX
  8
0
 10
5.1696
 20
8.0479
  0
VERTEX
  8
0
 10
5.263
 20
8.0715
  0
VERTEX
  8
0
 10
5.3727
 20
8.0799
  0
VERTEX
  8
0
 10
5.4235
 20
8.0786
  0
VERTEX
  8
0
 10
5.4702
 20
8.0743
  0
VERTEX
  8
0
 10
5.5129
 20
8.0669
  0
VERTEX
  8
0
 10
5.5514
 20
8.0564
  0
VERTEX
  8
0
 10
5.5857
 20
8.0429
  0
VERTEX
  8
0
 10
5.616
 20
8.0264
  0
VERTEX
  8
0
 10
5.6422
 20
8.0068
  0
VERTEX
  8
0
 10
5.6643
 20
7.9842
  0
VERTEX
  8
0
 10
5.6925
 20
7.9384
  0
VERTEX
  8
0
 10
5.7115
 20
7.8809
  0
VERTEX
  8
0
 10
5.7157
 20
7.8502
  0
VERTEX
  8
0
 10
5.7182
 20
7.8033
  0
VERTEX
  8
0
 10
5.719
 20
7.7402
  0
VERTEX
  8
0
 10
5.719
 20
7.5369
  0
VERTEX
  8
0
 10
5.719
 20
7.4939
  0
VERTEX
  8
0
 10
5.7191
 20
7.4562
  0
VERTEX
  8
0
 10
5.7191
 20
7.424
  0
VERTEX
  8
0
 10
5.7192
 20
7.3971
  0
VERTEX
  8
0
 10
5.7194
 20
7.3757
  0
VERTEX
  8
0
 10
5.7195
 20
7.3596
  0
VERTEX
  8
0
 10
5.7197
 20
7.349
  0
VERTEX
  8
0
 10
5.7199
 20
7.3437
  0
VERTEX
  8
0
 10
5.7356
 20
7.2419
  0
VERTEX
  8
0
 10
5.7686
 20
7.1599
  0
VERTEX
  8
0
 10
5.61
 20
7.1599
  0
VERTEX
  8
0
 10
5.5909
 20
7.2131
  0
VERTEX
  8
0
 10
5.5795
 20
7.2745
  0
VERTEX
  8
0
 10
5.5795
 20
7.2745
  0
SEQEND
  0
POLYLINE
  8
0
 66
     1
 10
0
 20
0
  0
VERTEX
  8
0
 10
5.567
 20
7.6139
  0
VERTEX
  8
0
 10
5.5207
 20
7.598
  0
VERTEX
  8
0
 10
5.464
 20
7.5832
  0
VERTEX
  8
0
 10
5.397
 20
7.5694
  0
VERTEX
  8
0
 10
5.3198
 20
7.5567
  0
VERTEX
  8
0
 10
5.255
 20
7.5462
  0
VERTEX
  8
0
 10
5.2138
 20
7.5365
  0
VERTEX
  8
0
 10
5.1625
 20
7.5119
  0
VERTEX
  8
0
 10
5.128
 20
7.4767
  0
VERTEX
  8
0
 10
5.1127
 20
7.4433
  0
VERTEX
  8
0
 10
5.107
 20
7.4052
  0
VERTEX
  8
0
 10
5.1129
 20
7.3613
  0
VERTEX
  8
0
 10
5.1317
 20
7.3248
  0
VERTEX
  8
0
 10
5.1633
 20
7.2959
  0
VERTEX
  8
0
 10
5.2186
 20
7.2719
  0
VERTEX
  8
0
 10
5.287
 20
7.2639
  0
VERTEX
  8
0
 10
5.3272
 20
7.2657
  0
VERTEX
  8
0
 10
5.3644
 20
7.271
  0
VERTEX
  8
0
 10
5.3987
 20
7.2798
  0
VERTEX
  8
0
 10
5.4301
 20
7.2922
  0
VERTEX
  8
0
 10
5.4585
 20
7.3081
  0
VERTEX
  8
0
 10
5.484
 20
7.3275
  0
VERTEX
  8
0
 10
5.5065
 20
7.3504
  0
VERTEX
  8
0
 10
5.526
 20
7.3769
  0
VERTEX
  8
0
 10
5.5426
 20
7.4069
  0
VERTEX
  8
0
 10
5.5609
 20
7.4704
  0
VERTEX
  8
0
 10
5.567
 20
7.5584
  0
VERTEX
  8
0
 10
5.567
 20
7.6139
  0
SEQEND
  0
POLYLINE
  8
0
 66
     1
 10
0
 20
0
  0
VERTEX
  8
0
 10
6.539
 20
7.1599
  0
VERTEX
  8
0
 10
6.539
 20
7.277
  0
VERTEX
  8
0
 10
6.5134
 20
7.2419
  0
VERTEX
  8
0
 10
6.4845
 20
7.2122
  0
VERTEX
  8
0
 10
6.4522
 20
7.1878
  0
VERTEX
  8
0
 10
6.4167
 20
7.1688
  0
VERTEX
  8
0
 10
6.3778
 20
7.1551
  0
VERTEX
  8
0
 10
6.3356
 20
7.1468
  0
VERTEX
  8
0
 10
6.2901
 20
7.1439
  0
VERTEX
  8
0
 10
6.2191
 20
7.1504
  0
VERTEX
  8
0
 10
6.1526
 20
7.1709
  0
VERTEX
  8
0
 10
6.0906
 20
7.2055
  0
VERTEX
  8
0
 10
6.0127
 20
7.2761
  0
VERTEX
  8
0
 10
5.9552
 20
7.3682
  0
VERTEX
  8
0
 10
5.9195
 20
7.4804
  0
VERTEX
  8
0
 10
5.907
 20
7.6111
  0
VERTEX
  8
0
 10
5.908
 20
7.6585
  0
VERTEX
  8
0
 10
5.9115
 20
7.7036
  0
VERTEX
  8
0
 10
5.9175
 20
7.7462
  0
VERTEX
  8
0
 10
5.9261
 20
7.7864
  0
VERTEX
  8
0
 10
5.9372
 20
7.8242
  0
VERTEX
  8
0
 10
5.9508
 20
7.8596
  0
VERTEX
  8
0
 10
5.9669
 20
7.8927
  0
VERTEX
  8
0
 10
5.9855
 20
7.9233
  0
VERTEX
  8
0
 10
6.0067
 20
7.9515
  0
VERTEX
  8
0
 10
6.0304
 20
7.9773
  0
VERTEX
  8
0
 10
6.0566
 20
8.0007
  0
VERTEX
  8
0
 10
6.0853
 20
8.0217
  0
VERTEX
  8
0
 10
6.1467
 20
8.0541
  0
VERTEX
  8
0
 10
6.2131
 20
8.0735
  0
VERTEX
  8
0
 10
6.2846
 20
8.0799
  0
VERTEX
  8
0
 10
6.3282
 20
8.0774
  0
VERTEX
  8
0
 10
6.3689
 20
8.0699
  0
VERTEX
  8
0
 10
6.4069
 20
8.0574
  0
VERTEX
  8
0
 10
6.4421
 20
8.0399
  0
VERTEX
  8
0
 10
6.4745
 20
8.0175
  0
VERTEX
  8
0
 10
6.5042
 20
7.99
  0
VERTEX
  8
0
 10
6.531
 20
7.9575
  0
VERTEX
  8
0
 10
6.531
 20
8.3999
  0
VERTEX
  8
0
 10
6.683
 20
8.3999
  0
VERTEX
  8
0
 10
6.683
 20
7.1599
  0
VERTEX
  8
0
 10
6.539
 20
7.1599
  0
SEQEND
  0
POLYLINE
  8
0
 66
     1
 10
0
 20
0
  0
VERTEX
  8
0
 10
6.063
 20
7.6115
  0
VERTEX
  8
0
 10
6.0689
 20
7.5254
  0
VERTEX
  8
0
 10
6.0867
 20
7.449
  0
VERTEX
  8
0
 10
6.1162
 20
7.3822
  0
VERTEX
  8
0
 10
6.1396
 20
7.3475
  0
VERTEX
  8
0
 10
6.1663
 20
7.3191
  0
VERTEX
  8
0
 10
6.1965
 20
7.2969
  0
VERTEX
  8
0
 10
6.23
 20
7.281
  0
VERTEX
  8
0
 10
6.2668
 20
7.2713
  0
VERTEX
  8
0
 10
6.3071
 20
7.2679
  0
VERTEX
  8
0
 10
6.3468
 20
7.2707
  0
VERTEX
  8
0
 10
6.3831
 20
7.2796
  0
VERTEX
  8
0
 10
6.416
 20
7.2946
  0
VERTEX
  8
0
 10
6.4456
 20
7.3157
  0
VERTEX
  8
0
 10
6.4718
 20
7.3429
  0
VERTEX
  8
0
 10
6.4946
 20
7.3762
  0
VERTEX
  8
0
 10
6.5232
 20
7.4408
  0
VERTEX
  8
0
 10
6.5404
 20
7.515
  0
VERTEX
  8
0
 10
6.5461
 20
7.5988
  0
VERTEX
  8
0
 10
6.5406
 20
7.6895
  0
VERTEX
  8
0
 10
6.5239
 20
7.7688
  0
VERTEX
  8
0
 10
6.4963
 20
7.8366
  0
VERTEX
  8
0
 10
6.473
 20
7.8731
  0
VERTEX
  8
0
 10
6.446
 20
7.9029
  0
VERTEX
  8
0
 10
6.4152
 20
7.9261
  0
VERTEX
  8
0
 10
6.3807
 20
7.9427
  0
VERTEX
  8
0
 10
6.3424
 20
7.9526
  0
VERTEX
  8
0
 10
6.3003
 20
7.9559
  0
VERTEX
  8
0
 10
6.2594
 20
7.9527
  0
VERTEX
  8
0
 10
6.2223
 20
7.9432
  0
VERTEX
  8
0
 10
6.1889
 20
7.9274
  0
VERTEX
  8
0
 10
6.1592
 20
7.9051
  0
VERTEX
  8
0
 10
6.1333
 20
7.8766
  0
VERTEX
  8
0
 10
6.1111
 20
7.8417
  0
VERTEX
  8
0
 10
6.0844
 20
7.7762
  0
VERTEX
  8
0
 10
6.0684
 20
7.6995
  0
VERTEX
  8
0
 10
6.063
 20
7.6115
  0
VERTEX
  8
0
 10
6.063
 20
7.6115
  0
SEQEND
  0
POLYLINE
  8
0
 66
     1
 10
0
 20
0
  0
VERTEX
  8
0
 10
6.919
 20
8.2239
  0
VERTEX
  8
0
 10
6.919
 20
8.3999
  0
VERTEX
  8
0
 10
7.071
 20
8.3999
  0
VERTEX
  8
0
 10
7.071
 20
8.2239
  0
VERTEX
  8
0
 10
6.919
 20
8.2239
  0
SEQEND
  0
POLYLINE
  8
0
 66
     1
 10
0
 20
0
  0
VERTEX
  8
0
 10
6.919
 20
7.1599
  0
VERTEX
  8
0
 10
6.919
 20
8.0605
  0
VERTEX
  8
0
 10
7.071
 20
8.0605
  0
VERTEX
  8
0
 10
7.071
 20
7.1599
  0
VERTEX
  8
0
 10
6.919
 20
7.1599
  0
SEQEND
  0
POLYLINE
  8
0
 66
     1
 10
0
 20
0
  0
VERTEX
  8
0
 10
7.891
 20
7.1599
  0
VERTEX
  8
0
 10
7.891
 20
7.2956
  0
VERTEX
  8
0
 10
7.8638
 20
7.2601
  0
VERTEX
  8
0
 10
7.8342
 20
7.2292
  0
VERTEX
  8
0
 10
7.8022
 20
7.2032
  0
VERTEX
  8
0
 10
7.7678
 20
7.1818
  0
VERTEX
  8
0
 10
7.7309
 20
7.1653
  0
VERTEX
  8
0
 10
7.6917
 20
7.1534
  0
VERTEX
  8
0
 10
7.6501
 20
7.1463
  0
VERTEX
  8
0
 10
7.606
 20
7.1439
  0
VERTEX
  8
0
 10
7.536
 20
7.1505
  0
VERTEX
  8
0
 10
7.4681
 20
7.17
  0
VERTEX
  8
0
 10
7.4022
 20
7.2044
  0
VERTEX
  8
0
 10
7.3548
 20
7.2502
  0
VERTEX
  8
0
 10
7.3271
 20
7.3004
  0
VERTEX
  8
0
 10
7.3083
 20
7.3632
  0
VERTEX
  8
0
 10
7.3014
 20
7.4214
  0
VERTEX
  8
0
 10
7.299
 20
7.5049
  0
VERTEX
  8
0
 10
7.299
 20
8.0599
  0
VERTEX
  8
0
 10
7.451
 20
8.0599
  0
VERTEX
  8
0
 10
7.451
 20
7.5639
  0
VERTEX
  8
0
 10
7.4516
 20
7.5085
  0
VERTEX
  8
0
 10
7.4534
 20
7.4633
  0
VERTEX
  8
0
 10
7.4563
 20
7.4285
  0
VERTEX
  8
0
 10
7.4603
 20
7.4039
  0
VERTEX
  8
0
 10
7.4697
 20
7.3743
  0
VERTEX
  8
0
 10
7.4827
 20
7.3486
  0
VERTEX
  8
0
 10
7.4994
 20
7.3267
  0
VERTEX
  8
0
 10
7.5196
 20
7.3088
  0
VERTEX
  8
0
 10
7.5434
 20
7.2947
  0
VERTEX
  8
0
 10
7.5707
 20
7.2846
  0
VERTEX
  8
0
 10
7.6017
 20
7.2783
  0
VERTEX
  8
0
 10
7.6363
 20
7.2759
  0
VERTEX
  8
0
 10
7.7027
 20
7.284
  0
VERTEX
  8
0
 10
7.7646
 20
7.31
  0
VERTEX
  8
0
 10
7.8157
 20
7.3514
  0
VERTEX
  8
0
 10
7.8496
 20
7.4056
  0
VERTEX
  8
0
 10
7.8687
 20
7.4797
  0
VERTEX
  8
0
 10
7.875
 20
7.5807
  0
VERTEX
  8
0
 10
7.875
 20
8.0599
  0
VERTEX
  8
0
 10
8.027
 20
8.0599
  0
VERTEX
  8
0
 10
8.027
 20
7.1599
  0
VERTEX
  8
0
 10
7.891
 20
7.1599
  0
SEQEND
  0
POLYLINE
  8
0
 66
     1
 10
0
 20
0
  0
VERTEX
  8
0
 10
8.207
 20
7.4315
  0
VERTEX
  8
0
 10
8.3572
 20
7.4552
  0
VERTEX
  8
0
 10
8.3628
 20
7.4253
  0
VERTEX
  8
0
 10
8.3709
 20
7.398
  0
VERTEX
  8
0
 10
8.3815
 20
7.3732
  0
VERTEX
  8
0
 10
8.3946
 20
7.3511
  0
VERTEX
  8
0
 10
8.4102
 20
7.3316
  0
VERTEX
  8
0
 10
8.4283
 20
7.3147
  0
VERTEX
  8
0
 10
8.4489
 20
7.3004
  0
VERTEX
  8
0
 10
8.4719
 20
7.2887
  0
VERTEX
  8
0
 10
8.4975
 20
7.2796
  0
VERTEX
  8
0
 10
8.5256
 20
7.2731
  0
VERTEX
  8
0
 10
8.5561
 20
7.2692
  0
VERTEX
  8
0
 10
8.5892
 20
7.2679
  0
VERTEX
  8
0
 10
8.6638
 20
7.2755
  0
VERTEX
  8
0
 10
8.7258
 20
7.2983
  0
VERTEX
  8
0
 10
8.7643
 20
7.3273
  0
VERTEX
  8
0
 10
8.7873
 20
7.3647
  0
VERTEX
  8
0
 10
8.795
 20
7.4105
  0
VERTEX
  8
0
 10
8.7838
 20
7.4566
  0
VERTEX
  8
0
 10
8.7502
 20
7.4916
  0
VERTEX
  8
0
 10
8.7291
 20
7.5024
  0
VERTEX
  8
0
 10
8.6961
 20
7.5146
  0
VERTEX
  8
0
 10
8.6513
 20
7.5282
  0
VERTEX
  8
0
 10
8.5946
 20
7.5431
  0
VERTEX
  8
0
 10
8.5416
 20
7.5565
  0
VERTEX
  8
0
 10
8.4969
 20
7.5682
  0
VERTEX
  8
0
 10
8.4606
 20
7.5783
  0
VERTEX
  8
0
 10
8.4325
 20
7.5868
  0
VERTEX
  8
0
 10
8.4128
 20
7.5937
  0
VERTEX
  8
0
 10
8.3486
 20
7.6236
  0
VERTEX
  8
0
 10
8.299
 20
7.6594
  0
VERTEX
  8
0
 10
8.264
 20
7.7009
  0
VERTEX
  8
0
 10
8.2393
 20
7.7577
  0
VERTEX
  8
0
 10
8.231
 20
7.8216
  0
VERTEX
  8
0
 10
8.2351
 20
7.8683
  0
VERTEX
  8
0
 10
8.2474
 20
7.9113
  0
VERTEX
  8
0
 10
8.2679
 20
7.9505
  0
VERTEX
  8
0
 10
8.2965
 20
7.9859
  0
VERTEX
  8
0
 10
8.3334
 20
8.0175
  0
VERTEX
  8
0
 10
8.3794
 20
8.0445
  0
VERTEX
  8
0
 10
8.4328
 20
8.0639
  0
VERTEX
  8
0
 10
8.4936
 20
8.0757
  0
VERTEX
  8
0
 10
8.5618
 20
8.0799
  0
VERTEX
  8
0
 10
8.6597
 20
8.0728
  0
VERTEX
  8
0
 10
8.747
 20
8.0496
  0
VERTEX
  8
0
 10
8.8165
 20
8.0134
  0
VERTEX
  8
0
 10
8.8662
 20
7.9655
  0
VERTEX
  8
0
 10
8.8973
 20
7.907
  0
VERTEX
  8
0
 10
8.9178
 20
7.8291
  0
VERTEX
  8
0
 10
8.7681
 20
7.8089
  0
VERTEX
  8
0
 10
8.7621
 20
7.8367
  0
VERTEX
  8
0
 10
8.7531
 20
7.8616
  0
VERTEX
  8
0
 10
8.741
 20
7.8835
  0
VERTEX
  8
0
 10
8.7259
 20
7.9026
  0
VERTEX
  8
0
 10
8.7077
 20
7.9187
  0
VERTEX
  8
0
 10
8.6864
 20
7.932
  0
VERTEX
  8
0
 10
8.6621
 20
7.9423
  0
VERTEX
  8
0
 10
8.6347
 20
7.9498
  0
VERTEX
  8
0
 10
8.6042
 20
7.9543
  0
VERTEX
  8
0
 10
8.5707
 20
7.9559
  0
VERTEX
  8
0
 10
8.537
 20
7.9551
  0
VERTEX
  8
0
 10
8.5065
 20
7.9523
  0
VERTEX
  8
0
 10
8.4792
 20
7.9476
  0
VERTEX
  8
0
 10
8.455
 20
7.941
  0
VERTEX
  8
0
 10
8.4341
 20
7.9324
  0
VERTEX
  8
0
 10
8.4163
 20
7.9219
  0
VERTEX
  8
0
 10
8.4017
 20
7.9095
  0
VERTEX
  8
0
 10
8.3902
 20
7.8951
  0
VERTEX
  8
0
 10
8.382
 20
7.8788
  0
VERTEX
  8
0
 10
8.3769
 20
7.8605
  0
VERTEX
  8
0
 10
8.375
 20
7.8403
  0
VERTEX
  8
0
 10
8.3793
 20
7.813
  0
VERTEX
  8
0
 10
8.3937
 20
7.7867
  0
VERTEX
  8
0
 10
8.4182
 20
7.7638
  0
VERTEX
  8
0
 10
8.4523
 20
7.7466
  0
VERTEX
  8
0
 10
8.4637
 20
7.7426
  0
VERTEX
  8
0
 10
8.4829
 20
7.7367
  0
VERTEX
  8
0
 10
8.5099
 20
7.729
  0
VERTEX
  8
0
 10
8.5448
 20
7.7193
  0
VERTEX
  8
0
 10
8.5874
 20
7.7077
  0
VERTEX
  8
0
 10
8.6489
 20
7.6906
  0
VERTEX
  8
0
 10
8.7023
 20
7.6749
  0
VERTEX
  8
0
 10
8.7475
 20
7.6608
  0
VERTEX
  8
0
 10
8.7845
 20
7.6481
  0
VERTEX
  8
0
 10
8.8134
 20
7.6369
  0
VERTEX
  8
0
 10
8.8455
 20
7.621
  0
VERTEX
  8
0
 10
8.8733
 20
7.6023
  0
VERTEX
  8
0
 10
8.8969
 20
7.5805
  0
VERTEX
  8
0
 10
8.9162
 20
7.5558
  0
VERTEX
  8
0
 10
8.9313
 20
7.5282
  0
VERTEX
  8
0
 10
8.9421
 20
7.4976
  0
VERTEX
  8
0
 10
8.9487
 20
7.4641
  0
VERTEX
  8
0
 10
8.951
 20
7.4275
  0
VERTEX
  8
0
 10
8.9403
 20
7.3541
  0
VERTEX
  8
0
 10
8.9063
 20
7.284
  0
VERTEX
  8
0
 10
8.8843
 20
7.2548
  0
VERTEX
  8
0
 10
8.8589
 20
7.229
  0
VERTEX
  8
0
 10
8.8303
 20
7.2066
  0
VERTEX
  8
0
 10
8.7984
 20
7.1876
  0
VERTEX
  8
0
 10
8.7633
 20
7.172
  0
VERTEX
  8
0
 10
8.7249
 20
7.1599
  0
VERTEX
  8
0
 10
8.6832
 20
7.1511
  0
VERTEX
  8
0
 10
8.6382
 20
7.1458
  0
VERTEX
  8
0
 10
8.59
 20
7.1439
  0
VERTEX
  8
0
 10
8.5575
 20
7.1445
  0
VERTEX
  8
0
 10
8.5265
 20
7.1465
  0
VERTEX
  8
0
 10
8.4968
 20
7.15
  0
VERTEX
  8
0
 10
8.4686
 20
7.1549
  0
VERTEX
  8
0
 10
8.4417
 20
7.1613
  0
VERTEX
  8
0
 10
8.4163
 20
7.1691
  0
VERTEX
  8
0
 10
8.3922
 20
7.1784
  0
VERTEX
  8
0
 10
8.3696
 20
7.1891
  0
VERTEX
  8
0
 10
8.3483
 20
7.2013
  0
VERTEX
  8
0
 10
8.3285
 20
7.215
  0
VERTEX
  8
0
 10
8.31
 20
7.2301
  0
VERTEX
  8
0
 10
8.293
 20
7.2467
  0
VERTEX
  8
0
 10
8.2773
 20
7.2647
  0
VERTEX
  8
0
 10
8.2631
 20
7.2841
  0
VERTEX
  8
0
 10
8.2502
 20
7.3051
  0
VERTEX
  8
0
 10
8.2388
 20
7.3275
  0
VERTEX
  8
0
 10
8.2288
 20
7.3513
  0
VERTEX
  8
0
 10
8.2201
 20
7.3766
  0
VERTEX
  8
0
 10
8.2129
 20
7.4033
  0
VERTEX
  8
0
 10
8.207
 20
7.4315
  0
VERTEX
  8
0
 10
8.207
 20
7.4315
  0
SEQEND
  0
POLYLINE
  8
0
 66
     1
 10
0
 20
0
  0
VERTEX
  8
0
 10
9.179
 20
7.1599
  0
VERTEX
  8
0
 10
9.179
 20
7.3359
  0
VERTEX
  8
0
 10
9.351
 20
7.3359
  0
VERTEX
  8
0
 10
9.351
 20
7.1636
  0
VERTEX
  8
0
 10
9.3493
 20
7.1247
  0
VERTEX
  8
0
 10
9.344
 20
7.0888
  0
VERTEX
  8
0
 10
9.3353
 20
7.0559
  0
VERTEX
  8
0
 10
9.323
 20
7.0258
  0
VERTEX
  8
0
 10
9.3073
 20
6.9988
  0
VERTEX
  8
0
 10
9.2881
 20
6.9746
  0
VERTEX
  8
0
 10
9.2653
 20
6.9535
  0
VERTEX
  8
0
 10
9.2391
 20
6.9352
  0
VERTEX
  8
0
 10
9.2094
 20
6.9199
  0
VERTEX
  8
0
 10
9.167
 20
6.9837
  0
VERTEX
  8
0
 10
9.1953
 20
6.9991
  0
VERTEX
  8
0
 10
9.2186
 20
7.0202
  0
VERTEX
  8
0
 10
9.2371
 20
7.0468
  0
VERTEX
  8
0
 10
9.2507
 20
7.0789
  0
VERTEX
  8
0
 10
9.2594
 20
7.1166
  0
VERTEX
  8
0
 10
9.2633
 20
7.1599
  0
VERTEX
  8
0
 10
9.179
 20
7.1599
  0
SEQEND
  0
POLYLINE
  8
0
 66
     1
 10
0
 20
0
  0
VERTEX
  8
0
 10
10.379
 20
7.7755
  0
VERTEX
  8
0
 10
10.3797
 20
7.8261
  0
VERTEX
  8
0
 10
10.3818
 20
7.8745
  0
VERTEX
  8
0
 10
10.3853
 20
7.921
  0
VERTEX
  8
0
 10
10.3902
 20
7.9653
  0
VERTEX
  8
0
 10
10.3965
 20
8.0076
  0
VERTEX
  8
0
 10
10.4042
 20
8.0477
  0
VERTEX
  8
0
 10
10.4133
 20
8.0858
  0
VERTEX
  8
0
 10
10.4238
 20
8.1219
  0
VERTEX
  8
0
 10
10.4357
 20
8.1558
  0
VERTEX
  8
0
 10
10.449
 20
8.1877
  0
VERTEX
  8
0
 10
10.4637
 20
8.2175
  0
VERTEX
  8
0
 10
10.4798
 20
8.2452
  0
VERTEX
  8
0
 10
10.4973
 20
8.2708
  0
VERTEX
  8
0
 10
10.5162
 20
8.2944
  0
VERTEX
  8
0
 10
10.5365
 20
8.3159
  0
VERTEX
  8
0
 10
10.5582
 20
8.3353
  0
VERTEX
  8
0
 10
10.6052
 20
8.3667
  0
VERTEX
  8
0
 10
10.6584
 20
8.3893
  0
VERTEX
  8
0
 10
10.7176
 20
8.4031
  0
VERTEX
  8
0
 10
10.783
 20
8.4079
  0
VERTEX
  8
0
 10
10.8754
 20
8.3982
  0
VERTEX
  8
0
 10
10.958
 20
8.3674
  0
VERTEX
  8
0
 10
10.9922
 20
8.3463
  0
VERTEX
  8
0
 10
11.0238
 20
8.3205
  0
VERTEX
  8
0
 10
11.0528
 20
8.29
  0
VERTEX
  8
0
 10
11.0793
 20
8.2549
  0
VERTEX
  8
0
 10
11.1031
 20
8.2151
  0
VERTEX
  8
0
 10
11.1244
 20
8.1706
  0
VERTEX
  8
0
 10
11.1431
 20
8.1215
  0
VERTEX
  8
0
 10
11.1591
 20
8.0677
  0
VERTEX
  8
0
 10
11.1713
 20
8.0095
  0
VERTEX
  8
0
 10
11.1801
 20
7.9414
  0
VERTEX
  8
0
 10
11.1853
 20
7.8634
  0
VERTEX
  8
0
 10
11.187
 20
7.7755
  0
VERTEX
  8
0
 10
11.1862
 20
7.7217
  0
VERTEX
  8
0
 10
11.1838
 20
7.6703
  0
VERTEX
  8
0
 10
11.1799
 20
7.6213
  0
VERTEX
  8
0
 10
11.1743
 20
7.5746
  0
VERTEX
  8
0
 10
11.1671
 20
7.5303
  0
VERTEX
  8
0
 10
11.1584
 20
7.4883
  0
VERTEX
  8
0
 10
11.148
 20
7.4487
  0
VERTEX
  8
0
 10
11.1361
 20
7.4114
  0
VERTEX
  8
0
 10
11.1225
 20
7.3765
  0
VERTEX
  8
0
 10
11.1074
 20
7.344
  0
VERTEX
  8
0
 10
11.0907
 20
7.3138
  0
VERTEX
  8
0
 10
11.0723
 20
7.2859
  0
VERTEX
  8
0
 10
11.0524
 20
7.2604
  0
VERTEX
  8
0
 10
11.0309
 20
7.2373
  0
VERTEX
  8
0
 10
11.0078
 20
7.2165
  0
VERTEX
  8
0
 10
10.9608
 20
7.1851
  0
VERTEX
  8
0
 10
10.9077
 20
7.1625
  0
VERTEX
  8
0
 10
10.8484
 20
7.1488
  0
VERTEX
  8
0
 10
10.783
 20
7.1439
  0
VERTEX
  8
0
 10
10.7615
 20
7.1443
  0
VERTEX
  8
0
 10
10.7406
 20
7.1456
  0
VERTEX
  8
0
 10
10.7203
 20
7.1478
  0
VERTEX
  8
0
 10
10.7006
 20
7.151
  0
VERTEX
  8
0
 10
10.6814
 20
7.1551
  0
VERTEX
  8
0
 10
10.6629
 20
7.1601
  0
VERTEX
  8
0
 10
10.6449
 20
7.166
  0
VERTEX
  8
0
 10
10.6275
 20
7.1729
  0
VERTEX
  8
0
 10
10.6107
 20
7.1807
  0
VERTEX
  8
0
 10
10.5945
 20
7.1894
  0
VERTEX
  8
0
 10
10.5789
 20
7.199
  0
VERTEX
  8
0
 10
10.5638
 20
7.2096
  0
VERTEX
  8
0
 10
10.5494
 20
7.2211
  0
VERTEX
  8
0
 10
10.5355
 20
7.2335
  0
VERTEX
  8
0
 10
10.5223
 20
7.2469
  0
VERTEX
  8
0
 10
10.5096
 20
7.2612
  0
VERTEX
  8
0
 10
10.4975
 20
7.2764
  0
VERTEX
  8
0
 10
10.486
 20
7.2925
  0
VERTEX
  8
0
 10
10.4751
 20
7.3096
  0
VERTEX
  8
0
 10
10.4647
 20
7.3276
  0
VERTEX
  8
0
 10
10.455
 20
7.3465
  0
VERTEX
  8
0
 10
10.4458
 20
7.3664
  0
VERTEX
  8
0
 10
10.4373
 20
7.3872
  0
VERTEX
  8
0
 10
10.4293
 20
7.4089
  0
VERTEX
  8
0
 10
10.4219
 20
7.4315
  0
VERTEX
  8
0
 10
10.4151
 20
7.4551
  0
VERTEX
  8
0
 10
10.4089
 20
7.4796
  0
VERTEX
  8
0
 10
10.4032
 20
7.505
  0
VERTEX
  8
0
 10
10.3982
 20
7.5313
  0
VERTEX
  8
0
 10
10.3938
 20
7.5586
  0
VERTEX
  8
0
 10
10.3899
 20
7.5868
  0
VERTEX
  8
0
 10
10.3866
 20
7.6159
  0
VERTEX
  8
0
 10
10.3839
 20
7.646
  0
VERTEX
  8
0
 10
10.3818
 20
7.677
  0
VERTEX
  8
0
 10
10.3803
 20
7.7089
  0
VERTEX
  8
0
 10
10.3794
 20
7.7417
  0
VERTEX
  8
0
 10
10.379
 20
7.7755
  0
VERTEX
  8
0
 10
10.379
 20
7.7755
  0
SEQEND
  0
POLYLINE
  8
0
 66
     1
 10
0
 20
0
  0
VERTEX
  8
0
 10
10.535
 20
7.7759
  0
VERTEX
  8
0
 10
10.5363
 20
7.6969
  0
VERTEX
  8
0
 10
10.5403
 20
7.6257
  0
VERTEX
  8
0
 10
10.5469
 20
7.5624
  0
VERTEX
  8
0
 10
10.5561
 20
7.5069
  0
VERTEX
  8
0
 10
10.568
 20
7.4593
  0
VERTEX
  8
0
 10
10.5804
 20
7.4231
  0
VERTEX
  8
0
 10
10.5948
 20
7.3907
  0
VERTEX
  8
0
 10
10.6112
 20
7.3621
  0
VERTEX
  8
0
 10
10.6297
 20
7.3372
  0
VERTEX
  8
0
 10
10.6501
 20
7.3162
  0
VERTEX
  8
0
 10
10.6727
 20
7.299
  0
VERTEX
  8
0
 10
10.6972
 20
7.2855
  0
VERTEX
  8
0
 10
10.7238
 20
7.2759
  0
VERTEX
  8
0
 10
10.7524
 20
7.27
  0
VERTEX
  8
0
 10
10.783
 20
7.2679
  0
VERTEX
  8
0
 10
10.8004
 20
7.2685
  0
VERTEX
  8
0
 10
10.8172
 20
7.2703
  0
VERTEX
  8
0
 10
10.8333
 20
7.2734
  0
VERTEX
  8
0
 10
10.8488
 20
7.2779
  0
VERTEX
  8
0
 10
10.8637
 20
7.2836
  0
VERTEX
  8
0
 10
10.8779
 20
7.2907
  0
VERTEX
  8
0
 10
10.8915
 20
7.299
  0
VERTEX
  8
0
 10
10.9045
 20
7.3087
  0
VERTEX
  8
0
 10
10.9168
 20
7.3197
  0
VERTEX
  8
0
 10
10.9285
 20
7.3319
  0
VERTEX
  8
0
 10
10.9396
 20
7.3455
  0
VERTEX
  8
0
 10
10.95
 20
7.3604
  0
VERTEX
  8
0
 10
10.9598
 20
7.3766
  0
VERTEX
  8
0
 10
10.969
 20
7.3941
  0
VERTEX
  8
0
 10
10.9776
 20
7.4129
  0
VERTEX
  8
0
 10
10.9855
 20
7.433
  0
VERTEX
  8
0
 10
10.9927
 20
7.4544
  0
VERTEX
  8
0
 10
10.9994
 20
7.4771
  0
VERTEX
  8
0
 10
11.0054
 20
7.5011
  0
VERTEX
  8
0
 10
11.0108
 20
7.5264
  0
VERTEX
  8
0
 10
11.0155
 20
7.553
  0
VERTEX
  8
0
 10
11.0196
 20
7.581
  0
VERTEX
  8
0
 10
11.0231
 20
7.6102
  0
VERTEX
  8
0
 10
11.026
 20
7.6407
  0
VERTEX
  8
0
 10
11.0282
 20
7.6726
  0
VERTEX
  8
0
 10
11.0298
 20
7.7057
  0
VERTEX
  8
0
 10
11.0307
 20
7.7402
  0
VERTEX
  8
0
 10
11.031
 20
7.7759
  0
VERTEX
  8
0
 10
11.0297
 20
7.855
  0
VERTEX
  8
0
 10
11.0257
 20
7.9262
  0
VERTEX
  8
0
 10
11.0191
 20
7.9895
  0
VERTEX
  8
0
 10
11.0099
 20
8.0449
  0
VERTEX
  8
0
 10
10.998
 20
8.0925
  0
VERTEX
  8
0
 10
10.9855
 20
8.1287
  0
VERTEX
  8
0
 10
10.9709
 20
8.1612
  0
VERTEX
  8
0
 10
10.9543
 20
8.1898
  0
VERTEX
  8
0
 10
10.9357
 20
8.2146
  0
VERTEX
  8
0
 10
10.9151
 20
8.2356
  0
VERTEX
  8
0
 10
10.8924
 20
8.2529
  0
VERTEX
  8
0
 10
10.8677
 20
8.2663
  0
VERTEX
  8
0
 10
10.8409
 20
8.276
  0
VERTEX
  8
0
 10
10.8121
 20
8.2818
  0
VERTEX
  8
0
 10
10.7813
 20
8.2839
  0
VERTEX
  8
0
 10
10.7315
 20
8.2787
  0
VERTEX
  8
0
 10
10.687
 20
8.2621
  0
VERTEX
  8
0
 10
10.6477
 20
8.2343
  0
VERTEX
  8
0
 10
10.6137
 20
8.195
  0
VERTEX
  8
0
 10
10.5988
 20
8.1707
  0
VERTEX
  8
0
 10
10.5854
 20
8.1425
  0
VERTEX
  8
0
 10
10.5736
 20
8.1104
  0
VERTEX
  8
0
 10
10.5634
 20
8.0743
  0
VERTEX
  8
0
 10
10.5547
 20
8.0344
  0
VERTEX
  8
0
 10
10.5476
 20
7.9905
  0
VERTEX
  8
0
 10
10.5421
 20
7.9427
  0
VERTEX
  8
0
 10
10.5382
 20
7.891
  0
VERTEX
  8
0
 10
10.5358
 20
7.8354
  0
VERTEX
  8
0
 10
10.535
 20
7.7759
  0
VERTEX
  8
0
 10
10.535
 20
7.7759
  0
SEQEND
  0
POLYLINE
  8
0
 66
     1
 10
0
 20
0
  0
VERTEX
  8
0
 10
11.423
 20
7.1599
  0
VERTEX
  8
0
 10
11.423
 20
7.3359
  0
VERTEX
  8
0
 10
11.595
 20
7.3359
  0
VERTEX
  8
0
 10
11.595
 20
7.1599
  0
VERTEX
  8
0
 10
11.423
 20
7.1599
  0
SEQEND
  0
POLYLINE
  8
0
 66
     1
 10
0
 20
0
  0
VERTEX
  8
0
 10
11.819
 20
7.4882
  0
VERTEX
  8
0
 10
11.9787
 20
7.5016
  0
VERTEX
  8
0
 10
11.9846
 20
7.4694
  0
VERTEX
  8
0
 10
11.9923
 20
7.4396
  0
VERTEX
  8
0
 10
12.0016
 20
7.4122
  0
VERTEX
  8
0
 10
12.0127
 20
7.3871
  0
VERTEX
  8
0
 10
12.0254
 20
7.3645
  0
VERTEX
  8
0
 10
12.0399
 20
7.3442
  0
VERTEX
  8
0
 10
12.056
 20
7.3263
  0
VERTEX
  8
0
 10
12.0739
 20
7.3108
  0
VERTEX
  8
0
 10
12.0935
 20
7.2977
  0
VERTEX
  8
0
 10
12.1148
 20
7.287
  0
VERTEX
  8
0
 10
12.1378
 20
7.2787
  0
VERTEX
  8
0
 10
12.1625
 20
7.2727
  0
VERTEX
  8
0
 10
12.1889
 20
7.2691
  0
VERTEX
  8
0
 10
12.217
 20
7.2679
  0
VERTEX
  8
0
 10
12.2637
 20
7.2716
  0
VERTEX
  8
0
 10
12.3065
 20
7.2827
  0
VERTEX
  8
0
 10
12.3454
 20
7.3012
  0
VERTEX
  8
0
 10
12.3804
 20
7.3271
  0
VERTEX
  8
0
 10
12.4114
 20
7.3604
  0
VERTEX
  8
0
 10
12.449
 20
7.4209
  0
VERTEX
  8
0
 10
12.4715
 20
7.4904
  0
VERTEX
  8
0
 10
12.479
 20
7.5689
  0
VERTEX
  8
0
 10
12.4746
 20
7.6281
  0
VERTEX
  8
0
 10
12.4615
 20
7.6814
  0
VERTEX
  8
0
 10
12.4396
 20
7.7287
  0
VERTEX
  8
0
 10
12.4089
 20
7.7702
  0
VERTEX
  8
0
 10
12.3704
 20
7.8039
  0
VERTEX
  8
0
 10
12.3252
 20
7.8281
  0
VERTEX
  8
0
 10
12.2732
 20
7.8428
  0
VERTEX
  8
0
 10
12.2145
 20
7.8479
  0
VERTEX
  8
0
 10
12.1679
 20
7.8449
  0
VERTEX
  8
0
 10
12.1248
 20
7.8352
  0
VERTEX
  8
0
 10
12.0854
 20
7.819
  0
VERTEX
  8
0
 10
12.0496
 20
7.7961
  0
VERTEX
  8
0
 10
12.0174
 20
7.7665
  0
VERTEX
  8
0
 10
11.9888
 20
7.7304
  0
VERTEX
  8
0
 10
11.846
 20
7.7489
  0
VERTEX
  8
0
 10
11.9659
 20
8.3839
  0
VERTEX
  8
0
 10
12.5813
 20
8.3839
  0
VERTEX
  8
0
 10
12.5813
 20
8.2399
  0
VERTEX
  8
0
 10
12.0894
 20
8.2399
  0
VERTEX
  8
0
 10
12.0223
 20
7.9065
  0
VERTEX
  8
0
 10
12.0976
 20
7.9491
  0
VERTEX
  8
0
 10
12.1753
 20
7.975
  0
VERTEX
  8
0
 10
12.2554
 20
7.9839
  0
VERTEX
  8
0
 10
12.3098
 20
7.9809
  0
VERTEX
  8
0
 10
12.361
 20
7.9714
  0
VERTEX
  8
0
 10
12.4089
 20
7.9553
  0
VERTEX
  8
0
 10
12.4536
 20
7.9326
  0
VERTEX
  8
0
 10
12.4949
 20
7.9034
  0
VERTEX
  8
0
 10
12.533
 20
7.8677
  0
VERTEX
  8
0
 10
12.5654
 20
7.8282
  0
VERTEX
  8
0
 10
12.5919
 20
7.7856
  0
VERTEX
  8
0
 10
12.6125
 20
7.7398
  0
VERTEX
  8
0
 10
12.6272
 20
7.6909
  0
VERTEX
  8
0
 10
12.6361
 20
7.6389
  0
VERTEX
  8
0
 10
12.639
 20
7.5837
  0
VERTEX
  8
0
 10
12.6351
 20
7.5188
  0
VERTEX
  8
0
 10
12.6234
 20
7.4573
  0
VERTEX
  8
0
 10
12.6038
 20
7.3993
  0
VERTEX
  8
0
 10
12.5764
 20
7.3449
  0
VERTEX
  8
0
 10
12.5411
 20
7.2939
  0
VERTEX
  8
0
 10
12.5101
 20
7.2589
  0
VERTEX
  8
0
 10
12.4762
 20
7.2286
  0
VERTEX
  8
0
 10
12.4397
 20
7.2029
  0
VERTEX
  8
0
 10
12.4005
 20
7.1818
  0
VERTEX
  8
0
 10
12.3585
 20
7.1654
  0
VERTEX
  8
0
 10
12.3139
 20
7.1536
  0
VERTEX
  8
0
 10
12.2665
 20
7.1464
  0
VERTEX
  8
0
 10
12.2164
 20
7.1439
  0
VERTEX
  8
0
 10
12.1529
 20
7.1475
  0
VERTEX
  8
0
 10
12.0939
 20
7.1583
  0
VERTEX
  8
0
 10
12.0396
 20
7.1763
  0
VERTEX
  8
0
 10
11.9899
 20
7.2016
  0
VERTEX
  8
0
 10
11.9447
 20
7.234
  0
VERTEX
  8
0
 10
11.9046
 20
7.2738
  0
VERTEX
  8
0
 10
11.872
 20
7.3191
  0
VERTEX
  8
0
 10
11.8468
 20
7.3699
  0
VERTEX
  8
0
 10
11.8292
 20
7.4263
  0
VERTEX
  8
0
 10
11.819
 20
7.4882
  0
VERTEX
  8
0
 10
11.819
 20
7.4882
  0
SEQEND
  0
POLYLINE
  8
0
 66
     1
 10
0
 20
0
  0
VERTEX
  8
0
 10
12.833
 20
7.9639
  0
VERTEX
  8
0
 10
12.791
 20
8.1983
  0
VERTEX
  8
0
 10
12.791
 20
8.3999
  0
VERTEX
  8
0
 10
12.963
 20
8.3999
  0
VERTEX
  8
0
 10
12.963
 20
8.1983
  0
VERTEX
  8
0
 10
12.9253
 20
7.9639
  0
VERTEX
  8
0
 10
12.833
 20
7.9639
  0
SEQEND
  0
POLYLINE
  8
0
 66
     1
 10
0
 20
0
  0
VERTEX
  8
0
 10
13.1121
 20
7.9639
  0
VERTEX
  8
0
 10
13.071
 20
8.1983
  0
VERTEX
  8
0
 10
13.071
 20
8.3999
  0
VERTEX
  8
0
 10
13.243
 20
8.3999
  0
VERTEX
  8
0
 10
13.243
 20
8.1983
  0
VERTEX
  8
0
 10
13.2028
 20
7.9639
  0
VERTEX
  8
0
 10
13.1121
 20
7.9639
  0
SEQEND
  0
POLYLINE
  8
0
 66
     1
 10
0
 20
0
  0
VERTEX
  8
0
 10
14.255
 20
7.1599
  0
VERTEX
  8
0
 10
14.255
 20
8.3999
  0
VERTEX
  8
0
 10
14.7201
 20
8.3999
  0
VERTEX
  8
0
 10
14.8074
 20
8.3957
  0
VERTEX
  8
0
 10
14.8832
 20
8.383
  0
VERTEX
  8
0
 10
14.9475
 20
8.3619
  0
VERTEX
  8
0
 10
15.0216
 20
8.316
  0
VERTEX
  8
0
 10
15.0799
 20
8.2494
  0
VERTEX
  8
0
 10
15.1178
 20
8.1692
  0
VERTEX
  8
0
 10
15.131
 20
8.0827
  0
VERTEX
  8
0
 10
15.1292
 20
8.0451
  0
VERTEX
  8
0
 10
15.123
 20
8.0095
  0
VERTEX
  8
0
 10
15.1124
 20
7.9761
  0
VERTEX
  8
0
 10
15.0974
 20
7.9447
  0
VERTEX
  8
0
 10
15.078
 20
7.9155
  0
VERTEX
  8
0
 10
15.0542
 20
7.8884
  0
VERTEX
  8
0
 10
15.0261
 20
7.8634
  0
VERTEX
  8
0
 10
14.9935
 20
7.8405
  0
VERTEX
  8
0
 10
14.9566
 20
7.8197
  0
VERTEX
  8
0
 10
15.0243
 20
7.7933
  0
VERTEX
  8
0
 10
15.0812
 20
7.7569
  0
VERTEX
  8
0
 10
15.1273
 20
7.7105
  0
VERTEX
  8
0
 10
15.1627
 20
7.654
  0
VERTEX
  8
0
 10
15.1839
 20
7.5903
  0
VERTEX
  8
0
 10
15.191
 20
7.5194
  0
VERTEX
  8
0
 10
15.1828
 20
7.4414
  0
VERTEX
  8
0
 10
15.158
 20
7.3663
  0
VERTEX
  8
0
 10
15.117
 20
7.2959
  0
VERTEX
  8
0
 10
15.0633
 20
7.242
  0
VERTEX
  8
0
 10
15.03
 20
7.2202
  0
VERTEX
  8
0
 10
14.9918
 20
7.2018
  0
VERTEX
  8
0
 10
14.9487
 20
7.1867
  0
VERTEX
  8
0
 10
14.9007
 20
7.175
  0
VERTEX
  8
0
 10
14.8479
 20
7.1666
  0
VERTEX
  8
0
 10
14.7902
 20
7.1616
  0
VERTEX
  8
0
 10
14.7276
 20
7.1599
  0
VERTEX
  8
0
 10
14.255
 20
7.1599
  0
SEQEND
  0
POLYLINE
  8
0
 66
     1
 10
0
 20
0
  0
VERTEX
  8
0
 10
14.419
 20
7.8799
  0
VERTEX
  8
0
 10
14.6878
 20
7.8799
  0
VERTEX
  8
0
 10
14.7535
 20
7.8815
  0
VERTEX
  8
0
 10
14.8058
 20
7.8863
  0
VERTEX
  8
0
 10
14.8447
 20
7.8942
  0
VERTEX
  8
0
 10
14.8778
 20
7.9067
  0
VERTEX
  8
0
 10
14.9059
 20
7.9231
  0
VERTEX
  8
0
 10
14.929
 20
7.9433
  0
VERTEX
  8
0
 10
14.947
 20
7.9674
  0
VERTEX
  8
0
 10
14.96
 20
7.9954
  0
VERTEX
  8
0
 10
14.968
 20
8.0273
  0
VERTEX
  8
0
 10
14.971
 20
8.063
  0
VERTEX
  8
0
 10
14.9691
 20
8.0994
  0
VERTEX
  8
0
 10
14.9624
 20
8.1318
  0
VERTEX
  8
0
 10
14.9508
 20
8.1603
  0
VERTEX
  8
0
 10
14.9345
 20
8.1847
  0
VERTEX
  8
0
 10
14.9133
 20
8.2052
  0
VERTEX
  8
0
 10
14.8873
 20
8.2218
  0
VERTEX
  8
0
 10
14.8565
 20
8.2343
  0
VERTEX
  8
0
 10
14.8241
 20
8.242
  0
VERTEX
  8
0
 10
14.7817
 20
8.2475
  0
VERTEX
  8
0
 10
14.7295
 20
8.2508
  0
VERTEX
  8
0
 10
14.6675
 20
8.2519
  0
VERTEX
  8
0
 10
14.419
 20
8.2519
  0
VERTEX
  8
0
 10
14.419
 20
7.8799
  0
SEQEND
  0
POLYLINE
  8
0
 66
     1
 10
0
 20
0
  0
VERTEX
  8
0
 10
14.419
 20
7.3079
  0
VERTEX
  8
0
 10
14.7286
 20
7.3079
  0
VERTEX
  8
0
 10
14.7965
 20
7.3094
  0
VERTEX
  8
0
 10
14.8406
 20
7.3138
  0
VERTEX
  8
0
 10
14.8931
 20
7.3281
  0
VERTEX
  8
0
 10
14.9369
 20
7.3498
  0
VERTEX
  8
0
 10
14.972
 20
7.379
  0
VERTEX
  8
0
 10
14.9984
 20
7.4156
  0
VERTEX
  8
0
 10
15.0164
 20
7.4636
  0
VERTEX
  8
0
 10
15.023
 20
7.5199
  0
VERTEX
  8
0
 10
15.0213
 20
7.5547
  0
VERTEX
  8
0
 10
15.0152
 20
7.5864
  0
VERTEX
  8
0
 10
15.0048
 20
7.615
  0
VERTEX
  8
0
 10
14.9901
 20
7.6404
  0
VERTEX
  8
0
 10
14.9711
 20
7.6627
  0
VERTEX
  8
0
 10
14.9478
 20
7.6819
  0
VERTEX
  8
0
 10
14.9201
 20
7.6979
  0
VERTEX
  8
0
 10
14.8881
 20
7.7109
  0
VERTEX
  8
0
 10
14.8109
 20
7.7267
  0
VERTEX
  8
0
 10
14.7066
 20
7.7319
  0
VERTEX
  8
0
 10
14.419
 20
7.7319
  0
VERTEX
  8
0
 10
14.419
 20
7.3079
  0
SEQEND
  0
POLYLINE
  8
0
 66
     1
 10
0
 20
0
  0
VERTEX
  8
0
 10
15.343
 20
7.6119
  0
VERTEX
  8
0
 10
15.3447
 20
7.6656
  0
VERTEX
  8
0
 10
15.3499
 20
7.7161
  0
VERTEX
  8
0
 10
15.3584
 20
7.7634
  0
VERTEX
  8
0
 10
15.3704
 20
7.8076
  0
VERTEX
  8
0
 10
15.3858
 20
7.8485
  0
VERTEX
  8
0
 10
15.4046
 20
7.8863
  0
VERTEX
  8
0
 10
15.4268
 20
7.9208
  0
VERTEX
  8
0
 10
15.4524
 20
7.9522
  0
VERTEX
  8
0
 10
15.4815
 20
7.9804
  0
VERTEX
  8
0
 10
15.5295
 20
8.0162
  0
VERTEX
  8
0
 10
15.5817
 20
8.0441
  0
VERTEX
  8
0
 10
15.6381
 20
8.064
  0
VERTEX
  8
0
 10
15.6987
 20
8.0759
  0
VERTEX
  8
0
 10
15.7635
 20
8.0799
  0
VERTEX
  8
0
 10
15.8182
 20
8.0773
  0
VERTEX
  8
0
 10
15.8695
 20
8.0693
  0
VERTEX
  8
0
 10
15.9174
 20
8.0559
  0
VERTEX
  8
0
 10
15.9619
 20
8.0372
  0
VERTEX
  8
0
 10
16.003
 20
8.0132
  0
VERTEX
  8
0
 10
16.0407
 20
7.9839
  0
VERTEX
  8
0
 10
16.075
 20
7.9492
  0
VERTEX
  8
0
 10
16.108
 20
7.9055
  0
VERTEX
  8
0
 10
16.135
 20
7.8577
  0
VERTEX
  8
0
 10
16.156
 20
7.8057
  0
VERTEX
  8
0
 10
16.171
 20
7.7495
  0
VERTEX
  8
0
 10
16.18
 20
7.6891
  0
VERTEX
  8
0
 10
16.183
 20
7.6245
  0
VERTEX
  8
0
 10
16.182
 20
7.5808
  0
VERTEX
  8
0
 10
16.1789
 20
7.539
  0
VERTEX
  8
0
 10
16.1737
 20
7.4994
  0
VERTEX
  8
0
 10
16.1664
 20
7.4617
  0
VERTEX
  8
0
 10
16.1571
 20
7.4262
  0
VERTEX
  8
0
 10
16.1457
 20
7.3927
  0
VERTEX
  8
0
 10
16.1322
 20
7.3612
  0
VERTEX
  8
0
 10
16.1166
 20
7.3319
  0
VERTEX
  8
0
 10
16.0989
 20
7.3045
  0
VERTEX
  8
0
 10
16.0792
 20
7.2793
  0
VERTEX
  8
0
 10
16.0574
 20
7.256
  0
VERTEX
  8
0
 10
16.0336
 20
7.2349
  0
VERTEX
  8
0
 10
16.0076
 20
7.2158
  0
VERTEX
  8
0
 10
15.9796
 20
7.1987
  0
VERTEX
  8
0
 10
15.8761
 20
7.158
  0
VERTEX
  8
0
 10
15.7635
 20
7.1439
  0
VERTEX
  8
0
 10
15.7136
 20
7.1458
  0
VERTEX
  8
0
 10
15.6667
 20
7.152
  0
VERTEX
  8
0
 10
15.6228
 20
7.1624
  0
VERTEX
  8
0
 10
15.5817
 20
7.177
  0
VERTEX
  8
0
 10
15.5436
 20
7.1959
  0
VERTEX
  8
0
 10
15.5084
 20
7.219
  0
VERTEX
  8
0
 10
15.4762
 20
7.2464
  0
VERTEX
  8
0
 10
15.4468
 20
7.278
  0
VERTEX
  8
0
 10
15.4151
 20
7.3219
  0
VERTEX
  8
0
 10
15.3892
 20
7.3706
  0
VERTEX
  8
0
 10
15.369
 20
7.4239
  0
VERTEX
  8
0
 10
15.3546
 20
7.4819
  0
VERTEX
  8
0
 10
15.3459
 20
7.5446
  0
VERTEX
  8
0
 10
15.343
 20
7.6119
  0
VERTEX
  8
0
 10
15.343
 20
7.6119
  0
SEQEND
  0
POLYLINE
  8
0
 66
     1
 10
0
 20
0
  0
VERTEX
  8
0
 10
15.499
 20
7.6124
  0
VERTEX
  8
0
 10
15.5027
 20
7.543
  0
VERTEX
  8
0
 10
15.5136
 20
7.4805
  0
VERTEX
  8
0
 10
15.5318
 20
7.425
  0
VERTEX
  8
0
 10
15.5573
 20
7.3762
  0
VERTEX
  8
0
 10
15.5823
 20
7.3434
  0
VERTEX
  8
0
 10
15.611
 20
7.3164
  0
VERTEX
  8
0
 10
15.6435
 20
7.2954
  0
VERTEX
  8
0
 10
15.6797
 20
7.2803
  0
VERTEX
  8
0
 10
15.7197
 20
7.2712
  0
VERTEX
  8
0
 10
15.7635
 20
7.2679
  0
VERTEX
  8
0
 10
15.8072
 20
7.2708
  0
VERTEX
  8
0
 10
15.8472
 20
7.2799
  0
VERTEX
  8
0
 10
15.8834
 20
7.2952
  0
VERTEX
  8
0
 10
15.9159
 20
7.3168
  0
VERTEX
  8
0
 10
15.9446
 20
7.3447
  0
VERTEX
  8
0
 10
15.9696
 20
7.3788
  0
VERTEX
  8
0
 10
16.0015
 20
7.4467
  0
VERTEX
  8
0
 10
16.0206
 20
7.5262
  0
VERTEX
  8
0
 10
16.027
 20
7.6174
  0
VERTEX
  8
0
 10
16.0204
 20
7.7056
  0
VERTEX
  8
0
 10
16.0004
 20
7.7829
  0
VERTEX
  8
0
 10
15.967
 20
7.8493
  0
VERTEX
  8
0
 10
15.9417
 20
7.8819
  0
VERTEX
  8
0
 10
15.9129
 20
7.9085
  0
VERTEX
  8
0
 10
15.8807
 20
7.9293
  0
VERTEX
  8
0
 10
15.845
 20
7.9441
  0
VERTEX
  8
0
 10
15.806
 20
7.953
  0
VERTEX
  8
0
 10
15.7635
 20
7.9559
  0
VERTEX
  8
0
 10
15.7197
 20
7.9529
  0
VERTEX
  8
0
 10
15.6797
 20
7.9439
  0
VERTEX
  8
0
 10
15.6435
 20
7.9288
  0
VERTEX
  8
0
 10
15.611
 20
7.9078
  0
VERTEX
  8
0
 10
15.5823
 20
7.8807
  0
VERTEX
  8
0
 10
15.5573
 20
7.8476
  0
VERTEX
  8
0
 10
15.5249
 20
7.7809
  0
VERTEX
  8
0
 10
15.5055
 20
7.7024
  0
VERTEX
  8
0
 10
15.499
 20
7.6124
  0
VERTEX
  8
0
 10
15.499
 20
7.6124
  0
SEQEND
  0
POLYLINE
  8
0
 66
     1
 10
0
 20
0
  0
VERTEX
  8
0
 10
16.359
 20
7.1599
  0
VERTEX
  8
0
 10
16.359
 20
8.0605
  0
VERTEX
  8
0
 10
16.495
 20
8.0605
  0
VERTEX
  8
0
 10
16.495
 20
7.9245
  0
VERTEX
  8
0
 10
16.5348
 20
7.9888
  0
VERTEX
  8
0
 10
16.5711
 20
8.032
  0
VERTEX
  8
0
 10
16.6257
 20
8.068
  0
VERTEX
  8
0
 10
16.6896
 20
8.0799
  0
VERTEX
  8
0
 10
16.7668
 20
8.0677
  0
VERTEX
  8
0
 10
16.8461
 20
8.0312
  0
VERTEX
  8
0
 10
16.7938
 20
7.8908
  0
VERTEX
  8
0
 10
16.7381
 20
7.9156
  0
VERTEX
  8
0
 10
16.6824
 20
7.9239
  0
VERTEX
  8
0
 10
16.6334
 20
7.9152
  0
VERTEX
  8
0
 10
16.5878
 20
7.8891
  0
VERTEX
  8
0
 10
16.5572
 20
7.8549
  0
VERTEX
  8
0
 10
16.5363
 20
7.8102
  0
VERTEX
  8
0
 10
16.5174
 20
7.7257
  0
VERTEX
  8
0
 10
16.511
 20
7.6319
  0
VERTEX
  8
0
 10
16.511
 20
7.1599
  0
VERTEX
  8
0
 10
16.359
 20
7.1599
  0
SEQEND
  0
POLYLINE
  8
0
 66
     1
 10
0
 20
0
  0
VERTEX
  8
0
 10
17.519
 20
7.1599
  0
VERTEX
  8
0
 10
17.519
 20
7.277
  0
VERTEX
  8
0
 10
17.4934
 20
7.2419
  0
VERTEX
  8
0
 10
17.4645
 20
7.2122
  0
VERTEX
  8
0
 10
17.4322
 20
7.1878
  0
VERTEX
  8
0
 10
17.3967
 20
7.1688
  0
VERTEX
  8
0
 10
17.3578
 20
7.1551
  0
VERTEX
  8
0
 10
17.3156
 20
7.1468
  0
VERTEX
  8
0
 10
17.2701
 20
7.1439
  0
VERTEX
  8
0
 10
17.1991
 20
7.1504
  0
VERTEX
  8
0
 10
17.1326
 20
7.1709
  0
VERTEX
  8
0
 10
17.0706
 20
7.2055
  0
VERTEX
  8
0
 10
16.9927
 20
7.2761
  0
VERTEX
  8
0
 10
16.9352
 20
7.3682
  0
VERTEX
  8
0
 10
16.8995
 20
7.4804
  0
VERTEX
  8
0
 10
16.887
 20
7.6111
  0
VERTEX
  8
0
 10
16.888
 20
7.6585
  0
VERTEX
  8
0
 10
16.8915
 20
7.7036
  0
VERTEX
  8
0
 10
16.8975
 20
7.7462
  0
VERTEX
  8
0
 10
16.9061
 20
7.7864
  0
VERTEX
  8
0
 10
16.9172
 20
7.8242
  0
VERTEX
  8
0
 10
16.9308
 20
7.8596
  0
VERTEX
  8
0
 10
16.9469
 20
7.8927
  0
VERTEX
  8
0
 10
16.9655
 20
7.9233
  0
VERTEX
  8
0
 10
16.9867
 20
7.9515
  0
VERTEX
  8
0
 10
17.0104
 20
7.9773
  0
VERTEX
  8
0
 10
17.0366
 20
8.0007
  0
VERTEX
  8
0
 10
17.0653
 20
8.0217
  0
VERTEX
  8
0
 10
17.1267
 20
8.0541
  0
VERTEX
  8
0
 10
17.1931
 20
8.0735
  0
VERTEX
  8
0
 10
17.2646
 20
8.0799
  0
VERTEX
  8
0
 10
17.3082
 20
8.0774
  0
VERTEX
  8
0
 10
17.3489
 20
8.0699
  0
VERTEX
  8
0
 10
17.3869
 20
8.0574
  0
VERTEX
  8
0
 10
17.4221
 20
8.0399
  0
VERTEX
  8
0
 10
17.4545
 20
8.0175
  0
VERTEX
  8
0
 10
17.4842
 20
7.99
  0
VERTEX
  8
0
 10
17.511
 20
7.9575
  0
VERTEX
  8
0
 10
17.511
 20
8.3999
  0
VERTEX
  8
0
 10
17.663
 20
8.3999
  0
VERTEX
  8
0
 10
17.663
 20
7.1599
  0
VERTEX
  8
0
 10
17.519
 20
7.1599
  0
SEQEND
  0
POLYLINE
  8
0
 66
     1
 10
0
 20
0
  0
VERTEX
  8
0
 10
17.043
 20
7.6115
  0
VERTEX
  8
0
 10
17.0489
 20
7.5254
  0
VERTEX
  8
0
 10
17.0667
 20
7.449
  0
VERTEX
  8
0
 10
17.0962
 20
7.3822
  0
VERTEX
  8
0
 10
17.1196
 20
7.3475
  0
VERTEX
  8
0
 10
17.1463
 20
7.3191
  0
VERTEX
  8
0
 10
17.1765
 20
7.2969
  0
VERTEX
  8
0
 10
17.21
 20
7.281
  0
VERTEX
  8
0
 10
17.2468
 20
7.2713
  0
VERTEX
  8
0
 10
17.2871
 20
7.2679
  0
VERTEX
  8
0
 10
17.3268
 20
7.2707
  0
VERTEX
  8
0
 10
17.3631
 20
7.2796
  0
VERTEX
  8
0
 10
17.396
 20
7.2946
  0
VERTEX
  8
0
 10
17.4256
 20
7.3157
  0
VERTEX
  8
0
 10
17.4518
 20
7.3429
  0
VERTEX
  8
0
 10
17.4746
 20
7.3762
  0
VERTEX
  8
0
 10
17.5032
 20
7.4408
  0
VERTEX
  8
0
 10
17.5204
 20
7.515
  0
VERTEX
  8
0
 10
17.5261
 20
7.5988
  0
VERTEX
  8
0
 10
17.5206
 20
7.6895
  0
VERTEX
  8
0
 10
17.5039
 20
7.7688
  0
VERTEX
  8
0
 10
17.4763
 20
7.8366
  0
VERTEX
  8
0
 10
17.453
 20
7.8731
  0
VERTEX
  8
0
 10
17.426
 20
7.9029
  0
VERTEX
  8
0
 10
17.3952
 20
7.9261
  0
VERTEX
  8
0
 10
17.3607
 20
7.9427
  0
VERTEX
  8
0
 10
17.3224
 20
7.9526
  0
VERTEX
  8
0
 10
17.2803
 20
7.9559
  0
VERTEX
  8
0
 10
17.2394
 20
7.9527
  0
VERTEX
  8
0
 10
17.2023
 20
7.9432
  0
VERTEX
  8
0
 10
17.1689
 20
7.9274
  0
VERTEX
  8
0
 10
17.1392
 20
7.9051
  0
VERTEX
  8
0
 10
17.1133
 20
7.8766
  0
VERTEX
  8
0
 10
17.0911
 20
7.8417
  0
VERTEX
  8
0
 10
17.0644
 20
7.7762
  0
VERTEX
  8
0
 10
17.0484
 20
7.6995
  0
VERTEX
  8
0
 10
17.043
 20
7.6115
  0
VERTEX
  8
0
 10
17.043
 20
7.6115
  0
SEQEND
  0
POLYLINE
  8
0
 66
     1
 10
0
 20
0
  0
VERTEX
  8
0
 10
18.5152
 20
7.4527
  0
VERTEX
  8
0
 10
18.6725
 20
7.4333
  0
VERTEX
  8
0
 10
18.6631
 20
7.402
  0
VERTEX
  8
0
 10
18.6522
 20
7.3726
  0
VERTEX
  8
0
 10
18.6399
 20
7.3449
  0
VERTEX
  8
0
 10
18.6261
 20
7.319
  0
VERTEX
  8
0
 10
18.6109
 20
7.2949
  0
VERTEX
  8
0
 10
18.5941
 20
7.2725
  0
VERTEX
  8
0
 10
18.5759
 20
7.252
  0
VERTEX
  8
0
 10
18.5562
 20
7.2332
  0
VERTEX
  8
0
 10
18.5351
 20
7.2163
  0
VERTEX
  8
0
 10
18.5124
 20
7.2011
  0
VERTEX
  8
0
 10
18.4883
 20
7.1877
  0
VERTEX
  8
0
 10
18.4627
 20
7.1761
  0
VERTEX
  8
0
 10
18.4356
 20
7.1662
  0
VERTEX
  8
0
 10
18.4071
 20
7.1582
  0
VERTEX
  8
0
 10
18.3771
 20
7.152
  0
VERTEX
  8
0
 10
18.3456
 20
7.1475
  0
VERTEX
  8
0
 10
18.3126
 20
7.1448
  0
VERTEX
  8
0
 10
18.2782
 20
7.1439
  0
VERTEX
  8
0
 10
18.2235
 20
7.1464
  0
VERTEX
  8
0
 10
18.1721
 20
7.1538
  0
VERTEX
  8
0
 10
18.1241
 20
7.1661
  0
VERTEX
  8
0
 10
18.0794
 20
7.1833
  0
VERTEX
  8
0
 10
18.0382
 20
7.2054
  0
VERTEX
  8
0
 10
18.0003
 20
7.2325
  0
VERTEX
  8
0
 10
17.9658
 20
7.2645
  0
VERTEX
  8
0
 10
17.9354
 20
7.301
  0
VERTEX
  8
0
 10
17.9096
 20
7.3415
  0
VERTEX
  8
0
 10
17.8885
 20
7.386
  0
VERTEX
  8
0
 10
17.8721
 20
7.4345
  0
VERTEX
  8
0
 10
17.8604
 20
7.4871
  0
VERTEX
  8
0
 10
17.8534
 20
7.5437
  0
VERTEX
  8
0
 10
17.851
 20
7.6044
  0
VERTEX
  8
0
 10
17.8539
 20
7.6716
  0
VERTEX
  8
0
 10
17.8625
 20
7.7343
  0
VERTEX
  8
0
 10
17.8768
 20
7.7926
  0
VERTEX
  8
0
 10
17.8968
 20
7.8464
  0
VERTEX
  8
0
 10
17.9226
 20
7.8958
  0
VERTEX
  8
0
 10
17.954
 20
7.9408
  0
VERTEX
  8
0
 10
17.9837
 20
7.9734
  0
VERTEX
  8
0
 10
18.0162
 20
8.0017
  0
VERTEX
  8
0
 10
18.0515
 20
8.0256
  0
VERTEX
  8
0
 10
18.0895
 20
8.0451
  0
VERTEX
  8
0
 10
18.1304
 20
8.0604
  0
VERTEX
  8
0
 10
18.1741
 20
8.0712
  0
VERTEX
  8
0
 10
18.2205
 20
8.0777
  0
VERTEX
  8
0
 10
18.2698
 20
8.0799
  0
VERTEX
  8
0
 10
18.3178
 20
8.0778
  0
VERTEX
  8
0
 10
18.3631
 20
8.0714
  0
VERTEX
  8
0
 10
18.4056
 20
8.0607
  0
VERTEX
  8
0
 10
18.4454
 20
8.0457
  0
VERTEX
  8
0
 10
18.4824
 20
8.0265
  0
VERTEX
  8
0
 10
18.5167
 20
8.003
  0
VERTEX
  8
0
 10
18.5483
 20
7.9753
  0
VERTEX
  8
0
 10
18.5771
 20
7.9432
  0
VERTEX
  8
0
 10
18.6078
 20
7.8992
  0
VERTEX
  8
0
 10
18.6329
 20
7.851
  0
VERTEX
  8
0
 10
18.6524
 20
7.7986
  0
VERTEX
  8
0
 10
18.6664
 20
7.742
  0
VERTEX
  8
0
 10
18.6747
 20
7.6812
  0
VERTEX
  8
0
 10
18.6775
 20
7.6162
  0
VERTEX
  8
0
 10
18.6773
 20
7.5952
  0
VERTEX
  8
0
 10
18.6766
 20
7.5759
  0
VERTEX
  8
0
 10
18.007
 20
7.5759
  0
VERTEX
  8
0
 10
18.018
 20
7.4933
  0
VERTEX
  8
0
 10
18.042
 20
7.4216
  0
VERTEX
  8
0
 10
18.0789
 20
7.3609
  0
VERTEX
  8
0
 10
18.1104
 20
7.3274
  0
VERTEX
  8
0
 10
18.1461
 20
7.3014
  0
VERTEX
  8
0
 10
18.1861
 20
7.2828
  0
VERTEX
  8
0
 10
18.2302
 20
7.2716
  0
VERTEX
  8
0
 10
18.2785
 20
7.2679
  0
VERTEX
  8
0
 10
18.3114
 20
7.2698
  0
VERTEX
  8
0
 10
18.3423
 20
7.2753
  0
VERTEX
  8
0
 10
18.3711
 20
7.2845
  0
VERTEX
  8
0
 10
18.3979
 20
7.2975
  0
VERTEX
  8
0
 10
18.4226
 20
7.3141
  0
VERTEX
  8
0
 10
18.4453
 20
7.3344
  0
VERTEX
  8
0
 10
18.4658
 20
7.3584
  0
VERTEX
  8
0
 10
18.4844
 20
7.3862
  0
VERTEX
  8
0
 10
18.5008
 20
7.4176
  0
VERTEX
  8
0
 10
18.5152
 20
7.4527
  0
VERTEX
  8
0
 10
18.5152
 20
7.4527
  0
SEQEND
  0
POLYLINE
  8
0
 66
     1
 10
0
 20
0
  0
VERTEX
  8
0
 10
18.0165
 20
7.6999
  0
VERTEX
  8
0
 10
18.5171
 20
7.6999
  0
VERTEX
  8
0
 10
18.5062
 20
7.7687
  0
VERTEX
  8
0
 10
18.4871
 20
7.8249
  0
VERTEX
  8
0
 10
18.4596
 20
7.8686
  0
VERTEX
  8
0
 10
18.4207
 20
7.9065
  0
VERTEX
  8
0
 10
18.3763
 20
7.9337
  0
VERTEX
  8
0
 10
18.3265
 20
7.9502
  0
VERTEX
  8
0
 10
18.2714
 20
7.9559
  0
VERTEX
  8
0
 10
18.2186
 20
7.9516
  0
VERTEX
  8
0
 10
18.171
 20
7.9379
  0
VERTEX
  8
0
 10
18.1283
 20
7.9147
  0
VERTEX
  8
0
 10
18.0908
 20
7.882
  0
VERTEX
  8
0
 10
18.0529
 20
7.8305
  0
VERTEX
  8
0
 10
18.0281
 20
7.7698
  0
VERTEX
  8
0
 10
18.0165
 20
7.6999
  0
VERTEX
  8
0
 10
18.0165
 20
7.6999
  0
SEQEND
  0
POLYLINE
  8
0
 66
     1
 10
0
 20
0
  0
VERTEX
  8
0
 10
18.859
 20
7.1599
  0
VERTEX
  8
0
 10
18.859
 20
8.0605
  0
VERTEX
  8
0
 10
18.995
 20
8.0605
  0
VERTEX
  8
0
 10
18.995
 20
7.9245
  0
VERTEX
  8
0
 10
19.0348
 20
7.9888
  0
VERTEX
  8
0
 10
19.0711
 20
8.032
  0
VERTEX
  8
0
 10
19.1257
 20
8.068
  0
VERTEX
  8
0
 10
19.1896
 20
8.0799
  0
VERTEX
  8
0
 10
19.2668
 20
8.0677
  0
VERTEX
  8
0
 10
19.3461
 20
8.0312
  0
VERTEX
  8
0
 10
19.2938
 20
7.8908
  0
VERTEX
  8
0
 10
19.2381
 20
7.9156
  0
VERTEX
  8
0
 10
19.1824
 20
7.9239
  0
VERTEX
  8
0
 10
19.1334
 20
7.9152
  0
VERTEX
  8
0
 10
19.0878
 20
7.8891
  0
VERTEX
  8
0
 10
19.0572
 20
7.8549
  0
VERTEX
  8
0
 10
19.0363
 20
7.8102
  0
VERTEX
  8
0
 10
19.0174
 20
7.7257
  0
VERTEX
  8
0
 10
19.011
 20
7.6319
  0
VERTEX
  8
0
 10
19.011
 20
7.1599
  0
VERTEX
  8
0
 10
18.859
 20
7.1599
  0
SEQEND
  0
POLYLINE
  8
0
 66
     1
 10
0
 20
0
  0
VERTEX
  8
0
 10
19.487
 20
7.1599
  0
VERTEX
  8
0
 10
19.487
 20
7.3359
  0
VERTEX
  8
0
 10
19.659
 20
7.3359
  0
VERTEX
  8
0
 10
19.659
 20
7.1636
  0
VERTEX
  8
0
 10
19.6573
 20
7.1247
  0
VERTEX
  8
0
 10
19.652
 20
7.0888
  0
VERTEX
  8
0
 10
19.6433
 20
7.0559
  0
VERTEX
  8
0
 10
19.631
 20
7.0258
  0
VERTEX
  8
0
 10
19.6153
 20
6.9988
  0
VERTEX
  8
0
 10
19.5961
 20
6.9746
  0
VERTEX
  8
0
 10
19.5733
 20
6.9535
  0
VERTEX
  8
0
 10
19.5471
 20
6.9352
  0
VERTEX
  8
0
 10
19.5174
 20
6.9199
  0
VERTEX
  8
0
 10
19.475
 20
6.9837
  0
VERTEX
  8
0
 10
19.5033
 20
6.9991
  0
VERTEX
  8
0
 10
19.5266
 20
7.0202
  0
VERTEX
  8
0
 10
19.5451
 20
7.0468
  0
VERTEX
  8
0
 10
19.5587
 20
7.0789
  0
VERTEX
  8
0
 10
19.5674
 20
7.1166
  0
VERTEX
  8
0
 10
19.5713
 20
7.1599
  0
VERTEX
  8
0
 10
19.487
 20
7.1599
  0
SEQEND
  0
POLYLINE
  8
0
 66
     1
 10
0
 20
0
  0
VERTEX
  8
0
 10
20.9592
 20
7.1599
  0
VERTEX
  8
0
 10
20.631
 20
8.3999
  0
VERTEX
  8
0
 10
20.799
 20
8.3999
  0
VERTEX
  8
0
 10
20.9873
 20
7.5899
  0
VERTEX
  8
0
 10
21.0156
 20
7.4617
  0
VERTEX
  8
0
 10
21.0396
 20
7.337
  0
VERTEX
  8
0
 10
21.0507
 20
7.3834
  0
VERTEX
  8
0
 10
21.0605
 20
7.4247
  0
VERTEX
  8
0
 10
21.0692
 20
7.461
  0
VERTEX
  8
0
 10
21.0768
 20
7.4921
  0
VERTEX
  8
0
 10
21.0831
 20
7.5182
  0
VERTEX
  8
0
 10
21.0884
 20
7.5391
  0
VERTEX
  8
0
 10
21.0924
 20
7.555
  0
VERTEX
  8
0
 10
21.0953
 20
7.5658
  0
VERTEX
  8
0
 10
21.3308
 20
8.3999
  0
VERTEX
  8
0
 10
21.5284
 20
8.3999
  0
VERTEX
  8
0
 10
21.7057
 20
7.7751
  0
VERTEX
  8
0
 10
21.7629
 20
7.5495
  0
VERTEX
  8
0
 10
21.8023
 20
7.337
  0
VERTEX
  8
0
 10
21.8102
 20
7.375
  0
VERTEX
  8
0
 10
21.8203
 20
7.4209
  0
VERTEX
  8
0
 10
21.8327
 20
7.4748
  0
VERTEX
  8
0
 10
21.8473
 20
7.5365
  0
VERTEX
  8
0
 10
21.8641
 20
7.6061
  0
VERTEX
  8
0
 10
22.0565
 20
8.3999
  0
VERTEX
  8
0
 10
22.2223
 20
8.3999
  0
VERTEX
  8
0
 10
21.883
 20
7.1599
  0
VERTEX
  8
0
 10
21.7264
 20
7.1599
  0
VERTEX
  8
0
 10
21.462
 20
8.1063
  0
VERTEX
  8
0
 10
21.4479
 20
8.1599
  0
VERTEX
  8
0
 10
21.437
 20
8.202
  0
VERTEX
  8
0
 10
21.4293
 20
8.2327
  0
VERTEX
  8
0
 10
21.4248
 20
8.252
  0
VERTEX
  8
0
 10
21.4077
 20
8.1777
  0
VERTEX
  8
0
 10
21.3894
 20
8.1069
  0
VERTEX
  8
0
 10
21.1262
 20
7.1599
  0
VERTEX
  8
0
 10
20.9592
 20
7.1599
  0
SEQEND
  0
POLYLINE
  8
0
 66
     1
 10
0
 20
0
  0
VERTEX
  8
0
 10
22.359
 20
7.1599
  0
VERTEX
  8
0
 10
22.359
 20
8.3999
  0
VERTEX
  8
0
 10
22.511
 20
8.3999
  0
VERTEX
  8
0
 10
22.511
 20
7.9575
  0
VERTEX
  8
0
 10
22.5481
 20
7.9947
  0
VERTEX
  8
0
 10
22.5884
 20
8.0251
  0
VERTEX
  8
0
 10
22.6317
 20
8.0489
  0
VERTEX
  8
0
 10
22.6781
 20
8.066
  0
VERTEX
  8
0
 10
22.7276
 20
8.0763
  0
VERTEX
  8
0
 10
22.7803
 20
8.0799
  0
VERTEX
  8
0
 10
22.8724
 20
8.0704
  0
VERTEX
  8
0
 10
22.9538
 20
8.0401
  0
VERTEX
  8
0
 10
23.0034
 20
8.0058
  0
VERTEX
  8
0
 10
23.0415
 20
7.9618
  0
VERTEX
  8
0
 10
23.0681
 20
7.9079
  0
VERTEX
  8
0
 10
23.0853
 20
7.8313
  0
VERTEX
  8
0
 10
23.091
 20
7.73
  0
VERTEX
  8
0
 10
23.091
 20
7.1599
  0
VERTEX
  8
0
 10
22.939
 20
7.1599
  0
VERTEX
  8
0
 10
22.939
 20
7.7295
  0
VERTEX
  8
0
 10
22.9381
 20
7.7594
  0
VERTEX
  8
0
 10
22.9351
 20
7.7871
  0
VERTEX
  8
0
 10
22.9303
 20
7.8125
  0
VERTEX
  8
0
 10
22.9235
 20
7.8358
  0
VERTEX
  8
0
 10
22.9148
 20
7.8569
  0
VERTEX
  8
0
 10
22.9041
 20
7.8758
  0
VERTEX
  8
0
 10
22.8916
 20
7.8925
  0
VERTEX
  8
0
 10
22.877
 20
7.907
  0
VERTEX
  8
0
 10
22.8606
 20
7.9193
  0
VERTEX
  8
0
 10
22.8421
 20
7.9294
  0
VERTEX
  8
0
 10
22.8218
 20
7.9373
  0
VERTEX
  8
0
 10
22.7995
 20
7.9431
  0
VERTEX
  8
0
 10
22.7753
 20
7.9466
  0
VERTEX
  8
0
 10
22.7491
 20
7.9479
  0
VERTEX
  8
0
 10
22.6835
 20
7.9397
  0
VERTEX
  8
0
 10
22.6221
 20
7.9132
  0
VERTEX
  8
0
 10
22.5711
 20
7.8716
  0
VERTEX
  8
0
 10
22.5369
 20
7.818
  0
VERTEX
  8
0
 10
22.5175
 20
7.7466
  0
VERTEX
  8
0
 10
22.511
 20
7.6517
  0
VERTEX
  8
0
 10
22.511
 20
7.1599
  0
VERTEX
  8
0
 10
22.359
 20
7.1599
  0
SEQEND
  0
POLYLINE
  8
0
 66
     1
 10
0
 20
0
  0
VERTEX
  8
0
 10
23.323
 20
8.2239
  0
VERTEX
  8
0
 10
23.323
 20
8.3999
  0
VERTEX
  8
0
 10
23.475
 20
8.3999
  0
VERTEX
  8
0
 10
23.475
 20
8.2239
  0
VERTEX
  8
0
 10
23.323
 20
8.2239
  0
SEQEND
  0
POLYLINE
  8
0
 66
     1
 10
0
 20
0
  0
VERTEX
  8
0
 10
23.323
 20
7.1599
  0
VERTEX
  8
0
 10
23.323
 20
8.0605
  0
VERTEX
  8
0
 10
23.475
 20
8.0605
  0
VERTEX
  8
0
 10
23.475
 20
7.1599
  0
VERTEX
  8
0
 10
23.323
 20
7.1599
  0
SEQEND
  0
POLYLINE
  8
0
 66
     1
 10
0
 20
0
  0
VERTEX
  8
0
 10
24.0386
 20
7.2999
  0
VERTEX
  8
0
 10
24.0603
 20
7.1654
  0
VERTEX
  8
0
 10
23.9992
 20
7.1557
  0
VERTEX
  8
0
 10
23.9457
 20
7.1519
  0
VERTEX
  8
0
 10
23.9046
 20
7.1534
  0
VERTEX
  8
0
 10
23.8681
 20
7.1589
  0
VERTEX
  8
0
 10
23.8361
 20
7.1684
  0
VERTEX
  8
0
 10
23.8087
 20
7.1819
  0
VERTEX
  8
0
 10
23.7858
 20
7.1994
  0
VERTEX
  8
0
 10
23.7674
 20
7.2208
  0
VERTEX
  8
0
 10
23.7536
 20
7.2462
  0
VERTEX
  8
0
 10
23.7455
 20
7.2738
  0
VERTEX
  8
0
 10
23.7397
 20
7.3129
  0
VERTEX
  8
0
 10
23.7362
 20
7.3635
  0
VERTEX
  8
0
 10
23.735
 20
7.4255
  0
VERTEX
  8
0
 10
23.735
 20
7.9399
  0
VERTEX
  8
0
 10
23.623
 20
7.9399
  0
VERTEX
  8
0
 10
23.623
 20
8.0599
  0
VERTEX
  8
0
 10
23.735
 20
8.0599
  0
VERTEX
  8
0
 10
23.735
 20
8.2811
  0
VERTEX
  8
0
 10
23.887
 20
8.3719
  0
VERTEX
  8
0
 10
23.887
 20
8.0599
  0
VERTEX
  8
0
 10
24.039
 20
8.0599
  0
VERTEX
  8
0
 10
24.039
 20
7.9399
  0
VERTEX
  8
0
 10
23.887
 20
7.9399
  0
VERTEX
  8
0
 10
23.887
 20
7.416
  0
VERTEX
  8
0
 10
23.8876
 20
7.3755
  0
VERTEX
  8
0
 10
23.8895
 20
7.3535
  0
VERTEX
  8
0
 10
23.9002
 20
7.3236
  0
VERTEX
  8
0
 10
23.9205
 20
7.3029
  0
VERTEX
  8
0
 10
23.9419
 20
7.2951
  0
VERTEX
  8
0
 10
23.9724
 20
7.2919
  0
VERTEX
  8
0
 10
24.0011
 20
7.2935
  0
VERTEX
  8
0
 10
24.0386
 20
7.2999
  0
VERTEX
  8
0
 10
24.0386
 20
7.2999
  0
SEQEND
  0
POLYLINE
  8
0
 66
     1
 10
0
 20
0
  0
VERTEX
  8
0
 10
24.8032
 20
7.4527
  0
VERTEX
  8
0
 10
24.9605
 20
7.4333
  0
VERTEX
  8
0
 10
24.9511
 20
7.402
  0
VERTEX
  8
0
 10
24.9402
 20
7.3726
  0
VERTEX
  8
0
 10
24.9279
 20
7.3449
  0
VERTEX
  8
0
 10
24.9141
 20
7.319
  0
VERTEX
  8
0
 10
24.8989
 20
7.2949
  0
VERTEX
  8
0
 10
24.8821
 20
7.2725
  0
VERTEX
  8
0
 10
24.8639
 20
7.252
  0
VERTEX
  8
0
 10
24.8442
 20
7.2332
  0
VERTEX
  8
0
 10
24.8231
 20
7.2163
  0
VERTEX
  8
0
 10
24.8004
 20
7.2011
  0
VERTEX
  8
0
 10
24.7763
 20
7.1877
  0
VERTEX
  8
0
 10
24.7507
 20
7.1761
  0
VERTEX
  8
0
 10
24.7236
 20
7.1662
  0
VERTEX
  8
0
 10
24.6951
 20
7.1582
  0
VERTEX
  8
0
 10
24.6651
 20
7.152
  0
VERTEX
  8
0
 10
24.6336
 20
7.1475
  0
VERTEX
  8
0
 10
24.6006
 20
7.1448
  0
VERTEX
  8
0
 10
24.5662
 20
7.1439
  0
VERTEX
  8
0
 10
24.5115
 20
7.1464
  0
VERTEX
  8
0
 10
24.4601
 20
7.1538
  0
VERTEX
  8
0
 10
24.4121
 20
7.1661
  0
VERTEX
  8
0
 10
24.3674
 20
7.1833
  0
VERTEX
  8
0
 10
24.3262
 20
7.2054
  0
VERTEX
  8
0
 10
24.2883
 20
7.2325
  0
VERTEX
  8
0
 10
24.2538
 20
7.2645
  0
VERTEX
  8
0
 10
24.2234
 20
7.301
  0
VERTEX
  8
0
 10
24.1976
 20
7.3415
  0
VERTEX
  8
0
 10
24.1765
 20
7.386
  0
VERTEX
  8
0
 10
24.1601
 20
7.4345
  0
VERTEX
  8
0
 10
24.1484
 20
7.4871
  0
VERTEX
  8
0
 10
24.1414
 20
7.5437
  0
VERTEX
  8
0
 10
24.139
 20
7.6044
  0
VERTEX
  8
0
 10
24.1419
 20
7.6716
  0
VERTEX
  8
0
 10
24.1505
 20
7.7343
  0
VERTEX
  8
0
 10
24.1648
 20
7.7926
  0
VERTEX
  8
0
 10
24.1848
 20
7.8464
  0
VERTEX
  8
0
 10
24.2106
 20
7.8958
  0
VERTEX
  8
0
 10
24.242
 20
7.9408
  0
VERTEX
  8
0
 10
24.2717
 20
7.9734
  0
VERTEX
  8
0
 10
24.3042
 20
8.0017
  0
VERTEX
  8
0
 10
24.3395
 20
8.0256
  0
VERTEX
  8
0
 10
24.3775
 20
8.0451
  0
VERTEX
  8
0
 10
24.4184
 20
8.0604
  0
VERTEX
  8
0
 10
24.4621
 20
8.0712
  0
VERTEX
  8
0
 10
24.5085
 20
8.0777
  0
VERTEX
  8
0
 10
24.5578
 20
8.0799
  0
VERTEX
  8
0
 10
24.6058
 20
8.0778
  0
VERTEX
  8
0
 10
24.6511
 20
8.0714
  0
VERTEX
  8
0
 10
24.6936
 20
8.0607
  0
VERTEX
  8
0
 10
24.7334
 20
8.0457
  0
VERTEX
  8
0
 10
24.7704
 20
8.0265
  0
VERTEX
  8
0
 10
24.8047
 20
8.003
  0
VERTEX
  8
0
 10
24.8363
 20
7.9753
  0
VERTEX
  8
0
 10
24.8651
 20
7.9432
  0
VERTEX
  8
0
 10
24.8958
 20
7.8992
  0
VERTEX
  8
0
 10
24.9209
 20
7.851
  0
VERTEX
  8
0
 10
24.9404
 20
7.7986
  0
VERTEX
  8
0
 10
24.9544
 20
7.742
  0
VERTEX
  8
0
 10
24.9627
 20
7.6812
  0
VERTEX
  8
0
 10
24.9655
 20
7.6162
  0
VERTEX
  8
0
 10
24.9653
 20
7.5952
  0
VERTEX
  8
0
 10
24.9646
 20
7.5759
  0
VERTEX
  8
0
 10
24.295
 20
7.5759
  0
VERTEX
  8
0
 10
24.306
 20
7.4933
  0
VERTEX
  8
0
 10
24.33
 20
7.4216
  0
VERTEX
  8
0
 10
24.3669
 20
7.3609
  0
VERTEX
  8
0
 10
24.3984
 20
7.3274
  0
VERTEX
  8
0
 10
24.4341
 20
7.3014
  0
VERTEX
  8
0
 10
24.4741
 20
7.2828
  0
VERTEX
  8
0
 10
24.5182
 20
7.2716
  0
VERTEX
  8
0
 10
24.5665
 20
7.2679
  0
VERTEX
  8
0
 10
24.5994
 20
7.2698
  0
VERTEX
  8
0
 10
24.6303
 20
7.2753
  0
VERTEX
  8
0
 10
24.6591
 20
7.2845
  0
VERTEX
  8
0
 10
24.6859
 20
7.2975
  0
VERTEX
  8
0
 10
24.7106
 20
7.3141
  0
VERTEX
  8
0
 10
24.7333
 20
7.3344
  0
VERTEX
  8
0
 10
24.7538
 20
7.3584
  0
VERTEX
  8
0
 10
24.7724
 20
7.3862
  0
VERTEX
  8
0
 10
24.7888
 20
7.4176
  0
VERTEX
  8
0
 10
24.8032
 20
7.4527
  0
VERTEX
  8
0
 10
24.8032
 20
7.4527
  0
SEQEND
  0
POLYLINE
  8
0
 66
     1
 10
0
 20
0
  0
VERTEX
  8
0
 10
24.3045
 20
7.6999
  0
VERTEX
  8
0
 10
24.8051
 20
7.6999
  0
VERTEX
  8
0
 10
24.7942
 20
7.7687
  0
VERTEX
  8
0
 10
24.7751
 20
7.8249
  0
VERTEX
  8
0
 10
24.7476
 20
7.8686
  0
VERTEX
  8
0
 10
24.7087
 20
7.9065
  0
VERTEX
  8
0
 10
24.6643
 20
7.9337
  0
VERTEX
  8
0
 10
24.6145
 20
7.9502
  0
VERTEX
  8
0
 10
24.5594
 20
7.9559
  0
VERTEX
  8
0
 10
24.5066
 20
7.9516
  0
VERTEX
  8
0
 10
24.459
 20
7.9379
  0
VERTEX
  8
0
 10
24.4163
 20
7.9147
  0
VERTEX
  8
0
 10
24.3788
 20
7.882
  0
VERTEX
  8
0
 10
24.3409
 20
7.8305
  0
VERTEX
  8
0
 10
24.3161
 20
7.7698
  0
VERTEX
  8
0
 10
24.3045
 20
7.6999
  0
VERTEX
  8
0
 10
24.3045
 20
7.6999
  0
SEQEND
  0
POLYLINE
  8
0
 66
     1
 10
0
 20
0
  0
VERTEX
  8
0
 10
25.899
 20
7.6119
  0
VERTEX
  8
0
 10
25.9007
 20
7.6656
  0
VERTEX
  8
0
 10
25.9059
 20
7.7161
  0
VERTEX
  8
0
 10
25.9144
 20
7.7634
  0
VERTEX
  8
0
 10
25.9264
 20
7.8076
  0
VERTEX
  8
0
 10
25.9418
 20
7.8485
  0
VERTEX
  8
0
 10
25.9606
 20
7.8863
  0
VERTEX
  8
0
 10
25.9828
 20
7.9208
  0
VERTEX
  8
0
 10
26.0084
 20
7.9522
  0
VERTEX
  8
0
 10
26.0375
 20
7.9804
  0
VERTEX
  8
0
 10
26.0855
 20
8.0162
  0
VERTEX
  8
0
 10
26.1377
 20
8.0441
  0
VERTEX
  8
0
 10
26.1941
 20
8.064
  0
VERTEX
  8
0
 10
26.2547
 20
8.0759
  0
VERTEX
  8
0
 10
26.3195
 20
8.0799
  0
VERTEX
  8
0
 10
26.3742
 20
8.0773
  0
VERTEX
  8
0
 10
26.4255
 20
8.0693
  0
VERTEX
  8
0
 10
26.4734
 20
8.0559
  0
VERTEX
  8
0
 10
26.5179
 20
8.0372
  0
VERTEX
  8
0
 10
26.559
 20
8.0132
  0
VERTEX
  8
0
 10
26.5967
 20
7.9839
  0
VERTEX
  8
0
 10
26.631
 20
7.9492
  0
VERTEX
  8
0
 10
26.664
 20
7.9055
  0
VERTEX
  8
0
 10
26.691
 20
7.8577
  0
VERTEX
  8
0
 10
26.712
 20
7.8057
  0
VERTEX
  8
0
 10
26.727
 20
7.7495
  0
VERTEX
  8
0
 10
26.736
 20
7.6891
  0
VERTEX
  8
0
 10
26.739
 20
7.6245
  0
VERTEX
  8
0
 10
26.738
 20
7.5808
  0
VERTEX
  8
0
 10
26.7349
 20
7.539
  0
VERTEX
  8
0
 10
26.7297
 20
7.4994
  0
VERTEX
  8
0
 10
26.7224
 20
7.4617
  0
VERTEX
  8
0
 10
26.7131
 20
7.4262
  0
VERTEX
  8
0
 10
26.7017
 20
7.3927
  0
VERTEX
  8
0
 10
26.6882
 20
7.3612
  0
VERTEX
  8
0
 10
26.6726
 20
7.3319
  0
VERTEX
  8
0
 10
26.6549
 20
7.3045
  0
VERTEX
  8
0
 10
26.6352
 20
7.2793
  0
VERTEX
  8
0
 10
26.6134
 20
7.256
  0
VERTEX
  8
0
 10
26.5896
 20
7.2349
  0
VERTEX
  8
0
 10
26.5636
 20
7.2158
  0
VERTEX
  8
0
 10
26.5356
 20
7.1987
  0
VERTEX
  8
0
 10
26.4321
 20
7.158
  0
VERTEX
  8
0
 10
26.3195
 20
7.1439
  0
VERTEX
  8
0
 10
26.2696
 20
7.1458
  0
VERTEX
  8
0
 10
26.2227
 20
7.152
  0
VERTEX
  8
0
 10
26.1788
 20
7.1624
  0
VERTEX
  8
0
 10
26.1377
 20
7.177
  0
VERTEX
  8
0
 10
26.0996
 20
7.1959
  0
VERTEX
  8
0
 10
26.0644
 20
7.219
  0
VERTEX
  8
0
 10
26.0322
 20
7.2464
  0
VERTEX
  8
0
 10
26.0028
 20
7.278
  0
VERTEX
  8
0
 10
25.9711
 20
7.3219
  0
VERTEX
  8
0
 10
25.9452
 20
7.3706
  0
VERTEX
  8
0
 10
25.925
 20
7.4239
  0
VERTEX
  8
0
 10
25.9106
 20
7.4819
  0
VERTEX
  8
0
 10
25.9019
 20
7.5446
  0
VERTEX
  8
0
 10
25.899
 20
7.6119
  0
VERTEX
  8
0
 10
25.899
 20
7.6119
  0
SEQEND
  0
POLYLINE
  8
0
 66
     1
 10
0
 20
0
  0
VERTEX
  8
0
 10
26.055
 20
7.6124
  0
VERTEX
  8
0
 10
26.0587
 20
7.543
  0
VERTEX
  8
0
 10
26.0696
 20
7.4805
  0
VERTEX
  8
0
 10
26.0878
 20
7.425
  0
VERTEX
  8
0
 10
26.1133
 20
7.3762
  0
VERTEX
  8
0
 10
26.1383
 20
7.3434
  0
VERTEX
  8
0
 10
26.167
 20
7.3164
  0
VERTEX
  8
0
 10
26.1995
 20
7.2954
  0
VERTEX
  8
0
 10
26.2357
 20
7.2803
  0
VERTEX
  8
0
 10
26.2757
 20
7.2712
  0
VERTEX
  8
0
 10
26.3195
 20
7.2679
  0
VERTEX
  8
0
 10
26.3632
 20
7.2708
  0
VERTEX
  8
0
 10
26.4032
 20
7.2799
  0
VERTEX
  8
0
 10
26.4394
 20
7.2952
  0
VERTEX
  8
0
 10
26.4719
 20
7.3168
  0
VERTEX
  8
0
 10
26.5006
 20
7.3447
  0
VERTEX
  8
0
 10
26.5256
 20
7.3788
  0
VERTEX
  8
0
 10
26.5575
 20
7.4467
  0
VERTEX
  8
0
 10
26.5766
 20
7.5262
  0
VERTEX
  8
0
 10
26.583
 20
7.6174
  0
VERTEX
  8
0
 10
26.5764
 20
7.7056
  0
VERTEX
  8
0
 10
26.5564
 20
7.7829
  0
VERTEX
  8
0
 10
26.523
 20
7.8493
  0
VERTEX
  8
0
 10
26.4977
 20
7.8819
  0
VERTEX
  8
0
 10
26.4689
 20
7.9085
  0
VERTEX
  8
0
 10
26.4367
 20
7.9293
  0
VERTEX
  8
0
 10
26.401
 20
7.9441
  0
VERTEX
  8
0
 10
26.362
 20
7.953
  0
VERTEX
  8
0
 10
26.3195
 20
7.9559
  0
VERTEX
  8
0
 10
26.2757
 20
7.9529
  0
VERTEX
  8
0
 10
26.2357
 20
7.9439
  0
VERTEX
  8
0
 10
26.1995
 20
7.9288
  0
VERTEX
  8
0
 10
26.167
 20
7.9078
  0
VERTEX
  8
0
 10
26.1383
 20
7.8807
  0
VERTEX
  8
0
 10
26.1133
 20
7.8476
  0
VERTEX
  8
0
 10
26.0809
 20
7.7809
  0
VERTEX
  8
0
 10
26.0615
 20
7.7024
  0
VERTEX
  8
0
 10
26.055
 20
7.6124
  0
VERTEX
  8
0
 10
26.055
 20
7.6124
  0
SEQEND
  0
POLYLINE
  8
0
 66
     1
 10
0
 20
0
  0
VERTEX
  8
0
 10
26.915
 20
7.1599
  0
VERTEX
  8
0
 10
26.915
 20
8.0605
  0
VERTEX
  8
0
 10
27.051
 20
8.0605
  0
VERTEX
  8
0
 10
27.051
 20
7.933
  0
VERTEX
  8
0
 10
27.0771
 20
7.9672
  0
VERTEX
  8
0
 10
27.1059
 20
7.997
  0
VERTEX
  8
0
 10
27.1375
 20
8.0221
  0
VERTEX
  8
0
 10
27.1718
 20
8.0428
  0
VERTEX
  8
0
 10
27.2088
 20
8.0589
  0
VERTEX
  8
0
 10
27.2486
 20
8.0704
  0
VERTEX
  8
0
 10
27.2912
 20
8.0774
  0
VERTEX
  8
0
 10
27.3365
 20
8.0799
  0
VERTEX
  8
0
 10
27.4129
 20
8.0725
  0
VERTEX
  8
0
 10
27.4851
 20
8.0503
  0
VERTEX
  8
0
 10
27.5228
 20
8.0307
  0
VERTEX
  8
0
 10
27.5554
 20
8.0063
  0
VERTEX
  8
0
 10
27.5828
 20
7.9772
  0
VERTEX
  8
0
 10
27.6052
 20
7.9434
  0
VERTEX
  8
0
 10
27.6224
 20
7.9047
  0
VERTEX
  8
0
 10
27.6346
 20
7.8614
  0
VERTEX
  8
0
 10
27.6393
 20
7.8272
  0
VERTEX
  8
0
 10
27.6421
 20
7.7778
  0
VERTEX
  8
0
 10
27.643
 20
7.7131
  0
VERTEX
  8
0
 10
27.643
 20
7.1599
  0
VERTEX
  8
0
 10
27.491
 20
7.1599
  0
VERTEX
  8
0
 10
27.491
 20
7.7073
  0
VERTEX
  8
0
 10
27.4881
 20
7.777
  0
VERTEX
  8
0
 10
27.4792
 20
7.8267
  0
VERTEX
  8
0
 10
27.4535
 20
7.8805
  0
VERTEX
  8
0
 10
27.4101
 20
7.92
  0
VERTEX
  8
0
 10
27.3614
 20
7.9409
  0
VERTEX
  8
0
 10
27.3047
 20
7.9479
  0
VERTEX
  8
0
 10
27.2803
 20
7.9471
  0
VERTEX
  8
0
 10
27.2573
 20
7.9446
  0
VERTEX
  8
0
 10
27.2356
 20
7.9405
  0
VERTEX
  8
0
 10
27.2152
 20
7.9348
  0
VERTEX
  8
0
 10
27.1961
 20
7.9274
  0
VERTEX
  8
0
 10
27.1783
 20
7.9183
  0
VERTEX
  8
0
 10
27.1618
 20
7.9077
  0
VERTEX
  8
0
 10
27.1467
 20
7.8953
  0
VERTEX
  8
0
 10
27.1329
 20
7.8814
  0
VERTEX
  8
0
 10
27.1204
 20
7.8658
  0
VERTEX
  8
0
 10
27.1092
 20
7.8485
  0
VERTEX
  8
0
 10
27.0993
 20
7.8296
  0
VERTEX
  8
0
 10
27.0907
 20
7.8091
  0
VERTEX
  8
0
 10
27.0835
 20
7.7869
  0
VERTEX
  8
0
 10
27.0776
 20
7.7631
  0
VERTEX
  8
0
 10
27.0729
 20
7.7376
  0
VERTEX
  8
0
 10
27.0697
 20
7.7105
  0
VERTEX
  8
0
 10
27.0677
 20
7.6818
  0
VERTEX
  8
0
 10
27.067
 20
7.6514
  0
VERTEX
  8
0
 10
27.067
 20
7.1599
  0
VERTEX
  8
0
 10
26.915
 20
7.1599
  0
SEQEND
  0
POLYLINE
  8
0
 66
     1
 10
0
 20
0
  0
VERTEX
  8
0
 10
29.283
 20
7.6479
  0
VERTEX
  8
0
 10
29.283
 20
7.7959
  0
VERTEX
  8
0
 10
29.807
 20
7.7959
  0
VERTEX
  8
0
 10
29.807
 20
7.337
  0
VERTEX
  8
0
 10
29.753
 20
7.2965
  0
VERTEX
  8
0
 10
29.6983
 20
7.2607
  0
VERTEX
  8
0
 10
29.6429
 20
7.2298
  0
VERTEX
  8
0
 10
29.5867
 20
7.2035
  0
VERTEX
  8
0
 10
29.5298
 20
7.1821
  0
VERTEX
  8
0
 10
29.4722
 20
7.1654
  0
VERTEX
  8
0
 10
29.4138
 20
7.1535
  0
VERTEX
  8
0
 10
29.3547
 20
7.1463
  0
VERTEX
  8
0
 10
29.2949
 20
7.1439
  0
VERTEX
  8
0
 10
29.207
 20
7.1485
  0
VERTEX
  8
0
 10
29.1239
 20
7.1621
  0
VERTEX
  8
0
 10
29.0455
 20
7.1848
  0
VERTEX
  8
0
 10
28.9718
 20
7.2165
  0
VERTEX
  8
0
 10
28.9131
 20
7.2512
  0
VERTEX
  8
0
 10
28.8604
 20
7.2917
  0
VERTEX
  8
0
 10
28.8139
 20
7.3379
  0
VERTEX
  8
0
 10
28.7734
 20
7.39
  0
VERTEX
  8
0
 10
28.739
 20
7.4479
  0
VERTEX
  8
0
 10
28.7057
 20
7.5233
  0
VERTEX
  8
0
 10
28.682
 20
7.6034
  0
VERTEX
  8
0
 10
28.6678
 20
7.6883
  0
VERTEX
  8
0
 10
28.663
 20
7.778
  0
VERTEX
  8
0
 10
28.6708
 20
7.8935
  0
VERTEX
  8
0
 10
28.6942
 20
8.0024
  0
VERTEX
  8
0
 10
28.7331
 20
8.1048
  0
VERTEX
  8
0
 10
28.7669
 20
8.1675
  0
VERTEX
  8
0
 10
28.806
 20
8.2231
  0
VERTEX
  8
0
 10
28.8506
 20
8.2717
  0
VERTEX
  8
0
 10
28.9006
 20
8.3133
  0
VERTEX
  8
0
 10
28.956
 20
8.3479
  0
VERTEX
  8
0
 10
29.0296
 20
8.3812
  0
VERTEX
  8
0
 10
29.1086
 20
8.4049
  0
VERTEX
  8
0
 10
29.1929
 20
8.4192
  0
VERTEX
  8
0
 10
29.2827
 20
8.4239
  0
VERTEX
  8
0
 10
29.4097
 20
8.4128
  0
VERTEX
  8
0
 10
29.5258
 20
8.3795
  0
VERTEX
  8
0
 10
29.6246
 20
8.3258
  0
VERTEX
  8
0
 10
29.6997
 20
8.2537
  0
VERTEX
  8
0
 10
29.7504
 20
8.1673
  0
VERTEX
  8
0
 10
29.7892
 20
8.0555
  0
VERTEX
  8
0
 10
29.6413
 20
8.0149
  0
VERTEX
  8
0
 10
29.6115
 20
8.0968
  0
VERTEX
  8
0
 10
29.5763
 20
8.1575
  0
VERTEX
  8
0
 10
29.5238
 20
8.2104
  0
VERTEX
  8
0
 10
29.4542
 20
8.2504
  0
VERTEX
  8
0
 10
29.3723
 20
8.2755
  0
VERTEX
  8
0
 10
29.2831
 20
8.2839
  0
VERTEX
  8
0
 10
29.1791
 20
8.2753
  0
VERTEX
  8
0
 10
29.0887
 20
8.2494
  0
VERTEX
  8
0
 10
29.042
 20
8.2268
  0
VERTEX
  8
0
 10
29
 20
8.1991
  0
VERTEX
  8
0
 10
28.9626
 20
8.1664
  0
VERTEX
  8
0
 10
28.9299
 20
8.1288
  0
VERTEX
  8
0
 10
28.9018
 20
8.0861
  0
VERTEX
  8
0
 10
28.8783
 20
8.0384
  0
VERTEX
  8
0
 10
28.8433
 20
7.9209
  0
VERTEX
  8
0
 10
28.831
 20
7.7904
  0
VERTEX
  8
0
 10
28.8318
 20
7.7473
  0
VERTEX
  8
0
 10
28.8346
 20
7.7061
  0
VERTEX
  8
0
 10
28.8394
 20
7.667
  0
VERTEX
  8
0
 10
28.8462
 20
7.6298
  0
VERTEX
  8
0
 10
28.8551
 20
7.5945
  0
VERTEX
  8
0
 10
28.8659
 20
7.5612
  0
VERTEX
  8
0
 10
28.8787
 20
7.5299
  0
VERTEX
  8
0
 10
28.8936
 20
7.5005
  0
VERTEX
  8
0
 10
28.9105
 20
7.4731
  0
VERTEX
  8
0
 10
28.9294
 20
7.4476
  0
VERTEX
  8
0
 10
28.9503
 20
7.4241
  0
VERTEX
  8
0
 10
28.9732
 20
7.4026
  0
VERTEX
  8
0
 10
28.9981
 20
7.383
  0
VERTEX
  8
0
 10
29.0251
 20
7.3654
  0
VERTEX
  8
0
 10
29.054
 20
7.3497
  0
VERTEX
  8
0
 10
29.1664
 20
7.3098
  0
VERTEX
  8
0
 10
29.2855
 20
7.2959
  0
VERTEX
  8
0
 10
29.3786
 20
7.304
  0
VERTEX
  8
0
 10
29.4772
 20
7.3299
  0
VERTEX
  8
0
 10
29.5725
 20
7.3707
  0
VERTEX
  8
0
 10
29.647
 20
7.4218
  0
VERTEX
  8
0
 10
29.647
 20
7.6479
  0
VERTEX
  8
0
 10
29.283
 20
7.6479
  0
SEQEND
  0
POLYLINE
  8
0
 66
     1
 10
0
 20
0
  0
VERTEX
  8
0
 10
30.031
 20
7.1599
  0
VERTEX
  8
0
 10
30.031
 20
8.0605
  0
VERTEX
  8
0
 10
30.167
 20
8.0605
  0
VERTEX
  8
0
 10
30.167
 20
7.9245
  0
VERTEX
  8
0
 10
30.2068
 20
7.9888
  0
VERTEX
  8
0
 10
30.2431
 20
8.032
  0
VERTEX
  8
0
 10
30.2977
 20
8.068
  0
VERTEX
  8
0
 10
30.3616
 20
8.0799
  0
VERTEX
  8
0
 10
30.4388
 20
8.0677
  0
VERTEX
  8
0
 10
30.5181
 20
8.0312
  0
VERTEX
  8
0
 10
30.4658
 20
7.8908
  0
VERTEX
  8
0
 10
30.4101
 20
7.9156
  0
VERTEX
  8
0
 10
30.3544
 20
7.9239
  0
VERTEX
  8
0
 10
30.3054
 20
7.9152
  0
VERTEX
  8
0
 10
30.2598
 20
7.8891
  0
VERTEX
  8
0
 10
30.2292
 20
7.8549
  0
VERTEX
  8
0
 10
30.2083
 20
7.8102
  0
VERTEX
  8
0
 10
30.1894
 20
7.7257
  0
VERTEX
  8
0
 10
30.183
 20
7.6319
  0
VERTEX
  8
0
 10
30.183
 20
7.1599
  0
VERTEX
  8
0
 10
30.031
 20
7.1599
  0
SEQEND
  0
POLYLINE
  8
0
 66
     1
 10
0
 20
0
  0
VERTEX
  8
0
 10
31.2232
 20
7.4527
  0
VERTEX
  8
0
 10
31.3805
 20
7.4333
  0
VERTEX
  8
0
 10
31.3711
 20
7.402
  0
VERTEX
  8
0
 10
31.3602
 20
7.3726
  0
VERTEX
  8
0
 10
31.3479
 20
7.3449
  0
VERTEX
  8
0
 10
31.3341
 20
7.319
  0
VERTEX
  8
0
 10
31.3189
 20
7.2949
  0
VERTEX
  8
0
 10
31.3021
 20
7.2725
  0
VERTEX
  8
0
 10
31.2839
 20
7.252
  0
VERTEX
  8
0
 10
31.2642
 20
7.2332
  0
VERTEX
  8
0
 10
31.2431
 20
7.2163
  0
VERTEX
  8
0
 10
31.2204
 20
7.2011
  0
VERTEX
  8
0
 10
31.1963
 20
7.1877
  0
VERTEX
  8
0
 10
31.1707
 20
7.1761
  0
VERTEX
  8
0
 10
31.1436
 20
7.1662
  0
VERTEX
  8
0
 10
31.1151
 20
7.1582
  0
VERTEX
  8
0
 10
31.0851
 20
7.152
  0
VERTEX
  8
0
 10
31.0536
 20
7.1475
  0
VERTEX
  8
0
 10
31.0206
 20
7.1448
  0
VERTEX
  8
0
 10
30.9862
 20
7.1439
  0
VERTEX
  8
0
 10
30.9315
 20
7.1464
  0
VERTEX
  8
0
 10
30.8801
 20
7.1538
  0
VERTEX
  8
0
 10
30.8321
 20
7.1661
  0
VERTEX
  8
0
 10
30.7874
 20
7.1833
  0
VERTEX
  8
0
 10
30.7462
 20
7.2054
  0
VERTEX
  8
0
 10
30.7083
 20
7.2325
  0
VERTEX
  8
0
 10
30.6738
 20
7.2645
  0
VERTEX
  8
0
 10
30.6434
 20
7.301
  0
VERTEX
  8
0
 10
30.6176
 20
7.3415
  0
VERTEX
  8
0
 10
30.5965
 20
7.386
  0
VERTEX
  8
0
 10
30.5801
 20
7.4345
  0
VERTEX
  8
0
 10
30.5684
 20
7.4871
  0
VERTEX
  8
0
 10
30.5614
 20
7.5437
  0
VERTEX
  8
0
 10
30.559
 20
7.6044
  0
VERTEX
  8
0
 10
30.5619
 20
7.6716
  0
VERTEX
  8
0
 10
30.5705
 20
7.7343
  0
VERTEX
  8
0
 10
30.5848
 20
7.7926
  0
VERTEX
  8
0
 10
30.6048
 20
7.8464
  0
VERTEX
  8
0
 10
30.6306
 20
7.8958
  0
VERTEX
  8
0
 10
30.662
 20
7.9408
  0
VERTEX
  8
0
 10
30.6917
 20
7.9734
  0
VERTEX
  8
0
 10
30.7242
 20
8.0017
  0
VERTEX
  8
0
 10
30.7595
 20
8.0256
  0
VERTEX
  8
0
 10
30.7975
 20
8.0451
  0
VERTEX
  8
0
 10
30.8384
 20
8.0604
  0
VERTEX
  8
0
 10
30.8821
 20
8.0712
  0
VERTEX
  8
0
 10
30.9285
 20
8.0777
  0
VERTEX
  8
0
 10
30.9778
 20
8.0799
  0
VERTEX
  8
0
 10
31.0258
 20
8.0778
  0
VERTEX
  8
0
 10
31.0711
 20
8.0714
  0
VERTEX
  8
0
 10
31.1136
 20
8.0607
  0
VERTEX
  8
0
 10
31.1534
 20
8.0457
  0
VERTEX
  8
0
 10
31.1904
 20
8.0265
  0
VERTEX
  8
0
 10
31.2247
 20
8.003
  0
VERTEX
  8
0
 10
31.2563
 20
7.9753
  0
VERTEX
  8
0
 10
31.2851
 20
7.9432
  0
VERTEX
  8
0
 10
31.3158
 20
7.8992
  0
VERTEX
  8
0
 10
31.3409
 20
7.851
  0
VERTEX
  8
0
 10
31.3604
 20
7.7986
  0
VERTEX
  8
0
 10
31.3744
 20
7.742
  0
VERTEX
  8
0
 10
31.3827
 20
7.6812
  0
VERTEX
  8
0
 10
31.3855
 20
7.6162
  0
VERTEX
  8
0
 10
31.3853
 20
7.5952
  0
VERTEX
  8
0
 10
31.3846
 20
7.5759
  0
VERTEX
  8
0
 10
30.715
 20
7.5759
  0
VERTEX
  8
0
 10
30.726
 20
7.4933
  0
VERTEX
  8
0
 10
30.75
 20
7.4216
  0
VERTEX
  8
0
 10
30.7869
 20
7.3609
  0
VERTEX
  8
0
 10
30.8184
 20
7.3274
  0
VERTEX
  8
0
 10
30.8541
 20
7.3014
  0
VERTEX
  8
0
 10
30.8941
 20
7.2828
  0
VERTEX
  8
0
 10
30.9382
 20
7.2716
  0
VERTEX
  8
0
 10
30.9865
 20
7.2679
  0
VERTEX
  8
0
 10
31.0194
 20
7.2698
  0
VERTEX
  8
0
 10
31.0503
 20
7.2753
  0
VERTEX
  8
0
 10
31.0791
 20
7.2845
  0
VERTEX
  8
0
 10
31.1059
 20
7.2975
  0
VERTEX
  8
0
 10
31.1306
 20
7.3141
  0
VERTEX
  8
0
 10
31.1533
 20
7.3344
  0
VERTEX
  8
0
 10
31.1738
 20
7.3584
  0
VERTEX
  8
0
 10
31.1924
 20
7.3862
  0
VERTEX
  8
0
 10
31.2088
 20
7.4176
  0
VERTEX
  8
0
 10
31.2232
 20
7.4527
  0
VERTEX
  8
0
 10
31.2232
 20
7.4527
  0
SEQEND
  0
POLYLINE
  8
0
 66
     1
 10
0
 20
0
  0
VERTEX
  8
0
 10
30.7245
 20
7.6999
  0
VERTEX
  8
0
 10
31.2251
 20
7.6999
  0
VERTEX
  8
0
 10
31.2142
 20
7.7687
  0
VERTEX
  8
0
 10
31.1951
 20
7.8249
  0
VERTEX
  8
0
 10
31.1676
 20
7.8686
  0
VERTEX
  8
0
 10
31.1287
 20
7.9065
  0
VERTEX
  8
0
 10
31.0843
 20
7.9337
  0
VERTEX
  8
0
 10
31.0345
 20
7.9502
  0
VERTEX
  8
0
 10
30.9794
 20
7.9559
  0
VERTEX
  8
0
 10
30.9266
 20
7.9516
  0
VERTEX
  8
0
 10
30.879
 20
7.9379
  0
VERTEX
  8
0
 10
30.8363
 20
7.9147
  0
VERTEX
  8
0
 10
30.7988
 20
7.882
  0
VERTEX
  8
0
 10
30.7609
 20
7.8305
  0
VERTEX
  8
0
 10
30.7361
 20
7.7698
  0
VERTEX
  8
0
 10
30.7245
 20
7.6999
  0
VERTEX
  8
0
 10
30.7245
 20
7.6999
  0
SEQEND
  0
POLYLINE
  8
0
 66
     1
 10
0
 20
0
  0
VERTEX
  8
0
 10
32.1832
 20
7.4527
  0
VERTEX
  8
0
 10
32.3405
 20
7.4333
  0
VERTEX
  8
0
 10
32.3311
 20
7.402
  0
VERTEX
  8
0
 10
32.3202
 20
7.3726
  0
VERTEX
  8
0
 10
32.3079
 20
7.3449
  0
VERTEX
  8
0
 10
32.2941
 20
7.319
  0
VERTEX
  8
0
 10
32.2789
 20
7.2949
  0
VERTEX
  8
0
 10
32.2621
 20
7.2725
  0
VERTEX
  8
0
 10
32.2439
 20
7.252
  0
VERTEX
  8
0
 10
32.2242
 20
7.2332
  0
VERTEX
  8
0
 10
32.2031
 20
7.2163
  0
VERTEX
  8
0
 10
32.1804
 20
7.2011
  0
VERTEX
  8
0
 10
32.1563
 20
7.1877
  0
VERTEX
  8
0
 10
32.1307
 20
7.1761
  0
VERTEX
  8
0
 10
32.1036
 20
7.1662
  0
VERTEX
  8
0
 10
32.0751
 20
7.1582
  0
VERTEX
  8
0
 10
32.0451
 20
7.152
  0
VERTEX
  8
0
 10
32.0136
 20
7.1475
  0
VERTEX
  8
0
 10
31.9806
 20
7.1448
  0
VERTEX
  8
0
 10
31.9462
 20
7.1439
  0
VERTEX
  8
0
 10
31.8915
 20
7.1464
  0
VERTEX
  8
0
 10
31.8401
 20
7.1538
  0
VERTEX
  8
0
 10
31.7921
 20
7.1661
  0
VERTEX
  8
0
 10
31.7474
 20
7.1833
  0
VERTEX
  8
0
 10
31.7062
 20
7.2054
  0
VERTEX
  8
0
 10
31.6683
 20
7.2325
  0
VERTEX
  8
0
 10
31.6338
 20
7.2645
  0
VERTEX
  8
0
 10
31.6034
 20
7.301
  0
VERTEX
  8
0
 10
31.5776
 20
7.3415
  0
VERTEX
  8
0
 10
31.5565
 20
7.386
  0
VERTEX
  8
0
 10
31.5401
 20
7.4345
  0
VERTEX
  8
0
 10
31.5284
 20
7.4871
  0
VERTEX
  8
0
 10
31.5214
 20
7.5437
  0
VERTEX
  8
0
 10
31.519
 20
7.6044
  0
VERTEX
  8
0
 10
31.5219
 20
7.6716
  0
VERTEX
  8
0
 10
31.5305
 20
7.7343
  0
VERTEX
  8
0
 10
31.5448
 20
7.7926
  0
VERTEX
  8
0
 10
31.5648
 20
7.8464
  0
VERTEX
  8
0
 10
31.5906
 20
7.8958
  0
VERTEX
  8
0
 10
31.622
 20
7.9408
  0
VERTEX
  8
0
 10
31.6517
 20
7.9734
  0
VERTEX
  8
0
 10
31.6842
 20
8.0017
  0
VERTEX
  8
0
 10
31.7195
 20
8.0256
  0
VERTEX
  8
0
 10
31.7575
 20
8.0451
  0
VERTEX
  8
0
 10
31.7984
 20
8.0604
  0
VERTEX
  8
0
 10
31.8421
 20
8.0712
  0
VERTEX
  8
0
 10
31.8885
 20
8.0777
  0
VERTEX
  8
0
 10
31.9378
 20
8.0799
  0
VERTEX
  8
0
 10
31.9858
 20
8.0778
  0
VERTEX
  8
0
 10
32.0311
 20
8.0714
  0
VERTEX
  8
0
 10
32.0736
 20
8.0607
  0
VERTEX
  8
0
 10
32.1134
 20
8.0457
  0
VERTEX
  8
0
 10
32.1504
 20
8.0265
  0
VERTEX
  8
0
 10
32.1847
 20
8.003
  0
VERTEX
  8
0
 10
32.2163
 20
7.9753
  0
VERTEX
  8
0
 10
32.2451
 20
7.9432
  0
VERTEX
  8
0
 10
32.2758
 20
7.8992
  0
VERTEX
  8
0
 10
32.3009
 20
7.851
  0
VERTEX
  8
0
 10
32.3204
 20
7.7986
  0
VERTEX
  8
0
 10
32.3344
 20
7.742
  0
VERTEX
  8
0
 10
32.3427
 20
7.6812
  0
VERTEX
  8
0
 10
32.3455
 20
7.6162
  0
VERTEX
  8
0
 10
32.3453
 20
7.5952
  0
VERTEX
  8
0
 10
32.3446
 20
7.5759
  0
VERTEX
  8
0
 10
31.675
 20
7.5759
  0
VERTEX
  8
0
 10
31.686
 20
7.4933
  0
VERTEX
  8
0
 10
31.71
 20
7.4216
  0
VERTEX
  8
0
 10
31.7469
 20
7.3609
  0
VERTEX
  8
0
 10
31.7784
 20
7.3274
  0
VERTEX
  8
0
 10
31.8141
 20
7.3014
  0
VERTEX
  8
0
 10
31.8541
 20
7.2828
  0
VERTEX
  8
0
 10
31.8982
 20
7.2716
  0
VERTEX
  8
0
 10
31.9465
 20
7.2679
  0
VERTEX
  8
0
 10
31.9794
 20
7.2698
  0
VERTEX
  8
0
 10
32.0103
 20
7.2753
  0
VERTEX
  8
0
 10
32.0391
 20
7.2845
  0
VERTEX
  8
0
 10
32.0659
 20
7.2975
  0
VERTEX
  8
0
 10
32.0906
 20
7.3141
  0
VERTEX
  8
0
 10
32.1133
 20
7.3344
  0
VERTEX
  8
0
 10
32.1338
 20
7.3584
  0
VERTEX
  8
0
 10
32.1524
 20
7.3862
  0
VERTEX
  8
0
 10
32.1688
 20
7.4176
  0
VERTEX
  8
0
 10
32.1832
 20
7.4527
  0
VERTEX
  8
0
 10
32.1832
 20
7.4527
  0
SEQEND
  0
POLYLINE
  8
0
 66
     1
 10
0
 20
0
  0
VERTEX
  8
0
 10
31.6845
 20
7.6999
  0
VERTEX
  8
0
 10
32.1851
 20
7.6999
  0
VERTEX
  8
0
 10
32.1742
 20
7.7687
  0
VERTEX
  8
0
 10
32.1551
 20
7.8249
  0
VERTEX
  8
0
 10
32.1276
 20
7.8686
  0
VERTEX
  8
0
 10
32.0887
 20
7.9065
  0
VERTEX
  8
0
 10
32.0443
 20
7.9337
  0
VERTEX
  8
0
 10
31.9945
 20
7.9502
  0
VERTEX
  8
0
 10
31.9394
 20
7.9559
  0
VERTEX
  8
0
 10
31.8866
 20
7.9516
  0
VERTEX
  8
0
 10
31.839
 20
7.9379
  0
VERTEX
  8
0
 10
31.7963
 20
7.9147
  0
VERTEX
  8
0
 10
31.7588
 20
7.882
  0
VERTEX
  8
0
 10
31.7209
 20
7.8305
  0
VERTEX
  8
0
 10
31.6961
 20
7.7698
  0
VERTEX
  8
0
 10
31.6845
 20
7.6999
  0
VERTEX
  8
0
 10
31.6845
 20
7.6999
  0
SEQEND
  0
POLYLINE
  8
0
 66
     1
 10
0
 20
0
  0
VERTEX
  8
0
 10
32.531
 20
7.1599
  0
VERTEX
  8
0
 10
32.531
 20
8.0605
  0
VERTEX
  8
0
 10
32.667
 20
8.0605
  0
VERTEX
  8
0
 10
32.667
 20
7.933
  0
VERTEX
  8
0
 10
32.6931
 20
7.9672
  0
VERTEX
  8
0
 10
32.7219
 20
7.997
  0
VERTEX
  8
0
 10
32.7535
 20
8.0221
  0
VERTEX
  8
0
 10
32.7878
 20
8.0428
  0
VERTEX
  8
0
 10
32.8248
 20
8.0589
  0
VERTEX
  8
0
 10
32.8646
 20
8.0704
  0
VERTEX
  8
0
 10
32.9072
 20
8.0774
  0
VERTEX
  8
0
 10
32.9525
 20
8.0799
  0
VERTEX
  8
0
 10
33.0289
 20
8.0725
  0
VERTEX
  8
0
 10
33.1011
 20
8.0503
  0
VERTEX
  8
0
 10
33.1388
 20
8.0307
  0
VERTEX
  8
0
 10
33.1714
 20
8.0063
  0
VERTEX
  8
0
 10
33.1988
 20
7.9772
  0
VERTEX
  8
0
 10
33.2212
 20
7.9434
  0
VERTEX
  8
0
 10
33.2384
 20
7.9047
  0
VERTEX
  8
0
 10
33.2506
 20
7.8614
  0
VERTEX
  8
0
 10
33.2553
 20
7.8272
  0
VERTEX
  8
0
 10
33.2581
 20
7.7778
  0
VERTEX
  8
0
 10
33.259
 20
7.7131
  0
VERTEX
  8
0
 10
33.259
 20
7.1599
  0
VERTEX
  8
0
 10
33.107
 20
7.1599
  0
VERTEX
  8
0
 10
33.107
 20
7.7073
  0
VERTEX
  8
0
 10
33.1041
 20
7.777
  0
VERTEX
  8
0
 10
33.0952
 20
7.8267
  0
VERTEX
  8
0
 10
33.0695
 20
7.8805
  0
VERTEX
  8
0
 10
33.0261
 20
7.92
  0
VERTEX
  8
0
 10
32.9774
 20
7.9409
  0
VERTEX
  8
0
 10
32.9207
 20
7.9479
  0
VERTEX
  8
0
 10
32.8963
 20
7.9471
  0
VERTEX
  8
0
 10
32.8733
 20
7.9446
  0
VERTEX
  8
0
 10
32.8516
 20
7.9405
  0
VERTEX
  8
0
 10
32.8312
 20
7.9348
  0
VERTEX
  8
0
 10
32.8121
 20
7.9274
  0
VERTEX
  8
0
 10
32.7943
 20
7.9183
  0
VERTEX
  8
0
 10
32.7778
 20
7.9077
  0
VERTEX
  8
0
 10
32.7627
 20
7.8953
  0
VERTEX
  8
0
 10
32.7489
 20
7.8814
  0
VERTEX
  8
0
 10
32.7364
 20
7.8658
  0
VERTEX
  8
0
 10
32.7252
 20
7.8485
  0
VERTEX
  8
0
 10
32.7153
 20
7.8296
  0
VERTEX
  8
0
 10
32.7067
 20
7.8091
  0
VERTEX
  8
0
 10
32.6995
 20
7.7869
  0
VERTEX
  8
0
 10
32.6936
 20
7.7631
  0
VERTEX
  8
0
 10
32.6889
 20
7.7376
  0
VERTEX
  8
0
 10
32.6857
 20
7.7105
  0
VERTEX
  8
0
 10
32.6837
 20
7.6818
  0
VERTEX
  8
0
 10
32.683
 20
7.6514
  0
VERTEX
  8
0
 10
32.683
 20
7.1599
  0
VERTEX
  8
0
 10
32.531
 20
7.1599
  0
SEQEND
  0
POLYLINE
  8
0
 66
     1
 10
0
 20
0
  0
VERTEX
  8
0
 10
33.543
 20
7.8879
  0
VERTEX
  8
0
 10
33.543
 20
8.0599
  0
VERTEX
  8
0
 10
33.715
 20
8.0599
  0
VERTEX
  8
0
 10
33.715
 20
7.8879
  0
VERTEX
  8
0
 10
33.543
 20
7.8879
  0
SEQEND
  0
POLYLINE
  8
0
 66
     1
 10
0
 20
0
  0
VERTEX
  8
0
 10
33.543
 20
7.1599
  0
VERTEX
  8
0
 10
33.543
 20
7.3319
  0
VERTEX
  8
0
 10
33.715
 20
7.3319
  0
VERTEX
  8
0
 10
33.715
 20
7.1613
  0
VERTEX
  8
0
 10
33.7133
 20
7.1228
  0
VERTEX
  8
0
 10
33.708
 20
7.0872
  0
VERTEX
  8
0
 10
33.6993
 20
7.0546
  0
VERTEX
  8
0
 10
33.687
 20
7.0248
  0
VERTEX
  8
0
 10
33.6713
 20
6.998
  0
VERTEX
  8
0
 10
33.6521
 20
6.9741
  0
VERTEX
  8
0
 10
33.6293
 20
6.9531
  0
VERTEX
  8
0
 10
33.6031
 20
6.9351
  0
VERTEX
  8
0
 10
33.5734
 20
6.9199
  0
VERTEX
  8
0
 10
33.531
 20
6.9837
  0
VERTEX
  8
0
 10
33.5593
 20
6.9991
  0
VERTEX
  8
0
 10
33.5826
 20
7.0202
  0
VERTEX
  8
0
 10
33.6011
 20
7.0468
  0
VERTEX
  8
0
 10
33.6147
 20
7.0789
  0
VERTEX
  8
0
 10
33.6234
 20
7.1166
  0
VERTEX
  8
0
 10
33.6273
 20
7.1599
  0
VERTEX
  8
0
 10
33.543
 20
7.1599
  0
SEQEND
  0
POLYLINE
  8
0
 66
     1
 10
0
 20
0
  0
VERTEX
  8
0
 10
8.3513
 20
27.9846
  0
VERTEX
  8
0
 10
8.3388
 20
28.004
  0
VERTEX
  8
0
 10
8.3274
 20
28.024
  0
VERTEX
  8
0
 10
8.317
 20
28.0446
  0
VERTEX
  8
0
 10
8.4326
 20
28.0196
  0
VERTEX
  8
0
 10
8.5486
 20
27.9965
  0
VERTEX
  8
0
 10
8.6651
 20
27.9758
  0
VERTEX
  8
0
 10
8.7819
 20
27.9574
  0
VERTEX
  8
0
 10
8.899
 20
27.9418
  0
VERTEX
  8
0
 10
9.0164
 20
27.929
  0
VERTEX
  8
0
 10
9.134
 20
27.9193
  0
VERTEX
  8
0
 10
9.2517
 20
27.9129
  0
VERTEX
  8
0
 10
9.3695
 20
27.91
  0
VERTEX
  8
0
 10
9.4873
 20
27.9108
  0
VERTEX
  8
0
 10
9.6051
 20
27.9156
  0
VERTEX
  8
0
 10
9.7228
 20
27.9244
  0
VERTEX
  8
0
 10
9.8334
 20
27.936
  0
VERTEX
  8
0
 10
9.9438
 20
27.9498
  0
VERTEX
  8
0
 10
10.0537
 20
27.9656
  0
VERTEX
  8
0
 10
10.1634
 20
27.9834
  0
VERTEX
  8
0
 10
10.2728
 20
28.0028
  0
VERTEX
  8
0
 10
10.382
 20
28.0237
  0
VERTEX
  8
0
 10
10.4909
 20
28.046
  0
VERTEX
  8
0
 10
10.5996
 20
28.0694
  0
VERTEX
  8
0
 10
10.7082
 20
28.0938
  0
VERTEX
  8
0
 10
10.8166
 20
28.1191
  0
VERTEX
  8
0
 10
10.9249
 20
28.1449
  0
VERTEX
  8
0
 10
11.0331
 20
28.1712
  0
VERTEX
  8
0
 10
11.1412
 20
28.1978
  0
VERTEX
  8
0
 10
11.2494
 20
28.2245
  0
VERTEX
  8
0
 10
11.3575
 20
28.2511
  0
VERTEX
  8
0
 10
11.4657
 20
28.2775
  0
VERTEX
  8
0
 10
11.5739
 20
28.3034
  0
VERTEX
  8
0
 10
11.6822
 20
28.3286
  0
VERTEX
  8
0
 10
11.8002
 20
28.3542
  0
VERTEX
  8
0
 10
11.9188
 20
28.3775
  0
VERTEX
  8
0
 10
12.0377
 20
28.3996
  0
VERTEX
  8
0
 10
12.1567
 20
28.4218
  0
VERTEX
  8
0
 10
12.2754
 20
28.445
  0
VERTEX
  8
0
 10
12.3934
 20
28.4704
  0
VERTEX
  8
0
 10
12.5106
 20
28.4992
  0
VERTEX
  8
0
 10
12.6266
 20
28.5323
  0
VERTEX
  8
0
 10
12.7412
 20
28.571
  0
VERTEX
  8
0
 10
12.8521
 20
28.6107
  0
VERTEX
  8
0
 10
12.9637
 20
28.6482
  0
VERTEX
  8
0
 10
13.0761
 20
28.6834
  0
VERTEX
  8
0
 10
13.1891
 20
28.7161
  0
VERTEX
  8
0
 10
13.3028
 20
28.746
  0
VERTEX
  8
0
 10
13.4172
 20
28.7731
  0
VERTEX
  8
0
 10
13.5321
 20
28.7971
  0
VERTEX
  8
0
 10
13.6476
 20
28.8178
  0
VERTEX
  8
0
 10
13.7636
 20
28.835
  0
VERTEX
  8
0
 10
13.8801
 20
28.8485
  0
VERTEX
  8
0
 10
13.9972
 20
28.8582
  0
VERTEX
  8
0
 10
14.1147
 20
28.8638
  0
VERTEX
  8
0
 10
14.2285
 20
28.8661
  0
VERTEX
  8
0
 10
14.3423
 20
28.8668
  0
VERTEX
  8
0
 10
14.4562
 20
28.8662
  0
VERTEX
  8
0
 10
14.5702
 20
28.8649
  0
VERTEX
  8
0
 10
14.6841
 20
28.8635
  0
VERTEX
  8
0
 10
14.7979
 20
28.8624
  0
VERTEX
  8
0
 10
14.9117
 20
28.8622
  0
VERTEX
  8
0
 10
15.0254
 20
28.8633
  0
VERTEX
  8
0
 10
15.139
 20
28.8663
  0
VERTEX
  8
0
 10
15.2524
 20
28.8718
  0
VERTEX
  8
0
 10
15.3656
 20
28.8801
  0
VERTEX
  8
0
 10
15.4867
 20
28.8925
  0
VERTEX
  8
0
 10
15.6077
 20
28.9074
  0
VERTEX
  8
0
 10
15.7285
 20
28.924
  0
VERTEX
  8
0
 10
15.8493
 20
28.9413
  0
VERTEX
  8
0
 10
15.9701
 20
28.9587
  0
VERTEX
  8
0
 10
16.0909
 20
28.9751
  0
VERTEX
  8
0
 10
16.2118
 20
28.9896
  0
VERTEX
  8
0
 10
16.3329
 20
29.0015
  0
VERTEX
  8
0
 10
16.4543
 20
29.0098
  0
VERTEX
  8
0
 10
16.5759
 20
29.0137
  0
VERTEX
  8
0
 10
16.6961
 20
29.0117
  0
VERTEX
  8
0
 10
16.8162
 20
29.0045
  0
VERTEX
  8
0
 10
16.9362
 20
28.9941
  0
VERTEX
  8
0
 10
17.0562
 20
28.9826
  0
VERTEX
  8
0
 10
17.1762
 20
28.972
  0
VERTEX
  8
0
 10
17.2963
 20
28.9644
  0
VERTEX
  8
0
 10
17.4165
 20
28.9617
  0
VERTEX
  8
0
 10
17.5356
 20
28.9629
  0
VERTEX
  8
0
 10
17.6548
 20
28.9655
  0
VERTEX
  8
0
 10
17.774
 20
28.9689
  0
VERTEX
  8
0
 10
17.8931
 20
28.9728
  0
VERTEX
  8
0
 10
18.0123
 20
28.977
  0
VERTEX
  8
0
 10
18.1315
 20
28.9809
  0
VERTEX
  8
0
 10
18.2508
 20
28.9843
  0
VERTEX
  8
0
 10
18.37
 20
28.9867
  0
VERTEX
  8
0
 10
18.4892
 20
28.9878
  0
VERTEX
  8
0
 10
18.6085
 20
28.9873
  0
VERTEX
  8
0
 10
18.7311
 20
28.9856
  0
VERTEX
  8
0
 10
18.8536
 20
28.9835
  0
VERTEX
  8
0
 10
18.9761
 20
28.9811
  0
VERTEX
  8
0
 10
19.0986
 20
28.9786
  0
VERTEX
  8
0
 10
19.2211
 20
28.976
  0
VERTEX
  8
0
 10
19.3437
 20
28.9734
  0
VERTEX
  8
0
 10
19.4662
 20
28.9708
  0
VERTEX
  8
0
 10
19.5808
 20
28.9196
  0
VERTEX
  8
0
 10
19.6965
 20
28.8709
  0
VERTEX
  8
0
 10
19.8132
 20
28.8245
  0
VERTEX
  8
0
 10
19.9308
 20
28.7807
  0
VERTEX
  8
0
 10
20.0494
 20
28.7393
  0
VERTEX
  8
0
 10
20.1258
 20
28.6351
  0
VERTEX
  8
0
 10
20.2149
 20
28.5433
  0
VERTEX
  8
0
 10
20.3151
 20
28.4644
  0
VERTEX
  8
0
 10
20.4247
 20
28.3984
  0
VERTEX
  8
0
 10
20.5421
 20
28.3459
  0
VERTEX
  8
0
 10
20.6659
 20
28.3069
  0
VERTEX
  8
0
 10
20.7845
 20
28.2712
  0
VERTEX
  8
0
 10
20.8995
 20
28.2258
  0
VERTEX
  8
0
 10
21.0112
 20
28.172
  0
VERTEX
  8
0
 10
21.1194
 20
28.1112
  0
VERTEX
  8
0
 10
21.2243
 20
28.0446
  0
VERTEX
  8
0
 10
21.2329
 20
28.0103
  0
VERTEX
  8
0
 10
21.2081
 20
27.9351
  0
VERTEX
  8
0
 10
21.1536
 20
27.8786
  0
VERTEX
  8
0
 10
21.0797
 20
27.8427
  0
VERTEX
  8
0
 10
20.9643
 20
27.8117
  0
VERTEX
  8
0
 10
20.8476
 20
27.7895
  0
VERTEX
  8
0
 10
20.7299
 20
27.7755
  0
VERTEX
  8
0
 10
20.6114
 20
27.7688
  0
VERTEX
  8
0
 10
20.4925
 20
27.7686
  0
VERTEX
  8
0
 10
20.3732
 20
27.7741
  0
VERTEX
  8
0
 10
20.2539
 20
27.7845
  0
VERTEX
  8
0
 10
20.1337
 20
27.7962
  0
VERTEX
  8
0
 10
20.0133
 20
27.8068
  0
VERTEX
  8
0
 10
19.8929
 20
27.8172
  0
VERTEX
  8
0
 10
19.7725
 20
27.8283
  0
VERTEX
  8
0
 10
19.6524
 20
27.8411
  0
VERTEX
  8
0
 10
19.5326
 20
27.8565
  0
VERTEX
  8
0
 10
19.4133
 20
27.8754
  0
VERTEX
  8
0
 10
19.2946
 20
27.8988
  0
VERTEX
  8
0
 10
19.1743
 20
27.9739
  0
VERTEX
  8
0
 10
19.0445
 20
28.0268
  0
VERTEX
  8
0
 10
18.9079
 20
28.058
  0
VERTEX
  8
0
 10
18.7672
 20
28.0676
  0
VERTEX
  8
0
 10
18.6253
 20
28.0562
  0
VERTEX
  8
0
 10
18.4962
 20
28.0325
  0
VERTEX
  8
0
 10
18.3699
 20
27.9986
  0
VERTEX
  8
0
 10
18.2483
 20
27.9503
  0
VERTEX
  8
0
 10
18.2312
 20
27.8988
  0
VERTEX
  8
0
 10
18.2859
 20
27.787
  0
VERTEX
  8
0
 10
18.33
 20
27.6711
  0
VERTEX
  8
0
 10
18.3653
 20
27.5521
  0
VERTEX
  8
0
 10
18.3938
 20
27.4309
  0
VERTEX
  8
0
 10
18.4175
 20
27.3085
  0
VERTEX
  8
0
 10
18.4582
 20
27.2344
  0
VERTEX
  8
0
 10
18.5343
 20
27.1906
  0
VERTEX
  8
0
 10
18.6257
 20
27.1735
  0
VERTEX
  8
0
 10
18.7417
 20
27.1661
  0
VERTEX
  8
0
 10
18.8575
 20
27.1563
  0
VERTEX
  8
0
 10
18.9731
 20
27.1442
  0
VERTEX
  8
0
 10
19.0884
 20
27.1299
  0
VERTEX
  8
0
 10
19.2034
 20
27.1132
  0
VERTEX
  8
0
 10
19.3181
 20
27.0943
  0
VERTEX
  8
0
 10
19.4324
 20
27.0732
  0
VERTEX
  8
0
 10
19.5463
 20
27.0497
  0
VERTEX
  8
0
 10
19.6597
 20
27.0241
  0
VERTEX
  8
0
 10
19.7725
 20
26.9961
  0
VERTEX
  8
0
 10
19.8848
 20
26.966
  0
VERTEX
  8
0
 10
19.9965
 20
26.9336
  0
VERTEX
  8
0
 10
20.1082
 20
26.8993
  0
VERTEX
  8
0
 10
20.2195
 20
26.8638
  0
VERTEX
  8
0
 10
20.3304
 20
26.8272
  0
VERTEX
  8
0
 10
20.4412
 20
26.79
  0
VERTEX
  8
0
 10
20.5518
 20
26.7523
  0
VERTEX
  8
0
 10
20.6623
 20
26.7143
  0
VERTEX
  8
0
 10
20.7729
 20
26.6764
  0
VERTEX
  8
0
 10
20.8835
 20
26.6387
  0
VERTEX
  8
0
 10
20.9943
 20
26.6016
  0
VERTEX
  8
0
 10
21.1053
 20
26.5652
  0
VERTEX
  8
0
 10
21.2167
 20
26.5299
  0
VERTEX
  8
0
 10
21.3553
 20
26.4928
  0
VERTEX
  8
0
 10
21.4962
 20
26.4656
  0
VERTEX
  8
0
 10
21.6386
 20
26.4461
  0
VERTEX
  8
0
 10
21.7818
 20
26.4323
  0
VERTEX
  8
0
 10
21.8321
 20
26.3926
  0
VERTEX
  8
0
 10
21.8726
 20
26.3435
  0
VERTEX
  8
0
 10
21.9018
 20
26.2865
  0
VERTEX
  8
0
 10
21.7609
 20
26.2003
  0
VERTEX
  8
0
 10
21.6034
 20
26.1564
  0
VERTEX
  8
0
 10
21.4389
 20
26.1592
  0
VERTEX
  8
0
 10
21.3155
 20
26.1845
  0
VERTEX
  8
0
 10
21.1943
 20
26.2181
  0
VERTEX
  8
0
 10
21.0755
 20
26.2593
  0
VERTEX
  8
0
 10
20.9592
 20
26.3075
  0
VERTEX
  8
0
 10
20.8456
 20
26.3621
  0
VERTEX
  8
0
 10
20.7348
 20
26.4224
  0
VERTEX
  8
0
 10
20.6777
 20
26.4498
  0
VERTEX
  8
0
 10
20.6174
 20
26.4696
  0
VERTEX
  8
0
 10
20.5554
 20
26.4837
  0
VERTEX
  8
0
 10
20.5125
 20
26.4666
  0
VERTEX
  8
0
 10
20.6301
 20
26.3866
  0
VERTEX
  8
0
 10
20.7562
 20
26.3219
  0
VERTEX
  8
0
 10
20.8889
 20
26.2708
  0
VERTEX
  8
0
 10
21.0261
 20
26.2316
  0
VERTEX
  8
0
 10
21.0983
 20
26.1916
  0
VERTEX
  8
0
 10
21.143
 20
26.1221
  0
VERTEX
  8
0
 10
21.1557
 20
26.0378
  0
VERTEX
  8
0
 10
21.1128
 20
26.012
  0
VERTEX
  8
0
 10
20.7355
 20
26.0035
  0
VERTEX
  8
0
 10
20.6396
 20
26.0467
  0
VERTEX
  8
0
 10
20.5424
 20
26.0867
  0
VERTEX
  8
0
 10
20.4439
 20
26.1235
  0
VERTEX
  8
0
 10
20.3604
 20
26.2303
  0
VERTEX
  8
0
 10
20.2695
 20
26.3304
  0
VERTEX
  8
0
 10
20.1714
 20
26.4236
  0
VERTEX
  8
0
 10
20.0665
 20
26.5095
  0
VERTEX
  8
0
 10
19.9807
 20
26.5352
  0
VERTEX
  8
0
 10
19.867
 20
26.5323
  0
VERTEX
  8
0
 10
19.7532
 20
26.5292
  0
VERTEX
  8
0
 10
19.6395
 20
26.5258
  0
VERTEX
  8
0
 10
19.5258
 20
26.5224
  0
VERTEX
  8
0
 10
19.412
 20
26.5188
  0
VERTEX
  8
0
 10
19.2983
 20
26.5152
  0
VERTEX
  8
0
 10
19.1845
 20
26.5116
  0
VERTEX
  8
0
 10
19.0708
 20
26.5081
  0
VERTEX
  8
0
 10
18.9571
 20
26.5048
  0
VERTEX
  8
0
 10
18.8434
 20
26.5017
  0
VERTEX
  8
0
 10
18.7296
 20
26.4989
  0
VERTEX
  8
0
 10
18.616
 20
26.4964
  0
VERTEX
  8
0
 10
18.5023
 20
26.4943
  0
VERTEX
  8
0
 10
18.3886
 20
26.4927
  0
VERTEX
  8
0
 10
18.2749
 20
26.4916
  0
VERTEX
  8
0
 10
18.1613
 20
26.4911
  0
VERTEX
  8
0
 10
18.0476
 20
26.4912
  0
VERTEX
  8
0
 10
17.934
 20
26.492
  0
VERTEX
  8
0
 10
17.8204
 20
26.4936
  0
VERTEX
  8
0
 10
17.693
 20
26.5332
  0
VERTEX
  8
0
 10
17.5958
 20
26.6297
  0
VERTEX
  8
0
 10
17.5355
 20
26.7579
  0
VERTEX
  8
0
 10
17.5043
 20
26.8127
  0
VERTEX
  8
0
 10
17.4533
 20
26.8485
  0
VERTEX
  8
0
 10
17.3907
 20
26.8611
  0
VERTEX
  8
0
 10
17.2816
 20
26.8205
  0
VERTEX
  8
0
 10
17.1713
 20
26.7823
  0
VERTEX
  8
0
 10
17.06
 20
26.7477
  0
VERTEX
  8
0
 10
16.9476
 20
26.7177
  0
VERTEX
  8
0
 10
16.8344
 20
26.6938
  0
VERTEX
  8
0
 10
16.7204
 20
26.677
  0
VERTEX
  8
0
 10
16.6059
 20
26.6685
  0
VERTEX
  8
0
 10
16.4908
 20
26.6697
  0
VERTEX
  8
0
 10
16.3767
 20
26.6796
  0
VERTEX
  8
0
 10
16.2635
 20
26.696
  0
VERTEX
  8
0
 10
16.1515
 20
26.7184
  0
VERTEX
  8
0
 10
16.0405
 20
26.7464
  0
VERTEX
  8
0
 10
15.9307
 20
26.7794
  0
VERTEX
  8
0
 10
15.8221
 20
26.8171
  0
VERTEX
  8
0
 10
15.7147
 20
26.859
  0
VERTEX
  8
0
 10
15.6086
 20
26.9046
  0
VERTEX
  8
0
 10
15.5038
 20
26.9534
  0
VERTEX
  8
0
 10
15.4003
 20
27.0049
  0
VERTEX
  8
0
 10
15.2983
 20
27.0588
  0
VERTEX
  8
0
 10
15.187
 20
27.1182
  0
VERTEX
  8
0
 10
15.0746
 20
27.1761
  0
VERTEX
  8
0
 10
14.9611
 20
27.2316
  0
VERTEX
  8
0
 10
14.8463
 20
27.2841
  0
VERTEX
  8
0
 10
14.7301
 20
27.3328
  0
VERTEX
  8
0
 10
14.6124
 20
27.377
  0
VERTEX
  8
0
 10
14.4932
 20
27.416
  0
VERTEX
  8
0
 10
14.3723
 20
27.4489
  0
VERTEX
  8
0
 10
14.2495
 20
27.4752
  0
VERTEX
  8
0
 10
14.1404
 20
27.4892
  0
VERTEX
  8
0
 10
14.0316
 20
27.4916
  0
VERTEX
  8
0
 10
13.9237
 20
27.4832
  0
VERTEX
  8
0
 10
13.8172
 20
27.4644
  0
VERTEX
  8
0
 10
13.7126
 20
27.4359
  0
VERTEX
  8
0
 10
13.6103
 20
27.3983
  0
VERTEX
  8
0
 10
13.511
 20
27.3521
  0
VERTEX
  8
0
 10
13.4151
 20
27.298
  0
VERTEX
  8
0
 10
13.323
 20
27.2365
  0
VERTEX
  8
0
 10
13.2354
 20
27.1684
  0
VERTEX
  8
0
 10
13.1527
 20
27.094
  0
VERTEX
  8
0
 10
13.0621
 20
27.0099
  0
VERTEX
  8
0
 10
12.9684
 20
26.9294
  0
VERTEX
  8
0
 10
12.8719
 20
26.8526
  0
VERTEX
  8
0
 10
12.7725
 20
26.7795
  0
VERTEX
  8
0
 10
12.6705
 20
26.7103
  0
VERTEX
  8
0
 10
12.5659
 20
26.6451
  0
VERTEX
  8
0
 10
12.4588
 20
26.5839
  0
VERTEX
  8
0
 10
12.3494
 20
26.527
  0
VERTEX
  8
0
 10
12.2378
 20
26.4743
  0
VERTEX
  8
0
 10
12.124
 20
26.4261
  0
VERTEX
  8
0
 10
12.0716
 20
26.4099
  0
VERTEX
  8
0
 10
12.0171
 20
26.4015
  0
VERTEX
  8
0
 10
11.9619
 20
26.3996
  0
VERTEX
  8
0
 10
11.8898
 20
26.4049
  0
VERTEX
  8
0
 10
11.8184
 20
26.4166
  0
VERTEX
  8
0
 10
11.7475
 20
26.4323
  0
VERTEX
  8
0
 10
11.6268
 20
26.3734
  0
VERTEX
  8
0
 10
11.502
 20
26.3252
  0
VERTEX
  8
0
 10
11.3737
 20
26.2878
  0
VERTEX
  8
0
 10
11.2428
 20
26.2617
  0
VERTEX
  8
0
 10
11.1099
 20
26.247
  0
VERTEX
  8
0
 10
10.9757
 20
26.2441
  0
VERTEX
  8
0
 10
10.8596
 20
26.2506
  0
VERTEX
  8
0
 10
10.7448
 20
26.2649
  0
VERTEX
  8
0
 10
10.6315
 20
26.2866
  0
VERTEX
  8
0
 10
10.5198
 20
26.3156
  0
VERTEX
  8
0
 10
10.4102
 20
26.3514
  0
VERTEX
  8
0
 10
10.3028
 20
26.3939
  0
VERTEX
  8
0
 10
10.1979
 20
26.4428
  0
VERTEX
  8
0
 10
10.0958
 20
26.4978
  0
VERTEX
  8
0
 10
9.9966
 20
26.5586
  0
VERTEX
  8
0
 10
9.9462
 20
26.5831
  0
VERTEX
  8
0
 10
9.8915
 20
26.597
  0
VERTEX
  8
0
 10
9.835
 20
26.6038
  0
VERTEX
  8
0
 10
9.7221
 20
26.5615
  0
VERTEX
  8
0
 10
9.611
 20
26.5151
  0
VERTEX
  8
0
 10
9.5014
 20
26.4653
  0
VERTEX
  8
0
 10
9.393
 20
26.4129
  0
VERTEX
  8
0
 10
9.2855
 20
26.3587
  0
VERTEX
  8
0
 10
9.1784
 20
26.3034
  0
VERTEX
  8
0
 10
9.0716
 20
26.2479
  0
VERTEX
  8
0
 10
8.9646
 20
26.1927
  0
VERTEX
  8
0
 10
8.8214
 20
26.1423
  0
VERTEX
  8
0
 10
8.669
 20
26.1185
  0
VERTEX
  8
0
 10
8.5144
 20
26.105
  0
VERTEX
  8
0
 10
8.4186
 20
26.1122
  0
VERTEX
  8
0
 10
8.3328
 20
26.1504
  0
VERTEX
  8
0
 10
8.2655
 20
26.2179
  0
VERTEX
  8
0
 10
8.3142
 20
26.2756
  0
VERTEX
  8
0
 10
8.3793
 20
26.3112
  0
VERTEX
  8
0
 10
8.4542
 20
26.3208
  0
VERTEX
  8
0
 10
8.5788
 20
26.3671
  0
VERTEX
  8
0
 10
8.7041
 20
26.4114
  0
VERTEX
  8
0
 10
8.8298
 20
26.4544
  0
VERTEX
  8
0
 10
8.9558
 20
26.4966
  0
VERTEX
  8
0
 10
9.0819
 20
26.5386
  0
VERTEX
  8
0
 10
9.2078
 20
26.581
  0
VERTEX
  8
0
 10
9.2803
 20
26.6126
  0
VERTEX
  8
0
 10
9.3488
 20
26.6532
  0
VERTEX
  8
0
 10
9.4147
 20
26.6981
  0
VERTEX
  8
0
 10
9.389
 20
26.7067
  0
VERTEX
  8
0
 10
9.1403
 20
26.7067
  0
VERTEX
  8
0
 10
9.0249
 20
26.665
  0
VERTEX
  8
0
 10
8.9096
 20
26.6229
  0
VERTEX
  8
0
 10
8.7941
 20
26.581
  0
VERTEX
  8
0
 10
8.6785
 20
26.5399
  0
VERTEX
  8
0
 10
8.5625
 20
26.5001
  0
VERTEX
  8
0
 10
8.446
 20
26.4621
  0
VERTEX
  8
0
 10
8.3289
 20
26.4265
  0
VERTEX
  8
0
 10
8.2111
 20
26.3938
  0
VERTEX
  8
0
 10
8.0924
 20
26.3647
  0
VERTEX
  8
0
 10
7.9633
 20
26.3486
  0
VERTEX
  8
0
 10
7.8315
 20
26.35
  0
VERTEX
  8
0
 10
7.6996
 20
26.357
  0
VERTEX
  8
0
 10
7.5879
 20
26.3804
  0
VERTEX
  8
0
 10
7.4889
 20
26.4362
  0
VERTEX
  8
0
 10
7.4079
 20
26.518
  0
VERTEX
  8
0
 10
7.52
 20
26.5918
  0
VERTEX
  8
0
 10
7.6405
 20
26.6478
  0
VERTEX
  8
0
 10
7.7689
 20
26.673
  0
VERTEX
  8
0
 10
7.8846
 20
26.6793
  0
VERTEX
  8
0
 10
7.9999
 20
26.6888
  0
VERTEX
  8
0
 10
8.1147
 20
26.7017
  0
VERTEX
  8
0
 10
8.229
 20
26.7181
  0
VERTEX
  8
0
 10
8.3425
 20
26.7381
  0
VERTEX
  8
0
 10
8.4552
 20
26.7617
  0
VERTEX
  8
0
 10
8.5668
 20
26.7893
  0
VERTEX
  8
0
 10
8.6774
 20
26.8207
  0
VERTEX
  8
0
 10
8.7867
 20
26.8562
  0
VERTEX
  8
0
 10
8.8947
 20
26.8958
  0
VERTEX
  8
0
 10
9.0012
 20
26.9396
  0
VERTEX
  8
0
 10
9.1061
 20
26.9878
  0
VERTEX
  8
0
 10
9.2093
 20
27.0405
  0
VERTEX
  8
0
 10
9.2884
 20
27.076
  0
VERTEX
  8
0
 10
9.3719
 20
27.0968
  0
VERTEX
  8
0
 10
9.4572
 20
27.0971
  0
VERTEX
  8
0
 10
9.5946
 20
27.0702
  0
VERTEX
  8
0
 10
9.7315
 20
27.0396
  0
VERTEX
  8
0
 10
9.8695
 20
27.0223
  0
VERTEX
  8
0
 10
10.0027
 20
27.0406
  0
VERTEX
  8
0
 10
10.1268
 20
27.0967
  0
VERTEX
  8
0
 10
10.2381
 20
27.1784
  0
VERTEX
  8
0
 10
10.3634
 20
27.1726
  0
VERTEX
  8
0
 10
10.4876
 20
27.1566
  0
VERTEX
  8
0
 10
10.61
 20
27.1308
  0
VERTEX
  8
0
 10
10.73
 20
27.0951
  0
VERTEX
  8
0
 10
10.847
 20
27.0498
  0
VERTEX
  8
0
 10
10.9376
 20
27.0837
  0
VERTEX
  8
0
 10
11.008
 20
27.1498
  0
VERTEX
  8
0
 10
11.0596
 20
27.2359
  0
VERTEX
  8
0
 10
11.1113
 20
27.3375
  0
VERTEX
  8
0
 10
11.1699
 20
27.4348
  0
VERTEX
  8
0
 10
11.2349
 20
27.5276
  0
VERTEX
  8
0
 10
11.3058
 20
27.6158
  0
VERTEX
  8
0
 10
11.3824
 20
27.6993
  0
VERTEX
  8
0
 10
11.4641
 20
27.7779
  0
VERTEX
  8
0
 10
11.5506
 20
27.8517
  0
VERTEX
  8
0
 10
11.6414
 20
27.9205
  0
VERTEX
  8
0
 10
11.7363
 20
27.9843
  0
VERTEX
  8
0
 10
11.8347
 20
28.0428
  0
VERTEX
  8
0
 10
11.9362
 20
28.0961
  0
VERTEX
  8
0
 10
11.9362
 20
28.1304
  0
VERTEX
  8
0
 10
11.8293
 20
28.1071
  0
VERTEX
  8
0
 10
11.7224
 20
28.0839
  0
VERTEX
  8
0
 10
11.6155
 20
28.0608
  0
VERTEX
  8
0
 10
11.5085
 20
28.0379
  0
VERTEX
  8
0
 10
11.4015
 20
28.0153
  0
VERTEX
  8
0
 10
11.2944
 20
27.993
  0
VERTEX
  8
0
 10
11.1873
 20
27.971
  0
VERTEX
  8
0
 10
11.08
 20
27.9495
  0
VERTEX
  8
0
 10
10.9727
 20
27.9283
  0
VERTEX
  8
0
 10
10.8654
 20
27.9077
  0
VERTEX
  8
0
 10
10.7579
 20
27.8876
  0
VERTEX
  8
0
 10
10.6503
 20
27.8681
  0
VERTEX
  8
0
 10
10.5427
 20
27.8493
  0
VERTEX
  8
0
 10
10.4349
 20
27.8311
  0
VERTEX
  8
0
 10
10.327
 20
27.8137
  0
VERTEX
  8
0
 10
10.219
 20
27.7971
  0
VERTEX
  8
0
 10
10.1109
 20
27.7814
  0
VERTEX
  8
0
 10
10.0027
 20
27.7665
  0
VERTEX
  8
0
 10
9.8943
 20
27.7526
  0
VERTEX
  8
0
 10
9.7614
 20
27.7397
  0
VERTEX
  8
0
 10
9.6278
 20
27.7331
  0
VERTEX
  8
0
 10
9.4939
 20
27.7318
  0
VERTEX
  8
0
 10
9.36
 20
27.7348
  0
VERTEX
  8
0
 10
9.2263
 20
27.741
  0
VERTEX
  8
0
 10
9.0964
 20
27.7532
  0
VERTEX
  8
0
 10
8.9679
 20
27.774
  0
VERTEX
  8
0
 10
8.8408
 20
27.8029
  0
VERTEX
  8
0
 10
8.7155
 20
27.839
  0
VERTEX
  8
0
 10
8.592
 20
27.8819
  0
VERTEX
  8
0
 10
8.4705
 20
27.9306
  0
VERTEX
  8
0
 10
8.3513
 20
27.9846
  0
SEQEND
  0
POLYLINE
  8
0
 66
     1
 10
0
 20
0
  0
VERTEX
  8
0
 10
7.7739
 20
26.4639
  0
VERTEX
  8
0
 10
7.6291
 20
26.5404
  0
VERTEX
  8
0
 10
7.5872
 20
26.5486
  0
VERTEX
  8
0
 10
7.5628
 20
26.5436
  0
VERTEX
  8
0
 10
7.5372
 20
26.538
  0
VERTEX
  8
0
 10
7.5146
 20
26.5361
  0
VERTEX
  8
0
 10
7.5213
 20
26.5042
  0
VERTEX
  8
0
 10
7.5822
 20
26.469
  0
VERTEX
  8
0
 10
7.648
 20
26.4465
  0
VERTEX
  8
0
 10
7.7171
 20
26.4346
  0
VERTEX
  8
0
 10
7.7427
 20
26.4356
  0
VERTEX
  8
0
 10
7.7653
 20
26.4441
  0
VERTEX
  8
0
 10
7.7825
 20
26.4553
  0
VERTEX
  8
0
 10
7.7739
 20
26.4639
  0
SEQEND
  0
POLYLINE
  8
0
 66
     1
 10
0
 20
0
  0
VERTEX
  8
0
 10
7.7794
 20
26.4693
  0
VERTEX
  8
0
 10
7.788
 20
26.4607
  0
VERTEX
  8
0
 10
7.768
 20
26.4368
  0
VERTEX
  8
0
 10
7.7429
 20
26.4279
  0
VERTEX
  8
0
 10
7.7158
 20
26.427
  0
VERTEX
  8
0
 10
7.6455
 20
26.4392
  0
VERTEX
  8
0
 10
7.5784
 20
26.4623
  0
VERTEX
  8
0
 10
7.5175
 20
26.4975
  0
VERTEX
  8
0
 10
7.5071
 20
26.5343
  0
VERTEX
  8
0
 10
7.5355
 20
26.5455
  0
VERTEX
  8
0
 10
7.5614
 20
26.5512
  0
VERTEX
  8
0
 10
7.5888
 20
26.5561
  0
VERTEX
  8
0
 10
7.6327
 20
26.5472
  0
VERTEX
  8
0
 10
7.7794
 20
26.4693
  0
SEQEND
  0
POLYLINE
  8
0
 66
     1
 10
0
 20
0
  0
VERTEX
  8
0
 10
20.3773
 20
26.3069
  0
VERTEX
  8
0
 10
20.4904
 20
26.2339
  0
VERTEX
  8
0
 10
20.61
 20
26.1737
  0
VERTEX
  8
0
 10
20.7352
 20
26.1266
  0
VERTEX
  8
0
 10
20.8651
 20
26.0931
  0
VERTEX
  8
0
 10
20.8871
 20
26.0933
  0
VERTEX
  8
0
 10
20.9065
 20
26.102
  0
VERTEX
  8
0
 10
20.9214
 20
26.1123
  0
VERTEX
  8
0
 10
20.8168
 20
26.2199
  0
VERTEX
  8
0
 10
20.6895
 20
26.2949
  0
VERTEX
  8
0
 10
20.5447
 20
26.3345
  0
VERTEX
  8
0
 10
20.4828
 20
26.4027
  0
VERTEX
  8
0
 10
20.4113
 20
26.457
  0
VERTEX
  8
0
 10
20.3345
 20
26.4977
  0
VERTEX
  8
0
 10
20.3094
 20
26.4864
  0
VERTEX
  8
0
 10
20.3747
 20
26.4203
  0
VERTEX
  8
0
 10
20.449
 20
26.366
  0
VERTEX
  8
0
 10
20.5314
 20
26.3242
  0
VERTEX
  8
0
 10
20.5502
 20
26.2932
  0
VERTEX
  8
0
 10
20.5395
 20
26.2733
  0
VERTEX
  8
0
 10
20.5199
 20
26.2598
  0
VERTEX
  8
0
 10
20.493
 20
26.2577
  0
VERTEX
  8
0
 10
20.4643
 20
26.2798
  0
VERTEX
  8
0
 10
20.4332
 20
26.2967
  0
VERTEX
  8
0
 10
20.3997
 20
26.3086
  0
VERTEX
  8
0
 10
20.3773
 20
26.3069
  0
SEQEND
  0
POLYLINE
  8
0
 66
     1
 10
0
 20
0
  0
VERTEX
  8
0
 10
20.3732
 20
26.3004
  0
VERTEX
  8
0
 10
20.4023
 20
26.3158
  0
VERTEX
  8
0
 10
20.4369
 20
26.3035
  0
VERTEX
  8
0
 10
20.4691
 20
26.2859
  0
VERTEX
  8
0
 10
20.4977
 20
26.2638
  0
VERTEX
  8
0
 10
20.5157
 20
26.2662
  0
VERTEX
  8
0
 10
20.5327
 20
26.277
  0
VERTEX
  8
0
 10
20.5434
 20
26.2969
  0
VERTEX
  8
0
 10
20.5279
 20
26.3173
  0
VERTEX
  8
0
 10
20.4445
 20
26.3598
  0
VERTEX
  8
0
 10
20.3692
 20
26.4149
  0
VERTEX
  8
0
 10
20.3039
 20
26.481
  0
VERTEX
  8
0
 10
20.3302
 20
26.5041
  0
VERTEX
  8
0
 10
20.4159
 20
26.4631
  0
VERTEX
  8
0
 10
20.4886
 20
26.4079
  0
VERTEX
  8
0
 10
20.5489
 20
26.3414
  0
VERTEX
  8
0
 10
20.6935
 20
26.3016
  0
VERTEX
  8
0
 10
20.8224
 20
26.2253
  0
VERTEX
  8
0
 10
20.9269
 20
26.1176
  0
VERTEX
  8
0
 10
20.9095
 20
26.0949
  0
VERTEX
  8
0
 10
20.8872
 20
26.0856
  0
VERTEX
  8
0
 10
20.8632
 20
26.0856
  0
VERTEX
  8
0
 10
20.7325
 20
26.1193
  0
VERTEX
  8
0
 10
20.6065
 20
26.1668
  0
VERTEX
  8
0
 10
20.4863
 20
26.2274
  0
VERTEX
  8
0
 10
20.3732
 20
26.3004
  0
SEQEND
  0
POLYLINE
  8
0
 66
     1
 10
0
 20
0
  0
VERTEX
  8
0
 10
10.7355
 20
26.9336
  0
VERTEX
  8
0
 10
10.7645
 20
26.9469
  0
VERTEX
  8
0
 10
10.7928
 20
26.9639
  0
VERTEX
  8
0
 10
10.8181
 20
26.979
  0
VERTEX
  8
0
 10
10.8031
 20
27.0032
  0
VERTEX
  8
0
 10
10.6653
 20
27.0414
  0
VERTEX
  8
0
 10
10.5281
 20
27.0816
  0
VERTEX
  8
0
 10
10.3911
 20
27.1221
  0
VERTEX
  8
0
 10
10.3689
 20
27.1271
  0
VERTEX
  8
0
 10
10.3464
 20
27.1299
  0
VERTEX
  8
0
 10
10.3237
 20
27.1307
  0
VERTEX
  8
0
 10
10.3012
 20
27.1294
  0
VERTEX
  8
0
 10
10.2786
 20
27.1264
  0
VERTEX
  8
0
 10
10.2558
 20
27.1231
  0
VERTEX
  8
0
 10
10.197
 20
27.0851
  0
VERTEX
  8
0
 10
10.14
 20
27.0423
  0
VERTEX
  8
0
 10
10.0869
 20
27.0004
  0
VERTEX
  8
0
 10
10.1018
 20
26.9763
  0
VERTEX
  8
0
 10
10.2729
 20
26.9336
  0
VERTEX
  8
0
 10
10.7355
 20
26.9336
  0
SEQEND
  0
POLYLINE
  8
0
 66
     1
 10
0
 20
0
  0
VERTEX
  8
0
 10
10.7355
 20
26.9258
  0
VERTEX
  8
0
 10
10.2719
 20
26.9258
  0
VERTEX
  8
0
 10
10.0999
 20
26.9688
  0
VERTEX
  8
0
 10
10.0805
 20
26.9962
  0
VERTEX
  8
0
 10
10.1353
 20
27.0485
  0
VERTEX
  8
0
 10
10.1928
 20
27.0916
  0
VERTEX
  8
0
 10
10.2547
 20
27.1308
  0
VERTEX
  8
0
 10
10.2776
 20
27.134
  0
VERTEX
  8
0
 10
10.3007
 20
27.1371
  0
VERTEX
  8
0
 10
10.324
 20
27.1384
  0
VERTEX
  8
0
 10
10.3473
 20
27.1375
  0
VERTEX
  8
0
 10
10.3706
 20
27.1347
  0
VERTEX
  8
0
 10
10.3933
 20
27.1295
  0
VERTEX
  8
0
 10
10.5303
 20
27.089
  0
VERTEX
  8
0
 10
10.6674
 20
27.0488
  0
VERTEX
  8
0
 10
10.8051
 20
27.0106
  0
VERTEX
  8
0
 10
10.8245
 20
26.9833
  0
VERTEX
  8
0
 10
10.7968
 20
26.9573
  0
VERTEX
  8
0
 10
10.7677
 20
26.9399
  0
VERTEX
  8
0
 10
10.7355
 20
26.9258
  0
SEQEND
  0
POLYLINE
  8
0
 66
     1
 10
0
 20
0
  0
VERTEX
  8
0
 10
9.2239
 20
26.4184
  0
VERTEX
  8
0
 10
9.3699
 20
26.4828
  0
VERTEX
  8
0
 10
9.5099
 20
26.5571
  0
VERTEX
  8
0
 10
9.6443
 20
26.6414
  0
VERTEX
  8
0
 10
9.6523
 20
26.6523
  0
VERTEX
  8
0
 10
9.6276
 20
26.6739
  0
VERTEX
  8
0
 10
9.5992
 20
26.6854
  0
VERTEX
  8
0
 10
9.57
 20
26.6833
  0
VERTEX
  8
0
 10
9.4397
 20
26.6342
  0
VERTEX
  8
0
 10
9.3111
 20
26.5785
  0
VERTEX
  8
0
 10
9.1845
 20
26.518
  0
VERTEX
  8
0
 10
9.0595
 20
26.4539
  0
VERTEX
  8
0
 10
8.9354
 20
26.3879
  0
VERTEX
  8
0
 10
8.9025
 20
26.3725
  0
VERTEX
  8
0
 10
8.8677
 20
26.3609
  0
VERTEX
  8
0
 10
8.8319
 20
26.3534
  0
VERTEX
  8
0
 10
8.7292
 20
26.3414
  0
VERTEX
  8
0
 10
8.6261
 20
26.3332
  0
VERTEX
  8
0
 10
8.5265
 20
26.3306
  0
VERTEX
  8
0
 10
8.545
 20
26.2739
  0
VERTEX
  8
0
 10
8.5869
 20
26.236
  0
VERTEX
  8
0
 10
8.6438
 20
26.2196
  0
VERTEX
  8
0
 10
8.6836
 20
26.213
  0
VERTEX
  8
0
 10
8.7238
 20
26.2034
  0
VERTEX
  8
0
 10
8.7636
 20
26.1991
  0
VERTEX
  8
0
 10
8.8928
 20
26.2164
  0
VERTEX
  8
0
 10
9.0146
 20
26.2611
  0
VERTEX
  8
0
 10
9.1259
 20
26.3294
  0
VERTEX
  8
0
 10
9.2239
 20
26.4184
  0
SEQEND
  0
POLYLINE
  8
0
 66
     1
 10
0
 20
0
  0
VERTEX
  8
0
 10
9.2282
 20
26.4118
  0
VERTEX
  8
0
 10
9.1299
 20
26.3228
  0
VERTEX
  8
0
 10
9.0172
 20
26.2538
  0
VERTEX
  8
0
 10
8.8938
 20
26.2088
  0
VERTEX
  8
0
 10
8.7627
 20
26.1914
  0
VERTEX
  8
0
 10
8.722
 20
26.1959
  0
VERTEX
  8
0
 10
8.6823
 20
26.2054
  0
VERTEX
  8
0
 10
8.6416
 20
26.2122
  0
VERTEX
  8
0
 10
8.5816
 20
26.2303
  0
VERTEX
  8
0
 10
8.5377
 20
26.2715
  0
VERTEX
  8
0
 10
8.5192
 20
26.3282
  0
VERTEX
  8
0
 10
8.6255
 20
26.3409
  0
VERTEX
  8
0
 10
8.7283
 20
26.3491
  0
VERTEX
  8
0
 10
8.8304
 20
26.3609
  0
VERTEX
  8
0
 10
8.8653
 20
26.3682
  0
VERTEX
  8
0
 10
8.8992
 20
26.3795
  0
VERTEX
  8
0
 10
8.9318
 20
26.3947
  0
VERTEX
  8
0
 10
9.0559
 20
26.4608
  0
VERTEX
  8
0
 10
9.1812
 20
26.5249
  0
VERTEX
  8
0
 10
9.308
 20
26.5856
  0
VERTEX
  8
0
 10
9.437
 20
26.6414
  0
VERTEX
  8
0
 10
9.5695
 20
26.691
  0
VERTEX
  8
0
 10
9.6021
 20
26.6926
  0
VERTEX
  8
0
 10
9.6327
 20
26.6797
  0
VERTEX
  8
0
 10
9.6574
 20
26.6582
  0
VERTEX
  8
0
 10
9.6484
 20
26.6348
  0
VERTEX
  8
0
 10
9.5135
 20
26.5503
  0
VERTEX
  8
0
 10
9.373
 20
26.4757
  0
VERTEX
  8
0
 10
9.2282
 20
26.4118
  0
SEQEND
  0
POLYLINE
  8
0
 66
     1
 10
0
 20
0
  0
VERTEX
  8
0
 10
12.5558
 20
26.7993
  0
VERTEX
  8
0
 10
12.6418
 20
26.8811
  0
VERTEX
  8
0
 10
12.7302
 20
26.9608
  0
VERTEX
  8
0
 10
12.8202
 20
27.0387
  0
VERTEX
  8
0
 10
12.9114
 20
27.1154
  0
VERTEX
  8
0
 10
13.0031
 20
27.1915
  0
VERTEX
  8
0
 10
13.0947
 20
27.2676
  0
VERTEX
  8
0
 10
13.1862
 20
27.3382
  0
VERTEX
  8
0
 10
13.1646
 20
27.3552
  0
VERTEX
  8
0
 10
13.0581
 20
27.291
  0
VERTEX
  8
0
 10
12.9554
 20
27.2215
  0
VERTEX
  8
0
 10
12.8548
 20
27.1486
  0
VERTEX
  8
0
 10
12.7549
 20
27.0745
  0
VERTEX
  8
0
 10
12.6543
 20
27.0015
  0
VERTEX
  8
0
 10
12.5545
 20
26.9337
  0
VERTEX
  8
0
 10
12.4525
 20
26.8691
  0
VERTEX
  8
0
 10
12.3489
 20
26.8069
  0
VERTEX
  8
0
 10
12.2443
 20
26.7463
  0
VERTEX
  8
0
 10
12.1392
 20
26.6865
  0
VERTEX
  8
0
 10
12.0341
 20
26.6267
  0
VERTEX
  8
0
 10
11.9295
 20
26.5662
  0
VERTEX
  8
0
 10
11.9223
 20
26.5544
  0
VERTEX
  8
0
 10
11.9387
 20
26.5286
  0
VERTEX
  8
0
 10
11.9614
 20
26.5115
  0
VERTEX
  8
0
 10
11.9883
 20
26.5068
  0
VERTEX
  8
0
 10
12.1158
 20
26.5293
  0
VERTEX
  8
0
 10
12.2371
 20
26.573
  0
VERTEX
  8
0
 10
12.351
 20
26.6347
  0
VERTEX
  8
0
 10
12.4574
 20
26.7112
  0
VERTEX
  8
0
 10
12.5558
 20
26.7993
  0
SEQEND
  0
POLYLINE
  8
0
 66
     1
 10
0
 20
0
  0
VERTEX
  8
0
 10
12.5609
 20
26.7935
  0
VERTEX
  8
0
 10
12.4619
 20
26.705
  0
VERTEX
  8
0
 10
12.3547
 20
26.6279
  0
VERTEX
  8
0
 10
12.2397
 20
26.5657
  0
VERTEX
  8
0
 10
12.1172
 20
26.5217
  0
VERTEX
  8
0
 10
11.9869
 20
26.4992
  0
VERTEX
  8
0
 10
11.9567
 20
26.5054
  0
VERTEX
  8
0
 10
11.9322
 20
26.5244
  0
VERTEX
  8
0
 10
11.9158
 20
26.5503
  0
VERTEX
  8
0
 10
11.9257
 20
26.5728
  0
VERTEX
  8
0
 10
12.0303
 20
26.6334
  0
VERTEX
  8
0
 10
12.1354
 20
26.6932
  0
VERTEX
  8
0
 10
12.2405
 20
26.753
  0
VERTEX
  8
0
 10
12.345
 20
26.8135
  0
VERTEX
  8
0
 10
12.4484
 20
26.8757
  0
VERTEX
  8
0
 10
12.5501
 20
26.9401
  0
VERTEX
  8
0
 10
12.6497
 20
27.0078
  0
VERTEX
  8
0
 10
12.7503
 20
27.0807
  0
VERTEX
  8
0
 10
12.8502
 20
27.1548
  0
VERTEX
  8
0
 10
12.951
 20
27.2279
  0
VERTEX
  8
0
 10
13.0541
 20
27.2977
  0
VERTEX
  8
0
 10
13.1606
 20
27.3618
  0
VERTEX
  8
0
 10
13.1905
 20
27.3446
  0
VERTEX
  8
0
 10
13.0997
 20
27.2617
  0
VERTEX
  8
0
 10
13.008
 20
27.1856
  0
VERTEX
  8
0
 10
12.9163
 20
27.1095
  0
VERTEX
  8
0
 10
12.8253
 20
27.0329
  0
VERTEX
  8
0
 10
12.7353
 20
26.9551
  0
VERTEX
  8
0
 10
12.6471
 20
26.8755
  0
VERTEX
  8
0
 10
12.5609
 20
26.7935
  0
SEQEND
  0
POLYLINE
  8
0
 66
     1
 10
0
 20
0
  0
VERTEX
  8
0
 10
18.3393
 20
27.3399
  0
VERTEX
  8
0
 10
18.3058
 20
27.4754
  0
VERTEX
  8
0
 10
18.2558
 20
27.6038
  0
VERTEX
  8
0
 10
18.1897
 20
27.7248
  0
VERTEX
  8
0
 10
18.1129
 20
27.8354
  0
VERTEX
  8
0
 10
18.0784
 20
27.8171
  0
VERTEX
  8
0
 10
18.0557
 20
27.7883
  0
VERTEX
  8
0
 10
18.0462
 20
27.752
  0
VERTEX
  8
0
 10
18.0908
 20
27.6356
  0
VERTEX
  8
0
 10
18.1373
 20
27.5175
  0
VERTEX
  8
0
 10
18.1865
 20
27.4007
  0
VERTEX
  8
0
 10
18.2397
 20
27.2858
  0
VERTEX
  8
0
 10
18.298
 20
27.1736
  0
VERTEX
  8
0
 10
18.343
 20
27.1194
  0
VERTEX
  8
0
 10
18.4035
 20
27.0826
  0
VERTEX
  8
0
 10
18.4726
 20
27.0636
  0
VERTEX
  8
0
 10
18.5881
 20
27.0477
  0
VERTEX
  8
0
 10
18.7041
 20
27.032
  0
VERTEX
  8
0
 10
18.8202
 20
27.0164
  0
VERTEX
  8
0
 10
18.9363
 20
27.0011
  0
VERTEX
  8
0
 10
19.0524
 20
26.986
  0
VERTEX
  8
0
 10
19.1685
 20
26.9712
  0
VERTEX
  8
0
 10
19.2847
 20
26.9566
  0
VERTEX
  8
0
 10
19.4009
 20
26.9423
  0
VERTEX
  8
0
 10
19.5172
 20
26.9283
  0
VERTEX
  8
0
 10
19.6335
 20
26.9145
  0
VERTEX
  8
0
 10
19.7498
 20
26.9011
  0
VERTEX
  8
0
 10
19.7979
 20
26.8982
  0
VERTEX
  8
0
 10
19.8463
 20
26.8985
  0
VERTEX
  8
0
 10
19.894
 20
26.8916
  0
VERTEX
  8
0
 10
19.7742
 20
26.9215
  0
VERTEX
  8
0
 10
19.6539
 20
26.949
  0
VERTEX
  8
0
 10
19.5331
 20
26.974
  0
VERTEX
  8
0
 10
19.4119
 20
26.9966
  0
VERTEX
  8
0
 10
19.2902
 20
27.0167
  0
VERTEX
  8
0
 10
19.1682
 20
27.0344
  0
VERTEX
  8
0
 10
19.0458
 20
27.0495
  0
VERTEX
  8
0
 10
18.9231
 20
27.0622
  0
VERTEX
  8
0
 10
18.8001
 20
27.0724
  0
VERTEX
  8
0
 10
18.6769
 20
27.08
  0
VERTEX
  8
0
 10
18.6656
 20
27.0803
  0
VERTEX
  8
0
 10
18.6543
 20
27.0802
  0
VERTEX
  8
0
 10
18.6428
 20
27.0803
  0
VERTEX
  8
0
 10
18.5031
 20
27.1165
  0
VERTEX
  8
0
 10
18.3961
 20
27.2082
  0
VERTEX
  8
0
 10
18.3393
 20
27.3399
  0
SEQEND
  0
POLYLINE
  8
0
 66
     1
 10
0
 20
0
  0
VERTEX
  8
0
 10
18.3463
 20
27.3429
  0
VERTEX
  8
0
 10
18.4024
 20
27.2129
  0
VERTEX
  8
0
 10
18.5068
 20
27.1235
  0
VERTEX
  8
0
 10
18.6429
 20
27.088
  0
VERTEX
  8
0
 10
18.6543
 20
27.088
  0
VERTEX
  8
0
 10
18.6658
 20
27.088
  0
VERTEX
  8
0
 10
18.6774
 20
27.0877
  0
VERTEX
  8
0
 10
18.8007
 20
27.0801
  0
VERTEX
  8
0
 10
18.9239
 20
27.0699
  0
VERTEX
  8
0
 10
19.0467
 20
27.0572
  0
VERTEX
  8
0
 10
19.1693
 20
27.042
  0
VERTEX
  8
0
 10
19.2915
 20
27.0243
  0
VERTEX
  8
0
 10
19.4133
 20
27.0042
  0
VERTEX
  8
0
 10
19.5347
 20
26.9816
  0
VERTEX
  8
0
 10
19.6556
 20
26.9565
  0
VERTEX
  8
0
 10
19.7761
 20
26.929
  0
VERTEX
  8
0
 10
19.8959
 20
26.8991
  0
VERTEX
  8
0
 10
19.8464
 20
26.8908
  0
VERTEX
  8
0
 10
19.7975
 20
26.8905
  0
VERTEX
  8
0
 10
19.7489
 20
26.8934
  0
VERTEX
  8
0
 10
19.6326
 20
26.9069
  0
VERTEX
  8
0
 10
19.5163
 20
26.9206
  0
VERTEX
  8
0
 10
19.4
 20
26.9346
  0
VERTEX
  8
0
 10
19.2838
 20
26.9489
  0
VERTEX
  8
0
 10
19.1676
 20
26.9635
  0
VERTEX
  8
0
 10
19.0514
 20
26.9783
  0
VERTEX
  8
0
 10
18.9353
 20
26.9934
  0
VERTEX
  8
0
 10
18.8192
 20
27.0088
  0
VERTEX
  8
0
 10
18.7031
 20
27.0243
  0
VERTEX
  8
0
 10
18.587
 20
27.0401
  0
VERTEX
  8
0
 10
18.4705
 20
27.0562
  0
VERTEX
  8
0
 10
18.3994
 20
27.076
  0
VERTEX
  8
0
 10
18.337
 20
27.1144
  0
VERTEX
  8
0
 10
18.2911
 20
27.1701
  0
VERTEX
  8
0
 10
18.2327
 20
27.2826
  0
VERTEX
  8
0
 10
18.1794
 20
27.3977
  0
VERTEX
  8
0
 10
18.1301
 20
27.5146
  0
VERTEX
  8
0
 10
18.0836
 20
27.6329
  0
VERTEX
  8
0
 10
18.0388
 20
27.754
  0
VERTEX
  8
0
 10
18.0497
 20
27.7931
  0
VERTEX
  8
0
 10
18.0748
 20
27.824
  0
VERTEX
  8
0
 10
18.1093
 20
27.8422
  0
VERTEX
  8
0
 10
18.1964
 20
27.7285
  0
VERTEX
  8
0
 10
18.263
 20
27.6066
  0
VERTEX
  8
0
 10
18.3133
 20
27.4772
  0
VERTEX
  8
0
 10
18.3463
 20
27.3429
  0
SEQEND
  0
POLYLINE
  8
0
 66
     1
 10
0
 20
0
  0
VERTEX
  8
0
 10
17.5075
 20
28.4628
  0
VERTEX
  8
0
 10
17.4723
 20
28.5181
  0
VERTEX
  8
0
 10
17.4263
 20
28.5635
  0
VERTEX
  8
0
 10
17.3724
 20
28.6006
  0
VERTEX
  8
0
 10
17.2908
 20
28.643
  0
VERTEX
  8
0
 10
17.2051
 20
28.6748
  0
VERTEX
  8
0
 10
17.1201
 20
28.6964
  0
VERTEX
  8
0
 10
17.1173
 20
28.6658
  0
VERTEX
  8
0
 10
17.2234
 20
28.6361
  0
VERTEX
  8
0
 10
17.3222
 20
28.5868
  0
VERTEX
  8
0
 10
17.4102
 20
28.5194
  0
VERTEX
  8
0
 10
17.4449
 20
28.502
  0
VERTEX
  8
0
 10
17.4748
 20
28.4752
  0
VERTEX
  8
0
 10
17.4904
 20
28.4413
  0
VERTEX
  8
0
 10
17.5075
 20
28.4628
  0
SEQEND
  0
POLYLINE
  8
0
 66
     1
 10
0
 20
0
  0
VERTEX
  8
0
 10
17.514
 20
28.4669
  0
VERTEX
  8
0
 10
17.4968
 20
28.437
  0
VERTEX
  8
0
 10
17.4696
 20
28.4694
  0
VERTEX
  8
0
 10
17.4414
 20
28.4951
  0
VERTEX
  8
0
 10
17.4055
 20
28.5132
  0
VERTEX
  8
0
 10
17.3187
 20
28.5799
  0
VERTEX
  8
0
 10
17.2213
 20
28.6287
  0
VERTEX
  8
0
 10
17.1152
 20
28.6584
  0
VERTEX
  8
0
 10
17.1124
 20
28.6964
  0
VERTEX
  8
0
 10
17.2078
 20
28.682
  0
VERTEX
  8
0
 10
17.2944
 20
28.6498
  0
VERTEX
  8
0
 10
17.3767
 20
28.607
  0
VERTEX
  8
0
 10
17.4318
 20
28.569
  0
VERTEX
  8
0
 10
17.4788
 20
28.5223
  0
VERTEX
  8
0
 10
17.514
 20
28.4669
  0
SEQEND
  0
POLYLINE
  8
0
 66
     1
 10
0
 20
0
  0
VERTEX
  8
0
 10
13.64
 20
27.8925
  0
VERTEX
  8
0
 10
13.6977
 20
27.9827
  0
VERTEX
  8
0
 10
13.7769
 20
28.0559
  0
VERTEX
  8
0
 10
13.8719
 20
28.1095
  0
VERTEX
  8
0
 10
13.9278
 20
28.1432
  0
VERTEX
  8
0
 10
13.9731
 20
28.1891
  0
VERTEX
  8
0
 10
14.0099
 20
28.2384
  0
VERTEX
  8
0
 10
13.9963
 20
28.247
  0
VERTEX
  8
0
 10
13.9284
 20
28.2114
  0
VERTEX
  8
0
 10
13.8654
 20
28.1689
  0
VERTEX
  8
0
 10
13.8099
 20
28.1176
  0
VERTEX
  8
0
 10
13.7208
 20
28.0235
  0
VERTEX
  8
0
 10
13.6265
 20
27.9344
  0
VERTEX
  8
0
 10
13.5252
 20
27.8529
  0
VERTEX
  8
0
 10
13.514
 20
27.8255
  0
VERTEX
  8
0
 10
13.5662
 20
27.8282
  0
VERTEX
  8
0
 10
13.6096
 20
27.8518
  0
VERTEX
  8
0
 10
13.64
 20
27.8925
  0
SEQEND
  0
POLYLINE
  8
0
 66
     1
 10
0
 20
0
  0
VERTEX
  8
0
 10
13.6461
 20
27.8878
  0
VERTEX
  8
0
 10
13.6133
 20
27.845
  0
VERTEX
  8
0
 10
13.5666
 20
27.8205
  0
VERTEX
  8
0
 10
13.5144
 20
27.8178
  0
VERTEX
  8
0
 10
13.5204
 20
27.8589
  0
VERTEX
  8
0
 10
13.6212
 20
27.94
  0
VERTEX
  8
0
 10
13.7152
 20
28.0288
  0
VERTEX
  8
0
 10
13.8046
 20
28.1233
  0
VERTEX
  8
0
 10
13.8611
 20
28.1753
  0
VERTEX
  8
0
 10
13.9248
 20
28.2183
  0
VERTEX
  8
0
 10
13.9927
 20
28.2539
  0
VERTEX
  8
0
 10
14.0134
 20
28.2453
  0
VERTEX
  8
0
 10
13.9786
 20
28.1836
  0
VERTEX
  8
0
 10
13.9318
 20
28.1365
  0
VERTEX
  8
0
 10
13.8757
 20
28.1027
  0
VERTEX
  8
0
 10
13.7822
 20
28.0502
  0
VERTEX
  8
0
 10
13.7042
 20
27.9786
  0
VERTEX
  8
0
 10
13.6461
 20
27.8878
  0
SEQEND
  0
POLYLINE
  8
0
 66
     1
 10
0
 20
0
  0
VERTEX
  8
0
 10
10.3231
 20
26.7372
  0
VERTEX
  8
0
 10
10.1677
 20
26.7667
  0
VERTEX
  8
0
 10
10.0132
 20
26.8012
  0
VERTEX
  8
0
 10
9.8596
 20
26.8392
  0
VERTEX
  8
0
 10
9.8489
 20
26.8407
  0
VERTEX
  8
0
 10
9.838
 20
26.8405
  0
VERTEX
  8
0
 10
9.8291
 20
26.8467
  0
VERTEX
  8
0
 10
9.8674
 20
26.8092
  0
VERTEX
  8
0
 10
9.9132
 20
26.7839
  0
VERTEX
  8
0
 10
9.9644
 20
26.7689
  0
VERTEX
  8
0
 10
10.0446
 20
26.7505
  0
VERTEX
  8
0
 10
10.1245
 20
26.7298
  0
VERTEX
  8
0
 10
10.2049
 20
26.7127
  0
VERTEX
  8
0
 10
10.244
 20
26.7093
  0
VERTEX
  8
0
 10
10.2837
 20
26.7097
  0
VERTEX
  8
0
 10
10.32
 20
26.7067
  0
VERTEX
  8
0
 10
10.3231
 20
26.7372
  0
SEQEND
  0
POLYLINE
  8
0
 66
     1
 10
0
 20
0
  0
VERTEX
  8
0
 10
10.3246
 20
26.7448
  0
VERTEX
  8
0
 10
10.3277
 20
26.7067
  0
VERTEX
  8
0
 10
10.2838
 20
26.702
  0
VERTEX
  8
0
 10
10.2433
 20
26.7016
  0
VERTEX
  8
0
 10
10.2032
 20
26.7051
  0
VERTEX
  8
0
 10
10.1226
 20
26.7223
  0
VERTEX
  8
0
 10
10.0428
 20
26.743
  0
VERTEX
  8
0
 10
9.9623
 20
26.7615
  0
VERTEX
  8
0
 10
9.9095
 20
26.7771
  0
VERTEX
  8
0
 10
9.862
 20
26.8037
  0
VERTEX
  8
0
 10
9.8237
 20
26.8412
  0
VERTEX
  8
0
 10
9.8378
 20
26.8482
  0
VERTEX
  8
0
 10
9.8499
 20
26.8483
  0
VERTEX
  8
0
 10
9.8615
 20
26.8467
  0
VERTEX
  8
0
 10
10.0149
 20
26.8087
  0
VERTEX
  8
0
 10
10.1691
 20
26.7743
  0
VERTEX
  8
0
 10
10.3246
 20
26.7448
  0
SEQEND
  0
POLYLINE
  8
0
 66
     1
 10
0
 20
0
  0
VERTEX
  8
0
 10
17.0809
 20
24.2949
  0
VERTEX
  8
0
 10
16.9734
 20
24.2959
  0
VERTEX
  8
0
 10
16.8658
 20
24.2968
  0
VERTEX
  8
0
 10
16.7582
 20
24.2977
  0
VERTEX
  8
0
 10
16.6506
 20
24.2987
  0
VERTEX
  8
0
 10
16.543
 20
24.2996
  0
VERTEX
  8
0
 10
16.4355
 20
24.3006
  0
VERTEX
  8
0
 10
16.3279
 20
24.3015
  0
VERTEX
  8
0
 10
16.2203
 20
24.3025
  0
VERTEX
  8
0
 10
16.1127
 20
24.3034
  0
VERTEX
  8
0
 10
16.0051
 20
24.3043
  0
VERTEX
  8
0
 10
15.8976
 20
24.3053
  0
VERTEX
  8
0
 10
15.79
 20
24.3062
  0
VERTEX
  8
0
 10
15.6824
 20
24.3072
  0
VERTEX
  8
0
 10
15.5748
 20
24.3081
  0
VERTEX
  8
0
 10
15.4672
 20
24.3091
  0
VERTEX
  8
0
 10
15.3597
 20
24.31
  0
VERTEX
  8
0
 10
15.2521
 20
24.311
  0
VERTEX
  8
0
 10
15.1445
 20
24.3119
  0
VERTEX
  8
0
 10
15.0369
 20
24.3128
  0
VERTEX
  8
0
 10
14.9294
 20
24.3138
  0
VERTEX
  8
0
 10
14.8218
 20
24.3147
  0
VERTEX
  8
0
 10
14.7142
 20
24.3157
  0
VERTEX
  8
0
 10
14.6066
 20
24.3166
  0
VERTEX
  8
0
 10
14.499
 20
24.3176
  0
VERTEX
  8
0
 10
14.3915
 20
24.3185
  0
VERTEX
  8
0
 10
14.2839
 20
24.3194
  0
VERTEX
  8
0
 10
14.1763
 20
24.3204
  0
VERTEX
  8
0
 10
14.0687
 20
24.3213
  0
VERTEX
  8
0
 10
13.9611
 20
24.3223
  0
VERTEX
  8
0
 10
13.8536
 20
24.3232
  0
VERTEX
  8
0
 10
13.746
 20
24.3242
  0
VERTEX
  8
0
 10
13.7073
 20
24.4141
  0
VERTEX
  8
0
 10
13.6658
 20
24.5039
  0
VERTEX
  8
0
 10
13.6213
 20
24.5934
  0
VERTEX
  8
0
 10
13.5739
 20
24.6826
  0
VERTEX
  8
0
 10
13.5237
 20
24.7715
  0
VERTEX
  8
0
 10
13.4707
 20
24.8598
  0
VERTEX
  8
0
 10
13.415
 20
24.9477
  0
VERTEX
  8
0
 10
13.3566
 20
25.0349
  0
VERTEX
  8
0
 10
13.2956
 20
25.1214
  0
VERTEX
  8
0
 10
13.2319
 20
25.2072
  0
VERTEX
  8
0
 10
13.1657
 20
25.2922
  0
VERTEX
  8
0
 10
13.097
 20
25.3763
  0
VERTEX
  8
0
 10
13.0258
 20
25.4594
  0
VERTEX
  8
0
 10
12.9522
 20
25.5415
  0
VERTEX
  8
0
 10
12.8762
 20
25.6225
  0
VERTEX
  8
0
 10
12.7979
 20
25.7022
  0
VERTEX
  8
0
 10
12.7172
 20
25.7808
  0
VERTEX
  8
0
 10
12.6344
 20
25.858
  0
VERTEX
  8
0
 10
12.5493
 20
25.9338
  0
VERTEX
  8
0
 10
12.4621
 20
26.0081
  0
VERTEX
  8
0
 10
12.3728
 20
26.0809
  0
VERTEX
  8
0
 10
12.2814
 20
26.1521
  0
VERTEX
  8
0
 10
12.188
 20
26.2216
  0
VERTEX
  8
0
 10
12.0926
 20
26.2893
  0
VERTEX
  8
0
 10
11.9952
 20
26.3552
  0
VERTEX
  8
0
 10
11.896
 20
26.4192
  0
VERTEX
  8
0
 10
12.0089
 20
26.4648
  0
VERTEX
  8
0
 10
12.1184
 20
26.5118
  0
VERTEX
  8
0
 10
12.2247
 20
26.5603
  0
VERTEX
  8
0
 10
12.328
 20
26.6103
  0
VERTEX
  8
0
 10
12.4286
 20
26.6622
  0
VERTEX
  8
0
 10
12.5267
 20
26.7159
  0
VERTEX
  8
0
 10
12.6225
 20
26.7718
  0
VERTEX
  8
0
 10
12.7163
 20
26.8298
  0
VERTEX
  8
0
 10
12.8083
 20
26.8902
  0
VERTEX
  8
0
 10
12.8988
 20
26.9532
  0
VERTEX
  8
0
 10
12.9879
 20
27.0188
  0
VERTEX
  8
0
 10
13.0759
 20
27.0873
  0
VERTEX
  8
0
 10
13.1631
 20
27.1587
  0
VERTEX
  8
0
 10
13.2597
 20
27.1134
  0
VERTEX
  8
0
 10
13.3559
 20
27.0671
  0
VERTEX
  8
0
 10
13.4517
 20
27.02
  0
VERTEX
  8
0
 10
13.547
 20
26.9719
  0
VERTEX
  8
0
 10
13.6419
 20
26.9229
  0
VERTEX
  8
0
 10
13.7364
 20
26.8731
  0
VERTEX
  8
0
 10
13.8304
 20
26.8224
  0
VERTEX
  8
0
 10
13.9239
 20
26.7708
  0
VERTEX
  8
0
 10
14.017
 20
26.7184
  0
VERTEX
  8
0
 10
14.1096
 20
26.6651
  0
VERTEX
  8
0
 10
14.2018
 20
26.611
  0
VERTEX
  8
0
 10
14.2934
 20
26.5561
  0
VERTEX
  8
0
 10
14.3846
 20
26.5004
  0
VERTEX
  8
0
 10
14.4753
 20
26.444
  0
VERTEX
  8
0
 10
14.5655
 20
26.3867
  0
VERTEX
  8
0
 10
14.6552
 20
26.3287
  0
VERTEX
  8
0
 10
14.7443
 20
26.2699
  0
VERTEX
  8
0
 10
14.833
 20
26.2104
  0
VERTEX
  8
0
 10
14.9211
 20
26.1502
  0
VERTEX
  8
0
 10
15.0087
 20
26.0893
  0
VERTEX
  8
0
 10
15.0958
 20
26.0276
  0
VERTEX
  8
0
 10
15.1823
 20
25.9653
  0
VERTEX
  8
0
 10
15.2683
 20
25.9023
  0
VERTEX
  8
0
 10
15.3537
 20
25.8386
  0
VERTEX
  8
0
 10
15.4386
 20
25.7743
  0
VERTEX
  8
0
 10
15.5229
 20
25.7094
  0
VERTEX
  8
0
 10
15.6066
 20
25.6438
  0
VERTEX
  8
0
 10
15.6898
 20
25.5776
  0
VERTEX
  8
0
 10
15.7723
 20
25.5108
  0
VERTEX
  8
0
 10
15.8543
 20
25.4434
  0
VERTEX
  8
0
 10
15.9357
 20
25.3754
  0
VERTEX
  8
0
 10
16.0165
 20
25.3069
  0
VERTEX
  8
0
 10
16.0967
 20
25.2378
  0
VERTEX
  8
0
 10
16.1762
 20
25.1682
  0
VERTEX
  8
0
 10
16.2552
 20
25.098
  0
VERTEX
  8
0
 10
16.3335
 20
25.0274
  0
VERTEX
  8
0
 10
16.4112
 20
24.9562
  0
VERTEX
  8
0
 10
16.4882
 20
24.8845
  0
VERTEX
  8
0
 10
16.5646
 20
24.8124
  0
VERTEX
  8
0
 10
16.6404
 20
24.7398
  0
VERTEX
  8
0
 10
16.7155
 20
24.6667
  0
VERTEX
  8
0
 10
16.7899
 20
24.5932
  0
VERTEX
  8
0
 10
16.8637
 20
24.5192
  0
VERTEX
  8
0
 10
16.9368
 20
24.4449
  0
VERTEX
  8
0
 10
17.0092
 20
24.3701
  0
VERTEX
  8
0
 10
17.0809
 20
24.2949
  0
SEQEND
  0
POLYLINE
  8
0
 66
     1
 10
0
 20
0
  0
VERTEX
  8
0
 10
18.2978
 20
24.3537
  0
VERTEX
  8
0
 10
18.2948
 20
24.3565
  0
VERTEX
  8
0
 10
18.2865
 20
24.3639
  0
VERTEX
  8
0
 10
18.2733
 20
24.3758
  0
VERTEX
  8
0
 10
18.255
 20
24.3921
  0
VERTEX
  8
0
 10
18.2319
 20
24.4126
  0
VERTEX
  8
0
 10
18.2041
 20
24.4372
  0
VERTEX
  8
0
 10
18.1717
 20
24.4657
  0
VERTEX
  8
0
 10
18.1347
 20
24.4979
  0
VERTEX
  8
0
 10
18.0934
 20
24.5337
  0
VERTEX
  8
0
 10
18.0478
 20
24.573
  0
VERTEX
  8
0
 10
17.998
 20
24.6156
  0
VERTEX
  8
0
 10
17.9442
 20
24.6613
  0
VERTEX
  8
0
 10
17.8864
 20
24.71
  0
VERTEX
  8
0
 10
17.8248
 20
24.7616
  0
VERTEX
  8
0
 10
17.7594
 20
24.8158
  0
VERTEX
  8
0
 10
17.6905
 20
24.8726
  0
VERTEX
  8
0
 10
17.6181
 20
24.9317
  0
VERTEX
  8
0
 10
17.5422
 20
24.993
  0
VERTEX
  8
0
 10
17.4631
 20
25.0564
  0
VERTEX
  8
0
 10
17.3809
 20
25.1218
  0
VERTEX
  8
0
 10
17.2956
 20
25.1889
  0
VERTEX
  8
0
 10
17.2074
 20
25.2576
  0
VERTEX
  8
0
 10
17.1163
 20
25.3277
  0
VERTEX
  8
0
 10
17.0226
 20
25.3992
  0
VERTEX
  8
0
 10
16.9262
 20
25.4718
  0
VERTEX
  8
0
 10
16.8274
 20
25.5454
  0
VERTEX
  8
0
 10
16.7262
 20
25.6198
  0
VERTEX
  8
0
 10
16.6227
 20
25.695
  0
VERTEX
  8
0
 10
16.5171
 20
25.7706
  0
VERTEX
  8
0
 10
16.4095
 20
25.8467
  0
VERTEX
  8
0
 10
16.2999
 20
25.9229
  0
VERTEX
  8
0
 10
16.1886
 20
25.9993
  0
VERTEX
  8
0
 10
16.0755
 20
26.0756
  0
VERTEX
  8
0
 10
15.9609
 20
26.1516
  0
VERTEX
  8
0
 10
15.8448
 20
26.2272
  0
VERTEX
  8
0
 10
15.7273
 20
26.3024
  0
VERTEX
  8
0
 10
15.6086
 20
26.3768
  0
VERTEX
  8
0
 10
15.4887
 20
26.4504
  0
VERTEX
  8
0
 10
15.3678
 20
26.5229
  0
VERTEX
  8
0
 10
15.2461
 20
26.5943
  0
VERTEX
  8
0
 10
15.1235
 20
26.6645
  0
VERTEX
  8
0
 10
15.0002
 20
26.7331
  0
VERTEX
  8
0
 10
14.8764
 20
26.8002
  0
VERTEX
  8
0
 10
14.7521
 20
26.8655
  0
VERTEX
  8
0
 10
14.6275
 20
26.9288
  0
VERTEX
  8
0
 10
14.5026
 20
26.9901
  0
VERTEX
  8
0
 10
14.3777
 20
27.0492
  0
VERTEX
  8
0
 10
14.2527
 20
27.1058
  0
VERTEX
  8
0
 10
14.1278
 20
27.16
  0
VERTEX
  8
0
 10
14.0032
 20
27.2115
  0
VERTEX
  8
0
 10
13.8788
 20
27.2601
  0
VERTEX
  8
0
 10
13.755
 20
27.3057
  0
VERTEX
  8
0
 10
13.619
 20
27.3526
  0
VERTEX
  8
0
 10
13.7163
 20
27.4614
  0
VERTEX
  8
0
 10
13.8379
 20
27.5304
  0
VERTEX
  8
0
 10
13.984
 20
27.5603
  0
VERTEX
  8
0
 10
14.1485
 20
27.5417
  0
VERTEX
  8
0
 10
14.286
 20
27.508
  0
VERTEX
  8
0
 10
14.4275
 20
27.4708
  0
VERTEX
  8
0
 10
14.5697
 20
27.4292
  0
VERTEX
  8
0
 10
14.7084
 20
27.3827
  0
VERTEX
  8
0
 10
14.8391
 20
27.3306
  0
VERTEX
  8
0
 10
14.9528
 20
27.2811
  0
VERTEX
  8
0
 10
15.0615
 20
27.2279
  0
VERTEX
  8
0
 10
15.1663
 20
27.172
  0
VERTEX
  8
0
 10
15.2688
 20
27.1147
  0
VERTEX
  8
0
 10
15.3705
 20
27.0568
  0
VERTEX
  8
0
 10
15.4728
 20
26.9996
  0
VERTEX
  8
0
 10
15.5772
 20
26.944
  0
VERTEX
  8
0
 10
15.6852
 20
26.8911
  0
VERTEX
  8
0
 10
15.7983
 20
26.8419
  0
VERTEX
  8
0
 10
15.9195
 20
26.7969
  0
VERTEX
  8
0
 10
16.0386
 20
26.76
  0
VERTEX
  8
0
 10
16.1556
 20
26.7308
  0
VERTEX
  8
0
 10
16.2705
 20
26.7091
  0
VERTEX
  8
0
 10
16.3834
 20
26.6946
  0
VERTEX
  8
0
 10
16.4944
 20
26.6871
  0
VERTEX
  8
0
 10
16.6035
 20
26.6863
  0
VERTEX
  8
0
 10
16.7107
 20
26.692
  0
VERTEX
  8
0
 10
16.8162
 20
26.7039
  0
VERTEX
  8
0
 10
16.9199
 20
26.7218
  0
VERTEX
  8
0
 10
17.0219
 20
26.7455
  0
VERTEX
  8
0
 10
17.1223
 20
26.7746
  0
VERTEX
  8
0
 10
17.221
 20
26.809
  0
VERTEX
  8
0
 10
17.3183
 20
26.8483
  0
VERTEX
  8
0
 10
17.4201
 20
26.8952
  0
VERTEX
  8
0
 10
17.5327
 20
26.767
  0
VERTEX
  8
0
 10
17.641
 20
26.638
  0
VERTEX
  8
0
 10
17.7463
 20
26.5181
  0
VERTEX
  8
0
 10
17.8597
 20
26.5208
  0
VERTEX
  8
0
 10
17.977
 20
26.5223
  0
VERTEX
  8
0
 10
18.0939
 20
26.5227
  0
VERTEX
  8
0
 10
18.2107
 20
26.5221
  0
VERTEX
  8
0
 10
18.3273
 20
26.5209
  0
VERTEX
  8
0
 10
18.4437
 20
26.5192
  0
VERTEX
  8
0
 10
18.5601
 20
26.5173
  0
VERTEX
  8
0
 10
18.6764
 20
26.5154
  0
VERTEX
  8
0
 10
18.7928
 20
26.5138
  0
VERTEX
  8
0
 10
18.9093
 20
26.5125
  0
VERTEX
  8
0
 10
19.0259
 20
26.512
  0
VERTEX
  8
0
 10
19.1428
 20
26.5124
  0
VERTEX
  8
0
 10
19.2599
 20
26.5138
  0
VERTEX
  8
0
 10
19.3798
 20
26.5167
  0
VERTEX
  8
0
 10
19.5034
 20
26.4452
  0
VERTEX
  8
0
 10
19.6213
 20
26.3749
  0
VERTEX
  8
0
 10
19.7357
 20
26.3046
  0
VERTEX
  8
0
 10
19.8467
 20
26.2344
  0
VERTEX
  8
0
 10
19.9544
 20
26.1641
  0
VERTEX
  8
0
 10
20.059
 20
26.0938
  0
VERTEX
  8
0
 10
20.1604
 20
26.0235
  0
VERTEX
  8
0
 10
20.2589
 20
25.9532
  0
VERTEX
  8
0
 10
20.3545
 20
25.8829
  0
VERTEX
  8
0
 10
20.4474
 20
25.8126
  0
VERTEX
  8
0
 10
20.5376
 20
25.7423
  0
VERTEX
  8
0
 10
20.6252
 20
25.672
  0
VERTEX
  8
0
 10
20.7104
 20
25.6017
  0
VERTEX
  8
0
 10
20.7933
 20
25.5313
  0
VERTEX
  8
0
 10
20.8739
 20
25.461
  0
VERTEX
  8
0
 10
20.9524
 20
25.3907
  0
VERTEX
  8
0
 10
21.0289
 20
25.3204
  0
VERTEX
  8
0
 10
21.1035
 20
25.2501
  0
VERTEX
  8
0
 10
21.1763
 20
25.1798
  0
VERTEX
  8
0
 10
21.2473
 20
25.1095
  0
VERTEX
  8
0
 10
21.3168
 20
25.0392
  0
VERTEX
  8
0
 10
21.3848
 20
24.9689
  0
VERTEX
  8
0
 10
21.4514
 20
24.8986
  0
VERTEX
  8
0
 10
21.5167
 20
24.8284
  0
VERTEX
  8
0
 10
21.5809
 20
24.7581
  0
VERTEX
  8
0
 10
21.644
 20
24.6878
  0
VERTEX
  8
0
 10
21.7061
 20
24.6175
  0
VERTEX
  8
0
 10
21.7674
 20
24.5473
  0
VERTEX
  8
0
 10
21.8279
 20
24.477
  0
VERTEX
  8
0
 10
21.8878
 20
24.4067
  0
VERTEX
  8
0
 10
21.9472
 20
24.3365
  0
VERTEX
  8
0
 10
22
 20
24.2516
  0
VERTEX
  8
0
 10
21.9903
 20
24.2508
  0
VERTEX
  8
0
 10
21.9621
 20
24.2506
  0
VERTEX
  8
0
 10
21.9175
 20
24.251
  0
VERTEX
  8
0
 10
21.8573
 20
24.2519
  0
VERTEX
  8
0
 10
21.7824
 20
24.2533
  0
VERTEX
  8
0
 10
21.6941
 20
24.2551
  0
VERTEX
  8
0
 10
21.5933
 20
24.2573
  0
VERTEX
  8
0
 10
21.4814
 20
24.2599
  0
VERTEX
  8
0
 10
21.3593
 20
24.2628
  0
VERTEX
  8
0
 10
21.2282
 20
24.2661
  0
VERTEX
  8
0
 10
21.0893
 20
24.2696
  0
VERTEX
  8
0
 10
20.9436
 20
24.2734
  0
VERTEX
  8
0
 10
20.7923
 20
24.2773
  0
VERTEX
  8
0
 10
20.6364
 20
24.2815
  0
VERTEX
  8
0
 10
20.4772
 20
24.2858
  0
VERTEX
  8
0
 10
20.3157
 20
24.2902
  0
VERTEX
  8
0
 10
20.1531
 20
24.2947
  0
VERTEX
  8
0
 10
19.9905
 20
24.2993
  0
VERTEX
  8
0
 10
19.8289
 20
24.3038
  0
VERTEX
  8
0
 10
19.6697
 20
24.3084
  0
VERTEX
  8
0
 10
19.5137
 20
24.3129
  0
VERTEX
  8
0
 10
19.3623
 20
24.3173
  0
VERTEX
  8
0
 10
19.2165
 20
24.3215
  0
VERTEX
  8
0
 10
19.0773
 20
24.3257
  0
VERTEX
  8
0
 10
18.9461
 20
24.3296
  0
VERTEX
  8
0
 10
18.8238
 20
24.3334
  0
VERTEX
  8
0
 10
18.7116
 20
24.3368
  0
VERTEX
  8
0
 10
18.6107
 20
24.34
  0
VERTEX
  8
0
 10
18.522
 20
24.3429
  0
VERTEX
  8
0
 10
18.4469
 20
24.3455
  0
VERTEX
  8
0
 10
18.3863
 20
24.3476
  0
VERTEX
  8
0
 10
18.3415
 20
24.3493
  0
VERTEX
  8
0
 10
18.3134
 20
24.3506
  0
VERTEX
  8
0
 10
18.2978
 20
24.3537
  0
SEQEND
  0
POLYLINE
  8
0
 66
     1
 10
0
 20
0
  0
VERTEX
  8
0
 10
13.007
 20
28.6399
  0
VERTEX
  8
0
 10
12.9152
 20
28.6604
  0
VERTEX
  8
0
 10
12.823
 20
28.6807
  0
VERTEX
  8
0
 10
12.7303
 20
28.7008
  0
VERTEX
  8
0
 10
12.6372
 20
28.7207
  0
VERTEX
  8
0
 10
12.5436
 20
28.7404
  0
VERTEX
  8
0
 10
12.4496
 20
28.7599
  0
VERTEX
  8
0
 10
12.3551
 20
28.7792
  0
VERTEX
  8
0
 10
12.2602
 20
28.7983
  0
VERTEX
  8
0
 10
12.1649
 20
28.8173
  0
VERTEX
  8
0
 10
12.0692
 20
28.836
  0
VERTEX
  8
0
 10
11.9731
 20
28.8545
  0
VERTEX
  8
0
 10
11.8765
 20
28.8729
  0
VERTEX
  8
0
 10
11.7796
 20
28.891
  0
VERTEX
  8
0
 10
11.6823
 20
28.909
  0
VERTEX
  8
0
 10
11.5846
 20
28.9268
  0
VERTEX
  8
0
 10
11.4865
 20
28.9443
  0
VERTEX
  8
0
 10
11.388
 20
28.9617
  0
VERTEX
  8
0
 10
11.2892
 20
28.9789
  0
VERTEX
  8
0
 10
11.1901
 20
28.9959
  0
VERTEX
  8
0
 10
11.0906
 20
29.0127
  0
VERTEX
  8
0
 10
10.9907
 20
29.0293
  0
VERTEX
  8
0
 10
10.8905
 20
29.0457
  0
VERTEX
  8
0
 10
10.79
 20
29.0619
  0
VERTEX
  8
0
 10
10.6892
 20
29.078
  0
VERTEX
  8
0
 10
10.5881
 20
29.0938
  0
VERTEX
  8
0
 10
10.4866
 20
29.1094
  0
VERTEX
  8
0
 10
10.3849
 20
29.1249
  0
VERTEX
  8
0
 10
10.2829
 20
29.1402
  0
VERTEX
  8
0
 10
10.1806
 20
29.1552
  0
VERTEX
  8
0
 10
10.078
 20
29.1701
  0
VERTEX
  8
0
 10
9.9751
 20
29.1848
  0
VERTEX
  8
0
 10
9.872
 20
29.1993
  0
VERTEX
  8
0
 10
9.7686
 20
29.2136
  0
VERTEX
  8
0
 10
9.665
 20
29.2277
  0
VERTEX
  8
0
 10
9.5612
 20
29.2416
  0
VERTEX
  8
0
 10
9.4571
 20
29.2553
  0
VERTEX
  8
0
 10
9.3527
 20
29.2689
  0
VERTEX
  8
0
 10
9.2482
 20
29.2822
  0
VERTEX
  8
0
 10
9.1434
 20
29.2954
  0
VERTEX
  8
0
 10
9.0384
 20
29.3084
  0
VERTEX
  8
0
 10
8.9333
 20
29.3211
  0
VERTEX
  8
0
 10
8.8279
 20
29.3337
  0
VERTEX
  8
0
 10
8.7223
 20
29.3461
  0
VERTEX
  8
0
 10
8.6166
 20
29.3583
  0
VERTEX
  8
0
 10
8.5107
 20
29.3703
  0
VERTEX
  8
0
 10
8.4046
 20
29.3822
  0
VERTEX
  8
0
 10
8.2984
 20
29.3938
  0
VERTEX
  8
0
 10
8.192
 20
29.4053
  0
VERTEX
  8
0
 10
8.0855
 20
29.4165
  0
VERTEX
  8
0
 10
7.9788
 20
29.4276
  0
VERTEX
  8
0
 10
7.872
 20
29.4385
  0
VERTEX
  8
0
 10
7.7651
 20
29.4492
  0
VERTEX
  8
0
 10
7.6581
 20
29.4597
  0
VERTEX
  8
0
 10
7.5509
 20
29.47
  0
VERTEX
  8
0
 10
7.4437
 20
29.4801
  0
VERTEX
  8
0
 10
7.3364
 20
29.49
  0
VERTEX
  8
0
 10
7.2289
 20
29.4998
  0
VERTEX
  8
0
 10
7.1214
 20
29.5094
  0
VERTEX
  8
0
 10
7.0138
 20
29.5187
  0
VERTEX
  8
0
 10
6.9062
 20
29.5279
  0
VERTEX
  8
0
 10
6.7984
 20
29.5369
  0
VERTEX
  8
0
 10
6.6907
 20
29.5457
  0
VERTEX
  8
0
 10
6.5828
 20
29.5543
  0
VERTEX
  8
0
 10
6.475
 20
29.5628
  0
VERTEX
  8
0
 10
6.3671
 20
29.571
  0
VERTEX
  8
0
 10
6.2591
 20
29.5791
  0
VERTEX
  8
0
 10
6.1512
 20
29.587
  0
VERTEX
  8
0
 10
6.0432
 20
29.5946
  0
VERTEX
  8
0
 10
5.9353
 20
29.6021
  0
VERTEX
  8
0
 10
5.8273
 20
29.6094
  0
VERTEX
  8
0
 10
5.7194
 20
29.6166
  0
VERTEX
  8
0
 10
5.6114
 20
29.6235
  0
VERTEX
  8
0
 10
5.5035
 20
29.6303
  0
VERTEX
  8
0
 10
5.3956
 20
29.6368
  0
VERTEX
  8
0
 10
5.2878
 20
29.6432
  0
VERTEX
  8
0
 10
5.18
 20
29.6494
  0
VERTEX
  8
0
 10
5.0722
 20
29.6554
  0
VERTEX
  8
0
 10
4.9645
 20
29.6612
  0
VERTEX
  8
0
 10
4.8569
 20
29.6669
  0
VERTEX
  8
0
 10
4.7493
 20
29.6723
  0
VERTEX
  8
0
 10
4.6418
 20
29.6776
  0
VERTEX
  8
0
 10
4.5344
 20
29.6827
  0
VERTEX
  8
0
 10
4.4271
 20
29.6876
  0
VERTEX
  8
0
 10
4.3199
 20
29.6923
  0
VERTEX
  8
0
 10
4.2128
 20
29.6968
  0
VERTEX
  8
0
 10
4.1058
 20
29.7011
  0
VERTEX
  8
0
 10
3.9989
 20
29.7053
  0
VERTEX
  8
0
 10
3.8921
 20
29.7093
  0
VERTEX
  8
0
 10
3.7855
 20
29.7131
  0
VERTEX
  8
0
 10
3.679
 20
29.7167
  0
VERTEX
  8
0
 10
3.5727
 20
29.7201
  0
VERTEX
  8
0
 10
3.4665
 20
29.7233
  0
VERTEX
  8
0
 10
3.3605
 20
29.7264
  0
VERTEX
  8
0
 10
3.2546
 20
29.7292
  0
VERTEX
  8
0
 10
3.149
 20
29.7319
  0
VERTEX
  8
0
 10
3.0435
 20
29.7344
  0
VERTEX
  8
0
 10
2.9382
 20
29.7367
  0
VERTEX
  8
0
 10
2.8331
 20
29.7389
  0
VERTEX
  8
0
 10
2.7281
 20
29.7408
  0
VERTEX
  8
0
 10
2.6234
 20
29.7426
  0
VERTEX
  8
0
 10
2.519
 20
29.7442
  0
VERTEX
  8
0
 10
2.4147
 20
29.7456
  0
VERTEX
  8
0
 10
2.3107
 20
29.7468
  0
VERTEX
  8
0
 10
2.2069
 20
29.7478
  0
VERTEX
  8
0
 10
2.1033
 20
29.7487
  0
VERTEX
  8
0
 10
2
 20
29.7494
  0
VERTEX
  8
0
 10
2.103
 20
29.7396
  0
VERTEX
  8
0
 10
2.206
 20
29.7298
  0
VERTEX
  8
0
 10
2.309
 20
29.7198
  0
VERTEX
  8
0
 10
2.4121
 20
29.7096
  0
VERTEX
  8
0
 10
2.5152
 20
29.6993
  0
VERTEX
  8
0
 10
2.6184
 20
29.6888
  0
VERTEX
  8
0
 10
2.7216
 20
29.6782
  0
VERTEX
  8
0
 10
2.8249
 20
29.6674
  0
VERTEX
  8
0
 10
2.9282
 20
29.6565
  0
VERTEX
  8
0
 10
3.0316
 20
29.6453
  0
VERTEX
  8
0
 10
3.135
 20
29.6341
  0
VERTEX
  8
0
 10
3.2385
 20
29.6226
  0
VERTEX
  8
0
 10
3.342
 20
29.611
  0
VERTEX
  8
0
 10
3.4456
 20
29.5992
  0
VERTEX
  8
0
 10
3.5491
 20
29.5872
  0
VERTEX
  8
0
 10
3.6528
 20
29.5751
  0
VERTEX
  8
0
 10
3.7564
 20
29.5627
  0
VERTEX
  8
0
 10
3.8601
 20
29.5502
  0
VERTEX
  8
0
 10
3.9638
 20
29.5375
  0
VERTEX
  8
0
 10
4.0676
 20
29.5246
  0
VERTEX
  8
0
 10
4.1714
 20
29.5115
  0
VERTEX
  8
0
 10
4.2752
 20
29.4983
  0
VERTEX
  8
0
 10
4.379
 20
29.4848
  0
VERTEX
  8
0
 10
4.4829
 20
29.4711
  0
VERTEX
  8
0
 10
4.5868
 20
29.4572
  0
VERTEX
  8
0
 10
4.6907
 20
29.4432
  0
VERTEX
  8
0
 10
4.7947
 20
29.4289
  0
VERTEX
  8
0
 10
4.8986
 20
29.4144
  0
VERTEX
  8
0
 10
5.0026
 20
29.3997
  0
VERTEX
  8
0
 10
5.1066
 20
29.3848
  0
VERTEX
  8
0
 10
5.2106
 20
29.3696
  0
VERTEX
  8
0
 10
5.3146
 20
29.3543
  0
VERTEX
  8
0
 10
5.4187
 20
29.3387
  0
VERTEX
  8
0
 10
5.5228
 20
29.3229
  0
VERTEX
  8
0
 10
5.6268
 20
29.3069
  0
VERTEX
  8
0
 10
5.7309
 20
29.2906
  0
VERTEX
  8
0
 10
5.835
 20
29.2741
  0
VERTEX
  8
0
 10
5.9391
 20
29.2574
  0
VERTEX
  8
0
 10
6.0432
 20
29.2405
  0
VERTEX
  8
0
 10
6.1473
 20
29.2233
  0
VERTEX
  8
0
 10
6.2515
 20
29.2058
  0
VERTEX
  8
0
 10
6.3556
 20
29.1882
  0
VERTEX
  8
0
 10
6.4597
 20
29.1702
  0
VERTEX
  8
0
 10
6.5638
 20
29.1521
  0
VERTEX
  8
0
 10
6.6679
 20
29.1337
  0
VERTEX
  8
0
 10
6.7721
 20
29.115
  0
VERTEX
  8
0
 10
6.8762
 20
29.0961
  0
VERTEX
  8
0
 10
6.9803
 20
29.0769
  0
VERTEX
  8
0
 10
7.0844
 20
29.0574
  0
VERTEX
  8
0
 10
7.1885
 20
29.0377
  0
VERTEX
  8
0
 10
7.2926
 20
29.0177
  0
VERTEX
  8
0
 10
7.3966
 20
28.9975
  0
VERTEX
  8
0
 10
7.5007
 20
28.977
  0
VERTEX
  8
0
 10
7.6047
 20
28.9562
  0
VERTEX
  8
0
 10
7.7088
 20
28.9351
  0
VERTEX
  8
0
 10
7.8128
 20
28.9138
  0
VERTEX
  8
0
 10
7.9168
 20
28.8922
  0
VERTEX
  8
0
 10
8.0208
 20
28.8703
  0
VERTEX
  8
0
 10
8.1247
 20
28.8481
  0
VERTEX
  8
0
 10
8.2287
 20
28.8256
  0
VERTEX
  8
0
 10
8.3326
 20
28.8029
  0
VERTEX
  8
0
 10
8.4365
 20
28.7798
  0
VERTEX
  8
0
 10
8.5404
 20
28.7565
  0
VERTEX
  8
0
 10
8.6442
 20
28.7328
  0
VERTEX
  8
0
 10
8.748
 20
28.7089
  0
VERTEX
  8
0
 10
8.8518
 20
28.6846
  0
VERTEX
  8
0
 10
8.9556
 20
28.6601
  0
VERTEX
  8
0
 10
9.0593
 20
28.6352
  0
VERTEX
  8
0
 10
9.163
 20
28.61
  0
VERTEX
  8
0
 10
9.2666
 20
28.5845
  0
VERTEX
  8
0
 10
9.3702
 20
28.5587
  0
VERTEX
  8
0
 10
9.4738
 20
28.5326
  0
VERTEX
  8
0
 10
9.5774
 20
28.5062
  0
VERTEX
  8
0
 10
9.6809
 20
28.4794
  0
VERTEX
  8
0
 10
9.7843
 20
28.4524
  0
VERTEX
  8
0
 10
9.8877
 20
28.425
  0
VERTEX
  8
0
 10
9.9911
 20
28.3972
  0
VERTEX
  8
0
 10
10.0945
 20
28.3692
  0
VERTEX
  8
0
 10
10.1977
 20
28.3407
  0
VERTEX
  8
0
 10
10.301
 20
28.312
  0
VERTEX
  8
0
 10
10.4042
 20
28.2829
  0
VERTEX
  8
0
 10
10.5073
 20
28.2535
  0
VERTEX
  8
0
 10
10.6104
 20
28.2238
  0
VERTEX
  8
0
 10
10.7134
 20
28.1936
  0
VERTEX
  8
0
 10
10.8164
 20
28.1632
  0
VERTEX
  8
0
 10
10.9193
 20
28.1324
  0
VERTEX
  8
0
 10
11.0221
 20
28.1528
  0
VERTEX
  8
0
 10
11.1273
 20
28.1753
  0
VERTEX
  8
0
 10
11.2345
 20
28.1997
  0
VERTEX
  8
0
 10
11.3436
 20
28.2257
  0
VERTEX
  8
0
 10
11.4541
 20
28.253
  0
VERTEX
  8
0
 10
11.566
 20
28.2814
  0
VERTEX
  8
0
 10
11.6787
 20
28.3107
  0
VERTEX
  8
0
 10
11.7922
 20
28.3407
  0
VERTEX
  8
0
 10
11.9061
 20
28.371
  0
VERTEX
  8
0
 10
12.0202
 20
28.4014
  0
VERTEX
  8
0
 10
12.1341
 20
28.4316
  0
VERTEX
  8
0
 10
12.2475
 20
28.4616
  0
VERTEX
  8
0
 10
12.3603
 20
28.4909
  0
VERTEX
  8
0
 10
12.4721
 20
28.5193
  0
VERTEX
  8
0
 10
12.5827
 20
28.5466
  0
VERTEX
  8
0
 10
12.6918
 20
28.5726
  0
VERTEX
  8
0
 10
12.799
 20
28.597
  0
VERTEX
  8
0
 10
12.9042
 20
28.6195
  0
VERTEX
  8
0
 10
13.007
 20
28.6399
  0
SEQEND
  0
POLYLINE
  8
0
 66
     1
 10
0
 20
0
  0
VERTEX
  8
0
 10
10.4634
 20
28.0418
  0
VERTEX
  8
0
 10
10.361
 20
28.0699
  0
VERTEX
  8
0
 10
10.2585
 20
28.0978
  0
VERTEX
  8
0
 10
10.156
 20
28.1256
  0
VERTEX
  8
0
 10
10.0534
 20
28.1533
  0
VERTEX
  8
0
 10
9.9508
 20
28.1808
  0
VERTEX
  8
0
 10
9.8482
 20
28.2082
  0
VERTEX
  8
0
 10
9.7456
 20
28.2354
  0
VERTEX
  8
0
 10
9.6429
 20
28.2625
  0
VERTEX
  8
0
 10
9.5402
 20
28.2894
  0
VERTEX
  8
0
 10
9.4374
 20
28.3162
  0
VERTEX
  8
0
 10
9.3347
 20
28.3428
  0
VERTEX
  8
0
 10
9.2318
 20
28.3693
  0
VERTEX
  8
0
 10
9.129
 20
28.3955
  0
VERTEX
  8
0
 10
9.0261
 20
28.4217
  0
VERTEX
  8
0
 10
8.9232
 20
28.4476
  0
VERTEX
  8
0
 10
8.8202
 20
28.4734
  0
VERTEX
  8
0
 10
8.7172
 20
28.499
  0
VERTEX
  8
0
 10
8.6141
 20
28.5244
  0
VERTEX
  8
0
 10
8.5111
 20
28.5496
  0
VERTEX
  8
0
 10
8.4079
 20
28.5747
  0
VERTEX
  8
0
 10
8.3047
 20
28.5995
  0
VERTEX
  8
0
 10
8.2015
 20
28.6242
  0
VERTEX
  8
0
 10
8.0983
 20
28.6486
  0
VERTEX
  8
0
 10
7.995
 20
28.6729
  0
VERTEX
  8
0
 10
7.8916
 20
28.697
  0
VERTEX
  8
0
 10
7.7882
 20
28.7208
  0
VERTEX
  8
0
 10
7.6848
 20
28.7445
  0
VERTEX
  8
0
 10
7.5813
 20
28.7679
  0
VERTEX
  8
0
 10
7.4778
 20
28.7911
  0
VERTEX
  8
0
 10
7.3742
 20
28.8141
  0
VERTEX
  8
0
 10
7.2705
 20
28.8369
  0
VERTEX
  8
0
 10
7.1669
 20
28.8595
  0
VERTEX
  8
0
 10
7.0631
 20
28.8818
  0
VERTEX
  8
0
 10
6.9593
 20
28.9039
  0
VERTEX
  8
0
 10
6.8555
 20
28.9258
  0
VERTEX
  8
0
 10
6.7516
 20
28.9475
  0
VERTEX
  8
0
 10
6.6477
 20
28.9689
  0
VERTEX
  8
0
 10
6.5437
 20
28.99
  0
VERTEX
  8
0
 10
6.4396
 20
29.011
  0
VERTEX
  8
0
 10
6.3355
 20
29.0316
  0
VERTEX
  8
0
 10
6.2314
 20
29.0521
  0
VERTEX
  8
0
 10
6.1272
 20
29.0722
  0
VERTEX
  8
0
 10
6.0229
 20
29.0922
  0
VERTEX
  8
0
 10
5.9186
 20
29.1118
  0
VERTEX
  8
0
 10
5.8142
 20
29.1312
  0
VERTEX
  8
0
 10
5.7097
 20
29.1504
  0
VERTEX
  8
0
 10
5.6052
 20
29.1692
  0
VERTEX
  8
0
 10
5.5007
 20
29.1878
  0
VERTEX
  8
0
 10
5.396
 20
29.2061
  0
VERTEX
  8
0
 10
5.2914
 20
29.2242
  0
VERTEX
  8
0
 10
5.1866
 20
29.2419
  0
VERTEX
  8
0
 10
5.0818
 20
29.2594
  0
VERTEX
  8
0
 10
4.9769
 20
29.2766
  0
VERTEX
  8
0
 10
4.872
 20
29.2935
  0
VERTEX
  8
0
 10
4.767
 20
29.3101
  0
VERTEX
  8
0
 10
4.6619
 20
29.3264
  0
VERTEX
  8
0
 10
4.5568
 20
29.3425
  0
VERTEX
  8
0
 10
4.4516
 20
29.3582
  0
VERTEX
  8
0
 10
4.3463
 20
29.3736
  0
VERTEX
  8
0
 10
4.241
 20
29.3887
  0
VERTEX
  8
0
 10
4.1355
 20
29.4035
  0
VERTEX
  8
0
 10
4.0301
 20
29.418
  0
VERTEX
  8
0
 10
3.9245
 20
29.4322
  0
VERTEX
  8
0
 10
3.8189
 20
29.446
  0
VERTEX
  8
0
 10
3.7132
 20
29.4595
  0
VERTEX
  8
0
 10
3.6074
 20
29.4727
  0
VERTEX
  8
0
 10
3.5016
 20
29.4856
  0
VERTEX
  8
0
 10
3.3957
 20
29.4982
  0
VERTEX
  8
0
 10
3.2897
 20
29.5104
  0
VERTEX
  8
0
 10
3.1837
 20
29.5222
  0
VERTEX
  8
0
 10
3.0775
 20
29.5338
  0
VERTEX
  8
0
 10
2.9713
 20
29.545
  0
VERTEX
  8
0
 10
2.865
 20
29.5558
  0
VERTEX
  8
0
 10
2.7587
 20
29.5663
  0
VERTEX
  8
0
 10
2.6522
 20
29.5764
  0
VERTEX
  8
0
 10
2.5457
 20
29.5862
  0
VERTEX
  8
0
 10
2.6512
 20
29.5681
  0
VERTEX
  8
0
 10
2.7567
 20
29.5496
  0
VERTEX
  8
0
 10
2.862
 20
29.531
  0
VERTEX
  8
0
 10
2.9672
 20
29.5121
  0
VERTEX
  8
0
 10
3.0723
 20
29.4929
  0
VERTEX
  8
0
 10
3.1773
 20
29.4734
  0
VERTEX
  8
0
 10
3.2822
 20
29.4538
  0
VERTEX
  8
0
 10
3.387
 20
29.4338
  0
VERTEX
  8
0
 10
3.4917
 20
29.4136
  0
VERTEX
  8
0
 10
3.5962
 20
29.3931
  0
VERTEX
  8
0
 10
3.7006
 20
29.3723
  0
VERTEX
  8
0
 10
3.805
 20
29.3512
  0
VERTEX
  8
0
 10
3.9091
 20
29.3299
  0
VERTEX
  8
0
 10
4.0132
 20
29.3083
  0
VERTEX
  8
0
 10
4.1171
 20
29.2864
  0
VERTEX
  8
0
 10
4.221
 20
29.2642
  0
VERTEX
  8
0
 10
4.3247
 20
29.2417
  0
VERTEX
  8
0
 10
4.4282
 20
29.2189
  0
VERTEX
  8
0
 10
4.5316
 20
29.1958
  0
VERTEX
  8
0
 10
4.635
 20
29.1724
  0
VERTEX
  8
0
 10
4.7381
 20
29.1486
  0
VERTEX
  8
0
 10
4.8412
 20
29.1246
  0
VERTEX
  8
0
 10
4.9441
 20
29.1003
  0
VERTEX
  8
0
 10
5.0468
 20
29.0756
  0
VERTEX
  8
0
 10
5.1494
 20
29.0506
  0
VERTEX
  8
0
 10
5.2519
 20
29.0253
  0
VERTEX
  8
0
 10
5.3543
 20
28.9997
  0
VERTEX
  8
0
 10
5.4565
 20
28.9737
  0
VERTEX
  8
0
 10
5.5585
 20
28.9474
  0
VERTEX
  8
0
 10
5.6604
 20
28.9208
  0
VERTEX
  8
0
 10
5.7622
 20
28.8938
  0
VERTEX
  8
0
 10
5.8638
 20
28.8665
  0
VERTEX
  8
0
 10
5.9653
 20
28.8388
  0
VERTEX
  8
0
 10
6.0666
 20
28.8108
  0
VERTEX
  8
0
 10
6.1678
 20
28.7824
  0
VERTEX
  8
0
 10
6.2688
 20
28.7536
  0
VERTEX
  8
0
 10
6.3697
 20
28.7245
  0
VERTEX
  8
0
 10
6.4704
 20
28.6951
  0
VERTEX
  8
0
 10
6.5709
 20
28.6652
  0
VERTEX
  8
0
 10
6.6713
 20
28.635
  0
VERTEX
  8
0
 10
6.7715
 20
28.6044
  0
VERTEX
  8
0
 10
6.8716
 20
28.5735
  0
VERTEX
  8
0
 10
6.9715
 20
28.5421
  0
VERTEX
  8
0
 10
7.0712
 20
28.5104
  0
VERTEX
  8
0
 10
7.1708
 20
28.4783
  0
VERTEX
  8
0
 10
7.2702
 20
28.4458
  0
VERTEX
  8
0
 10
7.3694
 20
28.4129
  0
VERTEX
  8
0
 10
7.4684
 20
28.3796
  0
VERTEX
  8
0
 10
7.5673
 20
28.3458
  0
VERTEX
  8
0
 10
7.666
 20
28.3117
  0
VERTEX
  8
0
 10
7.7646
 20
28.2772
  0
VERTEX
  8
0
 10
7.8629
 20
28.2423
  0
VERTEX
  8
0
 10
7.9611
 20
28.2069
  0
VERTEX
  8
0
 10
8.0591
 20
28.1712
  0
VERTEX
  8
0
 10
8.1569
 20
28.135
  0
VERTEX
  8
0
 10
8.2546
 20
28.0984
  0
VERTEX
  8
0
 10
8.352
 20
28.0613
  0
VERTEX
  8
0
 10
8.4622
 20
28.0147
  0
VERTEX
  8
0
 10
8.5716
 20
27.9746
  0
VERTEX
  8
0
 10
8.6805
 20
27.9408
  0
VERTEX
  8
0
 10
8.7888
 20
27.913
  0
VERTEX
  8
0
 10
8.8964
 20
27.8908
  0
VERTEX
  8
0
 10
9.0036
 20
27.8741
  0
VERTEX
  8
0
 10
9.1102
 20
27.8625
  0
VERTEX
  8
0
 10
9.2164
 20
27.8557
  0
VERTEX
  8
0
 10
9.3221
 20
27.8534
  0
VERTEX
  8
0
 10
9.4274
 20
27.8553
  0
VERTEX
  8
0
 10
9.5322
 20
27.8611
  0
VERTEX
  8
0
 10
9.6368
 20
27.8706
  0
VERTEX
  8
0
 10
9.741
 20
27.8834
  0
VERTEX
  8
0
 10
9.8449
 20
27.8993
  0
VERTEX
  8
0
 10
9.9485
 20
27.9179
  0
VERTEX
  8
0
 10
10.0518
 20
27.9389
  0
VERTEX
  8
0
 10
10.155
 20
27.9621
  0
VERTEX
  8
0
 10
10.2579
 20
27.9872
  0
VERTEX
  8
0
 10
10.3607
 20
28.0139
  0
VERTEX
  8
0
 10
10.4634
 20
28.0418
  0
SEQEND
  0
POLYLINE
  8
0
 66
     1
 10
0
 20
0
  0
VERTEX
  8
0
 10
9.2646
 20
27.7638
  0
VERTEX
  8
0
 10
9.361
 20
27.7296
  0
VERTEX
  8
0
 10
9.4652
 20
27.6906
  0
VERTEX
  8
0
 10
9.5751
 20
27.6475
  0
VERTEX
  8
0
 10
9.689
 20
27.6008
  0
VERTEX
  8
0
 10
9.8052
 20
27.5511
  0
VERTEX
  8
0
 10
9.922
 20
27.4989
  0
VERTEX
  8
0
 10
10.0374
 20
27.445
  0
VERTEX
  8
0
 10
10.15
 20
27.3898
  0
VERTEX
  8
0
 10
10.2577
 20
27.334
  0
VERTEX
  8
0
 10
10.359
 20
27.2781
  0
VERTEX
  8
0
 10
10.4521
 20
27.2226
  0
VERTEX
  8
0
 10
10.5352
 20
27.1682
  0
VERTEX
  8
0
 10
10.6035
 20
27.1168
  0
VERTEX
  8
0
 10
10.7733
 20
27.0738
  0
VERTEX
  8
0
 10
10.878
 20
27.0538
  0
VERTEX
  8
0
 10
10.9492
 20
27.0724
  0
VERTEX
  8
0
 10
10.9814
 20
27.1111
  0
VERTEX
  8
0
 10
11.0136
 20
27.1497
  0
VERTEX
  8
0
 10
11.0458
 20
27.1884
  0
VERTEX
  8
0
 10
11.0963
 20
27.2835
  0
VERTEX
  8
0
 10
11.1478
 20
27.3801
  0
VERTEX
  8
0
 10
11.1994
 20
27.4768
  0
VERTEX
  8
0
 10
11.2778
 20
27.5686
  0
VERTEX
  8
0
 10
11.3551
 20
27.6588
  0
VERTEX
  8
0
 10
11.4249
 20
27.7402
  0
VERTEX
  8
0
 10
11.3079
 20
27.7978
  0
VERTEX
  8
0
 10
11.1673
 20
27.8475
  0
VERTEX
  8
0
 10
11.0207
 20
27.8869
  0
VERTEX
  8
0
 10
10.8788
 20
27.9176
  0
VERTEX
  8
0
 10
10.776
 20
27.893
  0
VERTEX
  8
0
 10
10.6685
 20
27.8698
  0
VERTEX
  8
0
 10
10.5586
 20
27.8487
  0
VERTEX
  8
0
 10
10.4466
 20
27.8295
  0
VERTEX
  8
0
 10
10.3327
 20
27.8123
  0
VERTEX
  8
0
 10
10.2171
 20
27.7971
  0
VERTEX
  8
0
 10
10.1001
 20
27.7839
  0
VERTEX
  8
0
 10
9.982
 20
27.7726
  0
VERTEX
  8
0
 10
9.8629
 20
27.7633
  0
VERTEX
  8
0
 10
9.7431
 20
27.756
  0
VERTEX
  8
0
 10
9.6228
 20
27.7507
  0
VERTEX
  8
0
 10
9.5023
 20
27.7473
  0
VERTEX
  8
0
 10
9.3818
 20
27.7459
  0
VERTEX
  8
0
 10
9.2646
 20
27.7638
  0
SEQEND
  0
POLYLINE
  8
0
 66
     1
 10
0
 20
0
  0
VERTEX
  8
0
 10
9.2586
 20
27.747
  0
VERTEX
  8
0
 10
9.3816
 20
27.7638
  0
VERTEX
  8
0
 10
9.5018
 20
27.7652
  0
VERTEX
  8
0
 10
9.622
 20
27.7685
  0
VERTEX
  8
0
 10
9.742
 20
27.7738
  0
VERTEX
  8
0
 10
9.8615
 20
27.7811
  0
VERTEX
  8
0
 10
9.9803
 20
27.7904
  0
VERTEX
  8
0
 10
10.0981
 20
27.8016
  0
VERTEX
  8
0
 10
10.2148
 20
27.8148
  0
VERTEX
  8
0
 10
10.33
 20
27.83
  0
VERTEX
  8
0
 10
10.4436
 20
27.8471
  0
VERTEX
  8
0
 10
10.5552
 20
27.8662
  0
VERTEX
  8
0
 10
10.6647
 20
27.8873
  0
VERTEX
  8
0
 10
10.7719
 20
27.9104
  0
VERTEX
  8
0
 10
10.8786
 20
27.9359
  0
VERTEX
  8
0
 10
11.0253
 20
27.9041
  0
VERTEX
  8
0
 10
11.1733
 20
27.8644
  0
VERTEX
  8
0
 10
11.3158
 20
27.8139
  0
VERTEX
  8
0
 10
11.4535
 20
27.7461
  0
VERTEX
  8
0
 10
11.3687
 20
27.6471
  0
VERTEX
  8
0
 10
11.2914
 20
27.5569
  0
VERTEX
  8
0
 10
11.2152
 20
27.4684
  0
VERTEX
  8
0
 10
11.1636
 20
27.3717
  0
VERTEX
  8
0
 10
11.1121
 20
27.2751
  0
VERTEX
  8
0
 10
11.0595
 20
27.1769
  0
VERTEX
  8
0
 10
11.0273
 20
27.1383
  0
VERTEX
  8
0
 10
10.9951
 20
27.0996
  0
VERTEX
  8
0
 10
10.9629
 20
27.061
  0
VERTEX
  8
0
 10
10.8829
 20
27.0366
  0
VERTEX
  8
0
 10
10.7689
 20
27.0565
  0
VERTEX
  8
0
 10
10.5991
 20
27.0995
  0
VERTEX
  8
0
 10
10.5254
 20
27.1532
  0
VERTEX
  8
0
 10
10.4429
 20
27.2073
  0
VERTEX
  8
0
 10
10.3504
 20
27.2624
  0
VERTEX
  8
0
 10
10.2495
 20
27.3181
  0
VERTEX
  8
0
 10
10.1421
 20
27.3738
  0
VERTEX
  8
0
 10
10.0299
 20
27.4288
  0
VERTEX
  8
0
 10
9.9147
 20
27.4826
  0
VERTEX
  8
0
 10
9.7982
 20
27.5346
  0
VERTEX
  8
0
 10
9.6823
 20
27.5842
  0
VERTEX
  8
0
 10
9.5686
 20
27.6308
  0
VERTEX
  8
0
 10
9.4589
 20
27.6739
  0
VERTEX
  8
0
 10
9.3551
 20
27.7128
  0
VERTEX
  8
0
 10
9.2586
 20
27.747
  0
SEQEND
  0
POLYLINE
  8
0
 66
     1
 10
0
 20
0
  0
VERTEX
  8
0
 10
8.8573
 20
27.8902
  0
VERTEX
  8
0
 10
8.9344
 20
27.8775
  0
VERTEX
  8
0
 10
9.0115
 20
27.8655
  0
VERTEX
  8
0
 10
9.0891
 20
27.859
  0
VERTEX
  8
0
 10
9.1977
 20
27.8571
  0
VERTEX
  8
0
 10
9.3062
 20
27.8572
  0
VERTEX
  8
0
 10
9.4146
 20
27.8593
  0
VERTEX
  8
0
 10
9.5228
 20
27.8632
  0
VERTEX
  8
0
 10
9.6309
 20
27.869
  0
VERTEX
  8
0
 10
9.7389
 20
27.8766
  0
VERTEX
  8
0
 10
9.8467
 20
27.886
  0
VERTEX
  8
0
 10
9.9543
 20
27.897
  0
VERTEX
  8
0
 10
10.0618
 20
27.9097
  0
VERTEX
  8
0
 10
10.1691
 20
27.924
  0
VERTEX
  8
0
 10
10.2762
 20
27.9398
  0
VERTEX
  8
0
 10
10.3831
 20
27.9571
  0
VERTEX
  8
0
 10
10.4898
 20
27.9758
  0
VERTEX
  8
0
 10
10.5963
 20
27.996
  0
VERTEX
  8
0
 10
10.7026
 20
28.0174
  0
VERTEX
  8
0
 10
10.8087
 20
28.0401
  0
VERTEX
  8
0
 10
10.9146
 20
28.0641
  0
VERTEX
  8
0
 10
11.0202
 20
28.0892
  0
VERTEX
  8
0
 10
11.1256
 20
28.1155
  0
VERTEX
  8
0
 10
11.2307
 20
28.1428
  0
VERTEX
  8
0
 10
11.3356
 20
28.1711
  0
VERTEX
  8
0
 10
11.4403
 20
28.2004
  0
VERTEX
  8
0
 10
11.5447
 20
28.2307
  0
VERTEX
  8
0
 10
11.6688
 20
28.2633
  0
VERTEX
  8
0
 10
11.7945
 20
28.2902
  0
VERTEX
  8
0
 10
11.9211
 20
28.3133
  0
VERTEX
  8
0
 10
12.0482
 20
28.3347
  0
VERTEX
  8
0
 10
12.1751
 20
28.3564
  0
VERTEX
  8
0
 10
12.3014
 20
28.3806
  0
VERTEX
  8
0
 10
12.4264
 20
28.4091
  0
VERTEX
  8
0
 10
12.5496
 20
28.4441
  0
VERTEX
  8
0
 10
12.6552
 20
28.4775
  0
VERTEX
  8
0
 10
12.761
 20
28.5104
  0
VERTEX
  8
0
 10
12.867
 20
28.5425
  0
VERTEX
  8
0
 10
12.9733
 20
28.5737
  0
VERTEX
  8
0
 10
13.0799
 20
28.6036
  0
VERTEX
  8
0
 10
13.1868
 20
28.6321
  0
VERTEX
  8
0
 10
13.294
 20
28.6589
  0
VERTEX
  8
0
 10
13.4016
 20
28.6838
  0
VERTEX
  8
0
 10
13.5096
 20
28.7067
  0
VERTEX
  8
0
 10
13.6179
 20
28.7272
  0
VERTEX
  8
0
 10
13.7267
 20
28.7451
  0
VERTEX
  8
0
 10
13.8359
 20
28.7603
  0
VERTEX
  8
0
 10
13.9455
 20
28.7724
  0
VERTEX
  8
0
 10
14.0556
 20
28.7813
  0
VERTEX
  8
0
 10
14.1661
 20
28.7868
  0
VERTEX
  8
0
 10
14.2878
 20
28.7897
  0
VERTEX
  8
0
 10
14.4095
 20
28.7909
  0
VERTEX
  8
0
 10
14.5313
 20
28.7911
  0
VERTEX
  8
0
 10
14.6531
 20
28.7908
  0
VERTEX
  8
0
 10
14.7748
 20
28.7908
  0
VERTEX
  8
0
 10
14.8964
 20
28.7918
  0
VERTEX
  8
0
 10
15.0178
 20
28.7943
  0
VERTEX
  8
0
 10
15.1388
 20
28.7991
  0
VERTEX
  8
0
 10
15.2596
 20
28.8068
  0
VERTEX
  8
0
 10
15.3799
 20
28.8181
  0
VERTEX
  8
0
 10
15.4998
 20
28.8337
  0
VERTEX
  8
0
 10
15.6157
 20
28.8408
  0
VERTEX
  8
0
 10
15.7314
 20
28.8522
  0
VERTEX
  8
0
 10
15.847
 20
28.8665
  0
VERTEX
  8
0
 10
15.9626
 20
28.8824
  0
VERTEX
  8
0
 10
16.0782
 20
28.8984
  0
VERTEX
  8
0
 10
16.1939
 20
28.9131
  0
VERTEX
  8
0
 10
16.3098
 20
28.9251
  0
VERTEX
  8
0
 10
16.426
 20
28.933
  0
VERTEX
  8
0
 10
16.5589
 20
28.9365
  0
VERTEX
  8
0
 10
16.6918
 20
28.9354
  0
VERTEX
  8
0
 10
16.8248
 20
28.9306
  0
VERTEX
  8
0
 10
16.9577
 20
28.923
  0
VERTEX
  8
0
 10
17.0907
 20
28.9135
  0
VERTEX
  8
0
 10
17.2237
 20
28.9031
  0
VERTEX
  8
0
 10
17.3567
 20
28.8927
  0
VERTEX
  8
0
 10
17.5107
 20
28.8921
  0
VERTEX
  8
0
 10
17.6651
 20
28.905
  0
VERTEX
  8
0
 10
17.8195
 20
28.9191
  0
VERTEX
  8
0
 10
17.9483
 20
28.9255
  0
VERTEX
  8
0
 10
18.0772
 20
28.9276
  0
VERTEX
  8
0
 10
18.2061
 20
28.9254
  0
VERTEX
  8
0
 10
18.3348
 20
28.919
  0
VERTEX
  8
0
 10
18.4632
 20
28.9084
  0
VERTEX
  8
0
 10
18.5914
 20
28.8937
  0
VERTEX
  8
0
 10
18.66
 20
28.8508
  0
VERTEX
  8
0
 10
18.6043
 20
28.7694
  0
VERTEX
  8
0
 10
18.5283
 20
28.708
  0
VERTEX
  8
0
 10
18.437
 20
28.6707
  0
VERTEX
  8
0
 10
18.4616
 20
28.6508
  0
VERTEX
  8
0
 10
18.4909
 20
28.6392
  0
VERTEX
  8
0
 10
18.5228
 20
28.6355
  0
VERTEX
  8
0
 10
18.5971
 20
28.6341
  0
VERTEX
  8
0
 10
18.6714
 20
28.631
  0
VERTEX
  8
0
 10
18.7458
 20
28.6278
  0
VERTEX
  8
0
 10
18.7937
 20
28.5916
  0
VERTEX
  8
0
 10
18.8489
 20
28.5686
  0
VERTEX
  8
0
 10
18.9086
 20
28.5577
  0
VERTEX
  8
0
 10
18.9525
 20
28.5609
  0
VERTEX
  8
0
 10
18.9913
 20
28.5786
  0
VERTEX
  8
0
 10
19.0202
 20
28.6106
  0
VERTEX
  8
0
 10
18.883
 20
28.6793
  0
VERTEX
  8
0
 10
18.9001
 20
28.6964
  0
VERTEX
  8
0
 10
18.9604
 20
28.6883
  0
VERTEX
  8
0
 10
19.0192
 20
28.7001
  0
VERTEX
  8
0
 10
19.0717
 20
28.7307
  0
VERTEX
  8
0
 10
19.0373
 20
28.8422
  0
VERTEX
  8
0
 10
18.883
 20
28.8422
  0
VERTEX
  8
0
 10
18.8283
 20
28.7794
  0
VERTEX
  8
0
 10
18.7618
 20
28.7303
  0
VERTEX
  8
0
 10
18.6857
 20
28.6964
  0
VERTEX
  8
0
 10
18.6428
 20
28.7221
  0
VERTEX
  8
0
 10
18.7267
 20
28.807
  0
VERTEX
  8
0
 10
18.8215
 20
28.8788
  0
VERTEX
  8
0
 10
18.9259
 20
28.9365
  0
VERTEX
  8
0
 10
19.0008
 20
28.9222
  0
VERTEX
  8
0
 10
19.0752
 20
28.905
  0
VERTEX
  8
0
 10
19.1488
 20
28.8851
  0
VERTEX
  8
0
 10
19.2058
 20
28.9031
  0
VERTEX
  8
0
 10
19.2629
 20
28.9202
  0
VERTEX
  8
0
 10
19.3204
 20
28.9365
  0
VERTEX
  8
0
 10
19.4449
 20
28.8991
  0
VERTEX
  8
0
 10
19.5683
 20
28.8583
  0
VERTEX
  8
0
 10
19.6905
 20
28.8142
  0
VERTEX
  8
0
 10
19.8114
 20
28.7668
  0
VERTEX
  8
0
 10
19.9311
 20
28.7161
  0
VERTEX
  8
0
 10
20.0494
 20
28.6621
  0
VERTEX
  8
0
 10
20.0489
 20
28.638
  0
VERTEX
  8
0
 10
20.0417
 20
28.6152
  0
VERTEX
  8
0
 10
20.0282
 20
28.5951
  0
VERTEX
  8
0
 10
20.0096
 20
28.58
  0
VERTEX
  8
0
 10
19.9876
 20
28.5708
  0
VERTEX
  8
0
 10
19.9636
 20
28.5672
  0
VERTEX
  8
0
 10
19.9236
 20
28.5652
  0
VERTEX
  8
0
 10
19.8835
 20
28.5623
  0
VERTEX
  8
0
 10
19.8435
 20
28.5592
  0
VERTEX
  8
0
 10
19.8521
 20
28.5249
  0
VERTEX
  8
0
 10
19.9468
 20
28.4955
  0
VERTEX
  8
0
 10
20.0448
 20
28.484
  0
VERTEX
  8
0
 10
20.1437
 20
28.4906
  0
VERTEX
  8
0
 10
21.0099
 20
28.0789
  0
VERTEX
  8
0
 10
21.0099
 20
27.9245
  0
VERTEX
  8
0
 10
20.9186
 20
27.8805
  0
VERTEX
  8
0
 10
20.8202
 20
27.8576
  0
VERTEX
  8
0
 10
20.7182
 20
27.8541
  0
VERTEX
  8
0
 10
20.5742
 20
27.8659
  0
VERTEX
  8
0
 10
20.4314
 20
27.8866
  0
VERTEX
  8
0
 10
20.2905
 20
27.9172
  0
VERTEX
  8
0
 10
20.1523
 20
27.9588
  0
VERTEX
  8
0
 10
20.1002
 20
27.9502
  0
VERTEX
  8
0
 10
20.0487
 20
27.9387
  0
VERTEX
  8
0
 10
19.9979
 20
27.9245
  0
VERTEX
  8
0
 10
19.845
 20
27.9524
  0
VERTEX
  8
0
 10
19.6901
 20
27.9638
  0
VERTEX
  8
0
 10
19.5348
 20
27.9588
  0
VERTEX
  8
0
 10
19.4148
 20
28.0064
  0
VERTEX
  8
0
 10
19.3022
 20
28.0679
  0
VERTEX
  8
0
 10
19.1982
 20
28.1425
  0
VERTEX
  8
0
 10
19.1037
 20
28.2293
  0
VERTEX
  8
0
 10
19.0202
 20
28.3276
  0
VERTEX
  8
0
 10
19.001
 20
28.3381
  0
VERTEX
  8
0
 10
18.981
 20
28.3467
  0
VERTEX
  8
0
 10
18.9602
 20
28.3534
  0
VERTEX
  8
0
 10
18.9344
 20
28.3191
  0
VERTEX
  8
0
 10
18.9641
 20
28.2647
  0
VERTEX
  8
0
 10
18.987
 20
28.2073
  0
VERTEX
  8
0
 10
19.003
 20
28.1475
  0
VERTEX
  8
0
 10
18.9031
 20
28.16
  0
VERTEX
  8
0
 10
18.803
 20
28.1719
  0
VERTEX
  8
0
 10
18.7027
 20
28.1793
  0
VERTEX
  8
0
 10
18.5841
 20
28.1758
  0
VERTEX
  8
0
 10
18.4678
 20
28.1566
  0
VERTEX
  8
0
 10
18.3552
 20
28.1226
  0
VERTEX
  8
0
 10
18.2474
 20
28.0749
  0
VERTEX
  8
0
 10
18.1456
 20
28.0143
  0
VERTEX
  8
0
 10
18.0511
 20
27.9417
  0
VERTEX
  8
0
 10
17.991
 20
27.8216
  0
VERTEX
  8
0
 10
17.9397
 20
27.8482
  0
VERTEX
  8
0
 10
17.8937
 20
27.8827
  0
VERTEX
  8
0
 10
17.8538
 20
27.9245
  0
VERTEX
  8
0
 10
17.8367
 20
27.9074
  0
VERTEX
  8
0
 10
17.9271
 20
27.7945
  0
VERTEX
  8
0
 10
17.9974
 20
27.669
  0
VERTEX
  8
0
 10
18.0514
 20
27.5345
  0
VERTEX
  8
0
 10
18.0932
 20
27.3947
  0
VERTEX
  8
0
 10
18.1374
 20
27.2826
  0
VERTEX
  8
0
 10
18.204
 20
27.1875
  0
VERTEX
  8
0
 10
18.2895
 20
27.1092
  0
VERTEX
  8
0
 10
18.3901
 20
27.0474
  0
VERTEX
  8
0
 10
18.5021
 20
27.0018
  0
VERTEX
  8
0
 10
18.6218
 20
26.9722
  0
VERTEX
  8
0
 10
18.7455
 20
26.9581
  0
VERTEX
  8
0
 10
18.8553
 20
26.9519
  0
VERTEX
  8
0
 10
18.9651
 20
26.9444
  0
VERTEX
  8
0
 10
19.0748
 20
26.9356
  0
VERTEX
  8
0
 10
19.1844
 20
26.9256
  0
VERTEX
  8
0
 10
19.294
 20
26.9143
  0
VERTEX
  8
0
 10
19.4034
 20
26.9018
  0
VERTEX
  8
0
 10
19.5127
 20
26.8881
  0
VERTEX
  8
0
 10
19.6219
 20
26.8732
  0
VERTEX
  8
0
 10
19.7309
 20
26.857
  0
VERTEX
  8
0
 10
19.8397
 20
26.8396
  0
VERTEX
  8
0
 10
19.9483
 20
26.821
  0
VERTEX
  8
0
 10
20.0566
 20
26.8013
  0
VERTEX
  8
0
 10
20.1648
 20
26.7803
  0
VERTEX
  8
0
 10
20.2726
 20
26.7582
  0
VERTEX
  8
0
 10
20.3802
 20
26.7348
  0
VERTEX
  8
0
 10
20.4874
 20
26.7104
  0
VERTEX
  8
0
 10
20.5944
 20
26.6847
  0
VERTEX
  8
0
 10
20.72
 20
26.6493
  0
VERTEX
  8
0
 10
20.8438
 20
26.6071
  0
VERTEX
  8
0
 10
20.9665
 20
26.5609
  0
VERTEX
  8
0
 10
21.0889
 20
26.5132
  0
VERTEX
  8
0
 10
21.2117
 20
26.4666
  0
VERTEX
  8
0
 10
21.3358
 20
26.4237
  0
VERTEX
  8
0
 10
21.3019
 20
26.4171
  0
VERTEX
  8
0
 10
21.2674
 20
26.4142
  0
VERTEX
  8
0
 10
21.2329
 20
26.4151
  0
VERTEX
  8
0
 10
21.3015
 20
26.3741
  0
VERTEX
  8
0
 10
21.3766
 20
26.3481
  0
VERTEX
  8
0
 10
21.4559
 20
26.3379
  0
VERTEX
  8
0
 10
21.4896
 20
26.3096
  0
VERTEX
  8
0
 10
21.5076
 20
26.2705
  0
VERTEX
  8
0
 10
21.5073
 20
26.2264
  0
VERTEX
  8
0
 10
21.3752
 20
26.2501
  0
VERTEX
  8
0
 10
21.248
 20
26.291
  0
VERTEX
  8
0
 10
21.1254
 20
26.3457
  0
VERTEX
  8
0
 10
21.0073
 20
26.4109
  0
VERTEX
  8
0
 10
20.8889
 20
26.4734
  0
VERTEX
  8
0
 10
20.7651
 20
26.5235
  0
VERTEX
  8
0
 10
20.6371
 20
26.5617
  0
VERTEX
  8
0
 10
20.5058
 20
26.5888
  0
VERTEX
  8
0
 10
20.3725
 20
26.6055
  0
VERTEX
  8
0
 10
20.238
 20
26.6124
  0
VERTEX
  8
0
 10
20.2139
 20
26.5992
  0
VERTEX
  8
0
 10
20.188
 20
26.5906
  0
VERTEX
  8
0
 10
20.1609
 20
26.5866
  0
VERTEX
  8
0
 10
20.13
 20
26.6068
  0
VERTEX
  8
0
 10
20.1092
 20
26.6365
  0
VERTEX
  8
0
 10
20.1008
 20
26.6724
  0
VERTEX
  8
0
 10
19.1403
 20
26.7067
  0
VERTEX
  8
0
 10
18.8144
 20
26.6896
  0
VERTEX
  8
0
 10
18.8315
 20
26.621
  0
VERTEX
  8
0
 10
18.694
 20
26.6182
  0
VERTEX
  8
0
 10
18.5564
 20
26.6144
  0
VERTEX
  8
0
 10
18.4195
 20
26.6165
  0
VERTEX
  8
0
 10
18.2842
 20
26.6313
  0
VERTEX
  8
0
 10
18.155
 20
26.6621
  0
VERTEX
  8
0
 10
18.0301
 20
26.7067
  0
VERTEX
  8
0
 10
17.9093
 20
26.7631
  0
VERTEX
  8
0
 10
17.7926
 20
26.8291
  0
VERTEX
  8
0
 10
17.6798
 20
26.9025
  0
VERTEX
  8
0
 10
17.5708
 20
26.9812
  0
VERTEX
  8
0
 10
17.5451
 20
26.9726
  0
VERTEX
  8
0
 10
17.617
 20
26.8571
  0
VERTEX
  8
0
 10
17.7126
 20
26.7615
  0
VERTEX
  8
0
 10
17.8281
 20
26.6896
  0
VERTEX
  8
0
 10
17.8195
 20
26.5866
  0
VERTEX
  8
0
 10
17.7194
 20
26.6149
  0
VERTEX
  8
0
 10
17.6398
 20
26.6815
  0
VERTEX
  8
0
 10
17.5801
 20
26.772
  0
VERTEX
  8
0
 10
17.526
 20
26.8665
  0
VERTEX
  8
0
 10
17.464
 20
26.9549
  0
VERTEX
  8
0
 10
17.3948
 20
27.0369
  0
VERTEX
  8
0
 10
17.3189
 20
27.1123
  0
VERTEX
  8
0
 10
17.2369
 20
27.1811
  0
VERTEX
  8
0
 10
17.1495
 20
27.243
  0
VERTEX
  8
0
 10
17.0571
 20
27.2979
  0
VERTEX
  8
0
 10
16.9604
 20
27.3456
  0
VERTEX
  8
0
 10
16.8599
 20
27.386
  0
VERTEX
  8
0
 10
16.7562
 20
27.4188
  0
VERTEX
  8
0
 10
16.6499
 20
27.4441
  0
VERTEX
  8
0
 10
16.5417
 20
27.4614
  0
VERTEX
  8
0
 10
16.4816
 20
27.4357
  0
VERTEX
  8
0
 10
16.5839
 20
27.3357
  0
VERTEX
  8
0
 10
16.7039
 20
27.2609
  0
VERTEX
  8
0
 10
16.8371
 20
27.2135
  0
VERTEX
  8
0
 10
16.979
 20
27.1956
  0
VERTEX
  8
0
 10
17.0564
 20
27.1563
  0
VERTEX
  8
0
 10
17.1255
 20
27.1045
  0
VERTEX
  8
0
 10
17.1849
 20
27.0412
  0
VERTEX
  8
0
 10
17.0802
 20
26.976
  0
VERTEX
  8
0
 10
16.9696
 20
26.9231
  0
VERTEX
  8
0
 10
16.8542
 20
26.883
  0
VERTEX
  8
0
 10
16.7351
 20
26.8563
  0
VERTEX
  8
0
 10
16.6134
 20
26.8435
  0
VERTEX
  8
0
 10
16.4903
 20
26.8451
  0
VERTEX
  8
0
 10
16.3662
 20
26.857
  0
VERTEX
  8
0
 10
16.2429
 20
26.8745
  0
VERTEX
  8
0
 10
16.1207
 20
26.8974
  0
VERTEX
  8
0
 10
15.9997
 20
26.9257
  0
VERTEX
  8
0
 10
15.88
 20
26.9593
  0
VERTEX
  8
0
 10
15.7619
 20
26.998
  0
VERTEX
  8
0
 10
15.6454
 20
27.0419
  0
VERTEX
  8
0
 10
15.5309
 20
27.0907
  0
VERTEX
  8
0
 10
15.4184
 20
27.1445
  0
VERTEX
  8
0
 10
15.3137
 20
27.1963
  0
VERTEX
  8
0
 10
15.2082
 20
27.2463
  0
VERTEX
  8
0
 10
15.1019
 20
27.2947
  0
VERTEX
  8
0
 10
14.995
 20
27.3413
  0
VERTEX
  8
0
 10
14.8873
 20
27.3862
  0
VERTEX
  8
0
 10
14.7788
 20
27.4294
  0
VERTEX
  8
0
 10
14.6697
 20
27.4707
  0
VERTEX
  8
0
 10
14.56
 20
27.5103
  0
VERTEX
  8
0
 10
14.4496
 20
27.548
  0
VERTEX
  8
0
 10
14.3385
 20
27.5839
  0
VERTEX
  8
0
 10
14.2268
 20
27.6179
  0
VERTEX
  8
0
 10
14.1146
 20
27.6501
  0
VERTEX
  8
0
 10
14.1146
 20
27.6673
  0
VERTEX
  8
0
 10
14.1661
 20
27.6618
  0
VERTEX
  8
0
 10
14.2175
 20
27.6559
  0
VERTEX
  8
0
 10
14.269
 20
27.6515
  0
VERTEX
  8
0
 10
14.2918
 20
27.6521
  0
VERTEX
  8
0
 10
14.3147
 20
27.6553
  0
VERTEX
  8
0
 10
14.3375
 20
27.6587
  0
VERTEX
  8
0
 10
14.2465
 20
27.7062
  0
VERTEX
  8
0
 10
14.1484
 20
27.735
  0
VERTEX
  8
0
 10
14.046
 20
27.745
  0
VERTEX
  8
0
 10
13.8973
 20
27.747
  0
VERTEX
  8
0
 10
13.7486
 20
27.7499
  0
VERTEX
  8
0
 10
13.6
 20
27.753
  0
VERTEX
  8
0
 10
13.4816
 20
27.7036
  0
VERTEX
  8
0
 10
13.3678
 20
27.6456
  0
VERTEX
  8
0
 10
13.2583
 20
27.58
  0
VERTEX
  8
0
 10
13.1528
 20
27.5079
  0
VERTEX
  8
0
 10
13.051
 20
27.4301
  0
VERTEX
  8
0
 10
12.9524
 20
27.3477
  0
VERTEX
  8
0
 10
12.8567
 20
27.2617
  0
VERTEX
  8
0
 10
12.7627
 20
27.1798
  0
VERTEX
  8
0
 10
12.6641
 20
27.1039
  0
VERTEX
  8
0
 10
12.5615
 20
27.0337
  0
VERTEX
  8
0
 10
12.4552
 20
26.9689
  0
VERTEX
  8
0
 10
12.3457
 20
26.9091
  0
VERTEX
  8
0
 10
12.2335
 20
26.8542
  0
VERTEX
  8
0
 10
12.119
 20
26.8038
  0
VERTEX
  8
0
 10
12.0025
 20
26.7576
  0
VERTEX
  8
0
 10
11.8847
 20
26.7153
  0
VERTEX
  8
0
 10
11.7903
 20
26.6345
  0
VERTEX
  8
0
 10
11.691
 20
26.56
  0
VERTEX
  8
0
 10
11.5871
 20
26.4926
  0
VERTEX
  8
0
 10
11.4787
 20
26.4331
  0
VERTEX
  8
0
 10
11.366
 20
26.3823
  0
VERTEX
  8
0
 10
11.2492
 20
26.3409
  0
VERTEX
  8
0
 10
11.1484
 20
26.3197
  0
VERTEX
  8
0
 10
11.0452
 20
26.312
  0
VERTEX
  8
0
 10
10.9413
 20
26.3107
  0
VERTEX
  8
0
 10
10.806
 20
26.3187
  0
VERTEX
  8
0
 10
10.6736
 20
26.3431
  0
VERTEX
  8
0
 10
10.5453
 20
26.3832
  0
VERTEX
  8
0
 10
10.4221
 20
26.4381
  0
VERTEX
  8
0
 10
10.3049
 20
26.5068
  0
VERTEX
  8
0
 10
10.2027
 20
26.5705
  0
VERTEX
  8
0
 10
10.0967
 20
26.628
  0
VERTEX
  8
0
 10
9.9874
 20
26.6786
  0
VERTEX
  8
0
 10
9.8753
 20
26.7214
  0
VERTEX
  8
0
 10
9.7607
 20
26.7556
  0
VERTEX
  8
0
 10
9.644
 20
26.7803
  0
VERTEX
  8
0
 10
9.5258
 20
26.7947
  0
VERTEX
  8
0
 10
9.4063
 20
26.798
  0
VERTEX
  8
0
 10
9.2868
 20
26.7918
  0
VERTEX
  8
0
 10
9.1679
 20
26.7793
  0
VERTEX
  8
0
 10
9.0498
 20
26.7609
  0
VERTEX
  8
0
 10
8.9325
 20
26.7371
  0
VERTEX
  8
0
 10
8.8161
 20
26.7084
  0
VERTEX
  8
0
 10
8.7005
 20
26.6753
  0
VERTEX
  8
0
 10
8.5859
 20
26.6384
  0
VERTEX
  8
0
 10
8.4724
 20
26.5981
  0
VERTEX
  8
0
 10
8.3598
 20
26.5549
  0
VERTEX
  8
0
 10
8.2484
 20
26.5095
  0
VERTEX
  8
0
 10
8.1283
 20
26.5009
  0
VERTEX
  8
0
 10
8.0952
 20
26.4553
  0
VERTEX
  8
0
 10
8.0487
 20
26.425
  0
VERTEX
  8
0
 10
7.9937
 20
26.413
  0
VERTEX
  8
0
 10
7.938
 20
26.4215
  0
VERTEX
  8
0
 10
7.8898
 20
26.4489
  0
VERTEX
  8
0
 10
7.8539
 20
26.4923
  0
VERTEX
  8
0
 10
7.7988
 20
26.5045
  0
VERTEX
  8
0
 10
7.7517
 20
26.5339
  0
VERTEX
  8
0
 10
7.7167
 20
26.5781
  0
VERTEX
  8
0
 10
7.7465
 20
26.6153
  0
VERTEX
  8
0
 10
7.7892
 20
26.6336
  0
VERTEX
  8
0
 10
7.8367
 20
26.6295
  0
VERTEX
  8
0
 10
7.9974
 20
26.6282
  0
VERTEX
  8
0
 10
8.1578
 20
26.6291
  0
VERTEX
  8
0
 10
8.3152
 20
26.6485
  0
VERTEX
  8
0
 10
8.4324
 20
26.6772
  0
VERTEX
  8
0
 10
8.5482
 20
26.7111
  0
VERTEX
  8
0
 10
8.6627
 20
26.7495
  0
VERTEX
  8
0
 10
8.776
 20
26.7919
  0
VERTEX
  8
0
 10
8.8882
 20
26.8375
  0
VERTEX
  8
0
 10
8.9996
 20
26.8858
  0
VERTEX
  8
0
 10
9.11
 20
26.9363
  0
VERTEX
  8
0
 10
9.2198
 20
26.9883
  0
VERTEX
  8
0
 10
9.329
 20
27.0412
  0
VERTEX
  8
0
 10
9.4552
 20
27.0341
  0
VERTEX
  8
0
 10
9.5804
 20
27.018
  0
VERTEX
  8
0
 10
9.7043
 20
26.9936
  0
VERTEX
  8
0
 10
9.8266
 20
26.9617
  0
VERTEX
  8
0
 10
9.9471
 20
26.923
  0
VERTEX
  8
0
 10
10.0692
 20
26.8851
  0
VERTEX
  8
0
 10
10.1937
 20
26.8564
  0
VERTEX
  8
0
 10
10.3199
 20
26.8377
  0
VERTEX
  8
0
 10
10.4468
 20
26.8299
  0
VERTEX
  8
0
 10
10.5738
 20
26.8335
  0
VERTEX
  8
0
 10
10.7002
 20
26.8495
  0
VERTEX
  8
0
 10
10.8232
 20
26.8888
  0
VERTEX
  8
0
 10
10.9305
 20
26.9564
  0
VERTEX
  8
0
 10
11.0228
 20
27.0462
  0
VERTEX
  8
0
 10
11.1008
 20
27.1522
  0
VERTEX
  8
0
 10
11.1652
 20
27.2685
  0
VERTEX
  8
0
 10
11.2196
 20
27.3704
  0
VERTEX
  8
0
 10
11.2816
 20
27.4671
  0
VERTEX
  8
0
 10
11.3505
 20
27.5586
  0
VERTEX
  8
0
 10
11.4259
 20
27.6448
  0
VERTEX
  8
0
 10
11.5072
 20
27.7257
  0
VERTEX
  8
0
 10
11.5939
 20
27.8012
  0
VERTEX
  8
0
 10
11.6855
 20
27.8712
  0
VERTEX
  8
0
 10
11.7815
 20
27.9358
  0
VERTEX
  8
0
 10
11.8814
 20
27.9948
  0
VERTEX
  8
0
 10
11.9845
 20
28.0483
  0
VERTEX
  8
0
 10
12.0906
 20
28.0961
  0
VERTEX
  8
0
 10
12.1077
 20
28.139
  0
VERTEX
  8
0
 10
12.0562
 20
28.1904
  0
VERTEX
  8
0
 10
11.932
 20
28.1864
  0
VERTEX
  8
0
 10
11.8082
 20
28.1776
  0
VERTEX
  8
0
 10
11.6849
 20
28.1641
  0
VERTEX
  8
0
 10
11.5621
 20
28.1465
  0
VERTEX
  8
0
 10
11.4399
 20
28.125
  0
VERTEX
  8
0
 10
11.3183
 20
28.1
  0
VERTEX
  8
0
 10
11.1972
 20
28.0718
  0
VERTEX
  8
0
 10
11.0767
 20
28.0409
  0
VERTEX
  8
0
 10
10.9568
 20
28.0076
  0
VERTEX
  8
0
 10
10.8482
 20
27.9777
  0
VERTEX
  8
0
 10
10.739
 20
27.9503
  0
VERTEX
  8
0
 10
10.6293
 20
27.9255
  0
VERTEX
  8
0
 10
10.5192
 20
27.9032
  0
VERTEX
  8
0
 10
10.4086
 20
27.8832
  0
VERTEX
  8
0
 10
10.2975
 20
27.8655
  0
VERTEX
  8
0
 10
10.1862
 20
27.8502
  0
VERTEX
  8
0
 10
10.0745
 20
27.837
  0
VERTEX
  8
0
 10
9.9625
 20
27.826
  0
VERTEX
  8
0
 10
9.8503
 20
27.8171
  0
VERTEX
  8
0
 10
9.7379
 20
27.8102
  0
VERTEX
  8
0
 10
9.6254
 20
27.8053
  0
VERTEX
  8
0
 10
9.5127
 20
27.8023
  0
VERTEX
  8
0
 10
9.4
 20
27.8012
  0
VERTEX
  8
0
 10
9.2873
 20
27.8019
  0
VERTEX
  8
0
 10
9.1746
 20
27.8043
  0
VERTEX
  8
0
 10
9.1575
 20
27.8047
  0
VERTEX
  8
0
 10
9.1403
 20
27.8047
  0
VERTEX
  8
0
 10
9.1232
 20
27.8041
  0
VERTEX
  8
0
 10
9.0099
 20
27.8083
  0
VERTEX
  8
0
 10
8.9001
 20
27.8342
  0
VERTEX
  8
0
 10
8.7973
 20
27.8817
  0
VERTEX
  8
0
 10
8.8573
 20
27.8902
  0
SEQEND
  0
ENDSEC
  0
EOF