  0
SECTION
  2
HEADER
  9
$ACADVER
  1
AC1009
  0
ENDSEC
  0
SECTION
  2
TABLES
  0
TABLE
  2
STYLE
 70
   1
  0
STYLE
  2
STANDARD
 70
    64
 40
0.0
 41
1.0
 50
0.0
 71
     0
 42
1.0
  3
txt
  4

  0
ENDTAB
  0
ENDSEC
  0
SECTION
  2
ENTITIES
  0
ARC
  8
0
 10
1.5
 20
53.5
 40
1.5
 50
180
 51
270
  0
ARC
  8
0
 10
28.5
 20
53.5
 40
1.5
 50
270
 51
360
  0
ARC
  8
0
 10
28.5
 20
80.5
 40
1.5
 50
0
 51
90
  0
ARC
  8
0
 10
1.5
 20
80.5
 40
1.5
 50
90
 51
180
  0
POLYLINE
  8
0
 66
     1
 10
0
 20
0
  0
VERTEX
  8
0
 10
1.5
 20
52
  0
VERTEX
  8
0
 10
28.5
 20
52
  0
SEQEND
  0
POLYLINE
  8
0
 66
     1
 10
0
 20
0
  0
VERTEX
  8
0
 10
30
 20
53.5
  0
VERTEX
  8
0
 10
30
 20
80.5
  0
SEQEND
  0
POLYLINE
  8
0
 66
     1
 10
0
 20
0
  0
VERTEX
  8
0
 10
28.5
 20
82
  0
VERTEX
  8
0
 10
1.5
 20
82
  0
SEQEND
  0
POLYLINE
  8
0
 66
     1
 10
0
 20
0
  0
VERTEX
  8
0
 10
0
 20
80.5
  0
VERTEX
  8
0
 10
0
 20
53.5
  0
SEQEND
  0
ARC
  8
0
 10
1.5
 20
53.5
 40
1.5
 50
180
 51
270
  0
ARC
  8
0
 10
1.5
 20
53.5
 40
0.75
 50
180
 51
270
  0
ARC
  8
0
 10
28.5
 20
53.5
 40
1.5
 50
270
 51
360
  0
ARC
  8
0
 10
28.5
 20
53.5
 40
0.75
 50
270
 51
360
  0
ARC
  8
0
 10
28.5
 20
80.5
 40
1.5
 50
0
 51
90
  0
ARC
  8
0
 10
28.5
 20
80.5
 40
0.75
 50
0
 51
90
  0
ARC
  8
0
 10
1.5
 20
80.5
 40
1.5
 50
90
 51
180
  0
ARC
  8
0
 10
1.5
 20
80.5
 40
0.75
 50
90
 51
180
  0
POLYLINE
  8
0
 66
     1
 10
0
 20
0
  0
VERTEX
  8
0
 10
1.5
 20
52.75
  0
VERTEX
  8
0
 10
28.5
 20
52.75
  0
SEQEND
  0
POLYLINE
  8
0
 66
     1
 10
0
 20
0
  0
VERTEX
  8
0
 10
28.5
 20
52
  0
VERTEX
  8
0
 10
1.5
 20
52
  0
SEQEND
  0
POLYLINE
  8
0
 66
     1
 10
0
 20
0
  0
VERTEX
  8
0
 10
29.25
 20
53.5
  0
VERTEX
  8
0
 10
29.25
 20
80.5
  0
SEQEND
  0
POLYLINE
  8
0
 66
     1
 10
0
 20
0
  0
VERTEX
  8
0
 10
30
 20
80.5
  0
VERTEX
  8
0
 10
30
 20
53.5
  0
SEQEND
  0
POLYLINE
  8
0
 66
     1
 10
0
 20
0
  0
VERTEX
  8
0
 10
28.5
 20
81.25
  0
VERTEX
  8
0
 10
1.5
 20
81.25
  0
SEQEND
  0
POLYLINE
  8
0
 66
     1
 10
0
 20
0
  0
VERTEX
  8
0
 10
1.5
 20
82
  0
VERTEX
  8
0
 10
28.5
 20
82
  0
SEQEND
  0
POLYLINE
  8
0
 66
     1
 10
0
 20
0
  0
VERTEX
  8
0
 10
0.75
 20
80.5
  0
VERTEX
  8
0
 10
0.75
 20
53.5
  0
SEQEND
  0
POLYLINE
  8
0
 66
     1
 10
0
 20
0
  0
VERTEX
  8
0
 10
0
 20
53.5
  0
VERTEX
  8
0
 10
0
 20
80.5
  0
SEQEND
  0
POLYLINE
  8
0
 66
     1
 10
0
 20
0
  0
VERTEX
  8
0
 10
32.8553
 20
74.641
  0
VERTEX
  8
0
 10
32.8553
 20
74.489
  0
VERTEX
  8
0
 10
31.883
 20
74.489
  0
VERTEX
  8
0
 10
31.954
 20
74.4019
  0
VERTEX
  8
0
 10
32.0151
 20
74.3006
  0
VERTEX
  8
0
 10
32.0662
 20
74.185
  0
VERTEX
  8
0
 10
31.9189
 20
74.185
  0
VERTEX
  8
0
 10
31.8905
 20
74.2418
  0
VERTEX
  8
0
 10
31.8605
 20
74.2943
  0
VERTEX
  8
0
 10
31.829
 20
74.3426
  0
VERTEX
  8
0
 10
31.7959
 20
74.3866
  0
VERTEX
  8
0
 10
31.7613
 20
74.4264
  0
VERTEX
  8
0
 10
31.7251
 20
74.462
  0
VERTEX
  8
0
 10
31.6874
 20
74.4932
  0
VERTEX
  8
0
 10
31.6481
 20
74.5203
  0
VERTEX
  8
0
 10
31.6073
 20
74.5431
  0
VERTEX
  8
0
 10
31.6073
 20
74.641
  0
VERTEX
  8
0
 10
32.8553
 20
74.641
  0
SEQEND
  0
POLYLINE
  8
0
 66
     1
 10
0
 20
0
  0
VERTEX
  8
0
 10
32.8553
 20
75.605
  0
VERTEX
  8
0
 10
32.8553
 20
75.453
  0
VERTEX
  8
0
 10
31.883
 20
75.453
  0
VERTEX
  8
0
 10
31.954
 20
75.3659
  0
VERTEX
  8
0
 10
32.0151
 20
75.2646
  0
VERTEX
  8
0
 10
32.0662
 20
75.149
  0
VERTEX
  8
0
 10
31.9189
 20
75.149
  0
VERTEX
  8
0
 10
31.8905
 20
75.2058
  0
VERTEX
  8
0
 10
31.8605
 20
75.2583
  0
VERTEX
  8
0
 10
31.829
 20
75.3066
  0
VERTEX
  8
0
 10
31.7959
 20
75.3506
  0
VERTEX
  8
0
 10
31.7613
 20
75.3904
  0
VERTEX
  8
0
 10
31.7251
 20
75.426
  0
VERTEX
  8
0
 10
31.6874
 20
75.4572
  0
VERTEX
  8
0
 10
31.6481
 20
75.4843
  0
VERTEX
  8
0
 10
31.6073
 20
75.5071
  0
VERTEX
  8
0
 10
31.6073
 20
75.605
  0
VERTEX
  8
0
 10
32.8553
 20
75.605
  0
SEQEND
  0
POLYLINE
  8
0
 66
     1
 10
0
 20
0
  0
VERTEX
  8
0
 10
32.8553
 20
76.073
  0
VERTEX
  8
0
 10
32.6793
 20
76.073
  0
VERTEX
  8
0
 10
32.6793
 20
76.245
  0
VERTEX
  8
0
 10
32.8553
 20
76.245
  0
VERTEX
  8
0
 10
32.8553
 20
76.073
  0
SEQEND
  0
POLYLINE
  8
0
 66
     1
 10
0
 20
0
  0
VERTEX
  8
0
 10
32.5271
 20
76.469
  0
VERTEX
  8
0
 10
32.5136
 20
76.6287
  0
VERTEX
  8
0
 10
32.5458
 20
76.6346
  0
VERTEX
  8
0
 10
32.5756
 20
76.6422
  0
VERTEX
  8
0
 10
32.6031
 20
76.6516
  0
VERTEX
  8
0
 10
32.6281
 20
76.6626
  0
VERTEX
  8
0
 10
32.6508
 20
76.6754
  0
VERTEX
  8
0
 10
32.671
 20
76.6898
  0
VERTEX
  8
0
 10
32.6889
 20
76.706
  0
VERTEX
  8
0
 10
32.7044
 20
76.7239
  0
VERTEX
  8
0
 10
32.7175
 20
76.7435
  0
VERTEX
  8
0
 10
32.7283
 20
76.7648
  0
VERTEX
  8
0
 10
32.7366
 20
76.7878
  0
VERTEX
  8
0
 10
32.7426
 20
76.8125
  0
VERTEX
  8
0
 10
32.7461
 20
76.8389
  0
VERTEX
  8
0
 10
32.7473
 20
76.867
  0
VERTEX
  8
0
 10
32.7436
 20
76.9137
  0
VERTEX
  8
0
 10
32.7325
 20
76.9565
  0
VERTEX
  8
0
 10
32.7141
 20
76.9954
  0
VERTEX
  8
0
 10
32.6882
 20
77.0303
  0
VERTEX
  8
0
 10
32.6549
 20
77.0614
  0
VERTEX
  8
0
 10
32.5944
 20
77.0989
  0
VERTEX
  8
0
 10
32.5249
 20
77.1215
  0
VERTEX
  8
0
 10
32.4464
 20
77.129
  0
VERTEX
  8
0
 10
32.3872
 20
77.1246
  0
VERTEX
  8
0
 10
32.3339
 20
77.1114
  0
VERTEX
  8
0
 10
32.2865
 20
77.0895
  0
VERTEX
  8
0
 10
32.2451
 20
77.0588
  0
VERTEX
  8
0
 10
32.2114
 20
77.0204
  0
VERTEX
  8
0
 10
32.1872
 20
76.9752
  0
VERTEX
  8
0
 10
32.1725
 20
76.9232
  0
VERTEX
  8
0
 10
32.1673
 20
76.8645
  0
VERTEX
  8
0
 10
32.1704
 20
76.8178
  0
VERTEX
  8
0
 10
32.18
 20
76.7748
  0
VERTEX
  8
0
 10
32.1963
 20
76.7354
  0
VERTEX
  8
0
 10
32.2192
 20
76.6996
  0
VERTEX
  8
0
 10
32.2487
 20
76.6674
  0
VERTEX
  8
0
 10
32.2848
 20
76.6388
  0
VERTEX
  8
0
 10
32.2663
 20
76.496
  0
VERTEX
  8
0
 10
31.6313
 20
76.6159
  0
VERTEX
  8
0
 10
31.6313
 20
77.2314
  0
VERTEX
  8
0
 10
31.7753
 20
77.2314
  0
VERTEX
  8
0
 10
31.7753
 20
76.7394
  0
VERTEX
  8
0
 10
32.1087
 20
76.6724
  0
VERTEX
  8
0
 10
32.0661
 20
76.7476
  0
VERTEX
  8
0
 10
32.0403
 20
76.8253
  0
VERTEX
  8
0
 10
32.0313
 20
76.9054
  0
VERTEX
  8
0
 10
32.0343
 20
76.9598
  0
VERTEX
  8
0
 10
32.0439
 20
77.011
  0
VERTEX
  8
0
 10
32.06
 20
77.0589
  0
VERTEX
  8
0
 10
32.0826
 20
77.1035
  0
VERTEX
  8
0
 10
32.1118
 20
77.1449
  0
VERTEX
  8
0
 10
32.1476
 20
77.183
  0
VERTEX
  8
0
 10
32.1871
 20
77.2154
  0
VERTEX
  8
0
 10
32.2297
 20
77.2419
  0
VERTEX
  8
0
 10
32.2754
 20
77.2625
  0
VERTEX
  8
0
 10
32.3243
 20
77.2772
  0
VERTEX
  8
0
 10
32.3764
 20
77.286
  0
VERTEX
  8
0
 10
32.4315
 20
77.289
  0
VERTEX
  8
0
 10
32.4965
 20
77.2851
  0
VERTEX
  8
0
 10
32.558
 20
77.2733
  0
VERTEX
  8
0
 10
32.6159
 20
77.2538
  0
VERTEX
  8
0
 10
32.6704
 20
77.2263
  0
VERTEX
  8
0
 10
32.7213
 20
77.1911
  0
VERTEX
  8
0
 10
32.7563
 20
77.16
  0
VERTEX
  8
0
 10
32.7867
 20
77.1262
  0
VERTEX
  8
0
 10
32.8124
 20
77.0897
  0
VERTEX
  8
0
 10
32.8334
 20
77.0505
  0
VERTEX
  8
0
 10
32.8499
 20
77.0085
  0
VERTEX
  8
0
 10
32.8617
 20
76.9638
  0
VERTEX
  8
0
 10
32.8688
 20
76.9165
  0
VERTEX
  8
0
 10
32.8713
 20
76.8664
  0
VERTEX
  8
0
 10
32.8677
 20
76.8028
  0
VERTEX
  8
0
 10
32.8569
 20
76.7439
  0
VERTEX
  8
0
 10
32.8389
 20
76.6896
  0
VERTEX
  8
0
 10
32.8137
 20
76.6398
  0
VERTEX
  8
0
 10
32.7813
 20
76.5947
  0
VERTEX
  8
0
 10
32.7415
 20
76.5545
  0
VERTEX
  8
0
 10
32.6962
 20
76.5219
  0
VERTEX
  8
0
 10
32.6453
 20
76.4968
  0
VERTEX
  8
0
 10
32.589
 20
76.4791
  0
VERTEX
  8
0
 10
32.5271
 20
76.469
  0
VERTEX
  8
0
 10
32.5271
 20
76.469
  0
SEQEND
  0
POLYLINE
  8
0
 66
     1
 10
0
 20
0
  0
VERTEX
  8
0
 10
31.8762
 20
78.2559
  0
VERTEX
  8
0
 10
31.8881
 20
78.1048
  0
VERTEX
  8
0
 10
31.8301
 20
78.0833
  0
VERTEX
  8
0
 10
31.7845
 20
78.0441
  0
VERTEX
  8
0
 10
31.7553
 20
77.9976
  0
VERTEX
  8
0
 10
31.7376
 20
77.9427
  0
VERTEX
  8
0
 10
31.7313
 20
77.8794
  0
VERTEX
  8
0
 10
31.7411
 20
77.7944
  0
VERTEX
  8
0
 10
31.772
 20
77.7283
  0
VERTEX
  8
0
 10
31.7904
 20
77.7058
  0
VERTEX
  8
0
 10
31.8114
 20
77.685
  0
VERTEX
  8
0
 10
31.835
 20
77.666
  0
VERTEX
  8
0
 10
31.8611
 20
77.6488
  0
VERTEX
  8
0
 10
31.8899
 20
77.6333
  0
VERTEX
  8
0
 10
31.9212
 20
77.6195
  0
VERTEX
  8
0
 10
31.9551
 20
77.6075
  0
VERTEX
  8
0
 10
31.9917
 20
77.5972
  0
VERTEX
  8
0
 10
32.0308
 20
77.5887
  0
VERTEX
  8
0
 10
32.0725
 20
77.5819
  0
VERTEX
  8
0
 10
32.1167
 20
77.5769
  0
VERTEX
  8
0
 10
32.1636
 20
77.5736
  0
VERTEX
  8
0
 10
32.2131
 20
77.5721
  0
VERTEX
  8
0
 10
32.1783
 20
77.597
  0
VERTEX
  8
0
 10
32.1476
 20
77.6239
  0
VERTEX
  8
0
 10
32.121
 20
77.653
  0
VERTEX
  8
0
 10
32.0985
 20
77.6842
  0
VERTEX
  8
0
 10
32.0801
 20
77.7175
  0
VERTEX
  8
0
 10
32.0658
 20
77.753
  0
VERTEX
  8
0
 10
32.0555
 20
77.7906
  0
VERTEX
  8
0
 10
32.0494
 20
77.8303
  0
VERTEX
  8
0
 10
32.0473
 20
77.8721
  0
VERTEX
  8
0
 10
32.0507
 20
77.9247
  0
VERTEX
  8
0
 10
32.0608
 20
77.974
  0
VERTEX
  8
0
 10
32.0775
 20
78.02
  0
VERTEX
  8
0
 10
32.101
 20
78.0628
  0
VERTEX
  8
0
 10
32.1312
 20
78.1022
  0
VERTEX
  8
0
 10
32.1681
 20
78.1384
  0
VERTEX
  8
0
 10
32.216
 20
78.1736
  0
VERTEX
  8
0
 10
32.268
 20
78.2011
  0
VERTEX
  8
0
 10
32.3241
 20
78.2208
  0
VERTEX
  8
0
 10
32.3842
 20
78.2328
  0
VERTEX
  8
0
 10
32.4483
 20
78.237
  0
VERTEX
  8
0
 10
32.5571
 20
78.2256
  0
VERTEX
  8
0
 10
32.6586
 20
78.1898
  0
VERTEX
  8
0
 10
32.7225
 20
78.152
  0
VERTEX
  8
0
 10
32.7756
 20
78.1051
  0
VERTEX
  8
0
 10
32.8181
 20
78.049
  0
VERTEX
  8
0
 10
32.858
 20
77.9558
  0
VERTEX
  8
0
 10
32.8713
 20
77.8501
  0
VERTEX
  8
0
 10
32.8709
 20
77.8266
  0
VERTEX
  8
0
 10
32.8695
 20
77.8038
  0
VERTEX
  8
0
 10
32.8672
 20
77.7816
  0
VERTEX
  8
0
 10
32.8639
 20
77.7602
  0
VERTEX
  8
0
 10
32.8598
 20
77.7393
  0
VERTEX
  8
0
 10
32.8547
 20
77.7192
  0
VERTEX
  8
0
 10
32.8486
 20
77.6997
  0
VERTEX
  8
0
 10
32.8417
 20
77.6808
  0
VERTEX
  8
0
 10
32.8338
 20
77.6626
  0
VERTEX
  8
0
 10
32.825
 20
77.6451
  0
VERTEX
  8
0
 10
32.8153
 20
77.6283
  0
VERTEX
  8
0
 10
32.8046
 20
77.612
  0
VERTEX
  8
0
 10
32.7931
 20
77.5965
  0
VERTEX
  8
0
 10
32.7805
 20
77.5816
  0
VERTEX
  8
0
 10
32.7671
 20
77.5674
  0
VERTEX
  8
0
 10
32.7528
 20
77.5538
  0
VERTEX
  8
0
 10
32.7375
 20
77.5409
  0
VERTEX
  8
0
 10
32.7213
 20
77.5287
  0
VERTEX
  8
0
 10
32.7041
 20
77.5171
  0
VERTEX
  8
0
 10
32.6861
 20
77.5061
  0
VERTEX
  8
0
 10
32.6671
 20
77.4959
  0
VERTEX
  8
0
 10
32.6471
 20
77.4863
  0
VERTEX
  8
0
 10
32.6263
 20
77.4773
  0
VERTEX
  8
0
 10
32.6045
 20
77.469
  0
VERTEX
  8
0
 10
32.5818
 20
77.4614
  0
VERTEX
  8
0
 10
32.5582
 20
77.4544
  0
VERTEX
  8
0
 10
32.5337
 20
77.4481
  0
VERTEX
  8
0
 10
32.5082
 20
77.4425
  0
VERTEX
  8
0
 10
32.4818
 20
77.4375
  0
VERTEX
  8
0
 10
32.4544
 20
77.4331
  0
VERTEX
  8
0
 10
32.4262
 20
77.4295
  0
VERTEX
  8
0
 10
32.397
 20
77.4264
  0
VERTEX
  8
0
 10
32.3669
 20
77.4241
  0
VERTEX
  8
0
 10
32.3359
 20
77.4224
  0
VERTEX
  8
0
 10
32.3039
 20
77.4214
  0
VERTEX
  8
0
 10
32.271
 20
77.421
  0
VERTEX
  8
0
 10
32.2074
 20
77.4221
  0
VERTEX
  8
0
 10
32.147
 20
77.4254
  0
VERTEX
  8
0
 10
32.0898
 20
77.4308
  0
VERTEX
  8
0
 10
32.0359
 20
77.4385
  0
VERTEX
  8
0
 10
31.9853
 20
77.4484
  0
VERTEX
  8
0
 10
31.9378
 20
77.4604
  0
VERTEX
  8
0
 10
31.8936
 20
77.4747
  0
VERTEX
  8
0
 10
31.8527
 20
77.4911
  0
VERTEX
  8
0
 10
31.8149
 20
77.5097
  0
VERTEX
  8
0
 10
31.7805
 20
77.5305
  0
VERTEX
  8
0
 10
31.7492
 20
77.5536
  0
VERTEX
  8
0
 10
31.716
 20
77.5841
  0
VERTEX
  8
0
 10
31.6871
 20
77.6179
  0
VERTEX
  8
0
 10
31.6628
 20
77.6549
  0
VERTEX
  8
0
 10
31.6428
 20
77.6951
  0
VERTEX
  8
0
 10
31.6273
 20
77.7387
  0
VERTEX
  8
0
 10
31.6162
 20
77.7854
  0
VERTEX
  8
0
 10
31.6096
 20
77.8354
  0
VERTEX
  8
0
 10
31.6073
 20
77.8887
  0
VERTEX
  8
0
 10
31.6117
 20
77.9566
  0
VERTEX
  8
0
 10
31.6247
 20
78.0195
  0
VERTEX
  8
0
 10
31.6465
 20
78.0774
  0
VERTEX
  8
0
 10
31.6769
 20
78.1301
  0
VERTEX
  8
0
 10
31.7096
 20
78.1705
  0
VERTEX
  8
0
 10
31.7458
 20
78.2033
  0
VERTEX
  8
0
 10
31.7857
 20
78.2285
  0
VERTEX
  8
0
 10
31.8292
 20
78.246
  0
VERTEX
  8
0
 10
31.8762
 20
78.2559
  0
VERTEX
  8
0
 10
31.8762
 20
78.2559
  0
SEQEND
  0
POLYLINE
  8
0
 66
     1
 10
0
 20
0
  0
VERTEX
  8
0
 10
32.4506
 20
77.597
  0
VERTEX
  8
0
 10
32.526
 20
77.6043
  0
VERTEX
  8
0
 10
32.5973
 20
77.6281
  0
VERTEX
  8
0
 10
32.6626
 20
77.6685
  0
VERTEX
  8
0
 10
32.7102
 20
77.7228
  0
VERTEX
  8
0
 10
32.7376
 20
77.783
  0
VERTEX
  8
0
 10
32.7473
 20
77.8478
  0
VERTEX
  8
0
 10
32.744
 20
77.8903
  0
VERTEX
  8
0
 10
32.7332
 20
77.929
  0
VERTEX
  8
0
 10
32.7149
 20
77.9641
  0
VERTEX
  8
0
 10
32.6893
 20
77.9954
  0
VERTEX
  8
0
 10
32.6563
 20
78.0231
  0
VERTEX
  8
0
 10
32.598
 20
78.0549
  0
VERTEX
  8
0
 10
32.5323
 20
78.0742
  0
VERTEX
  8
0
 10
32.459
 20
78.081
  0
VERTEX
  8
0
 10
32.3858
 20
78.0747
  0
VERTEX
  8
0
 10
32.3215
 20
78.0545
  0
VERTEX
  8
0
 10
32.266
 20
78.0206
  0
VERTEX
  8
0
 10
32.2301
 20
77.9849
  0
VERTEX
  8
0
 10
32.2044
 20
77.9432
  0
VERTEX
  8
0
 10
32.1888
 20
77.8956
  0
VERTEX
  8
0
 10
32.1833
 20
77.8419
  0
VERTEX
  8
0
 10
32.188
 20
77.7896
  0
VERTEX
  8
0
 10
32.2027
 20
77.7423
  0
VERTEX
  8
0
 10
32.2276
 20
77.7002
  0
VERTEX
  8
0
 10
32.2626
 20
77.6632
  0
VERTEX
  8
0
 10
32.3172
 20
77.6268
  0
VERTEX
  8
0
 10
32.3799
 20
77.6047
  0
VERTEX
  8
0
 10
32.4506
 20
77.597
  0
VERTEX
  8
0
 10
32.4506
 20
77.597
  0
SEQEND
  0
LINE
  8
0
 10
32.25
 20
78.554
 11
32.25
 21
82
  0
LINE
  8
0
 10
32.5183
 20
81.4633
 11
32.25
 21
82
  0
LINE
  8
0
 10
31.9817
 20
81.4633
 11
32.25
 21
82
  0
LINE
  8
0
 10
32.55
 20
82
 11
30.75
 21
82
  0
LINE
  8
0
 10
32.25
 20
73.8828
 11
32.25
 21
70.4367
  0
LINE
  8
0
 10
31.9817
 20
70.9734
 11
32.25
 21
70.4367
  0
LINE
  8
0
 10
32.5183
 20
70.9734
 11
32.25
 21
70.4367
  0
LINE
  8
0
 10
32.55
 20
70.4367
 11
30.75
 21
70.4367
  0
POLYLINE
  8
0
 66
     1
 10
0
 20
0
  0
VERTEX
  8
0
 10
31.8762
 20
66.2239
  0
VERTEX
  8
0
 10
31.8881
 20
66.0728
  0
VERTEX
  8
0
 10
31.8301
 20
66.0513
  0
VERTEX
  8
0
 10
31.7845
 20
66.0121
  0
VERTEX
  8
0
 10
31.7553
 20
65.9656
  0
VERTEX
  8
0
 10
31.7376
 20
65.9107
  0
VERTEX
  8
0
 10
31.7313
 20
65.8474
  0
VERTEX
  8
0
 10
31.7411
 20
65.7624
  0
VERTEX
  8
0
 10
31.772
 20
65.6963
  0
VERTEX
  8
0
 10
31.7904
 20
65.6738
  0
VERTEX
  8
0
 10
31.8114
 20
65.653
  0
VERTEX
  8
0
 10
31.835
 20
65.634
  0
VERTEX
  8
0
 10
31.8611
 20
65.6168
  0
VERTEX
  8
0
 10
31.8899
 20
65.6013
  0
VERTEX
  8
0
 10
31.9212
 20
65.5875
  0
VERTEX
  8
0
 10
31.9551
 20
65.5755
  0
VERTEX
  8
0
 10
31.9917
 20
65.5652
  0
VERTEX
  8
0
 10
32.0308
 20
65.5567
  0
VERTEX
  8
0
 10
32.0725
 20
65.5499
  0
VERTEX
  8
0
 10
32.1167
 20
65.5449
  0
VERTEX
  8
0
 10
32.1636
 20
65.5416
  0
VERTEX
  8
0
 10
32.2131
 20
65.5401
  0
VERTEX
  8
0
 10
32.1783
 20
65.565
  0
VERTEX
  8
0
 10
32.1476
 20
65.5919
  0
VERTEX
  8
0
 10
32.121
 20
65.621
  0
VERTEX
  8
0
 10
32.0985
 20
65.6522
  0
VERTEX
  8
0
 10
32.0801
 20
65.6855
  0
VERTEX
  8
0
 10
32.0658
 20
65.721
  0
VERTEX
  8
0
 10
32.0555
 20
65.7586
  0
VERTEX
  8
0
 10
32.0494
 20
65.7983
  0
VERTEX
  8
0
 10
32.0473
 20
65.8401
  0
VERTEX
  8
0
 10
32.0507
 20
65.8927
  0
VERTEX
  8
0
 10
32.0608
 20
65.942
  0
VERTEX
  8
0
 10
32.0775
 20
65.988
  0
VERTEX
  8
0
 10
32.101
 20
66.0308
  0
VERTEX
  8
0
 10
32.1312
 20
66.0702
  0
VERTEX
  8
0
 10
32.1681
 20
66.1064
  0
VERTEX
  8
0
 10
32.216
 20
66.1416
  0
VERTEX
  8
0
 10
32.268
 20
66.1691
  0
VERTEX
  8
0
 10
32.3241
 20
66.1888
  0
VERTEX
  8
0
 10
32.3842
 20
66.2008
  0
VERTEX
  8
0
 10
32.4483
 20
66.205
  0
VERTEX
  8
0
 10
32.5571
 20
66.1936
  0
VERTEX
  8
0
 10
32.6586
 20
66.1578
  0
VERTEX
  8
0
 10
32.7225
 20
66.12
  0
VERTEX
  8
0
 10
32.7756
 20
66.0731
  0
VERTEX
  8
0
 10
32.8181
 20
66.017
  0
VERTEX
  8
0
 10
32.858
 20
65.9238
  0
VERTEX
  8
0
 10
32.8713
 20
65.8181
  0
VERTEX
  8
0
 10
32.8709
 20
65.7946
  0
VERTEX
  8
0
 10
32.8695
 20
65.7718
  0
VERTEX
  8
0
 10
32.8672
 20
65.7496
  0
VERTEX
  8
0
 10
32.8639
 20
65.7282
  0
VERTEX
  8
0
 10
32.8598
 20
65.7073
  0
VERTEX
  8
0
 10
32.8547
 20
65.6872
  0
VERTEX
  8
0
 10
32.8486
 20
65.6677
  0
VERTEX
  8
0
 10
32.8417
 20
65.6488
  0
VERTEX
  8
0
 10
32.8338
 20
65.6306
  0
VERTEX
  8
0
 10
32.825
 20
65.6131
  0
VERTEX
  8
0
 10
32.8153
 20
65.5963
  0
VERTEX
  8
0
 10
32.8046
 20
65.58
  0
VERTEX
  8
0
 10
32.7931
 20
65.5645
  0
VERTEX
  8
0
 10
32.7805
 20
65.5496
  0
VERTEX
  8
0
 10
32.7671
 20
65.5354
  0
VERTEX
  8
0
 10
32.7528
 20
65.5218
  0
VERTEX
  8
0
 10
32.7375
 20
65.5089
  0
VERTEX
  8
0
 10
32.7213
 20
65.4967
  0
VERTEX
  8
0
 10
32.7041
 20
65.4851
  0
VERTEX
  8
0
 10
32.6861
 20
65.4741
  0
VERTEX
  8
0
 10
32.6671
 20
65.4639
  0
VERTEX
  8
0
 10
32.6471
 20
65.4543
  0
VERTEX
  8
0
 10
32.6263
 20
65.4453
  0
VERTEX
  8
0
 10
32.6045
 20
65.437
  0
VERTEX
  8
0
 10
32.5818
 20
65.4294
  0
VERTEX
  8
0
 10
32.5582
 20
65.4224
  0
VERTEX
  8
0
 10
32.5337
 20
65.4161
  0
VERTEX
  8
0
 10
32.5082
 20
65.4105
  0
VERTEX
  8
0
 10
32.4818
 20
65.4055
  0
VERTEX
  8
0
 10
32.4544
 20
65.4011
  0
VERTEX
  8
0
 10
32.4262
 20
65.3975
  0
VERTEX
  8
0
 10
32.397
 20
65.3944
  0
VERTEX
  8
0
 10
32.3669
 20
65.3921
  0
VERTEX
  8
0
 10
32.3359
 20
65.3904
  0
VERTEX
  8
0
 10
32.3039
 20
65.3894
  0
VERTEX
  8
0
 10
32.271
 20
65.389
  0
VERTEX
  8
0
 10
32.2074
 20
65.3901
  0
VERTEX
  8
0
 10
32.147
 20
65.3934
  0
VERTEX
  8
0
 10
32.0898
 20
65.3988
  0
VERTEX
  8
0
 10
32.0359
 20
65.4065
  0
VERTEX
  8
0
 10
31.9853
 20
65.4164
  0
VERTEX
  8
0
 10
31.9378
 20
65.4284
  0
VERTEX
  8
0
 10
31.8936
 20
65.4427
  0
VERTEX
  8
0
 10
31.8527
 20
65.4591
  0
VERTEX
  8
0
 10
31.8149
 20
65.4777
  0
VERTEX
  8
0
 10
31.7805
 20
65.4985
  0
VERTEX
  8
0
 10
31.7492
 20
65.5216
  0
VERTEX
  8
0
 10
31.716
 20
65.5521
  0
VERTEX
  8
0
 10
31.6871
 20
65.5859
  0
VERTEX
  8
0
 10
31.6628
 20
65.6229
  0
VERTEX
  8
0
 10
31.6428
 20
65.6631
  0
VERTEX
  8
0
 10
31.6273
 20
65.7067
  0
VERTEX
  8
0
 10
31.6162
 20
65.7534
  0
VERTEX
  8
0
 10
31.6096
 20
65.8034
  0
VERTEX
  8
0
 10
31.6073
 20
65.8567
  0
VERTEX
  8
0
 10
31.6117
 20
65.9246
  0
VERTEX
  8
0
 10
31.6247
 20
65.9875
  0
VERTEX
  8
0
 10
31.6465
 20
66.0454
  0
VERTEX
  8
0
 10
31.6769
 20
66.0981
  0
VERTEX
  8
0
 10
31.7096
 20
66.1385
  0
VERTEX
  8
0
 10
31.7458
 20
66.1713
  0
VERTEX
  8
0
 10
31.7857
 20
66.1965
  0
VERTEX
  8
0
 10
31.8292
 20
66.214
  0
VERTEX
  8
0
 10
31.8762
 20
66.2239
  0
VERTEX
  8
0
 10
31.8762
 20
66.2239
  0
SEQEND
  0
POLYLINE
  8
0
 66
     1
 10
0
 20
0
  0
VERTEX
  8
0
 10
32.4506
 20
65.565
  0
VERTEX
  8
0
 10
32.526
 20
65.5723
  0
VERTEX
  8
0
 10
32.5973
 20
65.5961
  0
VERTEX
  8
0
 10
32.6626
 20
65.6365
  0
VERTEX
  8
0
 10
32.7102
 20
65.6908
  0
VERTEX
  8
0
 10
32.7376
 20
65.751
  0
VERTEX
  8
0
 10
32.7473
 20
65.8158
  0
VERTEX
  8
0
 10
32.744
 20
65.8583
  0
VERTEX
  8
0
 10
32.7332
 20
65.897
  0
VERTEX
  8
0
 10
32.7149
 20
65.9321
  0
VERTEX
  8
0
 10
32.6893
 20
65.9634
  0
VERTEX
  8
0
 10
32.6563
 20
65.9911
  0
VERTEX
  8
0
 10
32.598
 20
66.0229
  0
VERTEX
  8
0
 10
32.5323
 20
66.0422
  0
VERTEX
  8
0
 10
32.459
 20
66.049
  0
VERTEX
  8
0
 10
32.3858
 20
66.0427
  0
VERTEX
  8
0
 10
32.3215
 20
66.0225
  0
VERTEX
  8
0
 10
32.266
 20
65.9886
  0
VERTEX
  8
0
 10
32.2301
 20
65.9529
  0
VERTEX
  8
0
 10
32.2044
 20
65.9112
  0
VERTEX
  8
0
 10
32.1888
 20
65.8636
  0
VERTEX
  8
0
 10
32.1833
 20
65.8099
  0
VERTEX
  8
0
 10
32.188
 20
65.7576
  0
VERTEX
  8
0
 10
32.2027
 20
65.7103
  0
VERTEX
  8
0
 10
32.2276
 20
65.6682
  0
VERTEX
  8
0
 10
32.2626
 20
65.6312
  0
VERTEX
  8
0
 10
32.3172
 20
65.5948
  0
VERTEX
  8
0
 10
32.3799
 20
65.5727
  0
VERTEX
  8
0
 10
32.4506
 20
65.565
  0
VERTEX
  8
0
 10
32.4506
 20
65.565
  0
SEQEND
  0
POLYLINE
  8
0
 66
     1
 10
0
 20
0
  0
VERTEX
  8
0
 10
32.8553
 20
66.445
  0
VERTEX
  8
0
 10
32.6793
 20
66.445
  0
VERTEX
  8
0
 10
32.6793
 20
66.617
  0
VERTEX
  8
0
 10
32.8553
 20
66.617
  0
VERTEX
  8
0
 10
32.8553
 20
66.445
  0
SEQEND
  0
POLYLINE
  8
0
 66
     1
 10
0
 20
0
  0
VERTEX
  8
0
 10
32.179
 20
67.0766
  0
VERTEX
  8
0
 10
32.1657
 20
67.044
  0
VERTEX
  8
0
 10
32.1505
 20
67.0145
  0
VERTEX
  8
0
 10
32.1334
 20
66.9882
  0
VERTEX
  8
0
 10
32.1143
 20
66.9649
  0
VERTEX
  8
0
 10
32.0933
 20
66.9448
  0
VERTEX
  8
0
 10
32.0704
 20
66.9277
  0
VERTEX
  8
0
 10
32.0455
 20
66.9138
  0
VERTEX
  8
0
 10
32.0186
 20
66.9029
  0
VERTEX
  8
0
 10
31.9899
 20
66.8952
  0
VERTEX
  8
0
 10
31.9592
 20
66.8905
  0
VERTEX
  8
0
 10
31.9265
 20
66.889
  0
VERTEX
  8
0
 10
31.8792
 20
66.8919
  0
VERTEX
  8
0
 10
31.835
 20
66.9008
  0
VERTEX
  8
0
 10
31.7941
 20
66.9156
  0
VERTEX
  8
0
 10
31.7565
 20
66.9363
  0
VERTEX
  8
0
 10
31.7221
 20
66.9629
  0
VERTEX
  8
0
 10
31.6909
 20
66.9955
  0
VERTEX
  8
0
 10
31.6547
 20
67.0482
  0
VERTEX
  8
0
 10
31.6287
 20
67.1073
  0
VERTEX
  8
0
 10
31.6129
 20
67.1729
  0
VERTEX
  8
0
 10
31.6073
 20
67.2449
  0
VERTEX
  8
0
 10
31.6127
 20
67.317
  0
VERTEX
  8
0
 10
31.6286
 20
67.3831
  0
VERTEX
  8
0
 10
31.6553
 20
67.443
  0
VERTEX
  8
0
 10
31.6926
 20
67.4968
  0
VERTEX
  8
0
 10
31.7245
 20
67.5299
  0
VERTEX
  8
0
 10
31.7596
 20
67.5569
  0
VERTEX
  8
0
 10
31.7977
 20
67.5779
  0
VERTEX
  8
0
 10
31.839
 20
67.593
  0
VERTEX
  8
0
 10
31.8833
 20
67.602
  0
VERTEX
  8
0
 10
31.9307
 20
67.605
  0
VERTEX
  8
0
 10
31.9653
 20
67.6032
  0
VERTEX
  8
0
 10
31.9977
 20
67.5977
  0
VERTEX
  8
0
 10
32.0279
 20
67.5887
  0
VERTEX
  8
0
 10
32.056
 20
67.576
  0
VERTEX
  8
0
 10
32.0819
 20
67.5596
  0
VERTEX
  8
0
 10
32.1056
 20
67.5397
  0
VERTEX
  8
0
 10
32.1272
 20
67.5161
  0
VERTEX
  8
0
 10
32.1466
 20
67.4889
  0
VERTEX
  8
0
 10
32.1639
 20
67.458
  0
VERTEX
  8
0
 10
32.179
 20
67.4236
  0
VERTEX
  8
0
 10
32.1905
 20
67.4556
  0
VERTEX
  8
0
 10
32.2038
 20
67.4853
  0
VERTEX
  8
0
 10
32.2188
 20
67.5126
  0
VERTEX
  8
0
 10
32.2355
 20
67.5375
  0
VERTEX
  8
0
 10
32.254
 20
67.5601
  0
VERTEX
  8
0
 10
32.2741
 20
67.5803
  0
VERTEX
  8
0
 10
32.2959
 20
67.5982
  0
VERTEX
  8
0
 10
32.3194
 20
67.6137
  0
VERTEX
  8
0
 10
32.3447
 20
67.6268
  0
VERTEX
  8
0
 10
32.3716
 20
67.6376
  0
VERTEX
  8
0
 10
32.4003
 20
67.646
  0
VERTEX
  8
0
 10
32.4306
 20
67.652
  0
VERTEX
  8
0
 10
32.4627
 20
67.6557
  0
VERTEX
  8
0
 10
32.4965
 20
67.657
  0
VERTEX
  8
0
 10
32.5512
 20
67.6539
  0
VERTEX
  8
0
 10
32.6024
 20
67.6439
  0
VERTEX
  8
0
 10
32.6499
 20
67.6272
  0
VERTEX
  8
0
 10
32.6938
 20
67.6037
  0
VERTEX
  8
0
 10
32.7341
 20
67.5733
  0
VERTEX
  8
0
 10
32.7708
 20
67.5362
  0
VERTEX
  8
0
 10
32.807
 20
67.4879
  0
VERTEX
  8
0
 10
32.8352
 20
67.4351
  0
VERTEX
  8
0
 10
32.8553
 20
67.3776
  0
VERTEX
  8
0
 10
32.8673
 20
67.3156
  0
VERTEX
  8
0
 10
32.8713
 20
67.249
  0
VERTEX
  8
0
 10
32.8673
 20
67.1812
  0
VERTEX
  8
0
 10
32.8551
 20
67.1184
  0
VERTEX
  8
0
 10
32.8349
 20
67.0607
  0
VERTEX
  8
0
 10
32.8065
 20
67.0079
  0
VERTEX
  8
0
 10
32.77
 20
66.9601
  0
VERTEX
  8
0
 10
32.733
 20
66.924
  0
VERTEX
  8
0
 10
32.6922
 20
66.8943
  0
VERTEX
  8
0
 10
32.6478
 20
66.8712
  0
VERTEX
  8
0
 10
32.5996
 20
66.8546
  0
VERTEX
  8
0
 10
32.5478
 20
66.8445
  0
VERTEX
  8
0
 10
32.4922
 20
66.841
  0
VERTEX
  8
0
 10
32.4597
 20
66.8419
  0
VERTEX
  8
0
 10
32.4289
 20
66.845
  0
VERTEX
  8
0
 10
32.3997
 20
66.8502
  0
VERTEX
  8
0
 10
32.3722
 20
66.8574
  0
VERTEX
  8
0
 10
32.3463
 20
66.8668
  0
VERTEX
  8
0
 10
32.3221
 20
66.8783
  0
VERTEX
  8
0
 10
32.2996
 20
66.8919
  0
VERTEX
  8
0
 10
32.2787
 20
66.9076
  0
VERTEX
  8
0
 10
32.2595
 20
66.9254
  0
VERTEX
  8
0
 10
32.2419
 20
66.9453
  0
VERTEX
  8
0
 10
32.226
 20
66.9674
  0
VERTEX
  8
0
 10
32.2117
 20
66.9915
  0
VERTEX
  8
0
 10
32.1992
 20
67.0177
  0
VERTEX
  8
0
 10
32.1882
 20
67.0461
  0
VERTEX
  8
0
 10
32.179
 20
67.0766
  0
VERTEX
  8
0
 10
32.179
 20
67.0766
  0
SEQEND
  0
POLYLINE
  8
0
 66
     1
 10
0
 20
0
  0
VERTEX
  8
0
 10
31.9222
 20
67.045
  0
VERTEX
  8
0
 10
31.9769
 20
67.0508
  0
VERTEX
  8
0
 10
32.0249
 20
67.0694
  0
VERTEX
  8
0
 10
32.0662
 20
67.1008
  0
VERTEX
  8
0
 10
32.098
 20
67.1424
  0
VERTEX
  8
0
 10
32.117
 20
67.1917
  0
VERTEX
  8
0
 10
32.1233
 20
67.2487
  0
VERTEX
  8
0
 10
32.1174
 20
67.3024
  0
VERTEX
  8
0
 10
32.0995
 20
67.3499
  0
VERTEX
  8
0
 10
32.0696
 20
67.3911
  0
VERTEX
  8
0
 10
32.0304
 20
67.4229
  0
VERTEX
  8
0
 10
31.9841
 20
67.4422
  0
VERTEX
  8
0
 10
31.9308
 20
67.449
  0
VERTEX
  8
0
 10
31.8784
 20
67.443
  0
VERTEX
  8
0
 10
31.8315
 20
67.4238
  0
VERTEX
  8
0
 10
31.7901
 20
67.3915
  0
VERTEX
  8
0
 10
31.7579
 20
67.3495
  0
VERTEX
  8
0
 10
31.7383
 20
67.3014
  0
VERTEX
  8
0
 10
31.7313
 20
67.247
  0
VERTEX
  8
0
 10
31.7376
 20
67.1919
  0
VERTEX
  8
0
 10
31.7574
 20
67.1425
  0
VERTEX
  8
0
 10
31.791
 20
67.0991
  0
VERTEX
  8
0
 10
31.8511
 20
67.0589
  0
VERTEX
  8
0
 10
31.9222
 20
67.045
  0
VERTEX
  8
0
 10
31.9222
 20
67.045
  0
SEQEND
  0
POLYLINE
  8
0
 66
     1
 10
0
 20
0
  0
VERTEX
  8
0
 10
32.4948
 20
66.997
  0
VERTEX
  8
0
 10
32.5366
 20
66.9993
  0
VERTEX
  8
0
 10
32.5749
 20
67.0067
  0
VERTEX
  8
0
 10
32.6098
 20
67.0191
  0
VERTEX
  8
0
 10
32.6412
 20
67.0366
  0
VERTEX
  8
0
 10
32.6691
 20
67.0591
  0
VERTEX
  8
0
 10
32.6935
 20
67.0867
  0
VERTEX
  8
0
 10
32.7145
 20
67.1194
  0
VERTEX
  8
0
 10
32.7391
 20
67.1821
  0
VERTEX
  8
0
 10
32.7473
 20
67.2502
  0
VERTEX
  8
0
 10
32.7396
 20
67.3186
  0
VERTEX
  8
0
 10
32.7165
 20
67.3786
  0
VERTEX
  8
0
 10
32.6779
 20
67.4301
  0
VERTEX
  8
0
 10
32.6407
 20
67.4611
  0
VERTEX
  8
0
 10
32.5987
 20
67.4833
  0
VERTEX
  8
0
 10
32.5517
 20
67.4966
  0
VERTEX
  8
0
 10
32.4998
 20
67.501
  0
VERTEX
  8
0
 10
32.4475
 20
67.4965
  0
VERTEX
  8
0
 10
32.4
 20
67.4828
  0
VERTEX
  8
0
 10
32.3573
 20
67.4602
  0
VERTEX
  8
0
 10
32.3193
 20
67.4284
  0
VERTEX
  8
0
 10
32.2797
 20
67.3758
  0
VERTEX
  8
0
 10
32.2557
 20
67.3147
  0
VERTEX
  8
0
 10
32.2473
 20
67.2452
  0
VERTEX
  8
0
 10
32.2513
 20
67.1935
  0
VERTEX
  8
0
 10
32.2643
 20
67.1467
  0
VERTEX
  8
0
 10
32.2861
 20
67.1047
  0
VERTEX
  8
0
 10
32.3168
 20
67.0675
  0
VERTEX
  8
0
 10
32.3678
 20
67.0287
  0
VERTEX
  8
0
 10
32.4272
 20
67.0052
  0
VERTEX
  8
0
 10
32.4948
 20
66.997
  0
VERTEX
  8
0
 10
32.4948
 20
66.997
  0
SEQEND
  0
POLYLINE
  8
0
 66
     1
 10
0
 20
0
  0
VERTEX
  8
0
 10
32.179
 20
68.0366
  0
VERTEX
  8
0
 10
32.1657
 20
68.004
  0
VERTEX
  8
0
 10
32.1505
 20
67.9745
  0
VERTEX
  8
0
 10
32.1334
 20
67.9482
  0
VERTEX
  8
0
 10
32.1143
 20
67.9249
  0
VERTEX
  8
0
 10
32.0933
 20
67.9048
  0
VERTEX
  8
0
 10
32.0704
 20
67.8877
  0
VERTEX
  8
0
 10
32.0455
 20
67.8738
  0
VERTEX
  8
0
 10
32.0186
 20
67.8629
  0
VERTEX
  8
0
 10
31.9899
 20
67.8552
  0
VERTEX
  8
0
 10
31.9592
 20
67.8505
  0
VERTEX
  8
0
 10
31.9265
 20
67.849
  0
VERTEX
  8
0
 10
31.8792
 20
67.8519
  0
VERTEX
  8
0
 10
31.835
 20
67.8608
  0
VERTEX
  8
0
 10
31.7941
 20
67.8756
  0
VERTEX
  8
0
 10
31.7565
 20
67.8963
  0
VERTEX
  8
0
 10
31.7221
 20
67.9229
  0
VERTEX
  8
0
 10
31.6909
 20
67.9555
  0
VERTEX
  8
0
 10
31.6547
 20
68.0082
  0
VERTEX
  8
0
 10
31.6287
 20
68.0673
  0
VERTEX
  8
0
 10
31.6129
 20
68.1329
  0
VERTEX
  8
0
 10
31.6073
 20
68.2049
  0
VERTEX
  8
0
 10
31.6127
 20
68.277
  0
VERTEX
  8
0
 10
31.6286
 20
68.3431
  0
VERTEX
  8
0
 10
31.6553
 20
68.403
  0
VERTEX
  8
0
 10
31.6926
 20
68.4568
  0
VERTEX
  8
0
 10
31.7245
 20
68.4899
  0
VERTEX
  8
0
 10
31.7596
 20
68.5169
  0
VERTEX
  8
0
 10
31.7977
 20
68.5379
  0
VERTEX
  8
0
 10
31.839
 20
68.553
  0
VERTEX
  8
0
 10
31.8833
 20
68.562
  0
VERTEX
  8
0
 10
31.9307
 20
68.565
  0
VERTEX
  8
0
 10
31.9653
 20
68.5632
  0
VERTEX
  8
0
 10
31.9977
 20
68.5577
  0
VERTEX
  8
0
 10
32.0279
 20
68.5487
  0
VERTEX
  8
0
 10
32.056
 20
68.536
  0
VERTEX
  8
0
 10
32.0819
 20
68.5196
  0
VERTEX
  8
0
 10
32.1056
 20
68.4997
  0
VERTEX
  8
0
 10
32.1272
 20
68.4761
  0
VERTEX
  8
0
 10
32.1466
 20
68.4489
  0
VERTEX
  8
0
 10
32.1639
 20
68.418
  0
VERTEX
  8
0
 10
32.179
 20
68.3836
  0
VERTEX
  8
0
 10
32.1905
 20
68.4156
  0
VERTEX
  8
0
 10
32.2038
 20
68.4453
  0
VERTEX
  8
0
 10
32.2188
 20
68.4726
  0
VERTEX
  8
0
 10
32.2355
 20
68.4975
  0
VERTEX
  8
0
 10
32.254
 20
68.5201
  0
VERTEX
  8
0
 10
32.2741
 20
68.5403
  0
VERTEX
  8
0
 10
32.2959
 20
68.5582
  0
VERTEX
  8
0
 10
32.3194
 20
68.5737
  0
VERTEX
  8
0
 10
32.3447
 20
68.5868
  0
VERTEX
  8
0
 10
32.3716
 20
68.5976
  0
VERTEX
  8
0
 10
32.4003
 20
68.606
  0
VERTEX
  8
0
 10
32.4306
 20
68.612
  0
VERTEX
  8
0
 10
32.4627
 20
68.6157
  0
VERTEX
  8
0
 10
32.4965
 20
68.617
  0
VERTEX
  8
0
 10
32.5512
 20
68.6139
  0
VERTEX
  8
0
 10
32.6024
 20
68.6039
  0
VERTEX
  8
0
 10
32.6499
 20
68.5872
  0
VERTEX
  8
0
 10
32.6938
 20
68.5637
  0
VERTEX
  8
0
 10
32.7341
 20
68.5333
  0
VERTEX
  8
0
 10
32.7708
 20
68.4962
  0
VERTEX
  8
0
 10
32.807
 20
68.4479
  0
VERTEX
  8
0
 10
32.8352
 20
68.3951
  0
VERTEX
  8
0
 10
32.8553
 20
68.3376
  0
VERTEX
  8
0
 10
32.8673
 20
68.2756
  0
VERTEX
  8
0
 10
32.8713
 20
68.209
  0
VERTEX
  8
0
 10
32.8673
 20
68.1412
  0
VERTEX
  8
0
 10
32.8551
 20
68.0784
  0
VERTEX
  8
0
 10
32.8349
 20
68.0207
  0
VERTEX
  8
0
 10
32.8065
 20
67.9679
  0
VERTEX
  8
0
 10
32.77
 20
67.9201
  0
VERTEX
  8
0
 10
32.733
 20
67.884
  0
VERTEX
  8
0
 10
32.6922
 20
67.8543
  0
VERTEX
  8
0
 10
32.6478
 20
67.8312
  0
VERTEX
  8
0
 10
32.5996
 20
67.8146
  0
VERTEX
  8
0
 10
32.5478
 20
67.8045
  0
VERTEX
  8
0
 10
32.4922
 20
67.801
  0
VERTEX
  8
0
 10
32.4597
 20
67.8019
  0
VERTEX
  8
0
 10
32.4289
 20
67.805
  0
VERTEX
  8
0
 10
32.3997
 20
67.8102
  0
VERTEX
  8
0
 10
32.3722
 20
67.8174
  0
VERTEX
  8
0
 10
32.3463
 20
67.8268
  0
VERTEX
  8
0
 10
32.3221
 20
67.8383
  0
VERTEX
  8
0
 10
32.2996
 20
67.8519
  0
VERTEX
  8
0
 10
32.2787
 20
67.8676
  0
VERTEX
  8
0
 10
32.2595
 20
67.8854
  0
VERTEX
  8
0
 10
32.2419
 20
67.9053
  0
VERTEX
  8
0
 10
32.226
 20
67.9274
  0
VERTEX
  8
0
 10
32.2117
 20
67.9515
  0
VERTEX
  8
0
 10
32.1992
 20
67.9777
  0
VERTEX
  8
0
 10
32.1882
 20
68.0061
  0
VERTEX
  8
0
 10
32.179
 20
68.0366
  0
VERTEX
  8
0
 10
32.179
 20
68.0366
  0
SEQEND
  0
POLYLINE
  8
0
 66
     1
 10
0
 20
0
  0
VERTEX
  8
0
 10
31.9222
 20
68.005
  0
VERTEX
  8
0
 10
31.9769
 20
68.0108
  0
VERTEX
  8
0
 10
32.0249
 20
68.0294
  0
VERTEX
  8
0
 10
32.0662
 20
68.0608
  0
VERTEX
  8
0
 10
32.098
 20
68.1024
  0
VERTEX
  8
0
 10
32.117
 20
68.1517
  0
VERTEX
  8
0
 10
32.1233
 20
68.2087
  0
VERTEX
  8
0
 10
32.1174
 20
68.2624
  0
VERTEX
  8
0
 10
32.0995
 20
68.3099
  0
VERTEX
  8
0
 10
32.0696
 20
68.3511
  0
VERTEX
  8
0
 10
32.0304
 20
68.3829
  0
VERTEX
  8
0
 10
31.9841
 20
68.4022
  0
VERTEX
  8
0
 10
31.9308
 20
68.409
  0
VERTEX
  8
0
 10
31.8784
 20
68.403
  0
VERTEX
  8
0
 10
31.8315
 20
68.3838
  0
VERTEX
  8
0
 10
31.7901
 20
68.3515
  0
VERTEX
  8
0
 10
31.7579
 20
68.3095
  0
VERTEX
  8
0
 10
31.7383
 20
68.2614
  0
VERTEX
  8
0
 10
31.7313
 20
68.207
  0
VERTEX
  8
0
 10
31.7376
 20
68.1519
  0
VERTEX
  8
0
 10
31.7574
 20
68.1025
  0
VERTEX
  8
0
 10
31.791
 20
68.0591
  0
VERTEX
  8
0
 10
31.8511
 20
68.0189
  0
VERTEX
  8
0
 10
31.9222
 20
68.005
  0
VERTEX
  8
0
 10
31.9222
 20
68.005
  0
SEQEND
  0
POLYLINE
  8
0
 66
     1
 10
0
 20
0
  0
VERTEX
  8
0
 10
32.4948
 20
67.957
  0
VERTEX
  8
0
 10
32.5366
 20
67.9593
  0
VERTEX
  8
0
 10
32.5749
 20
67.9667
  0
VERTEX
  8
0
 10
32.6098
 20
67.9791
  0
VERTEX
  8
0
 10
32.6412
 20
67.9966
  0
VERTEX
  8
0
 10
32.6691
 20
68.0191
  0
VERTEX
  8
0
 10
32.6935
 20
68.0467
  0
VERTEX
  8
0
 10
32.7145
 20
68.0794
  0
VERTEX
  8
0
 10
32.7391
 20
68.1421
  0
VERTEX
  8
0
 10
32.7473
 20
68.2102
  0
VERTEX
  8
0
 10
32.7396
 20
68.2786
  0
VERTEX
  8
0
 10
32.7165
 20
68.3386
  0
VERTEX
  8
0
 10
32.6779
 20
68.3901
  0
VERTEX
  8
0
 10
32.6407
 20
68.4211
  0
VERTEX
  8
0
 10
32.5987
 20
68.4433
  0
VERTEX
  8
0
 10
32.5517
 20
68.4566
  0
VERTEX
  8
0
 10
32.4998
 20
68.461
  0
VERTEX
  8
0
 10
32.4475
 20
68.4565
  0
VERTEX
  8
0
 10
32.4
 20
68.4428
  0
VERTEX
  8
0
 10
32.3573
 20
68.4202
  0
VERTEX
  8
0
 10
32.3193
 20
68.3884
  0
VERTEX
  8
0
 10
32.2797
 20
68.3358
  0
VERTEX
  8
0
 10
32.2557
 20
68.2747
  0
VERTEX
  8
0
 10
32.2473
 20
68.2052
  0
VERTEX
  8
0
 10
32.2513
 20
68.1535
  0
VERTEX
  8
0
 10
32.2643
 20
68.1067
  0
VERTEX
  8
0
 10
32.2861
 20
68.0647
  0
VERTEX
  8
0
 10
32.3168
 20
68.0275
  0
VERTEX
  8
0
 10
32.3678
 20
67.9887
  0
VERTEX
  8
0
 10
32.4272
 20
67.9652
  0
VERTEX
  8
0
 10
32.4948
 20
67.957
  0
VERTEX
  8
0
 10
32.4948
 20
67.957
  0
SEQEND
  0
LINE
  8
0
 10
32.25
 20
68.9147
 11
32.25
 21
70.4367
  0
LINE
  8
0
 10
32.5183
 20
69.9
 11
32.25
 21
70.4367
  0
LINE
  8
0
 10
31.9817
 20
69.9
 11
32.25
 21
70.4367
  0
LINE
  8
0
 10
32.25
 20
65.0853
 11
32.25
 21
63.5633
  0
LINE
  8
0
 10
31.9817
 20
64.1
 11
32.25
 21
63.5633
  0
LINE
  8
0
 10
32.5183
 20
64.1
 11
32.25
 21
63.5633
  0
LINE
  8
0
 10
32.55
 20
63.5633
 11
30.75
 21
63.5633
  0
POLYLINE
  8
0
 66
     1
 10
0
 20
0
  0
VERTEX
  8
0
 10
0.9273
 20
47.797
  0
VERTEX
  8
0
 10
0.9273
 20
47.649
  0
VERTEX
  8
0
 10
0.1113
 20
47.649
  0
VERTEX
  8
0
 10
0.1137
 20
47.6927
  0
VERTEX
  8
0
 10
0.1229
 20
47.737
  0
VERTEX
  8
0
 10
0.139
 20
47.782
  0
VERTEX
  8
0
 10
0.162
 20
47.8276
  0
VERTEX
  8
0
 10
0.1919
 20
47.8739
  0
VERTEX
  8
0
 10
0.2286
 20
47.9209
  0
VERTEX
  8
0
 10
0.2819
 20
47.9788
  0
VERTEX
  8
0
 10
0.3483
 20
48.0417
  0
VERTEX
  8
0
 10
0.4278
 20
48.1095
  0
VERTEX
  8
0
 10
0.4848
 20
48.157
  0
VERTEX
  8
0
 10
0.5349
 20
48.2003
  0
VERTEX
  8
0
 10
0.5781
 20
48.2393
  0
VERTEX
  8
0
 10
0.6145
 20
48.2742
  0
VERTEX
  8
0
 10
0.6439
 20
48.3049
  0
VERTEX
  8
0
 10
0.6828
 20
48.3506
  0
VERTEX
  8
0
 10
0.7147
 20
48.3948
  0
VERTEX
  8
0
 10
0.7395
 20
48.4376
  0
VERTEX
  8
0
 10
0.7572
 20
48.4789
  0
VERTEX
  8
0
 10
0.7678
 20
48.5188
  0
VERTEX
  8
0
 10
0.7713
 20
48.5572
  0
VERTEX
  8
0
 10
0.7636
 20
48.6177
  0
VERTEX
  8
0
 10
0.7406
 20
48.6701
  0
VERTEX
  8
0
 10
0.7021
 20
48.7144
  0
VERTEX
  8
0
 10
0.6547
 20
48.7465
  0
VERTEX
  8
0
 10
0.6001
 20
48.7661
  0
VERTEX
  8
0
 10
0.5384
 20
48.773
  0
VERTEX
  8
0
 10
0.4849
 20
48.7691
  0
VERTEX
  8
0
 10
0.4376
 20
48.7565
  0
VERTEX
  8
0
 10
0.3963
 20
48.7353
  0
VERTEX
  8
0
 10
0.3612
 20
48.7055
  0
VERTEX
  8
0
 10
0.3254
 20
48.6546
  0
VERTEX
  8
0
 10
0.3038
 20
48.5934
  0
VERTEX
  8
0
 10
0.2962
 20
48.5217
  0
VERTEX
  8
0
 10
0.1401
 20
48.5378
  0
VERTEX
  8
0
 10
0.1477
 20
48.5937
  0
VERTEX
  8
0
 10
0.1602
 20
48.645
  0
VERTEX
  8
0
 10
0.1778
 20
48.6918
  0
VERTEX
  8
0
 10
0.2005
 20
48.734
  0
VERTEX
  8
0
 10
0.2281
 20
48.7716
  0
VERTEX
  8
0
 10
0.2607
 20
48.8046
  0
VERTEX
  8
0
 10
0.3057
 20
48.8379
  0
VERTEX
  8
0
 10
0.3563
 20
48.8637
  0
VERTEX
  8
0
 10
0.4125
 20
48.8822
  0
VERTEX
  8
0
 10
0.4743
 20
48.8933
  0
VERTEX
  8
0
 10
0.5417
 20
48.897
  0
VERTEX
  8
0
 10
0.6049
 20
48.8934
  0
VERTEX
  8
0
 10
0.6636
 20
48.8828
  0
VERTEX
  8
0
 10
0.7178
 20
48.865
  0
VERTEX
  8
0
 10
0.7674
 20
48.8401
  0
VERTEX
  8
0
 10
0.8126
 20
48.8081
  0
VERTEX
  8
0
 10
0.8476
 20
48.7746
  0
VERTEX
  8
0
 10
0.8763
 20
48.7375
  0
VERTEX
  8
0
 10
0.8986
 20
48.6967
  0
VERTEX
  8
0
 10
0.9146
 20
48.6523
  0
VERTEX
  8
0
 10
0.9241
 20
48.6042
  0
VERTEX
  8
0
 10
0.9273
 20
48.5524
  0
VERTEX
  8
0
 10
0.9237
 20
48.5029
  0
VERTEX
  8
0
 10
0.9127
 20
48.4534
  0
VERTEX
  8
0
 10
0.8944
 20
48.4037
  0
VERTEX
  8
0
 10
0.8688
 20
48.354
  0
VERTEX
  8
0
 10
0.8359
 20
48.3042
  0
VERTEX
  8
0
 10
0.7957
 20
48.2542
  0
VERTEX
  8
0
 10
0.7631
 20
48.2192
  0
VERTEX
  8
0
 10
0.7235
 20
48.1799
  0
VERTEX
  8
0
 10
0.6768
 20
48.1362
  0
VERTEX
  8
0
 10
0.6229
 20
48.0882
  0
VERTEX
  8
0
 10
0.562
 20
48.0358
  0
VERTEX
  8
0
 10
0.5218
 20
48.0018
  0
VERTEX
  8
0
 10
0.4887
 20
47.9737
  0
VERTEX
  8
0
 10
0.4629
 20
47.9516
  0
VERTEX
  8
0
 10
0.4443
 20
47.9353
  0
VERTEX
  8
0
 10
0.4329
 20
47.9249
  0
VERTEX
  8
0
 10
0.3698
 20
47.8599
  0
VERTEX
  8
0
 10
0.3224
 20
47.797
  0
VERTEX
  8
0
 10
0.9273
 20
47.797
  0
SEQEND
  0
POLYLINE
  8
0
 66
     1
 10
0
 20
0
  0
VERTEX
  8
0
 10
1.1753
 20
47.649
  0
VERTEX
  8
0
 10
1.1753
 20
47.825
  0
VERTEX
  8
0
 10
1.3473
 20
47.825
  0
VERTEX
  8
0
 10
1.3473
 20
47.649
  0
VERTEX
  8
0
 10
1.1753
 20
47.649
  0
SEQEND
  0
POLYLINE
  8
0
 66
     1
 10
0
 20
0
  0
VERTEX
  8
0
 10
1.5713
 20
47.9772
  0
VERTEX
  8
0
 10
1.731
 20
47.9907
  0
VERTEX
  8
0
 10
1.7369
 20
47.9585
  0
VERTEX
  8
0
 10
1.7446
 20
47.9287
  0
VERTEX
  8
0
 10
1.7539
 20
47.9013
  0
VERTEX
  8
0
 10
1.765
 20
47.8762
  0
VERTEX
  8
0
 10
1.7777
 20
47.8536
  0
VERTEX
  8
0
 10
1.7922
 20
47.8333
  0
VERTEX
  8
0
 10
1.8083
 20
47.8154
  0
VERTEX
  8
0
 10
1.8262
 20
47.7999
  0
VERTEX
  8
0
 10
1.8458
 20
47.7868
  0
VERTEX
  8
0
 10
1.8671
 20
47.7761
  0
VERTEX
  8
0
 10
1.8901
 20
47.7677
  0
VERTEX
  8
0
 10
1.9148
 20
47.7618
  0
VERTEX
  8
0
 10
1.9412
 20
47.7582
  0
VERTEX
  8
0
 10
1.9693
 20
47.757
  0
VERTEX
  8
0
 10
2.016
 20
47.7607
  0
VERTEX
  8
0
 10
2.0588
 20
47.7718
  0
VERTEX
  8
0
 10
2.0977
 20
47.7903
  0
VERTEX
  8
0
 10
2.1327
 20
47.8161
  0
VERTEX
  8
0
 10
2.1637
 20
47.8494
  0
VERTEX
  8
0
 10
2.2013
 20
47.91
  0
VERTEX
  8
0
 10
2.2238
 20
47.9795
  0
VERTEX
  8
0
 10
2.2313
 20
48.0579
  0
VERTEX
  8
0
 10
2.2269
 20
48.1172
  0
VERTEX
  8
0
 10
2.2138
 20
48.1704
  0
VERTEX
  8
0
 10
2.1919
 20
48.2178
  0
VERTEX
  8
0
 10
2.1612
 20
48.2592
  0
VERTEX
  8
0
 10
2.1227
 20
48.293
  0
VERTEX
  8
0
 10
2.0775
 20
48.3171
  0
VERTEX
  8
0
 10
2.0256
 20
48.3318
  0
VERTEX
  8
0
 10
1.9668
 20
48.337
  0
VERTEX
  8
0
 10
1.9202
 20
48.334
  0
VERTEX
  8
0
 10
1.8771
 20
48.3243
  0
VERTEX
  8
0
 10
1.8377
 20
48.308
  0
VERTEX
  8
0
 10
1.8019
 20
48.2851
  0
VERTEX
  8
0
 10
1.7697
 20
48.2556
  0
VERTEX
  8
0
 10
1.7411
 20
48.2194
  0
VERTEX
  8
0
 10
1.5983
 20
48.238
  0
VERTEX
  8
0
 10
1.7182
 20
48.873
  0
VERTEX
  8
0
 10
2.3336
 20
48.873
  0
VERTEX
  8
0
 10
2.3336
 20
48.729
  0
VERTEX
  8
0
 10
1.8417
 20
48.729
  0
VERTEX
  8
0
 10
1.7746
 20
48.3956
  0
VERTEX
  8
0
 10
1.8499
 20
48.4382
  0
VERTEX
  8
0
 10
1.9276
 20
48.464
  0
VERTEX
  8
0
 10
2.0077
 20
48.473
  0
VERTEX
  8
0
 10
2.0622
 20
48.47
  0
VERTEX
  8
0
 10
2.1133
 20
48.4605
  0
VERTEX
  8
0
 10
2.1612
 20
48.4444
  0
VERTEX
  8
0
 10
2.2059
 20
48.4217
  0
VERTEX
  8
0
 10
2.2472
 20
48.3925
  0
VERTEX
  8
0
 10
2.2853
 20
48.3567
  0
VERTEX
  8
0
 10
2.3177
 20
48.3173
  0
VERTEX
  8
0
 10
2.3442
 20
48.2746
  0
VERTEX
  8
0
 10
2.3648
 20
48.2289
  0
VERTEX
  8
0
 10
2.3796
 20
48.18
  0
VERTEX
  8
0
 10
2.3884
 20
48.128
  0
VERTEX
  8
0
 10
2.3913
 20
48.0728
  0
VERTEX
  8
0
 10
2.3874
 20
48.0078
  0
VERTEX
  8
0
 10
2.3757
 20
47.9464
  0
VERTEX
  8
0
 10
2.3561
 20
47.8884
  0
VERTEX
  8
0
 10
2.3287
 20
47.8339
  0
VERTEX
  8
0
 10
2.2935
 20
47.783
  0
VERTEX
  8
0
 10
2.2624
 20
47.748
  0
VERTEX
  8
0
 10
2.2286
 20
47.7177
  0
VERTEX
  8
0
 10
2.192
 20
47.692
  0
VERTEX
  8
0
 10
2.1528
 20
47.6709
  0
VERTEX
  8
0
 10
2.1109
 20
47.6545
  0
VERTEX
  8
0
 10
2.0662
 20
47.6427
  0
VERTEX
  8
0
 10
2.0188
 20
47.6355
  0
VERTEX
  8
0
 10
1.9687
 20
47.633
  0
VERTEX
  8
0
 10
1.9052
 20
47.6366
  0
VERTEX
  8
0
 10
1.8462
 20
47.6474
  0
VERTEX
  8
0
 10
1.7919
 20
47.6654
  0
VERTEX
  8
0
 10
1.7422
 20
47.6906
  0
VERTEX
  8
0
 10
1.697
 20
47.7231
  0
VERTEX
  8
0
 10
1.6569
 20
47.7628
  0
VERTEX
  8
0
 10
1.6243
 20
47.8082
  0
VERTEX
  8
0
 10
1.5991
 20
47.859
  0
VERTEX
  8
0
 10
1.5815
 20
47.9154
  0
VERTEX
  8
0
 10
1.5713
 20
47.9772
  0
VERTEX
  8
0
 10
1.5713
 20
47.9772
  0
SEQEND
  0
LINE
  8
0
 10
1.25
 20
49.75
 11
2.5
 21
49.75
  0
LINE
  8
0
 10
1.9633
 20
49.4817
 11
2.5
 21
49.75
  0
LINE
  8
0
 10
1.9633
 20
50.0183
 11
2.5
 21
49.75
  0
LINE
  8
0
 10
2.5
 20
49.45
 11
2.5
 21
51.25
  0
LINE
  8
0
 10
1.25
 20
49.75
 11
0
 21
49.75
  0
LINE
  8
0
 10
0.5367
 20
50.0183
 11
0
 21
49.75
  0
LINE
  8
0
 10
0.5367
 20
49.4817
 11
0
 21
49.75
  0
LINE
  8
0
 10
0
 20
49.45
 11
0
 21
51.25
  0
POLYLINE
  8
0
 66
     1
 10
0
 20
0
  0
VERTEX
  8
0
 10
14.9193
 20
49.297
  0
VERTEX
  8
0
 10
14.9193
 20
49.149
  0
VERTEX
  8
0
 10
14.1033
 20
49.149
  0
VERTEX
  8
0
 10
14.1057
 20
49.1927
  0
VERTEX
  8
0
 10
14.1149
 20
49.237
  0
VERTEX
  8
0
 10
14.131
 20
49.282
  0
VERTEX
  8
0
 10
14.154
 20
49.3276
  0
VERTEX
  8
0
 10
14.1839
 20
49.3739
  0
VERTEX
  8
0
 10
14.2206
 20
49.4209
  0
VERTEX
  8
0
 10
14.2739
 20
49.4788
  0
VERTEX
  8
0
 10
14.3403
 20
49.5417
  0
VERTEX
  8
0
 10
14.4198
 20
49.6095
  0
VERTEX
  8
0
 10
14.4768
 20
49.657
  0
VERTEX
  8
0
 10
14.5269
 20
49.7003
  0
VERTEX
  8
0
 10
14.5701
 20
49.7393
  0
VERTEX
  8
0
 10
14.6065
 20
49.7742
  0
VERTEX
  8
0
 10
14.6359
 20
49.8049
  0
VERTEX
  8
0
 10
14.6748
 20
49.8506
  0
VERTEX
  8
0
 10
14.7067
 20
49.8948
  0
VERTEX
  8
0
 10
14.7315
 20
49.9376
  0
VERTEX
  8
0
 10
14.7492
 20
49.9789
  0
VERTEX
  8
0
 10
14.7598
 20
50.0188
  0
VERTEX
  8
0
 10
14.7633
 20
50.0572
  0
VERTEX
  8
0
 10
14.7556
 20
50.1177
  0
VERTEX
  8
0
 10
14.7326
 20
50.1701
  0
VERTEX
  8
0
 10
14.6941
 20
50.2144
  0
VERTEX
  8
0
 10
14.6467
 20
50.2465
  0
VERTEX
  8
0
 10
14.5921
 20
50.2661
  0
VERTEX
  8
0
 10
14.5304
 20
50.273
  0
VERTEX
  8
0
 10
14.4769
 20
50.2691
  0
VERTEX
  8
0
 10
14.4296
 20
50.2565
  0
VERTEX
  8
0
 10
14.3883
 20
50.2353
  0
VERTEX
  8
0
 10
14.3532
 20
50.2055
  0
VERTEX
  8
0
 10
14.3174
 20
50.1546
  0
VERTEX
  8
0
 10
14.2958
 20
50.0934
  0
VERTEX
  8
0
 10
14.2882
 20
50.0217
  0
VERTEX
  8
0
 10
14.1321
 20
50.0378
  0
VERTEX
  8
0
 10
14.1397
 20
50.0937
  0
VERTEX
  8
0
 10
14.1522
 20
50.145
  0
VERTEX
  8
0
 10
14.1698
 20
50.1918
  0
VERTEX
  8
0
 10
14.1925
 20
50.234
  0
VERTEX
  8
0
 10
14.2201
 20
50.2716
  0
VERTEX
  8
0
 10
14.2527
 20
50.3046
  0
VERTEX
  8
0
 10
14.2977
 20
50.3379
  0
VERTEX
  8
0
 10
14.3483
 20
50.3637
  0
VERTEX
  8
0
 10
14.4045
 20
50.3822
  0
VERTEX
  8
0
 10
14.4663
 20
50.3933
  0
VERTEX
  8
0
 10
14.5337
 20
50.397
  0
VERTEX
  8
0
 10
14.5969
 20
50.3934
  0
VERTEX
  8
0
 10
14.6556
 20
50.3828
  0
VERTEX
  8
0
 10
14.7098
 20
50.365
  0
VERTEX
  8
0
 10
14.7594
 20
50.3401
  0
VERTEX
  8
0
 10
14.8046
 20
50.3081
  0
VERTEX
  8
0
 10
14.8396
 20
50.2746
  0
VERTEX
  8
0
 10
14.8683
 20
50.2375
  0
VERTEX
  8
0
 10
14.8906
 20
50.1967
  0
VERTEX
  8
0
 10
14.9066
 20
50.1523
  0
VERTEX
  8
0
 10
14.9161
 20
50.1042
  0
VERTEX
  8
0
 10
14.9193
 20
50.0524
  0
VERTEX
  8
0
 10
14.9157
 20
50.0029
  0
VERTEX
  8
0
 10
14.9047
 20
49.9534
  0
VERTEX
  8
0
 10
14.8864
 20
49.9037
  0
VERTEX
  8
0
 10
14.8608
 20
49.854
  0
VERTEX
  8
0
 10
14.8279
 20
49.8042
  0
VERTEX
  8
0
 10
14.7877
 20
49.7542
  0
VERTEX
  8
0
 10
14.7551
 20
49.7192
  0
VERTEX
  8
0
 10
14.7155
 20
49.6799
  0
VERTEX
  8
0
 10
14.6688
 20
49.6362
  0
VERTEX
  8
0
 10
14.6149
 20
49.5882
  0
VERTEX
  8
0
 10
14.554
 20
49.5358
  0
VERTEX
  8
0
 10
14.5138
 20
49.5018
  0
VERTEX
  8
0
 10
14.4807
 20
49.4737
  0
VERTEX
  8
0
 10
14.4549
 20
49.4516
  0
VERTEX
  8
0
 10
14.4363
 20
49.4353
  0
VERTEX
  8
0
 10
14.4249
 20
49.4249
  0
VERTEX
  8
0
 10
14.3618
 20
49.3599
  0
VERTEX
  8
0
 10
14.3144
 20
49.297
  0
VERTEX
  8
0
 10
14.9193
 20
49.297
  0
SEQEND
  0
POLYLINE
  8
0
 66
     1
 10
0
 20
0
  0
VERTEX
  8
0
 10
15.0793
 20
49.4772
  0
VERTEX
  8
0
 10
15.239
 20
49.4907
  0
VERTEX
  8
0
 10
15.2449
 20
49.4585
  0
VERTEX
  8
0
 10
15.2526
 20
49.4287
  0
VERTEX
  8
0
 10
15.2619
 20
49.4013
  0
VERTEX
  8
0
 10
15.273
 20
49.3762
  0
VERTEX
  8
0
 10
15.2857
 20
49.3536
  0
VERTEX
  8
0
 10
15.3002
 20
49.3333
  0
VERTEX
  8
0
 10
15.3163
 20
49.3154
  0
VERTEX
  8
0
 10
15.3342
 20
49.2999
  0
VERTEX
  8
0
 10
15.3538
 20
49.2868
  0
VERTEX
  8
0
 10
15.3751
 20
49.2761
  0
VERTEX
  8
0
 10
15.3981
 20
49.2677
  0
VERTEX
  8
0
 10
15.4228
 20
49.2618
  0
VERTEX
  8
0
 10
15.4492
 20
49.2582
  0
VERTEX
  8
0
 10
15.4773
 20
49.257
  0
VERTEX
  8
0
 10
15.524
 20
49.2607
  0
VERTEX
  8
0
 10
15.5668
 20
49.2718
  0
VERTEX
  8
0
 10
15.6057
 20
49.2903
  0
VERTEX
  8
0
 10
15.6407
 20
49.3161
  0
VERTEX
  8
0
 10
15.6717
 20
49.3494
  0
VERTEX
  8
0
 10
15.7093
 20
49.41
  0
VERTEX
  8
0
 10
15.7318
 20
49.4795
  0
VERTEX
  8
0
 10
15.7393
 20
49.5579
  0
VERTEX
  8
0
 10
15.7349
 20
49.6171
  0
VERTEX
  8
0
 10
15.7218
 20
49.6704
  0
VERTEX
  8
0
 10
15.6999
 20
49.7178
  0
VERTEX
  8
0
 10
15.6692
 20
49.7592
  0
VERTEX
  8
0
 10
15.6307
 20
49.793
  0
VERTEX
  8
0
 10
15.5855
 20
49.8171
  0
VERTEX
  8
0
 10
15.5336
 20
49.8318
  0
VERTEX
  8
0
 10
15.4748
 20
49.837
  0
VERTEX
  8
0
 10
15.4282
 20
49.834
  0
VERTEX
  8
0
 10
15.3851
 20
49.8243
  0
VERTEX
  8
0
 10
15.3457
 20
49.808
  0
VERTEX
  8
0
 10
15.3099
 20
49.7851
  0
VERTEX
  8
0
 10
15.2777
 20
49.7556
  0
VERTEX
  8
0
 10
15.2491
 20
49.7194
  0
VERTEX
  8
0
 10
15.1063
 20
49.738
  0
VERTEX
  8
0
 10
15.2262
 20
50.373
  0
VERTEX
  8
0
 10
15.8416
 20
50.373
  0
VERTEX
  8
0
 10
15.8416
 20
50.229
  0
VERTEX
  8
0
 10
15.3497
 20
50.229
  0
VERTEX
  8
0
 10
15.2826
 20
49.8956
  0
VERTEX
  8
0
 10
15.3579
 20
49.9382
  0
VERTEX
  8
0
 10
15.4356
 20
49.964
  0
VERTEX
  8
0
 10
15.5157
 20
49.973
  0
VERTEX
  8
0
 10
15.5702
 20
49.97
  0
VERTEX
  8
0
 10
15.6213
 20
49.9605
  0
VERTEX
  8
0
 10
15.6692
 20
49.9444
  0
VERTEX
  8
0
 10
15.7139
 20
49.9217
  0
VERTEX
  8
0
 10
15.7552
 20
49.8925
  0
VERTEX
  8
0
 10
15.7933
 20
49.8567
  0
VERTEX
  8
0
 10
15.8257
 20
49.8173
  0
VERTEX
  8
0
 10
15.8522
 20
49.7746
  0
VERTEX
  8
0
 10
15.8728
 20
49.7289
  0
VERTEX
  8
0
 10
15.8876
 20
49.68
  0
VERTEX
  8
0
 10
15.8964
 20
49.628
  0
VERTEX
  8
0
 10
15.8993
 20
49.5728
  0
VERTEX
  8
0
 10
15.8954
 20
49.5078
  0
VERTEX
  8
0
 10
15.8837
 20
49.4464
  0
VERTEX
  8
0
 10
15.8641
 20
49.3884
  0
VERTEX
  8
0
 10
15.8367
 20
49.3339
  0
VERTEX
  8
0
 10
15.8015
 20
49.283
  0
VERTEX
  8
0
 10
15.7704
 20
49.248
  0
VERTEX
  8
0
 10
15.7366
 20
49.2177
  0
VERTEX
  8
0
 10
15.7
 20
49.192
  0
VERTEX
  8
0
 10
15.6608
 20
49.1709
  0
VERTEX
  8
0
 10
15.6189
 20
49.1545
  0
VERTEX
  8
0
 10
15.5742
 20
49.1427
  0
VERTEX
  8
0
 10
15.5268
 20
49.1355
  0
VERTEX
  8
0
 10
15.4767
 20
49.133
  0
VERTEX
  8
0
 10
15.4132
 20
49.1366
  0
VERTEX
  8
0
 10
15.3542
 20
49.1474
  0
VERTEX
  8
0
 10
15.2999
 20
49.1654
  0
VERTEX
  8
0
 10
15.2502
 20
49.1906
  0
VERTEX
  8
0
 10
15.205
 20
49.2231
  0
VERTEX
  8
0
 10
15.1649
 20
49.2628
  0
VERTEX
  8
0
 10
15.1323
 20
49.3082
  0
VERTEX
  8
0
 10
15.1071
 20
49.359
  0
VERTEX
  8
0
 10
15.0895
 20
49.4154
  0
VERTEX
  8
0
 10
15.0793
 20
49.4772
  0
VERTEX
  8
0
 10
15.0793
 20
49.4772
  0
SEQEND
  0
LINE
  8
0
 10
16.2016
 20
49.75
 11
27.5
 21
49.75
  0
LINE
  8
0
 10
26.9633
 20
49.4817
 11
27.5
 21
49.75
  0
LINE
  8
0
 10
26.9633
 20
50.0183
 11
27.5
 21
49.75
  0
LINE
  8
0
 10
27.5
 20
49.45
 11
27.5
 21
51.25
  0
LINE
  8
0
 10
13.7984
 20
49.75
 11
2.5
 21
49.75
  0
LINE
  8
0
 10
3.0367
 20
50.0183
 11
2.5
 21
49.75
  0
LINE
  8
0
 10
3.0367
 20
49.4817
 11
2.5
 21
49.75
  0
POLYLINE
  8
0
 66
     1
 10
0
 20
0
  0
VERTEX
  8
0
 10
28.4273
 20
47.797
  0
VERTEX
  8
0
 10
28.4273
 20
47.649
  0
VERTEX
  8
0
 10
27.6113
 20
47.649
  0
VERTEX
  8
0
 10
27.6137
 20
47.6927
  0
VERTEX
  8
0
 10
27.6229
 20
47.737
  0
VERTEX
  8
0
 10
27.639
 20
47.782
  0
VERTEX
  8
0
 10
27.662
 20
47.8276
  0
VERTEX
  8
0
 10
27.6919
 20
47.8739
  0
VERTEX
  8
0
 10
27.7286
 20
47.9209
  0
VERTEX
  8
0
 10
27.7819
 20
47.9788
  0
VERTEX
  8
0
 10
27.8483
 20
48.0417
  0
VERTEX
  8
0
 10
27.9278
 20
48.1095
  0
VERTEX
  8
0
 10
27.9848
 20
48.157
  0
VERTEX
  8
0
 10
28.0349
 20
48.2003
  0
VERTEX
  8
0
 10
28.0781
 20
48.2393
  0
VERTEX
  8
0
 10
28.1145
 20
48.2742
  0
VERTEX
  8
0
 10
28.1439
 20
48.3049
  0
VERTEX
  8
0
 10
28.1828
 20
48.3506
  0
VERTEX
  8
0
 10
28.2147
 20
48.3948
  0
VERTEX
  8
0
 10
28.2395
 20
48.4376
  0
VERTEX
  8
0
 10
28.2572
 20
48.4789
  0
VERTEX
  8
0
 10
28.2678
 20
48.5188
  0
VERTEX
  8
0
 10
28.2713
 20
48.5572
  0
VERTEX
  8
0
 10
28.2636
 20
48.6177
  0
VERTEX
  8
0
 10
28.2406
 20
48.6701
  0
VERTEX
  8
0
 10
28.2021
 20
48.7144
  0
VERTEX
  8
0
 10
28.1547
 20
48.7465
  0
VERTEX
  8
0
 10
28.1001
 20
48.7661
  0
VERTEX
  8
0
 10
28.0384
 20
48.773
  0
VERTEX
  8
0
 10
27.9849
 20
48.7691
  0
VERTEX
  8
0
 10
27.9376
 20
48.7565
  0
VERTEX
  8
0
 10
27.8963
 20
48.7353
  0
VERTEX
  8
0
 10
27.8612
 20
48.7055
  0
VERTEX
  8
0
 10
27.8254
 20
48.6546
  0
VERTEX
  8
0
 10
27.8038
 20
48.5934
  0
VERTEX
  8
0
 10
27.7962
 20
48.5217
  0
VERTEX
  8
0
 10
27.6401
 20
48.5378
  0
VERTEX
  8
0
 10
27.6477
 20
48.5937
  0
VERTEX
  8
0
 10
27.6602
 20
48.645
  0
VERTEX
  8
0
 10
27.6778
 20
48.6918
  0
VERTEX
  8
0
 10
27.7005
 20
48.734
  0
VERTEX
  8
0
 10
27.7281
 20
48.7716
  0
VERTEX
  8
0
 10
27.7607
 20
48.8046
  0
VERTEX
  8
0
 10
27.8057
 20
48.8379
  0
VERTEX
  8
0
 10
27.8563
 20
48.8637
  0
VERTEX
  8
0
 10
27.9125
 20
48.8822
  0
VERTEX
  8
0
 10
27.9743
 20
48.8933
  0
VERTEX
  8
0
 10
28.0417
 20
48.897
  0
VERTEX
  8
0
 10
28.1049
 20
48.8934
  0
VERTEX
  8
0
 10
28.1636
 20
48.8828
  0
VERTEX
  8
0
 10
28.2178
 20
48.865
  0
VERTEX
  8
0
 10
28.2674
 20
48.8401
  0
VERTEX
  8
0
 10
28.3126
 20
48.8081
  0
VERTEX
  8
0
 10
28.3476
 20
48.7746
  0
VERTEX
  8
0
 10
28.3763
 20
48.7375
  0
VERTEX
  8
0
 10
28.3986
 20
48.6967
  0
VERTEX
  8
0
 10
28.4146
 20
48.6523
  0
VERTEX
  8
0
 10
28.4241
 20
48.6042
  0
VERTEX
  8
0
 10
28.4273
 20
48.5524
  0
VERTEX
  8
0
 10
28.4237
 20
48.5029
  0
VERTEX
  8
0
 10
28.4127
 20
48.4534
  0
VERTEX
  8
0
 10
28.3944
 20
48.4037
  0
VERTEX
  8
0
 10
28.3688
 20
48.354
  0
VERTEX
  8
0
 10
28.3359
 20
48.3042
  0
VERTEX
  8
0
 10
28.2957
 20
48.2542
  0
VERTEX
  8
0
 10
28.2631
 20
48.2192
  0
VERTEX
  8
0
 10
28.2235
 20
48.1799
  0
VERTEX
  8
0
 10
28.1768
 20
48.1362
  0
VERTEX
  8
0
 10
28.1229
 20
48.0882
  0
VERTEX
  8
0
 10
28.062
 20
48.0358
  0
VERTEX
  8
0
 10
28.0218
 20
48.0018
  0
VERTEX
  8
0
 10
27.9887
 20
47.9737
  0
VERTEX
  8
0
 10
27.9629
 20
47.9516
  0
VERTEX
  8
0
 10
27.9443
 20
47.9353
  0
VERTEX
  8
0
 10
27.9329
 20
47.9249
  0
VERTEX
  8
0
 10
27.8698
 20
47.8599
  0
VERTEX
  8
0
 10
27.8224
 20
47.797
  0
VERTEX
  8
0
 10
28.4273
 20
47.797
  0
SEQEND
  0
POLYLINE
  8
0
 66
     1
 10
0
 20
0
  0
VERTEX
  8
0
 10
28.6753
 20
47.649
  0
VERTEX
  8
0
 10
28.6753
 20
47.825
  0
VERTEX
  8
0
 10
28.8473
 20
47.825
  0
VERTEX
  8
0
 10
28.8473
 20
47.649
  0
VERTEX
  8
0
 10
28.6753
 20
47.649
  0
SEQEND
  0
POLYLINE
  8
0
 66
     1
 10
0
 20
0
  0
VERTEX
  8
0
 10
29.0713
 20
47.9772
  0
VERTEX
  8
0
 10
29.231
 20
47.9907
  0
VERTEX
  8
0
 10
29.2369
 20
47.9585
  0
VERTEX
  8
0
 10
29.2446
 20
47.9287
  0
VERTEX
  8
0
 10
29.2539
 20
47.9013
  0
VERTEX
  8
0
 10
29.265
 20
47.8762
  0
VERTEX
  8
0
 10
29.2777
 20
47.8536
  0
VERTEX
  8
0
 10
29.2922
 20
47.8333
  0
VERTEX
  8
0
 10
29.3083
 20
47.8154
  0
VERTEX
  8
0
 10
29.3262
 20
47.7999
  0
VERTEX
  8
0
 10
29.3458
 20
47.7868
  0
VERTEX
  8
0
 10
29.3671
 20
47.7761
  0
VERTEX
  8
0
 10
29.3901
 20
47.7677
  0
VERTEX
  8
0
 10
29.4148
 20
47.7618
  0
VERTEX
  8
0
 10
29.4412
 20
47.7582
  0
VERTEX
  8
0
 10
29.4693
 20
47.757
  0
VERTEX
  8
0
 10
29.516
 20
47.7607
  0
VERTEX
  8
0
 10
29.5588
 20
47.7718
  0
VERTEX
  8
0
 10
29.5977
 20
47.7903
  0
VERTEX
  8
0
 10
29.6327
 20
47.8161
  0
VERTEX
  8
0
 10
29.6637
 20
47.8494
  0
VERTEX
  8
0
 10
29.7013
 20
47.91
  0
VERTEX
  8
0
 10
29.7238
 20
47.9795
  0
VERTEX
  8
0
 10
29.7313
 20
48.0579
  0
VERTEX
  8
0
 10
29.7269
 20
48.1172
  0
VERTEX
  8
0
 10
29.7138
 20
48.1704
  0
VERTEX
  8
0
 10
29.6919
 20
48.2178
  0
VERTEX
  8
0
 10
29.6612
 20
48.2592
  0
VERTEX
  8
0
 10
29.6227
 20
48.293
  0
VERTEX
  8
0
 10
29.5775
 20
48.3171
  0
VERTEX
  8
0
 10
29.5256
 20
48.3318
  0
VERTEX
  8
0
 10
29.4668
 20
48.337
  0
VERTEX
  8
0
 10
29.4202
 20
48.334
  0
VERTEX
  8
0
 10
29.3771
 20
48.3243
  0
VERTEX
  8
0
 10
29.3377
 20
48.308
  0
VERTEX
  8
0
 10
29.3019
 20
48.2851
  0
VERTEX
  8
0
 10
29.2697
 20
48.2556
  0
VERTEX
  8
0
 10
29.2411
 20
48.2194
  0
VERTEX
  8
0
 10
29.0983
 20
48.238
  0
VERTEX
  8
0
 10
29.2182
 20
48.873
  0
VERTEX
  8
0
 10
29.8336
 20
48.873
  0
VERTEX
  8
0
 10
29.8336
 20
48.729
  0
VERTEX
  8
0
 10
29.3417
 20
48.729
  0
VERTEX
  8
0
 10
29.2746
 20
48.3956
  0
VERTEX
  8
0
 10
29.3499
 20
48.4382
  0
VERTEX
  8
0
 10
29.4276
 20
48.464
  0
VERTEX
  8
0
 10
29.5077
 20
48.473
  0
VERTEX
  8
0
 10
29.5622
 20
48.47
  0
VERTEX
  8
0
 10
29.6133
 20
48.4605
  0
VERTEX
  8
0
 10
29.6612
 20
48.4444
  0
VERTEX
  8
0
 10
29.7059
 20
48.4217
  0
VERTEX
  8
0
 10
29.7472
 20
48.3925
  0
VERTEX
  8
0
 10
29.7853
 20
48.3567
  0
VERTEX
  8
0
 10
29.8177
 20
48.3173
  0
VERTEX
  8
0
 10
29.8442
 20
48.2746
  0
VERTEX
  8
0
 10
29.8648
 20
48.2289
  0
VERTEX
  8
0
 10
29.8796
 20
48.18
  0
VERTEX
  8
0
 10
29.8884
 20
48.128
  0
VERTEX
  8
0
 10
29.8913
 20
48.0728
  0
VERTEX
  8
0
 10
29.8874
 20
48.0078
  0
VERTEX
  8
0
 10
29.8757
 20
47.9464
  0
VERTEX
  8
0
 10
29.8561
 20
47.8884
  0
VERTEX
  8
0
 10
29.8287
 20
47.8339
  0
VERTEX
  8
0
 10
29.7935
 20
47.783
  0
VERTEX
  8
0
 10
29.7624
 20
47.748
  0
VERTEX
  8
0
 10
29.7286
 20
47.7177
  0
VERTEX
  8
0
 10
29.692
 20
47.692
  0
VERTEX
  8
0
 10
29.6528
 20
47.6709
  0
VERTEX
  8
0
 10
29.6109
 20
47.6545
  0
VERTEX
  8
0
 10
29.5662
 20
47.6427
  0
VERTEX
  8
0
 10
29.5188
 20
47.6355
  0
VERTEX
  8
0
 10
29.4687
 20
47.633
  0
VERTEX
  8
0
 10
29.4052
 20
47.6366
  0
VERTEX
  8
0
 10
29.3462
 20
47.6474
  0
VERTEX
  8
0
 10
29.2919
 20
47.6654
  0
VERTEX
  8
0
 10
29.2422
 20
47.6906
  0
VERTEX
  8
0
 10
29.197
 20
47.7231
  0
VERTEX
  8
0
 10
29.1569
 20
47.7628
  0
VERTEX
  8
0
 10
29.1243
 20
47.8082
  0
VERTEX
  8
0
 10
29.0991
 20
47.859
  0
VERTEX
  8
0
 10
29.0815
 20
47.9154
  0
VERTEX
  8
0
 10
29.0713
 20
47.9772
  0
VERTEX
  8
0
 10
29.0713
 20
47.9772
  0
SEQEND
  0
LINE
  8
0
 10
28.75
 20
49.75
 11
30
 21
49.75
  0
LINE
  8
0
 10
29.4633
 20
49.4817
 11
30
 21
49.75
  0
LINE
  8
0
 10
29.4633
 20
50.0183
 11
30
 21
49.75
  0
LINE
  8
0
 10
30
 20
49.45
 11
30
 21
51.25
  0
LINE
  8
0
 10
28.75
 20
49.75
 11
27.5
 21
49.75
  0
LINE
  8
0
 10
28.0367
 20
50.0183
 11
27.5
 21
49.75
  0
LINE
  8
0
 10
28.0367
 20
49.4817
 11
27.5
 21
49.75
  0
LINE
  8
0
 10
27.5
 20
49.45
 11
27.5
 21
51.25
  0
POLYLINE
  8
0
 66
     1
 10
0
 20
0
  0
VERTEX
  8
0
 10
32.8553
 20
56.205
  0
VERTEX
  8
0
 10
32.8553
 20
56.053
  0
VERTEX
  8
0
 10
31.883
 20
56.053
  0
VERTEX
  8
0
 10
31.954
 20
55.9659
  0
VERTEX
  8
0
 10
32.0151
 20
55.8646
  0
VERTEX
  8
0
 10
32.0662
 20
55.749
  0
VERTEX
  8
0
 10
31.9189
 20
55.749
  0
VERTEX
  8
0
 10
31.8905
 20
55.8058
  0
VERTEX
  8
0
 10
31.8605
 20
55.8583
  0
VERTEX
  8
0
 10
31.829
 20
55.9066
  0
VERTEX
  8
0
 10
31.7959
 20
55.9506
  0
VERTEX
  8
0
 10
31.7613
 20
55.9904
  0
VERTEX
  8
0
 10
31.7251
 20
56.026
  0
VERTEX
  8
0
 10
31.6874
 20
56.0572
  0
VERTEX
  8
0
 10
31.6481
 20
56.0843
  0
VERTEX
  8
0
 10
31.6073
 20
56.1071
  0
VERTEX
  8
0
 10
31.6073
 20
56.205
  0
VERTEX
  8
0
 10
32.8553
 20
56.205
  0
SEQEND
  0
POLYLINE
  8
0
 66
     1
 10
0
 20
0
  0
VERTEX
  8
0
 10
32.8553
 20
57.169
  0
VERTEX
  8
0
 10
32.8553
 20
57.017
  0
VERTEX
  8
0
 10
31.883
 20
57.017
  0
VERTEX
  8
0
 10
31.954
 20
56.9299
  0
VERTEX
  8
0
 10
32.0151
 20
56.8286
  0
VERTEX
  8
0
 10
32.0662
 20
56.713
  0
VERTEX
  8
0
 10
31.9189
 20
56.713
  0
VERTEX
  8
0
 10
31.8905
 20
56.7698
  0
VERTEX
  8
0
 10
31.8605
 20
56.8223
  0
VERTEX
  8
0
 10
31.829
 20
56.8706
  0
VERTEX
  8
0
 10
31.7959
 20
56.9146
  0
VERTEX
  8
0
 10
31.7613
 20
56.9544
  0
VERTEX
  8
0
 10
31.7251
 20
56.99
  0
VERTEX
  8
0
 10
31.6874
 20
57.0212
  0
VERTEX
  8
0
 10
31.6481
 20
57.0483
  0
VERTEX
  8
0
 10
31.6073
 20
57.0711
  0
VERTEX
  8
0
 10
31.6073
 20
57.169
  0
VERTEX
  8
0
 10
32.8553
 20
57.169
  0
SEQEND
  0
POLYLINE
  8
0
 66
     1
 10
0
 20
0
  0
VERTEX
  8
0
 10
32.8553
 20
57.633
  0
VERTEX
  8
0
 10
32.6793
 20
57.633
  0
VERTEX
  8
0
 10
32.6793
 20
57.805
  0
VERTEX
  8
0
 10
32.8553
 20
57.805
  0
VERTEX
  8
0
 10
32.8553
 20
57.633
  0
SEQEND
  0
POLYLINE
  8
0
 66
     1
 10
0
 20
0
  0
VERTEX
  8
0
 10
32.5271
 20
58.029
  0
VERTEX
  8
0
 10
32.5136
 20
58.1887
  0
VERTEX
  8
0
 10
32.5458
 20
58.1946
  0
VERTEX
  8
0
 10
32.5756
 20
58.2022
  0
VERTEX
  8
0
 10
32.6031
 20
58.2116
  0
VERTEX
  8
0
 10
32.6281
 20
58.2226
  0
VERTEX
  8
0
 10
32.6508
 20
58.2354
  0
VERTEX
  8
0
 10
32.671
 20
58.2498
  0
VERTEX
  8
0
 10
32.6889
 20
58.266
  0
VERTEX
  8
0
 10
32.7044
 20
58.2839
  0
VERTEX
  8
0
 10
32.7175
 20
58.3035
  0
VERTEX
  8
0
 10
32.7283
 20
58.3248
  0
VERTEX
  8
0
 10
32.7366
 20
58.3478
  0
VERTEX
  8
0
 10
32.7426
 20
58.3725
  0
VERTEX
  8
0
 10
32.7461
 20
58.3989
  0
VERTEX
  8
0
 10
32.7473
 20
58.427
  0
VERTEX
  8
0
 10
32.7436
 20
58.4737
  0
VERTEX
  8
0
 10
32.7325
 20
58.5165
  0
VERTEX
  8
0
 10
32.7141
 20
58.5554
  0
VERTEX
  8
0
 10
32.6882
 20
58.5903
  0
VERTEX
  8
0
 10
32.6549
 20
58.6214
  0
VERTEX
  8
0
 10
32.5944
 20
58.6589
  0
VERTEX
  8
0
 10
32.5249
 20
58.6815
  0
VERTEX
  8
0
 10
32.4464
 20
58.689
  0
VERTEX
  8
0
 10
32.3872
 20
58.6846
  0
VERTEX
  8
0
 10
32.3339
 20
58.6715
  0
VERTEX
  8
0
 10
32.2865
 20
58.6495
  0
VERTEX
  8
0
 10
32.2451
 20
58.6188
  0
VERTEX
  8
0
 10
32.2114
 20
58.5804
  0
VERTEX
  8
0
 10
32.1872
 20
58.5352
  0
VERTEX
  8
0
 10
32.1725
 20
58.4832
  0
VERTEX
  8
0
 10
32.1673
 20
58.4245
  0
VERTEX
  8
0
 10
32.1704
 20
58.3778
  0
VERTEX
  8
0
 10
32.18
 20
58.3348
  0
VERTEX
  8
0
 10
32.1963
 20
58.2954
  0
VERTEX
  8
0
 10
32.2192
 20
58.2596
  0
VERTEX
  8
0
 10
32.2487
 20
58.2274
  0
VERTEX
  8
0
 10
32.2848
 20
58.1988
  0
VERTEX
  8
0
 10
32.2663
 20
58.056
  0
VERTEX
  8
0
 10
31.6313
 20
58.1759
  0
VERTEX
  8
0
 10
31.6313
 20
58.7914
  0
VERTEX
  8
0
 10
31.7753
 20
58.7914
  0
VERTEX
  8
0
 10
31.7753
 20
58.2994
  0
VERTEX
  8
0
 10
32.1087
 20
58.2324
  0
VERTEX
  8
0
 10
32.0661
 20
58.3076
  0
VERTEX
  8
0
 10
32.0403
 20
58.3853
  0
VERTEX
  8
0
 10
32.0313
 20
58.4654
  0
VERTEX
  8
0
 10
32.0343
 20
58.5198
  0
VERTEX
  8
0
 10
32.0439
 20
58.571
  0
VERTEX
  8
0
 10
32.06
 20
58.6189
  0
VERTEX
  8
0
 10
32.0826
 20
58.6635
  0
VERTEX
  8
0
 10
32.1118
 20
58.7049
  0
VERTEX
  8
0
 10
32.1476
 20
58.743
  0
VERTEX
  8
0
 10
32.1871
 20
58.7754
  0
VERTEX
  8
0
 10
32.2297
 20
58.8019
  0
VERTEX
  8
0
 10
32.2754
 20
58.8225
  0
VERTEX
  8
0
 10
32.3243
 20
58.8372
  0
VERTEX
  8
0
 10
32.3764
 20
58.846
  0
VERTEX
  8
0
 10
32.4315
 20
58.849
  0
VERTEX
  8
0
 10
32.4965
 20
58.8451
  0
VERTEX
  8
0
 10
32.558
 20
58.8333
  0
VERTEX
  8
0
 10
32.6159
 20
58.8138
  0
VERTEX
  8
0
 10
32.6704
 20
58.7863
  0
VERTEX
  8
0
 10
32.7213
 20
58.7511
  0
VERTEX
  8
0
 10
32.7563
 20
58.72
  0
VERTEX
  8
0
 10
32.7867
 20
58.6862
  0
VERTEX
  8
0
 10
32.8124
 20
58.6497
  0
VERTEX
  8
0
 10
32.8334
 20
58.6105
  0
VERTEX
  8
0
 10
32.8499
 20
58.5685
  0
VERTEX
  8
0
 10
32.8617
 20
58.5238
  0
VERTEX
  8
0
 10
32.8688
 20
58.4765
  0
VERTEX
  8
0
 10
32.8713
 20
58.4264
  0
VERTEX
  8
0
 10
32.8677
 20
58.3628
  0
VERTEX
  8
0
 10
32.8569
 20
58.3039
  0
VERTEX
  8
0
 10
32.8389
 20
58.2496
  0
VERTEX
  8
0
 10
32.8137
 20
58.1998
  0
VERTEX
  8
0
 10
32.7813
 20
58.1547
  0
VERTEX
  8
0
 10
32.7415
 20
58.1145
  0
VERTEX
  8
0
 10
32.6962
 20
58.0819
  0
VERTEX
  8
0
 10
32.6453
 20
58.0568
  0
VERTEX
  8
0
 10
32.589
 20
58.0391
  0
VERTEX
  8
0
 10
32.5271
 20
58.029
  0
VERTEX
  8
0
 10
32.5271
 20
58.029
  0
SEQEND
  0
POLYLINE
  8
0
 66
     1
 10
0
 20
0
  0
VERTEX
  8
0
 10
31.8762
 20
59.8199
  0
VERTEX
  8
0
 10
31.8881
 20
59.6688
  0
VERTEX
  8
0
 10
31.8301
 20
59.6473
  0
VERTEX
  8
0
 10
31.7845
 20
59.6081
  0
VERTEX
  8
0
 10
31.7553
 20
59.5616
  0
VERTEX
  8
0
 10
31.7376
 20
59.5067
  0
VERTEX
  8
0
 10
31.7313
 20
59.4434
  0
VERTEX
  8
0
 10
31.7411
 20
59.3584
  0
VERTEX
  8
0
 10
31.772
 20
59.2923
  0
VERTEX
  8
0
 10
31.7904
 20
59.2698
  0
VERTEX
  8
0
 10
31.8114
 20
59.249
  0
VERTEX
  8
0
 10
31.835
 20
59.23
  0
VERTEX
  8
0
 10
31.8611
 20
59.2128
  0
VERTEX
  8
0
 10
31.8899
 20
59.1973
  0
VERTEX
  8
0
 10
31.9212
 20
59.1835
  0
VERTEX
  8
0
 10
31.9551
 20
59.1715
  0
VERTEX
  8
0
 10
31.9917
 20
59.1612
  0
VERTEX
  8
0
 10
32.0308
 20
59.1527
  0
VERTEX
  8
0
 10
32.0725
 20
59.1459
  0
VERTEX
  8
0
 10
32.1167
 20
59.1409
  0
VERTEX
  8
0
 10
32.1636
 20
59.1376
  0
VERTEX
  8
0
 10
32.2131
 20
59.1361
  0
VERTEX
  8
0
 10
32.1783
 20
59.161
  0
VERTEX
  8
0
 10
32.1476
 20
59.1879
  0
VERTEX
  8
0
 10
32.121
 20
59.217
  0
VERTEX
  8
0
 10
32.0985
 20
59.2482
  0
VERTEX
  8
0
 10
32.0801
 20
59.2815
  0
VERTEX
  8
0
 10
32.0658
 20
59.317
  0
VERTEX
  8
0
 10
32.0555
 20
59.3546
  0
VERTEX
  8
0
 10
32.0494
 20
59.3943
  0
VERTEX
  8
0
 10
32.0473
 20
59.4361
  0
VERTEX
  8
0
 10
32.0507
 20
59.4887
  0
VERTEX
  8
0
 10
32.0608
 20
59.538
  0
VERTEX
  8
0
 10
32.0775
 20
59.584
  0
VERTEX
  8
0
 10
32.101
 20
59.6268
  0
VERTEX
  8
0
 10
32.1312
 20
59.6662
  0
VERTEX
  8
0
 10
32.1681
 20
59.7024
  0
VERTEX
  8
0
 10
32.216
 20
59.7376
  0
VERTEX
  8
0
 10
32.268
 20
59.7651
  0
VERTEX
  8
0
 10
32.3241
 20
59.7848
  0
VERTEX
  8
0
 10
32.3842
 20
59.7968
  0
VERTEX
  8
0
 10
32.4483
 20
59.801
  0
VERTEX
  8
0
 10
32.5571
 20
59.7896
  0
VERTEX
  8
0
 10
32.6586
 20
59.7538
  0
VERTEX
  8
0
 10
32.7225
 20
59.716
  0
VERTEX
  8
0
 10
32.7756
 20
59.6691
  0
VERTEX
  8
0
 10
32.8181
 20
59.613
  0
VERTEX
  8
0
 10
32.858
 20
59.5198
  0
VERTEX
  8
0
 10
32.8713
 20
59.4141
  0
VERTEX
  8
0
 10
32.8709
 20
59.3906
  0
VERTEX
  8
0
 10
32.8695
 20
59.3678
  0
VERTEX
  8
0
 10
32.8672
 20
59.3456
  0
VERTEX
  8
0
 10
32.8639
 20
59.3242
  0
VERTEX
  8
0
 10
32.8598
 20
59.3033
  0
VERTEX
  8
0
 10
32.8547
 20
59.2832
  0
VERTEX
  8
0
 10
32.8486
 20
59.2637
  0
VERTEX
  8
0
 10
32.8417
 20
59.2448
  0
VERTEX
  8
0
 10
32.8338
 20
59.2266
  0
VERTEX
  8
0
 10
32.825
 20
59.2091
  0
VERTEX
  8
0
 10
32.8153
 20
59.1923
  0
VERTEX
  8
0
 10
32.8046
 20
59.176
  0
VERTEX
  8
0
 10
32.7931
 20
59.1605
  0
VERTEX
  8
0
 10
32.7805
 20
59.1456
  0
VERTEX
  8
0
 10
32.7671
 20
59.1314
  0
VERTEX
  8
0
 10
32.7528
 20
59.1178
  0
VERTEX
  8
0
 10
32.7375
 20
59.1049
  0
VERTEX
  8
0
 10
32.7213
 20
59.0927
  0
VERTEX
  8
0
 10
32.7041
 20
59.0811
  0
VERTEX
  8
0
 10
32.6861
 20
59.0701
  0
VERTEX
  8
0
 10
32.6671
 20
59.0599
  0
VERTEX
  8
0
 10
32.6471
 20
59.0503
  0
VERTEX
  8
0
 10
32.6263
 20
59.0413
  0
VERTEX
  8
0
 10
32.6045
 20
59.033
  0
VERTEX
  8
0
 10
32.5818
 20
59.0254
  0
VERTEX
  8
0
 10
32.5582
 20
59.0184
  0
VERTEX
  8
0
 10
32.5337
 20
59.0121
  0
VERTEX
  8
0
 10
32.5082
 20
59.0065
  0
VERTEX
  8
0
 10
32.4818
 20
59.0015
  0
VERTEX
  8
0
 10
32.4544
 20
58.9971
  0
VERTEX
  8
0
 10
32.4262
 20
58.9935
  0
VERTEX
  8
0
 10
32.397
 20
58.9904
  0
VERTEX
  8
0
 10
32.3669
 20
58.9881
  0
VERTEX
  8
0
 10
32.3359
 20
58.9864
  0
VERTEX
  8
0
 10
32.3039
 20
58.9854
  0
VERTEX
  8
0
 10
32.271
 20
58.985
  0
VERTEX
  8
0
 10
32.2074
 20
58.9861
  0
VERTEX
  8
0
 10
32.147
 20
58.9894
  0
VERTEX
  8
0
 10
32.0898
 20
58.9948
  0
VERTEX
  8
0
 10
32.0359
 20
59.0025
  0
VERTEX
  8
0
 10
31.9853
 20
59.0124
  0
VERTEX
  8
0
 10
31.9378
 20
59.0244
  0
VERTEX
  8
0
 10
31.8936
 20
59.0387
  0
VERTEX
  8
0
 10
31.8527
 20
59.0551
  0
VERTEX
  8
0
 10
31.8149
 20
59.0737
  0
VERTEX
  8
0
 10
31.7805
 20
59.0945
  0
VERTEX
  8
0
 10
31.7492
 20
59.1176
  0
VERTEX
  8
0
 10
31.716
 20
59.1481
  0
VERTEX
  8
0
 10
31.6871
 20
59.1819
  0
VERTEX
  8
0
 10
31.6628
 20
59.2189
  0
VERTEX
  8
0
 10
31.6428
 20
59.2591
  0
VERTEX
  8
0
 10
31.6273
 20
59.3027
  0
VERTEX
  8
0
 10
31.6162
 20
59.3494
  0
VERTEX
  8
0
 10
31.6096
 20
59.3994
  0
VERTEX
  8
0
 10
31.6073
 20
59.4527
  0
VERTEX
  8
0
 10
31.6117
 20
59.5206
  0
VERTEX
  8
0
 10
31.6247
 20
59.5835
  0
VERTEX
  8
0
 10
31.6465
 20
59.6414
  0
VERTEX
  8
0
 10
31.6769
 20
59.6941
  0
VERTEX
  8
0
 10
31.7096
 20
59.7345
  0
VERTEX
  8
0
 10
31.7458
 20
59.7673
  0
VERTEX
  8
0
 10
31.7857
 20
59.7925
  0
VERTEX
  8
0
 10
31.8292
 20
59.81
  0
VERTEX
  8
0
 10
31.8762
 20
59.8199
  0
VERTEX
  8
0
 10
31.8762
 20
59.8199
  0
SEQEND
  0
POLYLINE
  8
0
 66
     1
 10
0
 20
0
  0
VERTEX
  8
0
 10
32.4506
 20
59.161
  0
VERTEX
  8
0
 10
32.526
 20
59.1683
  0
VERTEX
  8
0
 10
32.5973
 20
59.1921
  0
VERTEX
  8
0
 10
32.6626
 20
59.2325
  0
VERTEX
  8
0
 10
32.7102
 20
59.2868
  0
VERTEX
  8
0
 10
32.7376
 20
59.347
  0
VERTEX
  8
0
 10
32.7473
 20
59.4118
  0
VERTEX
  8
0
 10
32.744
 20
59.4543
  0
VERTEX
  8
0
 10
32.7332
 20
59.493
  0
VERTEX
  8
0
 10
32.7149
 20
59.5281
  0
VERTEX
  8
0
 10
32.6893
 20
59.5594
  0
VERTEX
  8
0
 10
32.6563
 20
59.5871
  0
VERTEX
  8
0
 10
32.598
 20
59.6189
  0
VERTEX
  8
0
 10
32.5323
 20
59.6382
  0
VERTEX
  8
0
 10
32.459
 20
59.645
  0
VERTEX
  8
0
 10
32.3858
 20
59.6387
  0
VERTEX
  8
0
 10
32.3215
 20
59.6185
  0
VERTEX
  8
0
 10
32.266
 20
59.5846
  0
VERTEX
  8
0
 10
32.2301
 20
59.5489
  0
VERTEX
  8
0
 10
32.2044
 20
59.5072
  0
VERTEX
  8
0
 10
32.1888
 20
59.4596
  0
VERTEX
  8
0
 10
32.1833
 20
59.4059
  0
VERTEX
  8
0
 10
32.188
 20
59.3536
  0
VERTEX
  8
0
 10
32.2027
 20
59.3063
  0
VERTEX
  8
0
 10
32.2276
 20
59.2642
  0
VERTEX
  8
0
 10
32.2626
 20
59.2272
  0
VERTEX
  8
0
 10
32.3172
 20
59.1908
  0
VERTEX
  8
0
 10
32.3799
 20
59.1687
  0
VERTEX
  8
0
 10
32.4506
 20
59.161
  0
VERTEX
  8
0
 10
32.4506
 20
59.161
  0
SEQEND
  0
LINE
  8
0
 10
32.25
 20
60.1173
 11
32.25
 21
63.5633
  0
LINE
  8
0
 10
32.5183
 20
63.0266
 11
32.25
 21
63.5633
  0
LINE
  8
0
 10
31.9817
 20
63.0266
 11
32.25
 21
63.5633
  0
LINE
  8
0
 10
32.55
 20
63.5633
 11
30.75
 21
63.5633
  0
LINE
  8
0
 10
32.25
 20
55.446
 11
32.25
 21
52
  0
LINE
  8
0
 10
31.9817
 20
52.5367
 11
32.25
 21
52
  0
LINE
  8
0
 10
32.5183
 20
52.5367
 11
32.25
 21
52
  0
LINE
  8
0
 10
32.55
 20
52
 11
30.75
 21
52
  0
POLYLINE
  8
0
 66
     1
 10
0
 20
0
  0
VERTEX
  8
0
 10
35.5245
 20
66.117
  0
VERTEX
  8
0
 10
35.5043
 20
66.2696
  0
VERTEX
  8
0
 10
35.5377
 20
66.2771
  0
VERTEX
  8
0
 10
35.5686
 20
66.2862
  0
VERTEX
  8
0
 10
35.597
 20
66.2968
  0
VERTEX
  8
0
 10
35.623
 20
66.3088
  0
VERTEX
  8
0
 10
35.6465
 20
66.3224
  0
VERTEX
  8
0
 10
35.6676
 20
66.3375
  0
VERTEX
  8
0
 10
35.6861
 20
66.3542
  0
VERTEX
  8
0
 10
35.7023
 20
66.3723
  0
VERTEX
  8
0
 10
35.7159
 20
66.3919
  0
VERTEX
  8
0
 10
35.7271
 20
66.4131
  0
VERTEX
  8
0
 10
35.7359
 20
66.4358
  0
VERTEX
  8
0
 10
35.7422
 20
66.46
  0
VERTEX
  8
0
 10
35.746
 20
66.4857
  0
VERTEX
  8
0
 10
35.7473
 20
66.5129
  0
VERTEX
  8
0
 10
35.743
 20
66.5653
  0
VERTEX
  8
0
 10
35.7293
 20
66.6132
  0
VERTEX
  8
0
 10
35.7061
 20
66.6565
  0
VERTEX
  8
0
 10
35.6735
 20
66.6952
  0
VERTEX
  8
0
 10
35.6199
 20
66.7358
  0
VERTEX
  8
0
 10
35.559
 20
66.7604
  0
VERTEX
  8
0
 10
35.4905
 20
66.769
  0
VERTEX
  8
0
 10
35.4252
 20
66.7617
  0
VERTEX
  8
0
 10
35.368
 20
66.7388
  0
VERTEX
  8
0
 10
35.3189
 20
66.7001
  0
VERTEX
  8
0
 10
35.2814
 20
66.6496
  0
VERTEX
  8
0
 10
35.2588
 20
66.5911
  0
VERTEX
  8
0
 10
35.2513
 20
66.5247
  0
VERTEX
  8
0
 10
35.2549
 20
66.4748
  0
VERTEX
  8
0
 10
35.2655
 20
66.4167
  0
VERTEX
  8
0
 10
35.1353
 20
66.4335
  0
VERTEX
  8
0
 10
35.1353
 20
66.4438
  0
VERTEX
  8
0
 10
35.1353
 20
66.4579
  0
VERTEX
  8
0
 10
35.1297
 20
66.5238
  0
VERTEX
  8
0
 10
35.113
 20
66.5814
  0
VERTEX
  8
0
 10
35.085
 20
66.6309
  0
VERTEX
  8
0
 10
35.054
 20
66.6647
  0
VERTEX
  8
0
 10
35.0173
 20
66.6891
  0
VERTEX
  8
0
 10
34.9748
 20
66.7038
  0
VERTEX
  8
0
 10
34.9265
 20
66.709
  0
VERTEX
  8
0
 10
34.8723
 20
66.703
  0
VERTEX
  8
0
 10
34.8254
 20
66.6841
  0
VERTEX
  8
0
 10
34.7859
 20
66.6521
  0
VERTEX
  8
0
 10
34.756
 20
66.6104
  0
VERTEX
  8
0
 10
34.7378
 20
66.562
  0
VERTEX
  8
0
 10
34.7313
 20
66.5069
  0
VERTEX
  8
0
 10
34.7324
 20
66.4789
  0
VERTEX
  8
0
 10
34.7362
 20
66.4527
  0
VERTEX
  8
0
 10
34.7427
 20
66.4283
  0
VERTEX
  8
0
 10
34.7519
 20
66.4058
  0
VERTEX
  8
0
 10
34.7638
 20
66.385
  0
VERTEX
  8
0
 10
34.7785
 20
66.366
  0
VERTEX
  8
0
 10
34.7958
 20
66.3489
  0
VERTEX
  8
0
 10
34.8158
 20
66.3335
  0
VERTEX
  8
0
 10
34.8385
 20
66.3199
  0
VERTEX
  8
0
 10
34.8639
 20
66.3082
  0
VERTEX
  8
0
 10
34.8921
 20
66.2982
  0
VERTEX
  8
0
 10
34.9229
 20
66.2901
  0
VERTEX
  8
0
 10
34.9565
 20
66.2837
  0
VERTEX
  8
0
 10
34.9293
 20
66.1322
  0
VERTEX
  8
0
 10
34.8584
 20
66.15
  0
VERTEX
  8
0
 10
34.7954
 20
66.1767
  0
VERTEX
  8
0
 10
34.7406
 20
66.2122
  0
VERTEX
  8
0
 10
34.6938
 20
66.2564
  0
VERTEX
  8
0
 10
34.6563
 20
66.3083
  0
VERTEX
  8
0
 10
34.6294
 20
66.3668
  0
VERTEX
  8
0
 10
34.6131
 20
66.4319
  0
VERTEX
  8
0
 10
34.6073
 20
66.5036
  0
VERTEX
  8
0
 10
34.6171
 20
66.5965
  0
VERTEX
  8
0
 10
34.6478
 20
66.6831
  0
VERTEX
  8
0
 10
34.6997
 20
66.7618
  0
VERTEX
  8
0
 10
34.7693
 20
66.8195
  0
VERTEX
  8
0
 10
34.8468
 20
66.8536
  0
VERTEX
  8
0
 10
34.9288
 20
66.865
  0
VERTEX
  8
0
 10
34.9659
 20
66.8629
  0
VERTEX
  8
0
 10
35.0007
 20
66.8566
  0
VERTEX
  8
0
 10
35.0332
 20
66.8462
  0
VERTEX
  8
0
 10
35.0633
 20
66.8316
  0
VERTEX
  8
0
 10
35.0912
 20
66.8129
  0
VERTEX
  8
0
 10
35.1167
 20
66.7899
  0
VERTEX
  8
0
 10
35.1399
 20
66.7628
  0
VERTEX
  8
0
 10
35.1608
 20
66.7316
  0
VERTEX
  8
0
 10
35.1794
 20
66.6961
  0
VERTEX
  8
0
 10
35.203
 20
66.7657
  0
VERTEX
  8
0
 10
35.2391
 20
66.8238
  0
VERTEX
  8
0
 10
35.2875
 20
66.8704
  0
VERTEX
  8
0
 10
35.3445
 20
66.9029
  0
VERTEX
  8
0
 10
35.4101
 20
66.9225
  0
VERTEX
  8
0
 10
35.484
 20
66.929
  0
VERTEX
  8
0
 10
35.5369
 20
66.9257
  0
VERTEX
  8
0
 10
35.5869
 20
66.9159
  0
VERTEX
  8
0
 10
35.6341
 20
66.8995
  0
VERTEX
  8
0
 10
35.6785
 20
66.8765
  0
VERTEX
  8
0
 10
35.72
 20
66.847
  0
VERTEX
  8
0
 10
35.7587
 20
66.811
  0
VERTEX
  8
0
 10
35.7929
 20
66.7699
  0
VERTEX
  8
0
 10
35.8209
 20
66.7252
  0
VERTEX
  8
0
 10
35.8427
 20
66.677
  0
VERTEX
  8
0
 10
35.8584
 20
66.6253
  0
VERTEX
  8
0
 10
35.868
 20
66.57
  0
VERTEX
  8
0
 10
35.8713
 20
66.5112
  0
VERTEX
  8
0
 10
35.8676
 20
66.4487
  0
VERTEX
  8
0
 10
35.8563
 20
66.3905
  0
VERTEX
  8
0
 10
35.8375
 20
66.3366
  0
VERTEX
  8
0
 10
35.8111
 20
66.2871
  0
VERTEX
  8
0
 10
35.7773
 20
66.2418
  0
VERTEX
  8
0
 10
35.7371
 20
66.2023
  0
VERTEX
  8
0
 10
35.6917
 20
66.17
  0
VERTEX
  8
0
 10
35.6411
 20
66.1451
  0
VERTEX
  8
0
 10
35.5854
 20
66.1274
  0
VERTEX
  8
0
 10
35.5245
 20
66.117
  0
VERTEX
  8
0
 10
35.5245
 20
66.117
  0
SEQEND
  0
POLYLINE
  8
0
 66
     1
 10
0
 20
0
  0
VERTEX
  8
0
 10
35.2398
 20
67.081
  0
VERTEX
  8
0
 10
35.1892
 20
67.0817
  0
VERTEX
  8
0
 10
35.1407
 20
67.0838
  0
VERTEX
  8
0
 10
35.0943
 20
67.0873
  0
VERTEX
  8
0
 10
35.05
 20
67.0922
  0
VERTEX
  8
0
 10
35.0077
 20
67.0985
  0
VERTEX
  8
0
 10
34.9675
 20
67.1062
  0
VERTEX
  8
0
 10
34.9294
 20
67.1153
  0
VERTEX
  8
0
 10
34.8934
 20
67.1258
  0
VERTEX
  8
0
 10
34.8594
 20
67.1377
  0
VERTEX
  8
0
 10
34.8276
 20
67.151
  0
VERTEX
  8
0
 10
34.7978
 20
67.1657
  0
VERTEX
  8
0
 10
34.77
 20
67.1818
  0
VERTEX
  8
0
 10
34.7444
 20
67.1993
  0
VERTEX
  8
0
 10
34.7208
 20
67.2182
  0
VERTEX
  8
0
 10
34.6994
 20
67.2385
  0
VERTEX
  8
0
 10
34.68
 20
67.2602
  0
VERTEX
  8
0
 10
34.6485
 20
67.3072
  0
VERTEX
  8
0
 10
34.6259
 20
67.3603
  0
VERTEX
  8
0
 10
34.6122
 20
67.4196
  0
VERTEX
  8
0
 10
34.6073
 20
67.485
  0
VERTEX
  8
0
 10
34.6171
 20
67.5773
  0
VERTEX
  8
0
 10
34.6478
 20
67.6599
  0
VERTEX
  8
0
 10
34.669
 20
67.6941
  0
VERTEX
  8
0
 10
34.6948
 20
67.7258
  0
VERTEX
  8
0
 10
34.7252
 20
67.7548
  0
VERTEX
  8
0
 10
34.7604
 20
67.7812
  0
VERTEX
  8
0
 10
34.8002
 20
67.8051
  0
VERTEX
  8
0
 10
34.8446
 20
67.8263
  0
VERTEX
  8
0
 10
34.8938
 20
67.845
  0
VERTEX
  8
0
 10
34.9476
 20
67.8611
  0
VERTEX
  8
0
 10
35.0058
 20
67.8733
  0
VERTEX
  8
0
 10
35.0738
 20
67.882
  0
VERTEX
  8
0
 10
35.1519
 20
67.8872
  0
VERTEX
  8
0
 10
35.2398
 20
67.889
  0
VERTEX
  8
0
 10
35.2935
 20
67.8882
  0
VERTEX
  8
0
 10
35.3449
 20
67.8858
  0
VERTEX
  8
0
 10
35.394
 20
67.8818
  0
VERTEX
  8
0
 10
35.4407
 20
67.8762
  0
VERTEX
  8
0
 10
35.485
 20
67.8691
  0
VERTEX
  8
0
 10
35.527
 20
67.8603
  0
VERTEX
  8
0
 10
35.5666
 20
67.85
  0
VERTEX
  8
0
 10
35.6038
 20
67.838
  0
VERTEX
  8
0
 10
35.6387
 20
67.8245
  0
VERTEX
  8
0
 10
35.6713
 20
67.8094
  0
VERTEX
  8
0
 10
35.7015
 20
67.7926
  0
VERTEX
  8
0
 10
35.7293
 20
67.7743
  0
VERTEX
  8
0
 10
35.7548
 20
67.7544
  0
VERTEX
  8
0
 10
35.7779
 20
67.7329
  0
VERTEX
  8
0
 10
35.7987
 20
67.7098
  0
VERTEX
  8
0
 10
35.8302
 20
67.6628
  0
VERTEX
  8
0
 10
35.8527
 20
67.6097
  0
VERTEX
  8
0
 10
35.8665
 20
67.5504
  0
VERTEX
  8
0
 10
35.8713
 20
67.485
  0
VERTEX
  8
0
 10
35.871
 20
67.4635
  0
VERTEX
  8
0
 10
35.8697
 20
67.4426
  0
VERTEX
  8
0
 10
35.8674
 20
67.4223
  0
VERTEX
  8
0
 10
35.8643
 20
67.4025
  0
VERTEX
  8
0
 10
35.8602
 20
67.3834
  0
VERTEX
  8
0
 10
35.8552
 20
67.3648
  0
VERTEX
  8
0
 10
35.8492
 20
67.3469
  0
VERTEX
  8
0
 10
35.8424
 20
67.3295
  0
VERTEX
  8
0
 10
35.8346
 20
67.3127
  0
VERTEX
  8
0
 10
35.8259
 20
67.2965
  0
VERTEX
  8
0
 10
35.8162
 20
67.2808
  0
VERTEX
  8
0
 10
35.8056
 20
67.2658
  0
VERTEX
  8
0
 10
35.7941
 20
67.2514
  0
VERTEX
  8
0
 10
35.7817
 20
67.2375
  0
VERTEX
  8
0
 10
35.7683
 20
67.2242
  0
VERTEX
  8
0
 10
35.7541
 20
67.2116
  0
VERTEX
  8
0
 10
35.7388
 20
67.1995
  0
VERTEX
  8
0
 10
35.7227
 20
67.188
  0
VERTEX
  8
0
 10
35.7056
 20
67.177
  0
VERTEX
  8
0
 10
35.6876
 20
67.1667
  0
VERTEX
  8
0
 10
35.6687
 20
67.157
  0
VERTEX
  8
0
 10
35.6489
 20
67.1478
  0
VERTEX
  8
0
 10
35.6281
 20
67.1392
  0
VERTEX
  8
0
 10
35.6064
 20
67.1313
  0
VERTEX
  8
0
 10
35.5837
 20
67.1239
  0
VERTEX
  8
0
 10
35.5602
 20
67.1171
  0
VERTEX
  8
0
 10
35.5357
 20
67.1108
  0
VERTEX
  8
0
 10
35.5103
 20
67.1052
  0
VERTEX
  8
0
 10
35.4839
 20
67.1002
  0
VERTEX
  8
0
 10
35.4567
 20
67.0957
  0
VERTEX
  8
0
 10
35.4285
 20
67.0919
  0
VERTEX
  8
0
 10
35.3993
 20
67.0886
  0
VERTEX
  8
0
 10
35.3693
 20
67.0859
  0
VERTEX
  8
0
 10
35.3383
 20
67.0838
  0
VERTEX
  8
0
 10
35.3064
 20
67.0823
  0
VERTEX
  8
0
 10
35.2735
 20
67.0813
  0
VERTEX
  8
0
 10
35.2398
 20
67.081
  0
VERTEX
  8
0
 10
35.2398
 20
67.081
  0
SEQEND
  0
POLYLINE
  8
0
 66
     1
 10
0
 20
0
  0
VERTEX
  8
0
 10
35.2393
 20
67.237
  0
VERTEX
  8
0
 10
35.3184
 20
67.2383
  0
VERTEX
  8
0
 10
35.3896
 20
67.2423
  0
VERTEX
  8
0
 10
35.4529
 20
67.2489
  0
VERTEX
  8
0
 10
35.5084
 20
67.2581
  0
VERTEX
  8
0
 10
35.556
 20
67.27
  0
VERTEX
  8
0
 10
35.5922
 20
67.2824
  0
VERTEX
  8
0
 10
35.6246
 20
67.2967
  0
VERTEX
  8
0
 10
35.6532
 20
67.3132
  0
VERTEX
  8
0
 10
35.678
 20
67.3316
  0
VERTEX
  8
0
 10
35.6991
 20
67.3521
  0
VERTEX
  8
0
 10
35.7163
 20
67.3746
  0
VERTEX
  8
0
 10
35.7297
 20
67.3992
  0
VERTEX
  8
0
 10
35.7394
 20
67.4257
  0
VERTEX
  8
0
 10
35.7453
 20
67.4544
  0
VERTEX
  8
0
 10
35.7473
 20
67.485
  0
VERTEX
  8
0
 10
35.7468
 20
67.5024
  0
VERTEX
  8
0
 10
35.745
 20
67.5192
  0
VERTEX
  8
0
 10
35.7418
 20
67.5353
  0
VERTEX
  8
0
 10
35.7374
 20
67.5508
  0
VERTEX
  8
0
 10
35.7316
 20
67.5657
  0
VERTEX
  8
0
 10
35.7246
 20
67.5799
  0
VERTEX
  8
0
 10
35.7162
 20
67.5935
  0
VERTEX
  8
0
 10
35.7066
 20
67.6065
  0
VERTEX
  8
0
 10
35.6956
 20
67.6188
  0
VERTEX
  8
0
 10
35.6833
 20
67.6305
  0
VERTEX
  8
0
 10
35.6697
 20
67.6416
  0
VERTEX
  8
0
 10
35.6549
 20
67.652
  0
VERTEX
  8
0
 10
35.6387
 20
67.6618
  0
VERTEX
  8
0
 10
35.6212
 20
67.671
  0
VERTEX
  8
0
 10
35.6024
 20
67.6795
  0
VERTEX
  8
0
 10
35.5823
 20
67.6874
  0
VERTEX
  8
0
 10
35.5609
 20
67.6947
  0
VERTEX
  8
0
 10
35.5382
 20
67.7014
  0
VERTEX
  8
0
 10
35.5142
 20
67.7074
  0
VERTEX
  8
0
 10
35.4888
 20
67.7127
  0
VERTEX
  8
0
 10
35.4622
 20
67.7175
  0
VERTEX
  8
0
 10
35.4343
 20
67.7216
  0
VERTEX
  8
0
 10
35.4051
 20
67.7251
  0
VERTEX
  8
0
 10
35.3745
 20
67.7279
  0
VERTEX
  8
0
 10
35.3427
 20
67.7301
  0
VERTEX
  8
0
 10
35.3095
 20
67.7317
  0
VERTEX
  8
0
 10
35.2751
 20
67.7327
  0
VERTEX
  8
0
 10
35.2393
 20
67.733
  0
VERTEX
  8
0
 10
35.1603
 20
67.7317
  0
VERTEX
  8
0
 10
35.0891
 20
67.7277
  0
VERTEX
  8
0
 10
35.0258
 20
67.7211
  0
VERTEX
  8
0
 10
34.9703
 20
67.7119
  0
VERTEX
  8
0
 10
34.9227
 20
67.7
  0
VERTEX
  8
0
 10
34.8865
 20
67.6875
  0
VERTEX
  8
0
 10
34.8541
 20
67.6729
  0
VERTEX
  8
0
 10
34.8255
 20
67.6563
  0
VERTEX
  8
0
 10
34.8006
 20
67.6377
  0
VERTEX
  8
0
 10
34.7796
 20
67.617
  0
VERTEX
  8
0
 10
34.7624
 20
67.5944
  0
VERTEX
  8
0
 10
34.7489
 20
67.5696
  0
VERTEX
  8
0
 10
34.7393
 20
67.5429
  0
VERTEX
  8
0
 10
34.7334
 20
67.5141
  0
VERTEX
  8
0
 10
34.7313
 20
67.4833
  0
VERTEX
  8
0
 10
34.7366
 20
67.4335
  0
VERTEX
  8
0
 10
34.7531
 20
67.3889
  0
VERTEX
  8
0
 10
34.781
 20
67.3497
  0
VERTEX
  8
0
 10
34.8202
 20
67.3157
  0
VERTEX
  8
0
 10
34.8445
 20
67.3007
  0
VERTEX
  8
0
 10
34.8728
 20
67.2873
  0
VERTEX
  8
0
 10
34.9049
 20
67.2755
  0
VERTEX
  8
0
 10
34.9409
 20
67.2653
  0
VERTEX
  8
0
 10
34.9809
 20
67.2567
  0
VERTEX
  8
0
 10
35.0248
 20
67.2496
  0
VERTEX
  8
0
 10
35.0725
 20
67.2441
  0
VERTEX
  8
0
 10
35.1242
 20
67.2401
  0
VERTEX
  8
0
 10
35.1798
 20
67.2378
  0
VERTEX
  8
0
 10
35.2393
 20
67.237
  0
VERTEX
  8
0
 10
35.2393
 20
67.237
  0
SEQEND
  0
LINE
  8
0
 10
35.25
 20
68.1859
 11
35.25
 21
82
  0
LINE
  8
0
 10
35.5183
 20
81.4633
 11
35.25
 21
82
  0
LINE
  8
0
 10
34.9817
 20
81.4633
 11
35.25
 21
82
  0
LINE
  8
0
 10
35.55
 20
82
 11
30.3
 21
82
  0
LINE
  8
0
 10
35.25
 20
65.8141
 11
35.25
 21
52
  0
LINE
  8
0
 10
34.9817
 20
52.5367
 11
35.25
 21
52
  0
LINE
  8
0
 10
35.5183
 20
52.5367
 11
35.25
 21
52
  0
LINE
  8
0
 10
35.55
 20
52
 11
30.3
 21
52
  0
POLYLINE
  8
0
 66
     1
 10
0
 20
0
  0
VERTEX
  8
0
 10
14.1153
 20
46.4799
  0
VERTEX
  8
0
 10
14.268
 20
46.5
  0
VERTEX
  8
0
 10
14.2755
 20
46.4666
  0
VERTEX
  8
0
 10
14.2845
 20
46.4357
  0
VERTEX
  8
0
 10
14.2951
 20
46.4073
  0
VERTEX
  8
0
 10
14.3072
 20
46.3813
  0
VERTEX
  8
0
 10
14.3208
 20
46.3578
  0
VERTEX
  8
0
 10
14.3359
 20
46.3368
  0
VERTEX
  8
0
 10
14.3525
 20
46.3182
  0
VERTEX
  8
0
 10
14.3706
 20
46.3021
  0
VERTEX
  8
0
 10
14.3903
 20
46.2884
  0
VERTEX
  8
0
 10
14.4115
 20
46.2772
  0
VERTEX
  8
0
 10
14.4341
 20
46.2684
  0
VERTEX
  8
0
 10
14.4583
 20
46.2622
  0
VERTEX
  8
0
 10
14.484
 20
46.2583
  0
VERTEX
  8
0
 10
14.5113
 20
46.257
  0
VERTEX
  8
0
 10
14.5637
 20
46.2613
  0
VERTEX
  8
0
 10
14.6115
 20
46.2751
  0
VERTEX
  8
0
 10
14.6548
 20
46.2982
  0
VERTEX
  8
0
 10
14.6936
 20
46.3309
  0
VERTEX
  8
0
 10
14.7342
 20
46.3844
  0
VERTEX
  8
0
 10
14.7587
 20
46.4454
  0
VERTEX
  8
0
 10
14.7673
 20
46.5138
  0
VERTEX
  8
0
 10
14.76
 20
46.5791
  0
VERTEX
  8
0
 10
14.7371
 20
46.6363
  0
VERTEX
  8
0
 10
14.6984
 20
46.6854
  0
VERTEX
  8
0
 10
14.6479
 20
46.723
  0
VERTEX
  8
0
 10
14.5895
 20
46.7455
  0
VERTEX
  8
0
 10
14.5231
 20
46.753
  0
VERTEX
  8
0
 10
14.4731
 20
46.7495
  0
VERTEX
  8
0
 10
14.415
 20
46.7389
  0
VERTEX
  8
0
 10
14.4318
 20
46.869
  0
VERTEX
  8
0
 10
14.4421
 20
46.869
  0
VERTEX
  8
0
 10
14.4562
 20
46.869
  0
VERTEX
  8
0
 10
14.5221
 20
46.8746
  0
VERTEX
  8
0
 10
14.5798
 20
46.8914
  0
VERTEX
  8
0
 10
14.6292
 20
46.9193
  0
VERTEX
  8
0
 10
14.6631
 20
46.9503
  0
VERTEX
  8
0
 10
14.6874
 20
46.9871
  0
VERTEX
  8
0
 10
14.7021
 20
47.0296
  0
VERTEX
  8
0
 10
14.7073
 20
47.0778
  0
VERTEX
  8
0
 10
14.7014
 20
47.1321
  0
VERTEX
  8
0
 10
14.6825
 20
47.1789
  0
VERTEX
  8
0
 10
14.6505
 20
47.2184
  0
VERTEX
  8
0
 10
14.6087
 20
47.2484
  0
VERTEX
  8
0
 10
14.5603
 20
47.2665
  0
VERTEX
  8
0
 10
14.5052
 20
47.273
  0
VERTEX
  8
0
 10
14.4772
 20
47.2719
  0
VERTEX
  8
0
 10
14.451
 20
47.2681
  0
VERTEX
  8
0
 10
14.4267
 20
47.2616
  0
VERTEX
  8
0
 10
14.4041
 20
47.2524
  0
VERTEX
  8
0
 10
14.3833
 20
47.2405
  0
VERTEX
  8
0
 10
14.3644
 20
47.2259
  0
VERTEX
  8
0
 10
14.3472
 20
47.2086
  0
VERTEX
  8
0
 10
14.3318
 20
47.1885
  0
VERTEX
  8
0
 10
14.3183
 20
47.1658
  0
VERTEX
  8
0
 10
14.3065
 20
47.1404
  0
VERTEX
  8
0
 10
14.2966
 20
47.1122
  0
VERTEX
  8
0
 10
14.2884
 20
47.0814
  0
VERTEX
  8
0
 10
14.2821
 20
47.0479
  0
VERTEX
  8
0
 10
14.1305
 20
47.075
  0
VERTEX
  8
0
 10
14.1484
 20
47.146
  0
VERTEX
  8
0
 10
14.175
 20
47.2089
  0
VERTEX
  8
0
 10
14.2105
 20
47.2637
  0
VERTEX
  8
0
 10
14.2547
 20
47.3106
  0
VERTEX
  8
0
 10
14.3067
 20
47.348
  0
VERTEX
  8
0
 10
14.3652
 20
47.3749
  0
VERTEX
  8
0
 10
14.4303
 20
47.3913
  0
VERTEX
  8
0
 10
14.502
 20
47.397
  0
VERTEX
  8
0
 10
14.5948
 20
47.3873
  0
VERTEX
  8
0
 10
14.6814
 20
47.3565
  0
VERTEX
  8
0
 10
14.7602
 20
47.3046
  0
VERTEX
  8
0
 10
14.8178
 20
47.235
  0
VERTEX
  8
0
 10
14.852
 20
47.1576
  0
VERTEX
  8
0
 10
14.8633
 20
47.0755
  0
VERTEX
  8
0
 10
14.8612
 20
47.0384
  0
VERTEX
  8
0
 10
14.855
 20
47.0036
  0
VERTEX
  8
0
 10
14.8446
 20
46.9711
  0
VERTEX
  8
0
 10
14.83
 20
46.941
  0
VERTEX
  8
0
 10
14.8112
 20
46.9132
  0
VERTEX
  8
0
 10
14.7883
 20
46.8876
  0
VERTEX
  8
0
 10
14.7612
 20
46.8644
  0
VERTEX
  8
0
 10
14.7299
 20
46.8435
  0
VERTEX
  8
0
 10
14.6945
 20
46.8249
  0
VERTEX
  8
0
 10
14.7641
 20
46.8013
  0
VERTEX
  8
0
 10
14.8222
 20
46.7653
  0
VERTEX
  8
0
 10
14.8687
 20
46.7169
  0
VERTEX
  8
0
 10
14.9013
 20
46.6598
  0
VERTEX
  8
0
 10
14.9208
 20
46.5943
  0
VERTEX
  8
0
 10
14.9273
 20
46.5203
  0
VERTEX
  8
0
 10
14.9241
 20
46.4674
  0
VERTEX
  8
0
 10
14.9142
 20
46.4174
  0
VERTEX
  8
0
 10
14.8978
 20
46.3702
  0
VERTEX
  8
0
 10
14.8749
 20
46.3258
  0
VERTEX
  8
0
 10
14.8454
 20
46.2843
  0
VERTEX
  8
0
 10
14.8093
 20
46.2456
  0
VERTEX
  8
0
 10
14.7682
 20
46.2115
  0
VERTEX
  8
0
 10
14.7236
 20
46.1834
  0
VERTEX
  8
0
 10
14.6754
 20
46.1616
  0
VERTEX
  8
0
 10
14.6236
 20
46.1459
  0
VERTEX
  8
0
 10
14.5684
 20
46.1364
  0
VERTEX
  8
0
 10
14.5095
 20
46.133
  0
VERTEX
  8
0
 10
14.447
 20
46.1368
  0
VERTEX
  8
0
 10
14.3889
 20
46.148
  0
VERTEX
  8
0
 10
14.335
 20
46.1669
  0
VERTEX
  8
0
 10
14.2854
 20
46.1932
  0
VERTEX
  8
0
 10
14.2401
 20
46.2271
  0
VERTEX
  8
0
 10
14.2006
 20
46.2673
  0
VERTEX
  8
0
 10
14.1684
 20
46.3127
  0
VERTEX
  8
0
 10
14.1434
 20
46.3632
  0
VERTEX
  8
0
 10
14.1257
 20
46.419
  0
VERTEX
  8
0
 10
14.1153
 20
46.4799
  0
VERTEX
  8
0
 10
14.1153
 20
46.4799
  0
SEQEND
  0
POLYLINE
  8
0
 66
     1
 10
0
 20
0
  0
VERTEX
  8
0
 10
15.0753
 20
46.7646
  0
VERTEX
  8
0
 10
15.076
 20
46.8151
  0
VERTEX
  8
0
 10
15.0781
 20
46.8636
  0
VERTEX
  8
0
 10
15.0816
 20
46.91
  0
VERTEX
  8
0
 10
15.0865
 20
46.9544
  0
VERTEX
  8
0
 10
15.0928
 20
46.9966
  0
VERTEX
  8
0
 10
15.1005
 20
47.0368
  0
VERTEX
  8
0
 10
15.1096
 20
47.0749
  0
VERTEX
  8
0
 10
15.1201
 20
47.1109
  0
VERTEX
  8
0
 10
15.132
 20
47.1449
  0
VERTEX
  8
0
 10
15.1453
 20
47.1768
  0
VERTEX
  8
0
 10
15.16
 20
47.2066
  0
VERTEX
  8
0
 10
15.1761
 20
47.2343
  0
VERTEX
  8
0
 10
15.1936
 20
47.2599
  0
VERTEX
  8
0
 10
15.2125
 20
47.2835
  0
VERTEX
  8
0
 10
15.2328
 20
47.305
  0
VERTEX
  8
0
 10
15.2545
 20
47.3244
  0
VERTEX
  8
0
 10
15.3015
 20
47.3558
  0
VERTEX
  8
0
 10
15.3547
 20
47.3784
  0
VERTEX
  8
0
 10
15.4139
 20
47.3921
  0
VERTEX
  8
0
 10
15.4793
 20
47.397
  0
VERTEX
  8
0
 10
15.5717
 20
47.3873
  0
VERTEX
  8
0
 10
15.6543
 20
47.3565
  0
VERTEX
  8
0
 10
15.6885
 20
47.3354
  0
VERTEX
  8
0
 10
15.7201
 20
47.3096
  0
VERTEX
  8
0
 10
15.7491
 20
47.2791
  0
VERTEX
  8
0
 10
15.7756
 20
47.244
  0
VERTEX
  8
0
 10
15.7994
 20
47.2042
  0
VERTEX
  8
0
 10
15.8207
 20
47.1597
  0
VERTEX
  8
0
 10
15.8394
 20
47.1105
  0
VERTEX
  8
0
 10
15.8555
 20
47.0567
  0
VERTEX
  8
0
 10
15.8677
 20
46.9986
  0
VERTEX
  8
0
 10
15.8764
 20
46.9305
  0
VERTEX
  8
0
 10
15.8816
 20
46.8525
  0
VERTEX
  8
0
 10
15.8833
 20
46.7646
  0
VERTEX
  8
0
 10
15.8825
 20
46.7108
  0
VERTEX
  8
0
 10
15.8801
 20
46.6594
  0
VERTEX
  8
0
 10
15.8762
 20
46.6104
  0
VERTEX
  8
0
 10
15.8706
 20
46.5637
  0
VERTEX
  8
0
 10
15.8634
 20
46.5193
  0
VERTEX
  8
0
 10
15.8547
 20
46.4774
  0
VERTEX
  8
0
 10
15.8443
 20
46.4377
  0
VERTEX
  8
0
 10
15.8324
 20
46.4005
  0
VERTEX
  8
0
 10
15.8188
 20
46.3656
  0
VERTEX
  8
0
 10
15.8037
 20
46.333
  0
VERTEX
  8
0
 10
15.787
 20
46.3028
  0
VERTEX
  8
0
 10
15.7687
 20
46.275
  0
VERTEX
  8
0
 10
15.7487
 20
46.2495
  0
VERTEX
  8
0
 10
15.7272
 20
46.2264
  0
VERTEX
  8
0
 10
15.7041
 20
46.2056
  0
VERTEX
  8
0
 10
15.6571
 20
46.1742
  0
VERTEX
  8
0
 10
15.604
 20
46.1516
  0
VERTEX
  8
0
 10
15.5447
 20
46.1379
  0
VERTEX
  8
0
 10
15.4793
 20
46.133
  0
VERTEX
  8
0
 10
15.4578
 20
46.1334
  0
VERTEX
  8
0
 10
15.4369
 20
46.1347
  0
VERTEX
  8
0
 10
15.4166
 20
46.1369
  0
VERTEX
  8
0
 10
15.3969
 20
46.14
  0
VERTEX
  8
0
 10
15.3777
 20
46.1441
  0
VERTEX
  8
0
 10
15.3592
 20
46.1491
  0
VERTEX
  8
0
 10
15.3412
 20
46.1551
  0
VERTEX
  8
0
 10
15.3238
 20
46.1619
  0
VERTEX
  8
0
 10
15.307
 20
46.1697
  0
VERTEX
  8
0
 10
15.2908
 20
46.1785
  0
VERTEX
  8
0
 10
15.2752
 20
46.1881
  0
VERTEX
  8
0
 10
15.2602
 20
46.1987
  0
VERTEX
  8
0
 10
15.2457
 20
46.2102
  0
VERTEX
  8
0
 10
15.2319
 20
46.2226
  0
VERTEX
  8
0
 10
15.2186
 20
46.236
  0
VERTEX
  8
0
 10
15.2059
 20
46.2503
  0
VERTEX
  8
0
 10
15.1938
 20
46.2655
  0
VERTEX
  8
0
 10
15.1823
 20
46.2816
  0
VERTEX
  8
0
 10
15.1714
 20
46.2987
  0
VERTEX
  8
0
 10
15.1611
 20
46.3167
  0
VERTEX
  8
0
 10
15.1513
 20
46.3356
  0
VERTEX
  8
0
 10
15.1422
 20
46.3555
  0
VERTEX
  8
0
 10
15.1336
 20
46.3762
  0
VERTEX
  8
0
 10
15.1256
 20
46.3979
  0
VERTEX
  8
0
 10
15.1182
 20
46.4206
  0
VERTEX
  8
0
 10
15.1114
 20
46.4441
  0
VERTEX
  8
0
 10
15.1052
 20
46.4686
  0
VERTEX
  8
0
 10
15.0996
 20
46.4941
  0
VERTEX
  8
0
 10
15.0945
 20
46.5204
  0
VERTEX
  8
0
 10
15.0901
 20
46.5477
  0
VERTEX
  8
0
 10
15.0862
 20
46.5759
  0
VERTEX
  8
0
 10
15.0829
 20
46.605
  0
VERTEX
  8
0
 10
15.0802
 20
46.6351
  0
VERTEX
  8
0
 10
15.0781
 20
46.666
  0
VERTEX
  8
0
 10
15.0766
 20
46.6979
  0
VERTEX
  8
0
 10
15.0757
 20
46.7308
  0
VERTEX
  8
0
 10
15.0753
 20
46.7646
  0
VERTEX
  8
0
 10
15.0753
 20
46.7646
  0
SEQEND
  0
POLYLINE
  8
0
 66
     1
 10
0
 20
0
  0
VERTEX
  8
0
 10
15.2313
 20
46.765
  0
VERTEX
  8
0
 10
15.2327
 20
46.6859
  0
VERTEX
  8
0
 10
15.2366
 20
46.6148
  0
VERTEX
  8
0
 10
15.2432
 20
46.5514
  0
VERTEX
  8
0
 10
15.2525
 20
46.496
  0
VERTEX
  8
0
 10
15.2643
 20
46.4484
  0
VERTEX
  8
0
 10
15.2767
 20
46.4122
  0
VERTEX
  8
0
 10
15.2911
 20
46.3797
  0
VERTEX
  8
0
 10
15.3075
 20
46.3511
  0
VERTEX
  8
0
 10
15.326
 20
46.3263
  0
VERTEX
  8
0
 10
15.3465
 20
46.3053
  0
VERTEX
  8
0
 10
15.369
 20
46.288
  0
VERTEX
  8
0
 10
15.3935
 20
46.2746
  0
VERTEX
  8
0
 10
15.4201
 20
46.2649
  0
VERTEX
  8
0
 10
15.4487
 20
46.2591
  0
VERTEX
  8
0
 10
15.4793
 20
46.257
  0
VERTEX
  8
0
 10
15.4967
 20
46.2575
  0
VERTEX
  8
0
 10
15.5135
 20
46.2594
  0
VERTEX
  8
0
 10
15.5296
 20
46.2625
  0
VERTEX
  8
0
 10
15.5451
 20
46.2669
  0
VERTEX
  8
0
 10
15.56
 20
46.2727
  0
VERTEX
  8
0
 10
15.5742
 20
46.2797
  0
VERTEX
  8
0
 10
15.5878
 20
46.2881
  0
VERTEX
  8
0
 10
15.6008
 20
46.2978
  0
VERTEX
  8
0
 10
15.6131
 20
46.3087
  0
VERTEX
  8
0
 10
15.6248
 20
46.321
  0
VERTEX
  8
0
 10
15.6359
 20
46.3346
  0
VERTEX
  8
0
 10
15.6464
 20
46.3495
  0
VERTEX
  8
0
 10
15.6562
 20
46.3657
  0
VERTEX
  8
0
 10
15.6653
 20
46.3831
  0
VERTEX
  8
0
 10
15.6739
 20
46.4019
  0
VERTEX
  8
0
 10
15.6818
 20
46.422
  0
VERTEX
  8
0
 10
15.6891
 20
46.4434
  0
VERTEX
  8
0
 10
15.6957
 20
46.4662
  0
VERTEX
  8
0
 10
15.7017
 20
46.4902
  0
VERTEX
  8
0
 10
15.7071
 20
46.5155
  0
VERTEX
  8
0
 10
15.7118
 20
46.5421
  0
VERTEX
  8
0
 10
15.7159
 20
46.57
  0
VERTEX
  8
0
 10
15.7194
 20
46.5993
  0
VERTEX
  8
0
 10
15.7223
 20
46.6298
  0
VERTEX
  8
0
 10
15.7245
 20
46.6616
  0
VERTEX
  8
0
 10
15.7261
 20
46.6948
  0
VERTEX
  8
0
 10
15.727
 20
46.7292
  0
VERTEX
  8
0
 10
15.7273
 20
46.765
  0
VERTEX
  8
0
 10
15.726
 20
46.844
  0
VERTEX
  8
0
 10
15.7221
 20
46.9152
  0
VERTEX
  8
0
 10
15.7155
 20
46.9785
  0
VERTEX
  8
0
 10
15.7062
 20
47.034
  0
VERTEX
  8
0
 10
15.6943
 20
47.0816
  0
VERTEX
  8
0
 10
15.6818
 20
47.1178
  0
VERTEX
  8
0
 10
15.6672
 20
47.1502
  0
VERTEX
  8
0
 10
15.6507
 20
47.1788
  0
VERTEX
  8
0
 10
15.632
 20
47.2037
  0
VERTEX
  8
0
 10
15.6114
 20
47.2247
  0
VERTEX
  8
0
 10
15.5887
 20
47.2419
  0
VERTEX
  8
0
 10
15.564
 20
47.2554
  0
VERTEX
  8
0
 10
15.5372
 20
47.2651
  0
VERTEX
  8
0
 10
15.5085
 20
47.2709
  0
VERTEX
  8
0
 10
15.4776
 20
47.273
  0
VERTEX
  8
0
 10
15.4278
 20
47.2678
  0
VERTEX
  8
0
 10
15.3833
 20
47.2512
  0
VERTEX
  8
0
 10
15.344
 20
47.2233
  0
VERTEX
  8
0
 10
15.31
 20
47.1841
  0
VERTEX
  8
0
 10
15.2951
 20
47.1598
  0
VERTEX
  8
0
 10
15.2817
 20
47.1316
  0
VERTEX
  8
0
 10
15.2699
 20
47.0994
  0
VERTEX
  8
0
 10
15.2597
 20
47.0634
  0
VERTEX
  8
0
 10
15.251
 20
47.0234
  0
VERTEX
  8
0
 10
15.2439
 20
46.9796
  0
VERTEX
  8
0
 10
15.2384
 20
46.9318
  0
VERTEX
  8
0
 10
15.2345
 20
46.8801
  0
VERTEX
  8
0
 10
15.2321
 20
46.8245
  0
VERTEX
  8
0
 10
15.2313
 20
46.765
  0
VERTEX
  8
0
 10
15.2313
 20
46.765
  0
SEQEND
  0
LINE
  8
0
 10
16.1859
 20
46.75
 11
30
 21
46.75
  0
LINE
  8
0
 10
29.4633
 20
46.4817
 11
30
 21
46.75
  0
LINE
  8
0
 10
29.4633
 20
47.0183
 11
30
 21
46.75
  0
LINE
  8
0
 10
30
 20
46.45
 11
30
 21
51.7
  0
LINE
  8
0
 10
13.8141
 20
46.75
 11
0
 21
46.75
  0
LINE
  8
0
 10
0.5367
 20
47.0183
 11
0
 21
46.75
  0
LINE
  8
0
 10
0.5367
 20
46.4817
 11
0
 21
46.75
  0
LINE
  8
0
 10
0
 20
46.45
 11
0
 21
51.7
  0
POLYLINE
  8
0
 66
     1
 10
0
 20
0
  0
VERTEX
  8
0
 10
0.4553
 20
44.157
  0
VERTEX
  8
0
 10
0.3033
 20
44.157
  0
VERTEX
  8
0
 10
0.3033
 20
45.1293
  0
VERTEX
  8
0
 10
0.2163
 20
45.0583
  0
VERTEX
  8
0
 10
0.1149
 20
44.9972
  0
VERTEX
  8
0
 10
-0.0007
 20
44.9461
  0
VERTEX
  8
0
 10
-0.0007
 20
45.0934
  0
VERTEX
  8
0
 10
0.0561
 20
45.1219
  0
VERTEX
  8
0
 10
0.1087
 20
45.1518
  0
VERTEX
  8
0
 10
0.157
 20
45.1834
  0
VERTEX
  8
0
 10
0.201
 20
45.2164
  0
VERTEX
  8
0
 10
0.2408
 20
45.251
  0
VERTEX
  8
0
 10
0.2763
 20
45.2872
  0
VERTEX
  8
0
 10
0.3076
 20
45.3249
  0
VERTEX
  8
0
 10
0.3346
 20
45.3642
  0
VERTEX
  8
0
 10
0.3574
 20
45.405
  0
VERTEX
  8
0
 10
0.4553
 20
45.405
  0
VERTEX
  8
0
 10
0.4553
 20
44.157
  0
SEQEND
  0
POLYLINE
  8
0
 66
     1
 10
0
 20
0
  0
VERTEX
  8
0
 10
0.9233
 20
44.157
  0
VERTEX
  8
0
 10
0.9233
 20
44.333
  0
VERTEX
  8
0
 10
1.0953
 20
44.333
  0
VERTEX
  8
0
 10
1.0953
 20
44.157
  0
VERTEX
  8
0
 10
0.9233
 20
44.157
  0
SEQEND
  0
POLYLINE
  8
0
 66
     1
 10
0
 20
0
  0
VERTEX
  8
0
 10
1.3193
 20
44.4852
  0
VERTEX
  8
0
 10
1.479
 20
44.4987
  0
VERTEX
  8
0
 10
1.4849
 20
44.4665
  0
VERTEX
  8
0
 10
1.4926
 20
44.4367
  0
VERTEX
  8
0
 10
1.5019
 20
44.4093
  0
VERTEX
  8
0
 10
1.513
 20
44.3842
  0
VERTEX
  8
0
 10
1.5257
 20
44.3616
  0
VERTEX
  8
0
 10
1.5402
 20
44.3413
  0
VERTEX
  8
0
 10
1.5563
 20
44.3234
  0
VERTEX
  8
0
 10
1.5742
 20
44.3079
  0
VERTEX
  8
0
 10
1.5938
 20
44.2948
  0
VERTEX
  8
0
 10
1.6151
 20
44.2841
  0
VERTEX
  8
0
 10
1.6381
 20
44.2757
  0
VERTEX
  8
0
 10
1.6628
 20
44.2698
  0
VERTEX
  8
0
 10
1.6892
 20
44.2662
  0
VERTEX
  8
0
 10
1.7173
 20
44.265
  0
VERTEX
  8
0
 10
1.764
 20
44.2687
  0
VERTEX
  8
0
 10
1.8068
 20
44.2798
  0
VERTEX
  8
0
 10
1.8457
 20
44.2983
  0
VERTEX
  8
0
 10
1.8807
 20
44.3241
  0
VERTEX
  8
0
 10
1.9117
 20
44.3574
  0
VERTEX
  8
0
 10
1.9493
 20
44.418
  0
VERTEX
  8
0
 10
1.9718
 20
44.4875
  0
VERTEX
  8
0
 10
1.9793
 20
44.5659
  0
VERTEX
  8
0
 10
1.9749
 20
44.6252
  0
VERTEX
  8
0
 10
1.9618
 20
44.6784
  0
VERTEX
  8
0
 10
1.9399
 20
44.7258
  0
VERTEX
  8
0
 10
1.9092
 20
44.7672
  0
VERTEX
  8
0
 10
1.8707
 20
44.801
  0
VERTEX
  8
0
 10
1.8255
 20
44.8251
  0
VERTEX
  8
0
 10
1.7736
 20
44.8398
  0
VERTEX
  8
0
 10
1.7148
 20
44.845
  0
VERTEX
  8
0
 10
1.6682
 20
44.842
  0
VERTEX
  8
0
 10
1.6251
 20
44.8323
  0
VERTEX
  8
0
 10
1.5857
 20
44.816
  0
VERTEX
  8
0
 10
1.5499
 20
44.7931
  0
VERTEX
  8
0
 10
1.5177
 20
44.7636
  0
VERTEX
  8
0
 10
1.4891
 20
44.7274
  0
VERTEX
  8
0
 10
1.3463
 20
44.746
  0
VERTEX
  8
0
 10
1.4662
 20
45.381
  0
VERTEX
  8
0
 10
2.0816
 20
45.381
  0
VERTEX
  8
0
 10
2.0816
 20
45.237
  0
VERTEX
  8
0
 10
1.5897
 20
45.237
  0
VERTEX
  8
0
 10
1.5226
 20
44.9036
  0
VERTEX
  8
0
 10
1.5979
 20
44.9462
  0
VERTEX
  8
0
 10
1.6756
 20
44.972
  0
VERTEX
  8
0
 10
1.7557
 20
44.981
  0
VERTEX
  8
0
 10
1.8102
 20
44.978
  0
VERTEX
  8
0
 10
1.8613
 20
44.9685
  0
VERTEX
  8
0
 10
1.9092
 20
44.9524
  0
VERTEX
  8
0
 10
1.9539
 20
44.9297
  0
VERTEX
  8
0
 10
1.9952
 20
44.9005
  0
VERTEX
  8
0
 10
2.0333
 20
44.8647
  0
VERTEX
  8
0
 10
2.0657
 20
44.8253
  0
VERTEX
  8
0
 10
2.0922
 20
44.7826
  0
VERTEX
  8
0
 10
2.1128
 20
44.7369
  0
VERTEX
  8
0
 10
2.1276
 20
44.688
  0
VERTEX
  8
0
 10
2.1364
 20
44.636
  0
VERTEX
  8
0
 10
2.1393
 20
44.5808
  0
VERTEX
  8
0
 10
2.1354
 20
44.5158
  0
VERTEX
  8
0
 10
2.1237
 20
44.4544
  0
VERTEX
  8
0
 10
2.1041
 20
44.3964
  0
VERTEX
  8
0
 10
2.0767
 20
44.3419
  0
VERTEX
  8
0
 10
2.0415
 20
44.291
  0
VERTEX
  8
0
 10
2.0104
 20
44.256
  0
VERTEX
  8
0
 10
1.9766
 20
44.2257
  0
VERTEX
  8
0
 10
1.94
 20
44.2
  0
VERTEX
  8
0
 10
1.9008
 20
44.1789
  0
VERTEX
  8
0
 10
1.8589
 20
44.1625
  0
VERTEX
  8
0
 10
1.8142
 20
44.1507
  0
VERTEX
  8
0
 10
1.7668
 20
44.1435
  0
VERTEX
  8
0
 10
1.7167
 20
44.141
  0
VERTEX
  8
0
 10
1.6532
 20
44.1446
  0
VERTEX
  8
0
 10
1.5942
 20
44.1554
  0
VERTEX
  8
0
 10
1.5399
 20
44.1734
  0
VERTEX
  8
0
 10
1.4902
 20
44.1986
  0
VERTEX
  8
0
 10
1.445
 20
44.2311
  0
VERTEX
  8
0
 10
1.4049
 20
44.2708
  0
VERTEX
  8
0
 10
1.3723
 20
44.3162
  0
VERTEX
  8
0
 10
1.3471
 20
44.367
  0
VERTEX
  8
0
 10
1.3295
 20
44.4234
  0
VERTEX
  8
0
 10
1.3193
 20
44.4852
  0
VERTEX
  8
0
 10
1.3193
 20
44.4852
  0
SEQEND
  0
POLYLINE
  8
0
 66
     1
 10
0
 20
0
  0
VERTEX
  8
0
 10
2.2873
 20
44.7726
  0
VERTEX
  8
0
 10
2.288
 20
44.8231
  0
VERTEX
  8
0
 10
2.2901
 20
44.8716
  0
VERTEX
  8
0
 10
2.2936
 20
44.918
  0
VERTEX
  8
0
 10
2.2985
 20
44.9624
  0
VERTEX
  8
0
 10
2.3048
 20
45.0046
  0
VERTEX
  8
0
 10
2.3125
 20
45.0448
  0
VERTEX
  8
0
 10
2.3216
 20
45.0829
  0
VERTEX
  8
0
 10
2.3321
 20
45.1189
  0
VERTEX
  8
0
 10
2.344
 20
45.1529
  0
VERTEX
  8
0
 10
2.3573
 20
45.1848
  0
VERTEX
  8
0
 10
2.372
 20
45.2146
  0
VERTEX
  8
0
 10
2.3881
 20
45.2423
  0
VERTEX
  8
0
 10
2.4056
 20
45.2679
  0
VERTEX
  8
0
 10
2.4245
 20
45.2915
  0
VERTEX
  8
0
 10
2.4448
 20
45.313
  0
VERTEX
  8
0
 10
2.4665
 20
45.3324
  0
VERTEX
  8
0
 10
2.5135
 20
45.3638
  0
VERTEX
  8
0
 10
2.5667
 20
45.3864
  0
VERTEX
  8
0
 10
2.6259
 20
45.4001
  0
VERTEX
  8
0
 10
2.6913
 20
45.405
  0
VERTEX
  8
0
 10
2.7837
 20
45.3953
  0
VERTEX
  8
0
 10
2.8663
 20
45.3645
  0
VERTEX
  8
0
 10
2.9005
 20
45.3434
  0
VERTEX
  8
0
 10
2.9321
 20
45.3176
  0
VERTEX
  8
0
 10
2.9611
 20
45.2871
  0
VERTEX
  8
0
 10
2.9876
 20
45.252
  0
VERTEX
  8
0
 10
3.0114
 20
45.2122
  0
VERTEX
  8
0
 10
3.0327
 20
45.1677
  0
VERTEX
  8
0
 10
3.0514
 20
45.1185
  0
VERTEX
  8
0
 10
3.0675
 20
45.0647
  0
VERTEX
  8
0
 10
3.0797
 20
45.0066
  0
VERTEX
  8
0
 10
3.0884
 20
44.9385
  0
VERTEX
  8
0
 10
3.0936
 20
44.8605
  0
VERTEX
  8
0
 10
3.0953
 20
44.7726
  0
VERTEX
  8
0
 10
3.0945
 20
44.7188
  0
VERTEX
  8
0
 10
3.0921
 20
44.6674
  0
VERTEX
  8
0
 10
3.0882
 20
44.6184
  0
VERTEX
  8
0
 10
3.0826
 20
44.5717
  0
VERTEX
  8
0
 10
3.0754
 20
44.5273
  0
VERTEX
  8
0
 10
3.0667
 20
44.4854
  0
VERTEX
  8
0
 10
3.0563
 20
44.4457
  0
VERTEX
  8
0
 10
3.0444
 20
44.4085
  0
VERTEX
  8
0
 10
3.0308
 20
44.3736
  0
VERTEX
  8
0
 10
3.0157
 20
44.341
  0
VERTEX
  8
0
 10
2.999
 20
44.3108
  0
VERTEX
  8
0
 10
2.9807
 20
44.283
  0
VERTEX
  8
0
 10
2.9607
 20
44.2575
  0
VERTEX
  8
0
 10
2.9392
 20
44.2344
  0
VERTEX
  8
0
 10
2.9161
 20
44.2136
  0
VERTEX
  8
0
 10
2.8691
 20
44.1822
  0
VERTEX
  8
0
 10
2.816
 20
44.1596
  0
VERTEX
  8
0
 10
2.7567
 20
44.1459
  0
VERTEX
  8
0
 10
2.6913
 20
44.141
  0
VERTEX
  8
0
 10
2.6698
 20
44.1414
  0
VERTEX
  8
0
 10
2.6489
 20
44.1427
  0
VERTEX
  8
0
 10
2.6286
 20
44.1449
  0
VERTEX
  8
0
 10
2.6089
 20
44.148
  0
VERTEX
  8
0
 10
2.5897
 20
44.1521
  0
VERTEX
  8
0
 10
2.5712
 20
44.1571
  0
VERTEX
  8
0
 10
2.5532
 20
44.1631
  0
VERTEX
  8
0
 10
2.5358
 20
44.1699
  0
VERTEX
  8
0
 10
2.519
 20
44.1777
  0
VERTEX
  8
0
 10
2.5028
 20
44.1865
  0
VERTEX
  8
0
 10
2.4872
 20
44.1961
  0
VERTEX
  8
0
 10
2.4722
 20
44.2067
  0
VERTEX
  8
0
 10
2.4577
 20
44.2182
  0
VERTEX
  8
0
 10
2.4439
 20
44.2306
  0
VERTEX
  8
0
 10
2.4306
 20
44.244
  0
VERTEX
  8
0
 10
2.4179
 20
44.2583
  0
VERTEX
  8
0
 10
2.4058
 20
44.2735
  0
VERTEX
  8
0
 10
2.3943
 20
44.2896
  0
VERTEX
  8
0
 10
2.3834
 20
44.3067
  0
VERTEX
  8
0
 10
2.3731
 20
44.3247
  0
VERTEX
  8
0
 10
2.3633
 20
44.3436
  0
VERTEX
  8
0
 10
2.3542
 20
44.3635
  0
VERTEX
  8
0
 10
2.3456
 20
44.3842
  0
VERTEX
  8
0
 10
2.3376
 20
44.4059
  0
VERTEX
  8
0
 10
2.3302
 20
44.4286
  0
VERTEX
  8
0
 10
2.3234
 20
44.4521
  0
VERTEX
  8
0
 10
2.3172
 20
44.4766
  0
VERTEX
  8
0
 10
2.3116
 20
44.5021
  0
VERTEX
  8
0
 10
2.3065
 20
44.5284
  0
VERTEX
  8
0
 10
2.3021
 20
44.5557
  0
VERTEX
  8
0
 10
2.2982
 20
44.5839
  0
VERTEX
  8
0
 10
2.2949
 20
44.613
  0
VERTEX
  8
0
 10
2.2922
 20
44.6431
  0
VERTEX
  8
0
 10
2.2901
 20
44.674
  0
VERTEX
  8
0
 10
2.2886
 20
44.7059
  0
VERTEX
  8
0
 10
2.2877
 20
44.7388
  0
VERTEX
  8
0
 10
2.2873
 20
44.7726
  0
VERTEX
  8
0
 10
2.2873
 20
44.7726
  0
SEQEND
  0
POLYLINE
  8
0
 66
     1
 10
0
 20
0
  0
VERTEX
  8
0
 10
2.4433
 20
44.773
  0
VERTEX
  8
0
 10
2.4447
 20
44.6939
  0
VERTEX
  8
0
 10
2.4486
 20
44.6228
  0
VERTEX
  8
0
 10
2.4552
 20
44.5594
  0
VERTEX
  8
0
 10
2.4645
 20
44.504
  0
VERTEX
  8
0
 10
2.4763
 20
44.4564
  0
VERTEX
  8
0
 10
2.4887
 20
44.4202
  0
VERTEX
  8
0
 10
2.5031
 20
44.3877
  0
VERTEX
  8
0
 10
2.5195
 20
44.3591
  0
VERTEX
  8
0
 10
2.538
 20
44.3343
  0
VERTEX
  8
0
 10
2.5585
 20
44.3133
  0
VERTEX
  8
0
 10
2.581
 20
44.296
  0
VERTEX
  8
0
 10
2.6055
 20
44.2826
  0
VERTEX
  8
0
 10
2.6321
 20
44.2729
  0
VERTEX
  8
0
 10
2.6607
 20
44.2671
  0
VERTEX
  8
0
 10
2.6913
 20
44.265
  0
VERTEX
  8
0
 10
2.7087
 20
44.2655
  0
VERTEX
  8
0
 10
2.7255
 20
44.2674
  0
VERTEX
  8
0
 10
2.7416
 20
44.2705
  0
VERTEX
  8
0
 10
2.7571
 20
44.2749
  0
VERTEX
  8
0
 10
2.772
 20
44.2807
  0
VERTEX
  8
0
 10
2.7862
 20
44.2877
  0
VERTEX
  8
0
 10
2.7998
 20
44.2961
  0
VERTEX
  8
0
 10
2.8128
 20
44.3058
  0
VERTEX
  8
0
 10
2.8251
 20
44.3167
  0
VERTEX
  8
0
 10
2.8368
 20
44.329
  0
VERTEX
  8
0
 10
2.8479
 20
44.3426
  0
VERTEX
  8
0
 10
2.8584
 20
44.3575
  0
VERTEX
  8
0
 10
2.8682
 20
44.3737
  0
VERTEX
  8
0
 10
2.8773
 20
44.3911
  0
VERTEX
  8
0
 10
2.8859
 20
44.4099
  0
VERTEX
  8
0
 10
2.8938
 20
44.43
  0
VERTEX
  8
0
 10
2.9011
 20
44.4514
  0
VERTEX
  8
0
 10
2.9077
 20
44.4742
  0
VERTEX
  8
0
 10
2.9137
 20
44.4982
  0
VERTEX
  8
0
 10
2.9191
 20
44.5235
  0
VERTEX
  8
0
 10
2.9238
 20
44.5501
  0
VERTEX
  8
0
 10
2.9279
 20
44.578
  0
VERTEX
  8
0
 10
2.9314
 20
44.6073
  0
VERTEX
  8
0
 10
2.9343
 20
44.6378
  0
VERTEX
  8
0
 10
2.9365
 20
44.6696
  0
VERTEX
  8
0
 10
2.9381
 20
44.7028
  0
VERTEX
  8
0
 10
2.939
 20
44.7372
  0
VERTEX
  8
0
 10
2.9393
 20
44.773
  0
VERTEX
  8
0
 10
2.938
 20
44.852
  0
VERTEX
  8
0
 10
2.9341
 20
44.9232
  0
VERTEX
  8
0
 10
2.9275
 20
44.9865
  0
VERTEX
  8
0
 10
2.9182
 20
45.042
  0
VERTEX
  8
0
 10
2.9063
 20
45.0896
  0
VERTEX
  8
0
 10
2.8938
 20
45.1258
  0
VERTEX
  8
0
 10
2.8792
 20
45.1582
  0
VERTEX
  8
0
 10
2.8627
 20
45.1868
  0
VERTEX
  8
0
 10
2.844
 20
45.2117
  0
VERTEX
  8
0
 10
2.8234
 20
45.2327
  0
VERTEX
  8
0
 10
2.8007
 20
45.2499
  0
VERTEX
  8
0
 10
2.776
 20
45.2634
  0
VERTEX
  8
0
 10
2.7492
 20
45.2731
  0
VERTEX
  8
0
 10
2.7205
 20
45.2789
  0
VERTEX
  8
0
 10
2.6896
 20
45.281
  0
VERTEX
  8
0
 10
2.6398
 20
45.2758
  0
VERTEX
  8
0
 10
2.5953
 20
45.2592
  0
VERTEX
  8
0
 10
2.556
 20
45.2313
  0
VERTEX
  8
0
 10
2.522
 20
45.1921
  0
VERTEX
  8
0
 10
2.5071
 20
45.1678
  0
VERTEX
  8
0
 10
2.4937
 20
45.1396
  0
VERTEX
  8
0
 10
2.4819
 20
45.1074
  0
VERTEX
  8
0
 10
2.4717
 20
45.0714
  0
VERTEX
  8
0
 10
2.463
 20
45.0314
  0
VERTEX
  8
0
 10
2.4559
 20
44.9876
  0
VERTEX
  8
0
 10
2.4504
 20
44.9398
  0
VERTEX
  8
0
 10
2.4465
 20
44.8881
  0
VERTEX
  8
0
 10
2.4441
 20
44.8325
  0
VERTEX
  8
0
 10
2.4433
 20
44.773
  0
VERTEX
  8
0
 10
2.4433
 20
44.773
  0
SEQEND
  0
POLYLINE
  8
0
 66
     1
 10
0
 20
0
  0
VERTEX
  8
0
 10
3.2973
 20
44.961
  0
VERTEX
  8
0
 10
3.2553
 20
45.1954
  0
VERTEX
  8
0
 10
3.2553
 20
45.397
  0
VERTEX
  8
0
 10
3.4273
 20
45.397
  0
VERTEX
  8
0
 10
3.4273
 20
45.1954
  0
VERTEX
  8
0
 10
3.3896
 20
44.961
  0
VERTEX
  8
0
 10
3.2973
 20
44.961
  0
SEQEND
  0
POLYLINE
  8
0
 66
     1
 10
0
 20
0
  0
VERTEX
  8
0
 10
3.5765
 20
44.961
  0
VERTEX
  8
0
 10
3.5353
 20
45.1954
  0
VERTEX
  8
0
 10
3.5353
 20
45.397
  0
VERTEX
  8
0
 10
3.7073
 20
45.397
  0
VERTEX
  8
0
 10
3.7073
 20
45.1954
  0
VERTEX
  8
0
 10
3.6671
 20
44.961
  0
VERTEX
  8
0
 10
3.5765
 20
44.961
  0
SEQEND
  0
POLYLINE
  8
0
 66
     1
 10
0
 20
0
  0
VERTEX
  8
0
 10
4.7233
 20
44.157
  0
VERTEX
  8
0
 10
4.7233
 20
45.397
  0
VERTEX
  8
0
 10
5.2713
 20
45.397
  0
VERTEX
  8
0
 10
5.3585
 20
45.3945
  0
VERTEX
  8
0
 10
5.4313
 20
45.3869
  0
VERTEX
  8
0
 10
5.4896
 20
45.3742
  0
VERTEX
  8
0
 10
5.5426
 20
45.3534
  0
VERTEX
  8
0
 10
5.5887
 20
45.3251
  0
VERTEX
  8
0
 10
5.6278
 20
45.2892
  0
VERTEX
  8
0
 10
5.6599
 20
45.2456
  0
VERTEX
  8
0
 10
5.6981
 20
45.157
  0
VERTEX
  8
0
 10
5.7113
 20
45.0587
  0
VERTEX
  8
0
 10
5.7107
 20
45.0318
  0
VERTEX
  8
0
 10
5.7085
 20
45.006
  0
VERTEX
  8
0
 10
5.7047
 20
44.9814
  0
VERTEX
  8
0
 10
5.6993
 20
44.9577
  0
VERTEX
  8
0
 10
5.6923
 20
44.9352
  0
VERTEX
  8
0
 10
5.6837
 20
44.9137
  0
VERTEX
  8
0
 10
5.6735
 20
44.8933
  0
VERTEX
  8
0
 10
5.6617
 20
44.874
  0
VERTEX
  8
0
 10
5.6484
 20
44.8558
  0
VERTEX
  8
0
 10
5.6334
 20
44.8387
  0
VERTEX
  8
0
 10
5.6169
 20
44.8226
  0
VERTEX
  8
0
 10
5.5988
 20
44.8076
  0
VERTEX
  8
0
 10
5.5791
 20
44.7937
  0
VERTEX
  8
0
 10
5.5578
 20
44.7808
  0
VERTEX
  8
0
 10
5.5349
 20
44.7691
  0
VERTEX
  8
0
 10
5.5104
 20
44.7584
  0
VERTEX
  8
0
 10
5.4843
 20
44.7488
  0
VERTEX
  8
0
 10
5.4566
 20
44.7403
  0
VERTEX
  8
0
 10
5.4274
 20
44.7328
  0
VERTEX
  8
0
 10
5.3965
 20
44.7265
  0
VERTEX
  8
0
 10
5.3641
 20
44.7212
  0
VERTEX
  8
0
 10
5.4217
 20
44.6901
  0
VERTEX
  8
0
 10
5.4628
 20
44.6594
  0
VERTEX
  8
0
 10
5.5344
 20
44.5831
  0
VERTEX
  8
0
 10
5.5988
 20
44.4945
  0
VERTEX
  8
0
 10
5.814
 20
44.157
  0
VERTEX
  8
0
 10
5.6107
 20
44.157
  0
VERTEX
  8
0
 10
5.4451
 20
44.4191
  0
VERTEX
  8
0
 10
5.394
 20
44.4978
  0
VERTEX
  8
0
 10
5.3539
 20
44.5558
  0
VERTEX
  8
0
 10
5.2941
 20
44.6291
  0
VERTEX
  8
0
 10
5.2431
 20
44.6739
  0
VERTEX
  8
0
 10
5.206
 20
44.6945
  0
VERTEX
  8
0
 10
5.1688
 20
44.7071
  0
VERTEX
  8
0
 10
5.1329
 20
44.7115
  0
VERTEX
  8
0
 10
5.0775
 20
44.713
  0
VERTEX
  8
0
 10
4.8873
 20
44.713
  0
VERTEX
  8
0
 10
4.8873
 20
44.157
  0
VERTEX
  8
0
 10
4.7233
 20
44.157
  0
SEQEND
  0
POLYLINE
  8
0
 66
     1
 10
0
 20
0
  0
VERTEX
  8
0
 10
4.8873
 20
44.853
  0
VERTEX
  8
0
 10
5.239
 20
44.853
  0
VERTEX
  8
0
 10
5.2889
 20
44.8545
  0
VERTEX
  8
0
 10
5.3343
 20
44.859
  0
VERTEX
  8
0
 10
5.3752
 20
44.8666
  0
VERTEX
  8
0
 10
5.4114
 20
44.8772
  0
VERTEX
  8
0
 10
5.443
 20
44.8908
  0
VERTEX
  8
0
 10
5.4701
 20
44.9074
  0
VERTEX
  8
0
 10
5.4926
 20
44.9271
  0
VERTEX
  8
0
 10
5.5105
 20
44.9497
  0
VERTEX
  8
0
 10
5.5351
 20
45.0032
  0
VERTEX
  8
0
 10
5.5433
 20
45.0608
  0
VERTEX
  8
0
 10
5.5381
 20
45.1104
  0
VERTEX
  8
0
 10
5.5225
 20
45.1531
  0
VERTEX
  8
0
 10
5.4964
 20
45.189
  0
VERTEX
  8
0
 10
5.4598
 20
45.2181
  0
VERTEX
  8
0
 10
5.4094
 20
45.2419
  0
VERTEX
  8
0
 10
5.3489
 20
45.2562
  0
VERTEX
  8
0
 10
5.2786
 20
45.261
  0
VERTEX
  8
0
 10
4.8873
 20
45.261
  0
VERTEX
  8
0
 10
4.8873
 20
44.853
  0
SEQEND
  0
POLYLINE
  8
0
 66
     1
 10
0
 20
0
  0
VERTEX
  8
0
 10
6.5438
 20
44.2716
  0
VERTEX
  8
0
 10
6.4922
 20
44.2319
  0
VERTEX
  8
0
 10
6.4393
 20
44.1994
  0
VERTEX
  8
0
 10
6.3849
 20
44.174
  0
VERTEX
  8
0
 10
6.3293
 20
44.1559
  0
VERTEX
  8
0
 10
6.2722
 20
44.1448
  0
VERTEX
  8
0
 10
6.2138
 20
44.141
  0
VERTEX
  8
0
 10
6.1314
 20
44.1474
  0
VERTEX
  8
0
 10
6.0599
 20
44.1676
  0
VERTEX
  8
0
 10
5.9993
 20
44.2018
  0
VERTEX
  8
0
 10
5.9665
 20
44.2315
  0
VERTEX
  8
0
 10
5.9409
 20
44.266
  0
VERTEX
  8
0
 10
5.9225
 20
44.3052
  0
VERTEX
  8
0
 10
5.9113
 20
44.3492
  0
VERTEX
  8
0
 10
5.9073
 20
44.3979
  0
VERTEX
  8
0
 10
5.9101
 20
44.4403
  0
VERTEX
  8
0
 10
5.9189
 20
44.4795
  0
VERTEX
  8
0
 10
5.9339
 20
44.5157
  0
VERTEX
  8
0
 10
5.9549
 20
44.5488
  0
VERTEX
  8
0
 10
5.982
 20
44.5788
  0
VERTEX
  8
0
 10
6.0153
 20
44.6057
  0
VERTEX
  8
0
 10
6.0659
 20
44.6347
  0
VERTEX
  8
0
 10
6.1249
 20
44.6556
  0
VERTEX
  8
0
 10
6.1801
 20
44.6672
  0
VERTEX
  8
0
 10
6.2598
 20
44.6784
  0
VERTEX
  8
0
 10
6.3311
 20
44.6878
  0
VERTEX
  8
0
 10
6.3938
 20
44.6977
  0
VERTEX
  8
0
 10
6.4479
 20
44.7082
  0
VERTEX
  8
0
 10
6.4935
 20
44.7192
  0
VERTEX
  8
0
 10
6.5305
 20
44.7307
  0
VERTEX
  8
0
 10
6.5307
 20
44.7572
  0
VERTEX
  8
0
 10
6.5313
 20
44.7705
  0
VERTEX
  8
0
 10
6.5266
 20
44.8263
  0
VERTEX
  8
0
 10
6.5122
 20
44.87
  0
VERTEX
  8
0
 10
6.4883
 20
44.9014
  0
VERTEX
  8
0
 10
6.4436
 20
44.9297
  0
VERTEX
  8
0
 10
6.386
 20
44.9469
  0
VERTEX
  8
0
 10
6.3155
 20
44.953
  0
VERTEX
  8
0
 10
6.2526
 20
44.9494
  0
VERTEX
  8
0
 10
6.2012
 20
44.9375
  0
VERTEX
  8
0
 10
6.1611
 20
44.9173
  0
VERTEX
  8
0
 10
6.1283
 20
44.8852
  0
VERTEX
  8
0
 10
6.1019
 20
44.84
  0
VERTEX
  8
0
 10
6.0819
 20
44.7815
  0
VERTEX
  8
0
 10
5.9335
 20
44.8017
  0
VERTEX
  8
0
 10
5.9453
 20
44.8458
  0
VERTEX
  8
0
 10
5.9608
 20
44.886
  0
VERTEX
  8
0
 10
5.9802
 20
44.9223
  0
VERTEX
  8
0
 10
6.0034
 20
44.9547
  0
VERTEX
  8
0
 10
6.0304
 20
44.9831
  0
VERTEX
  8
0
 10
6.0611
 20
45.0077
  0
VERTEX
  8
0
 10
6.0956
 20
45.0283
  0
VERTEX
  8
0
 10
6.134
 20
45.045
  0
VERTEX
  8
0
 10
6.2273
 20
45.0686
  0
VERTEX
  8
0
 10
6.337
 20
45.077
  0
VERTEX
  8
0
 10
6.3878
 20
45.0757
  0
VERTEX
  8
0
 10
6.4346
 20
45.0713
  0
VERTEX
  8
0
 10
6.4772
 20
45.0639
  0
VERTEX
  8
0
 10
6.5157
 20
45.0535
  0
VERTEX
  8
0
 10
6.5501
 20
45.04
  0
VERTEX
  8
0
 10
6.5803
 20
45.0235
  0
VERTEX
  8
0
 10
6.6065
 20
45.0039
  0
VERTEX
  8
0
 10
6.6286
 20
44.9812
  0
VERTEX
  8
0
 10
6.6568
 20
44.9355
  0
VERTEX
  8
0
 10
6.6758
 20
44.8779
  0
VERTEX
  8
0
 10
6.68
 20
44.8472
  0
VERTEX
  8
0
 10
6.6825
 20
44.8004
  0
VERTEX
  8
0
 10
6.6833
 20
44.7373
  0
VERTEX
  8
0
 10
6.6833
 20
44.534
  0
VERTEX
  8
0
 10
6.6833
 20
44.4909
  0
VERTEX
  8
0
 10
6.6834
 20
44.4533
  0
VERTEX
  8
0
 10
6.6835
 20
44.421
  0
VERTEX
  8
0
 10
6.6836
 20
44.3942
  0
VERTEX
  8
0
 10
6.6837
 20
44.3727
  0
VERTEX
  8
0
 10
6.6838
 20
44.3567
  0
VERTEX
  8
0
 10
6.684
 20
44.346
  0
VERTEX
  8
0
 10
6.6842
 20
44.3408
  0
VERTEX
  8
0
 10
6.6999
 20
44.2389
  0
VERTEX
  8
0
 10
6.733
 20
44.157
  0
VERTEX
  8
0
 10
6.5743
 20
44.157
  0
VERTEX
  8
0
 10
6.5553
 20
44.2101
  0
VERTEX
  8
0
 10
6.5438
 20
44.2716
  0
VERTEX
  8
0
 10
6.5438
 20
44.2716
  0
SEQEND
  0
POLYLINE
  8
0
 66
     1
 10
0
 20
0
  0
VERTEX
  8
0
 10
6.5313
 20
44.6109
  0
VERTEX
  8
0
 10
6.485
 20
44.595
  0
VERTEX
  8
0
 10
6.4283
 20
44.5802
  0
VERTEX
  8
0
 10
6.3613
 20
44.5665
  0
VERTEX
  8
0
 10
6.2841
 20
44.5537
  0
VERTEX
  8
0
 10
6.2193
 20
44.5432
  0
VERTEX
  8
0
 10
6.1781
 20
44.5336
  0
VERTEX
  8
0
 10
6.1268
 20
44.5089
  0
VERTEX
  8
0
 10
6.0923
 20
44.4738
  0
VERTEX
  8
0
 10
6.077
 20
44.4404
  0
VERTEX
  8
0
 10
6.0713
 20
44.4023
  0
VERTEX
  8
0
 10
6.0772
 20
44.3584
  0
VERTEX
  8
0
 10
6.096
 20
44.3219
  0
VERTEX
  8
0
 10
6.1276
 20
44.2929
  0
VERTEX
  8
0
 10
6.183
 20
44.269
  0
VERTEX
  8
0
 10
6.2513
 20
44.261
  0
VERTEX
  8
0
 10
6.2915
 20
44.2628
  0
VERTEX
  8
0
 10
6.3287
 20
44.2681
  0
VERTEX
  8
0
 10
6.363
 20
44.2769
  0
VERTEX
  8
0
 10
6.3944
 20
44.2892
  0
VERTEX
  8
0
 10
6.4228
 20
44.3051
  0
VERTEX
  8
0
 10
6.4483
 20
44.3245
  0
VERTEX
  8
0
 10
6.4708
 20
44.3475
  0
VERTEX
  8
0
 10
6.4903
 20
44.374
  0
VERTEX
  8
0
 10
6.507
 20
44.404
  0
VERTEX
  8
0
 10
6.5252
 20
44.4675
  0
VERTEX
  8
0
 10
6.5313
 20
44.5554
  0
VERTEX
  8
0
 10
6.5313
 20
44.6109
  0
SEQEND
  0
POLYLINE
  8
0
 66
     1
 10
0
 20
0
  0
VERTEX
  8
0
 10
7.4993
 20
44.157
  0
VERTEX
  8
0
 10
7.4993
 20
44.2741
  0
VERTEX
  8
0
 10
7.4737
 20
44.239
  0
VERTEX
  8
0
 10
7.4448
 20
44.2092
  0
VERTEX
  8
0
 10
7.4126
 20
44.1849
  0
VERTEX
  8
0
 10
7.377
 20
44.1658
  0
VERTEX
  8
0
 10
7.3381
 20
44.1522
  0
VERTEX
  8
0
 10
7.2959
 20
44.1439
  0
VERTEX
  8
0
 10
7.2504
 20
44.141
  0
VERTEX
  8
0
 10
7.1794
 20
44.1474
  0
VERTEX
  8
0
 10
7.1129
 20
44.168
  0
VERTEX
  8
0
 10
7.0509
 20
44.2026
  0
VERTEX
  8
0
 10
6.9731
 20
44.2732
  0
VERTEX
  8
0
 10
6.9155
 20
44.3653
  0
VERTEX
  8
0
 10
6.8798
 20
44.4775
  0
VERTEX
  8
0
 10
6.8673
 20
44.6082
  0
VERTEX
  8
0
 10
6.8683
 20
44.6556
  0
VERTEX
  8
0
 10
6.8718
 20
44.7006
  0
VERTEX
  8
0
 10
6.8778
 20
44.7432
  0
VERTEX
  8
0
 10
6.8864
 20
44.7835
  0
VERTEX
  8
0
 10
6.8975
 20
44.8213
  0
VERTEX
  8
0
 10
6.9111
 20
44.8567
  0
VERTEX
  8
0
 10
6.9272
 20
44.8897
  0
VERTEX
  8
0
 10
6.9458
 20
44.9203
  0
VERTEX
  8
0
 10
6.967
 20
44.9486
  0
VERTEX
  8
0
 10
6.9907
 20
44.9744
  0
VERTEX
  8
0
 10
7.0169
 20
44.9978
  0
VERTEX
  8
0
 10
7.0456
 20
45.0188
  0
VERTEX
  8
0
 10
7.107
 20
45.0511
  0
VERTEX
  8
0
 10
7.1735
 20
45.0705
  0
VERTEX
  8
0
 10
7.245
 20
45.077
  0
VERTEX
  8
0
 10
7.2885
 20
45.0745
  0
VERTEX
  8
0
 10
7.3293
 20
45.067
  0
VERTEX
  8
0
 10
7.3672
 20
45.0545
  0
VERTEX
  8
0
 10
7.4024
 20
45.037
  0
VERTEX
  8
0
 10
7.4348
 20
45.0145
  0
VERTEX
  8
0
 10
7.4645
 20
44.987
  0
VERTEX
  8
0
 10
7.4913
 20
44.9546
  0
VERTEX
  8
0
 10
7.4913
 20
45.397
  0
VERTEX
  8
0
 10
7.6433
 20
45.397
  0
VERTEX
  8
0
 10
7.6433
 20
44.157
  0
VERTEX
  8
0
 10
7.4993
 20
44.157
  0
SEQEND
  0
POLYLINE
  8
0
 66
     1
 10
0
 20
0
  0
VERTEX
  8
0
 10
7.0233
 20
44.6086
  0
VERTEX
  8
0
 10
7.0292
 20
44.5225
  0
VERTEX
  8
0
 10
7.047
 20
44.4461
  0
VERTEX
  8
0
 10
7.0765
 20
44.3792
  0
VERTEX
  8
0
 10
7.0999
 20
44.3446
  0
VERTEX
  8
0
 10
7.1266
 20
44.3162
  0
VERTEX
  8
0
 10
7.1568
 20
44.294
  0
VERTEX
  8
0
 10
7.1903
 20
44.2781
  0
VERTEX
  8
0
 10
7.2271
 20
44.2684
  0
VERTEX
  8
0
 10
7.2674
 20
44.265
  0
VERTEX
  8
0
 10
7.3071
 20
44.2678
  0
VERTEX
  8
0
 10
7.3434
 20
44.2766
  0
VERTEX
  8
0
 10
7.3763
 20
44.2916
  0
VERTEX
  8
0
 10
7.4059
 20
44.3127
  0
VERTEX
  8
0
 10
7.4321
 20
44.34
  0
VERTEX
  8
0
 10
7.4549
 20
44.3733
  0
VERTEX
  8
0
 10
7.4835
 20
44.4379
  0
VERTEX
  8
0
 10
7.5007
 20
44.5121
  0
VERTEX
  8
0
 10
7.5064
 20
44.5959
  0
VERTEX
  8
0
 10
7.5009
 20
44.6866
  0
VERTEX
  8
0
 10
7.4843
 20
44.7659
  0
VERTEX
  8
0
 10
7.4566
 20
44.8337
  0
VERTEX
  8
0
 10
7.4333
 20
44.8701
  0
VERTEX
  8
0
 10
7.4063
 20
44.9
  0
VERTEX
  8
0
 10
7.3755
 20
44.9232
  0
VERTEX
  8
0
 10
7.341
 20
44.9397
  0
VERTEX
  8
0
 10
7.3027
 20
44.9497
  0
VERTEX
  8
0
 10
7.2606
 20
44.953
  0
VERTEX
  8
0
 10
7.2197
 20
44.9498
  0
VERTEX
  8
0
 10
7.1826
 20
44.9403
  0
VERTEX
  8
0
 10
7.1492
 20
44.9244
  0
VERTEX
  8
0
 10
7.1195
 20
44.9022
  0
VERTEX
  8
0
 10
7.0936
 20
44.8736
  0
VERTEX
  8
0
 10
7.0715
 20
44.8387
  0
VERTEX
  8
0
 10
7.0447
 20
44.7733
  0
VERTEX
  8
0
 10
7.0287
 20
44.6966
  0
VERTEX
  8
0
 10
7.0233
 20
44.6086
  0
VERTEX
  8
0
 10
7.0233
 20
44.6086
  0
SEQEND
  0
POLYLINE
  8
0
 66
     1
 10
0
 20
0
  0
VERTEX
  8
0
 10
7.8793
 20
45.221
  0
VERTEX
  8
0
 10
7.8793
 20
45.397
  0
VERTEX
  8
0
 10
8.0313
 20
45.397
  0
VERTEX
  8
0
 10
8.0313
 20
45.221
  0
VERTEX
  8
0
 10
7.8793
 20
45.221
  0
SEQEND
  0
POLYLINE
  8
0
 66
     1
 10
0
 20
0
  0
VERTEX
  8
0
 10
7.8793
 20
44.157
  0
VERTEX
  8
0
 10
7.8793
 20
45.0576
  0
VERTEX
  8
0
 10
8.0313
 20
45.0576
  0
VERTEX
  8
0
 10
8.0313
 20
44.157
  0
VERTEX
  8
0
 10
7.8793
 20
44.157
  0
SEQEND
  0
POLYLINE
  8
0
 66
     1
 10
0
 20
0
  0
VERTEX
  8
0
 10
8.8553
 20
44.157
  0
VERTEX
  8
0
 10
8.8553
 20
44.2927
  0
VERTEX
  8
0
 10
8.8281
 20
44.2571
  0
VERTEX
  8
0
 10
8.7985
 20
44.2263
  0
VERTEX
  8
0
 10
8.7665
 20
44.2002
  0
VERTEX
  8
0
 10
8.7321
 20
44.1789
  0
VERTEX
  8
0
 10
8.6953
 20
44.1623
  0
VERTEX
  8
0
 10
8.656
 20
44.1505
  0
VERTEX
  8
0
 10
8.6144
 20
44.1434
  0
VERTEX
  8
0
 10
8.5703
 20
44.141
  0
VERTEX
  8
0
 10
8.5003
 20
44.1475
  0
VERTEX
  8
0
 10
8.4325
 20
44.1671
  0
VERTEX
  8
0
 10
8.3665
 20
44.2015
  0
VERTEX
  8
0
 10
8.3191
 20
44.2472
  0
VERTEX
  8
0
 10
8.2915
 20
44.2974
  0
VERTEX
  8
0
 10
8.2726
 20
44.3603
  0
VERTEX
  8
0
 10
8.2657
 20
44.4185
  0
VERTEX
  8
0
 10
8.2633
 20
44.502
  0
VERTEX
  8
0
 10
8.2633
 20
45.057
  0
VERTEX
  8
0
 10
8.4153
 20
45.057
  0
VERTEX
  8
0
 10
8.4153
 20
44.561
  0
VERTEX
  8
0
 10
8.4159
 20
44.5055
  0
VERTEX
  8
0
 10
8.4177
 20
44.4604
  0
VERTEX
  8
0
 10
8.4206
 20
44.4255
  0
VERTEX
  8
0
 10
8.4246
 20
44.401
  0
VERTEX
  8
0
 10
8.4341
 20
44.3714
  0
VERTEX
  8
0
 10
8.4471
 20
44.3456
  0
VERTEX
  8
0
 10
8.4637
 20
44.3238
  0
VERTEX
  8
0
 10
8.4839
 20
44.3058
  0
VERTEX
  8
0
 10
8.5077
 20
44.2918
  0
VERTEX
  8
0
 10
8.5351
 20
44.2816
  0
VERTEX
  8
0
 10
8.5661
 20
44.2754
  0
VERTEX
  8
0
 10
8.6006
 20
44.273
  0
VERTEX
  8
0
 10
8.667
 20
44.2811
  0
VERTEX
  8
0
 10
8.7289
 20
44.3071
  0
VERTEX
  8
0
 10
8.78
 20
44.3485
  0
VERTEX
  8
0
 10
8.814
 20
44.4027
  0
VERTEX
  8
0
 10
8.833
 20
44.4768
  0
VERTEX
  8
0
 10
8.8393
 20
44.5778
  0
VERTEX
  8
0
 10
8.8393
 20
45.057
  0
VERTEX
  8
0
 10
8.9913
 20
45.057
  0
VERTEX
  8
0
 10
8.9913
 20
44.157
  0
VERTEX
  8
0
 10
8.8553
 20
44.157
  0
SEQEND
  0
POLYLINE
  8
0
 66
     1
 10
0
 20
0
  0
VERTEX
  8
0
 10
9.1673
 20
44.4286
  0
VERTEX
  8
0
 10
9.3175
 20
44.4522
  0
VERTEX
  8
0
 10
9.3231
 20
44.4223
  0
VERTEX
  8
0
 10
9.3312
 20
44.395
  0
VERTEX
  8
0
 10
9.3418
 20
44.3703
  0
VERTEX
  8
0
 10
9.3549
 20
44.3482
  0
VERTEX
  8
0
 10
9.3705
 20
44.3287
  0
VERTEX
  8
0
 10
9.3886
 20
44.3118
  0
VERTEX
  8
0
 10
9.4092
 20
44.2975
  0
VERTEX
  8
0
 10
9.4322
 20
44.2858
  0
VERTEX
  8
0
 10
9.4578
 20
44.2767
  0
VERTEX
  8
0
 10
9.4859
 20
44.2702
  0
VERTEX
  8
0
 10
9.5165
 20
44.2663
  0
VERTEX
  8
0
 10
9.5495
 20
44.265
  0
VERTEX
  8
0
 10
9.6241
 20
44.2726
  0
VERTEX
  8
0
 10
9.6861
 20
44.2954
  0
VERTEX
  8
0
 10
9.7246
 20
44.3243
  0
VERTEX
  8
0
 10
9.7476
 20
44.3618
  0
VERTEX
  8
0
 10
9.7553
 20
44.4076
  0
VERTEX
  8
0
 10
9.7441
 20
44.4536
  0
VERTEX
  8
0
 10
9.7105
 20
44.4887
  0
VERTEX
  8
0
 10
9.6894
 20
44.4995
  0
VERTEX
  8
0
 10
9.6564
 20
44.5117
  0
VERTEX
  8
0
 10
9.6116
 20
44.5252
  0
VERTEX
  8
0
 10
9.555
 20
44.5402
  0
VERTEX
  8
0
 10
9.5019
 20
44.5535
  0
VERTEX
  8
0
 10
9.4573
 20
44.5653
  0
VERTEX
  8
0
 10
9.4209
 20
44.5754
  0
VERTEX
  8
0
 10
9.3929
 20
44.5839
  0
VERTEX
  8
0
 10
9.3731
 20
44.5908
  0
VERTEX
  8
0
 10
9.3089
 20
44.6207
  0
VERTEX
  8
0
 10
9.2593
 20
44.6564
  0
VERTEX
  8
0
 10
9.2243
 20
44.698
  0
VERTEX
  8
0
 10
9.1996
 20
44.7548
  0
VERTEX
  8
0
 10
9.1913
 20
44.8187
  0
VERTEX
  8
0
 10
9.1954
 20
44.8654
  0
VERTEX
  8
0
 10
9.2077
 20
44.9084
  0
VERTEX
  8
0
 10
9.2282
 20
44.9475
  0
VERTEX
  8
0
 10
9.2569
 20
44.9829
  0
VERTEX
  8
0
 10
9.2937
 20
45.0146
  0
VERTEX
  8
0
 10
9.3397
 20
45.0415
  0
VERTEX
  8
0
 10
9.3931
 20
45.0609
  0
VERTEX
  8
0
 10
9.4539
 20
45.0728
  0
VERTEX
  8
0
 10
9.5221
 20
45.077
  0
VERTEX
  8
0
 10
9.62
 20
45.0698
  0
VERTEX
  8
0
 10
9.7073
 20
45.0467
  0
VERTEX
  8
0
 10
9.7768
 20
45.0105
  0
VERTEX
  8
0
 10
9.8265
 20
44.9626
  0
VERTEX
  8
0
 10
9.8576
 20
44.9041
  0
VERTEX
  8
0
 10
9.8781
 20
44.8262
  0
VERTEX
  8
0
 10
9.7284
 20
44.806
  0
VERTEX
  8
0
 10
9.7224
 20
44.8338
  0
VERTEX
  8
0
 10
9.7134
 20
44.8586
  0
VERTEX
  8
0
 10
9.7013
 20
44.8806
  0
VERTEX
  8
0
 10
9.6862
 20
44.8996
  0
VERTEX
  8
0
 10
9.668
 20
44.9158
  0
VERTEX
  8
0
 10
9.6467
 20
44.929
  0
VERTEX
  8
0
 10
9.6224
 20
44.9394
  0
VERTEX
  8
0
 10
9.595
 20
44.9468
  0
VERTEX
  8
0
 10
9.5645
 20
44.9514
  0
VERTEX
  8
0
 10
9.531
 20
44.953
  0
VERTEX
  8
0
 10
9.4973
 20
44.9522
  0
VERTEX
  8
0
 10
9.4668
 20
44.9494
  0
VERTEX
  8
0
 10
9.4395
 20
44.9447
  0
VERTEX
  8
0
 10
9.4154
 20
44.9381
  0
VERTEX
  8
0
 10
9.3944
 20
44.9295
  0
VERTEX
  8
0
 10
9.3766
 20
44.919
  0
VERTEX
  8
0
 10
9.362
 20
44.9065
  0
VERTEX
  8
0
 10
9.3506
 20
44.8922
  0
VERTEX
  8
0
 10
9.3423
 20
44.8758
  0
VERTEX
  8
0
 10
9.3372
 20
44.8576
  0
VERTEX
  8
0
 10
9.3353
 20
44.8374
  0
VERTEX
  8
0
 10
9.3396
 20
44.81
  0
VERTEX
  8
0
 10
9.3541
 20
44.7837
  0
VERTEX
  8
0
 10
9.3785
 20
44.7608
  0
VERTEX
  8
0
 10
9.4126
 20
44.7437
  0
VERTEX
  8
0
 10
9.424
 20
44.7397
  0
VERTEX
  8
0
 10
9.4432
 20
44.7338
  0
VERTEX
  8
0
 10
9.4702
 20
44.726
  0
VERTEX
  8
0
 10
9.5051
 20
44.7164
  0
VERTEX
  8
0
 10
9.5477
 20
44.7048
  0
VERTEX
  8
0
 10
9.6092
 20
44.6877
  0
VERTEX
  8
0
 10
9.6626
 20
44.672
  0
VERTEX
  8
0
 10
9.7078
 20
44.6578
  0
VERTEX
  8
0
 10
9.7448
 20
44.6451
  0
VERTEX
  8
0
 10
9.7737
 20
44.6339
  0
VERTEX
  8
0
 10
9.8058
 20
44.6181
  0
VERTEX
  8
0
 10
9.8336
 20
44.5993
  0
VERTEX
  8
0
 10
9.8572
 20
44.5776
  0
VERTEX
  8
0
 10
9.8765
 20
44.5529
  0
VERTEX
  8
0
 10
9.8916
 20
44.5253
  0
VERTEX
  8
0
 10
9.9024
 20
44.4947
  0
VERTEX
  8
0
 10
9.909
 20
44.4611
  0
VERTEX
  8
0
 10
9.9113
 20
44.4246
  0
VERTEX
  8
0
 10
9.9006
 20
44.3512
  0
VERTEX
  8
0
 10
9.8666
 20
44.2811
  0
VERTEX
  8
0
 10
9.8446
 20
44.2519
  0
VERTEX
  8
0
 10
9.8192
 20
44.2261
  0
VERTEX
  8
0
 10
9.7906
 20
44.2037
  0
VERTEX
  8
0
 10
9.7588
 20
44.1847
  0
VERTEX
  8
0
 10
9.7236
 20
44.1691
  0
VERTEX
  8
0
 10
9.6852
 20
44.1569
  0
VERTEX
  8
0
 10
9.6435
 20
44.1482
  0
VERTEX
  8
0
 10
9.5985
 20
44.1429
  0
VERTEX
  8
0
 10
9.5503
 20
44.141
  0
VERTEX
  8
0
 10
9.5178
 20
44.1415
  0
VERTEX
  8
0
 10
9.4868
 20
44.1436
  0
VERTEX
  8
0
 10
9.4571
 20
44.147
  0
VERTEX
  8
0
 10
9.4289
 20
44.152
  0
VERTEX
  8
0
 10
9.402
 20
44.1583
  0
VERTEX
  8
0
 10
9.3766
 20
44.1662
  0
VERTEX
  8
0
 10
9.3525
 20
44.1755
  0
VERTEX
  8
0
 10
9.3299
 20
44.1862
  0
VERTEX
  8
0
 10
9.3086
 20
44.1984
  0
VERTEX
  8
0
 10
9.2888
 20
44.2121
  0
VERTEX
  8
0
 10
9.2703
 20
44.2272
  0
VERTEX
  8
0
 10
9.2533
 20
44.2437
  0
VERTEX
  8
0
 10
9.2376
 20
44.2617
  0
VERTEX
  8
0
 10
9.2234
 20
44.2812
  0
VERTEX
  8
0
 10
9.2106
 20
44.3021
  0
VERTEX
  8
0
 10
9.1991
 20
44.3245
  0
VERTEX
  8
0
 10
9.1891
 20
44.3484
  0
VERTEX
  8
0
 10
9.1804
 20
44.3737
  0
VERTEX
  8
0
 10
9.1732
 20
44.4004
  0
VERTEX
  8
0
 10
9.1673
 20
44.4286
  0
VERTEX
  8
0
 10
9.1673
 20
44.4286
  0
SEQEND
  0
POLYLINE
  8
0
 66
     1
 10
0
 20
0
  0
VERTEX
  8
0
 10
10.1393
 20
44.157
  0
VERTEX
  8
0
 10
10.1393
 20
44.333
  0
VERTEX
  8
0
 10
10.3113
 20
44.333
  0
VERTEX
  8
0
 10
10.3113
 20
44.1607
  0
VERTEX
  8
0
 10
10.3096
 20
44.1218
  0
VERTEX
  8
0
 10
10.3043
 20
44.0859
  0
VERTEX
  8
0
 10
10.2956
 20
44.0529
  0
VERTEX
  8
0
 10
10.2834
 20
44.0229
  0
VERTEX
  8
0
 10
10.2676
 20
43.9958
  0
VERTEX
  8
0
 10
10.2484
 20
43.9717
  0
VERTEX
  8
0
 10
10.2257
 20
43.9505
  0
VERTEX
  8
0
 10
10.1994
 20
43.9323
  0
VERTEX
  8
0
 10
10.1697
 20
43.917
  0
VERTEX
  8
0
 10
10.1273
 20
43.9807
  0
VERTEX
  8
0
 10
10.1556
 20
43.9962
  0
VERTEX
  8
0
 10
10.1789
 20
44.0172
  0
VERTEX
  8
0
 10
10.1974
 20
44.0438
  0
VERTEX
  8
0
 10
10.211
 20
44.076
  0
VERTEX
  8
0
 10
10.2197
 20
44.1137
  0
VERTEX
  8
0
 10
10.2236
 20
44.157
  0
VERTEX
  8
0
 10
10.1393
 20
44.157
  0
SEQEND
  0
POLYLINE
  8
0
 66
     1
 10
0
 20
0
  0
VERTEX
  8
0
 10
11.3393
 20
44.7726
  0
VERTEX
  8
0
 10
11.34
 20
44.8231
  0
VERTEX
  8
0
 10
11.3421
 20
44.8716
  0
VERTEX
  8
0
 10
11.3456
 20
44.918
  0
VERTEX
  8
0
 10
11.3505
 20
44.9624
  0
VERTEX
  8
0
 10
11.3568
 20
45.0046
  0
VERTEX
  8
0
 10
11.3645
 20
45.0448
  0
VERTEX
  8
0
 10
11.3736
 20
45.0829
  0
VERTEX
  8
0
 10
11.3841
 20
45.1189
  0
VERTEX
  8
0
 10
11.396
 20
45.1529
  0
VERTEX
  8
0
 10
11.4093
 20
45.1848
  0
VERTEX
  8
0
 10
11.424
 20
45.2146
  0
VERTEX
  8
0
 10
11.4401
 20
45.2423
  0
VERTEX
  8
0
 10
11.4576
 20
45.2679
  0
VERTEX
  8
0
 10
11.4765
 20
45.2915
  0
VERTEX
  8
0
 10
11.4968
 20
45.313
  0
VERTEX
  8
0
 10
11.5185
 20
45.3324
  0
VERTEX
  8
0
 10
11.5655
 20
45.3638
  0
VERTEX
  8
0
 10
11.6187
 20
45.3864
  0
VERTEX
  8
0
 10
11.6779
 20
45.4001
  0
VERTEX
  8
0
 10
11.7433
 20
45.405
  0
VERTEX
  8
0
 10
11.8357
 20
45.3953
  0
VERTEX
  8
0
 10
11.9183
 20
45.3645
  0
VERTEX
  8
0
 10
11.9525
 20
45.3434
  0
VERTEX
  8
0
 10
11.9841
 20
45.3176
  0
VERTEX
  8
0
 10
12.0131
 20
45.2871
  0
VERTEX
  8
0
 10
12.0396
 20
45.252
  0
VERTEX
  8
0
 10
12.0634
 20
45.2122
  0
VERTEX
  8
0
 10
12.0847
 20
45.1677
  0
VERTEX
  8
0
 10
12.1034
 20
45.1185
  0
VERTEX
  8
0
 10
12.1195
 20
45.0647
  0
VERTEX
  8
0
 10
12.1317
 20
45.0066
  0
VERTEX
  8
0
 10
12.1404
 20
44.9385
  0
VERTEX
  8
0
 10
12.1456
 20
44.8605
  0
VERTEX
  8
0
 10
12.1473
 20
44.7726
  0
VERTEX
  8
0
 10
12.1465
 20
44.7188
  0
VERTEX
  8
0
 10
12.1441
 20
44.6674
  0
VERTEX
  8
0
 10
12.1402
 20
44.6184
  0
VERTEX
  8
0
 10
12.1346
 20
44.5717
  0
VERTEX
  8
0
 10
12.1274
 20
44.5273
  0
VERTEX
  8
0
 10
12.1187
 20
44.4854
  0
VERTEX
  8
0
 10
12.1083
 20
44.4457
  0
VERTEX
  8
0
 10
12.0964
 20
44.4085
  0
VERTEX
  8
0
 10
12.0828
 20
44.3736
  0
VERTEX
  8
0
 10
12.0677
 20
44.341
  0
VERTEX
  8
0
 10
12.051
 20
44.3108
  0
VERTEX
  8
0
 10
12.0327
 20
44.283
  0
VERTEX
  8
0
 10
12.0127
 20
44.2575
  0
VERTEX
  8
0
 10
11.9912
 20
44.2344
  0
VERTEX
  8
0
 10
11.9681
 20
44.2136
  0
VERTEX
  8
0
 10
11.9211
 20
44.1822
  0
VERTEX
  8
0
 10
11.868
 20
44.1596
  0
VERTEX
  8
0
 10
11.8087
 20
44.1459
  0
VERTEX
  8
0
 10
11.7433
 20
44.141
  0
VERTEX
  8
0
 10
11.7218
 20
44.1414
  0
VERTEX
  8
0
 10
11.7009
 20
44.1427
  0
VERTEX
  8
0
 10
11.6806
 20
44.1449
  0
VERTEX
  8
0
 10
11.6609
 20
44.148
  0
VERTEX
  8
0
 10
11.6417
 20
44.1521
  0
VERTEX
  8
0
 10
11.6232
 20
44.1571
  0
VERTEX
  8
0
 10
11.6052
 20
44.1631
  0
VERTEX
  8
0
 10
11.5878
 20
44.1699
  0
VERTEX
  8
0
 10
11.571
 20
44.1777
  0
VERTEX
  8
0
 10
11.5548
 20
44.1865
  0
VERTEX
  8
0
 10
11.5392
 20
44.1961
  0
VERTEX
  8
0
 10
11.5242
 20
44.2067
  0
VERTEX
  8
0
 10
11.5097
 20
44.2182
  0
VERTEX
  8
0
 10
11.4959
 20
44.2306
  0
VERTEX
  8
0
 10
11.4826
 20
44.244
  0
VERTEX
  8
0
 10
11.4699
 20
44.2583
  0
VERTEX
  8
0
 10
11.4578
 20
44.2735
  0
VERTEX
  8
0
 10
11.4463
 20
44.2896
  0
VERTEX
  8
0
 10
11.4354
 20
44.3067
  0
VERTEX
  8
0
 10
11.4251
 20
44.3247
  0
VERTEX
  8
0
 10
11.4153
 20
44.3436
  0
VERTEX
  8
0
 10
11.4062
 20
44.3635
  0
VERTEX
  8
0
 10
11.3976
 20
44.3842
  0
VERTEX
  8
0
 10
11.3896
 20
44.4059
  0
VERTEX
  8
0
 10
11.3822
 20
44.4286
  0
VERTEX
  8
0
 10
11.3754
 20
44.4521
  0
VERTEX
  8
0
 10
11.3692
 20
44.4766
  0
VERTEX
  8
0
 10
11.3636
 20
44.5021
  0
VERTEX
  8
0
 10
11.3585
 20
44.5284
  0
VERTEX
  8
0
 10
11.3541
 20
44.5557
  0
VERTEX
  8
0
 10
11.3502
 20
44.5839
  0
VERTEX
  8
0
 10
11.3469
 20
44.613
  0
VERTEX
  8
0
 10
11.3442
 20
44.6431
  0
VERTEX
  8
0
 10
11.3421
 20
44.674
  0
VERTEX
  8
0
 10
11.3406
 20
44.7059
  0
VERTEX
  8
0
 10
11.3397
 20
44.7388
  0
VERTEX
  8
0
 10
11.3393
 20
44.7726
  0
VERTEX
  8
0
 10
11.3393
 20
44.7726
  0
SEQEND
  0
POLYLINE
  8
0
 66
     1
 10
0
 20
0
  0
VERTEX
  8
0
 10
11.4953
 20
44.773
  0
VERTEX
  8
0
 10
11.4967
 20
44.6939
  0
VERTEX
  8
0
 10
11.5006
 20
44.6228
  0
VERTEX
  8
0
 10
11.5072
 20
44.5594
  0
VERTEX
  8
0
 10
11.5165
 20
44.504
  0
VERTEX
  8
0
 10
11.5283
 20
44.4564
  0
VERTEX
  8
0
 10
11.5407
 20
44.4202
  0
VERTEX
  8
0
 10
11.5551
 20
44.3877
  0
VERTEX
  8
0
 10
11.5715
 20
44.3591
  0
VERTEX
  8
0
 10
11.59
 20
44.3343
  0
VERTEX
  8
0
 10
11.6105
 20
44.3133
  0
VERTEX
  8
0
 10
11.633
 20
44.296
  0
VERTEX
  8
0
 10
11.6575
 20
44.2826
  0
VERTEX
  8
0
 10
11.6841
 20
44.2729
  0
VERTEX
  8
0
 10
11.7127
 20
44.2671
  0
VERTEX
  8
0
 10
11.7433
 20
44.265
  0
VERTEX
  8
0
 10
11.7607
 20
44.2655
  0
VERTEX
  8
0
 10
11.7775
 20
44.2674
  0
VERTEX
  8
0
 10
11.7936
 20
44.2705
  0
VERTEX
  8
0
 10
11.8091
 20
44.2749
  0
VERTEX
  8
0
 10
11.824
 20
44.2807
  0
VERTEX
  8
0
 10
11.8382
 20
44.2877
  0
VERTEX
  8
0
 10
11.8518
 20
44.2961
  0
VERTEX
  8
0
 10
11.8648
 20
44.3058
  0
VERTEX
  8
0
 10
11.8771
 20
44.3167
  0
VERTEX
  8
0
 10
11.8888
 20
44.329
  0
VERTEX
  8
0
 10
11.8999
 20
44.3426
  0
VERTEX
  8
0
 10
11.9104
 20
44.3575
  0
VERTEX
  8
0
 10
11.9202
 20
44.3737
  0
VERTEX
  8
0
 10
11.9293
 20
44.3911
  0
VERTEX
  8
0
 10
11.9379
 20
44.4099
  0
VERTEX
  8
0
 10
11.9458
 20
44.43
  0
VERTEX
  8
0
 10
11.9531
 20
44.4514
  0
VERTEX
  8
0
 10
11.9597
 20
44.4742
  0
VERTEX
  8
0
 10
11.9657
 20
44.4982
  0
VERTEX
  8
0
 10
11.9711
 20
44.5235
  0
VERTEX
  8
0
 10
11.9758
 20
44.5501
  0
VERTEX
  8
0
 10
11.9799
 20
44.578
  0
VERTEX
  8
0
 10
11.9834
 20
44.6073
  0
VERTEX
  8
0
 10
11.9863
 20
44.6378
  0
VERTEX
  8
0
 10
11.9885
 20
44.6696
  0
VERTEX
  8
0
 10
11.9901
 20
44.7028
  0
VERTEX
  8
0
 10
11.991
 20
44.7372
  0
VERTEX
  8
0
 10
11.9913
 20
44.773
  0
VERTEX
  8
0
 10
11.99
 20
44.852
  0
VERTEX
  8
0
 10
11.9861
 20
44.9232
  0
VERTEX
  8
0
 10
11.9795
 20
44.9865
  0
VERTEX
  8
0
 10
11.9702
 20
45.042
  0
VERTEX
  8
0
 10
11.9583
 20
45.0896
  0
VERTEX
  8
0
 10
11.9458
 20
45.1258
  0
VERTEX
  8
0
 10
11.9312
 20
45.1582
  0
VERTEX
  8
0
 10
11.9147
 20
45.1868
  0
VERTEX
  8
0
 10
11.896
 20
45.2117
  0
VERTEX
  8
0
 10
11.8754
 20
45.2327
  0
VERTEX
  8
0
 10
11.8527
 20
45.2499
  0
VERTEX
  8
0
 10
11.828
 20
45.2634
  0
VERTEX
  8
0
 10
11.8012
 20
45.2731
  0
VERTEX
  8
0
 10
11.7725
 20
45.2789
  0
VERTEX
  8
0
 10
11.7416
 20
45.281
  0
VERTEX
  8
0
 10
11.6918
 20
45.2758
  0
VERTEX
  8
0
 10
11.6473
 20
45.2592
  0
VERTEX
  8
0
 10
11.608
 20
45.2313
  0
VERTEX
  8
0
 10
11.574
 20
45.1921
  0
VERTEX
  8
0
 10
11.5591
 20
45.1678
  0
VERTEX
  8
0
 10
11.5457
 20
45.1396
  0
VERTEX
  8
0
 10
11.5339
 20
45.1074
  0
VERTEX
  8
0
 10
11.5237
 20
45.0714
  0
VERTEX
  8
0
 10
11.515
 20
45.0314
  0
VERTEX
  8
0
 10
11.5079
 20
44.9876
  0
VERTEX
  8
0
 10
11.5024
 20
44.9398
  0
VERTEX
  8
0
 10
11.4985
 20
44.8881
  0
VERTEX
  8
0
 10
11.4961
 20
44.8325
  0
VERTEX
  8
0
 10
11.4953
 20
44.773
  0
VERTEX
  8
0
 10
11.4953
 20
44.773
  0
SEQEND
  0
POLYLINE
  8
0
 66
     1
 10
0
 20
0
  0
VERTEX
  8
0
 10
12.3833
 20
44.157
  0
VERTEX
  8
0
 10
12.3833
 20
44.333
  0
VERTEX
  8
0
 10
12.5553
 20
44.333
  0
VERTEX
  8
0
 10
12.5553
 20
44.157
  0
VERTEX
  8
0
 10
12.3833
 20
44.157
  0
SEQEND
  0
POLYLINE
  8
0
 66
     1
 10
0
 20
0
  0
VERTEX
  8
0
 10
12.7913
 20
45.233
  0
VERTEX
  8
0
 10
12.7913
 20
45.381
  0
VERTEX
  8
0
 10
13.5925
 20
45.381
  0
VERTEX
  8
0
 10
13.5925
 20
45.2626
  0
VERTEX
  8
0
 10
13.5335
 20
45.1944
  0
VERTEX
  8
0
 10
13.4748
 20
45.1158
  0
VERTEX
  8
0
 10
13.4162
 20
45.0269
  0
VERTEX
  8
0
 10
13.3578
 20
44.9276
  0
VERTEX
  8
0
 10
13.2569
 20
44.7199
  0
VERTEX
  8
0
 10
13.1788
 20
44.4979
  0
VERTEX
  8
0
 10
13.1415
 20
44.3344
  0
VERTEX
  8
0
 10
13.1206
 20
44.157
  0
VERTEX
  8
0
 10
12.9644
 20
44.157
  0
VERTEX
  8
0
 10
12.9733
 20
44.2773
  0
VERTEX
  8
0
 10
12.9955
 20
44.4062
  0
VERTEX
  8
0
 10
13.0311
 20
44.5438
  0
VERTEX
  8
0
 10
13.0967
 20
44.733
  0
VERTEX
  8
0
 10
13.1788
 20
44.9087
  0
VERTEX
  8
0
 10
13.2489
 20
45.0307
  0
VERTEX
  8
0
 10
13.3218
 20
45.1388
  0
VERTEX
  8
0
 10
13.3975
 20
45.233
  0
VERTEX
  8
0
 10
12.7913
 20
45.233
  0
SEQEND
  0
POLYLINE
  8
0
 66
     1
 10
0
 20
0
  0
VERTEX
  8
0
 10
13.7393
 20
44.4852
  0
VERTEX
  8
0
 10
13.899
 20
44.4987
  0
VERTEX
  8
0
 10
13.9049
 20
44.4665
  0
VERTEX
  8
0
 10
13.9126
 20
44.4367
  0
VERTEX
  8
0
 10
13.9219
 20
44.4093
  0
VERTEX
  8
0
 10
13.933
 20
44.3842
  0
VERTEX
  8
0
 10
13.9457
 20
44.3616
  0
VERTEX
  8
0
 10
13.9602
 20
44.3413
  0
VERTEX
  8
0
 10
13.9763
 20
44.3234
  0
VERTEX
  8
0
 10
13.9942
 20
44.3079
  0
VERTEX
  8
0
 10
14.0138
 20
44.2948
  0
VERTEX
  8
0
 10
14.0351
 20
44.2841
  0
VERTEX
  8
0
 10
14.0581
 20
44.2757
  0
VERTEX
  8
0
 10
14.0828
 20
44.2698
  0
VERTEX
  8
0
 10
14.1092
 20
44.2662
  0
VERTEX
  8
0
 10
14.1373
 20
44.265
  0
VERTEX
  8
0
 10
14.184
 20
44.2687
  0
VERTEX
  8
0
 10
14.2268
 20
44.2798
  0
VERTEX
  8
0
 10
14.2657
 20
44.2983
  0
VERTEX
  8
0
 10
14.3007
 20
44.3241
  0
VERTEX
  8
0
 10
14.3317
 20
44.3574
  0
VERTEX
  8
0
 10
14.3693
 20
44.418
  0
VERTEX
  8
0
 10
14.3918
 20
44.4875
  0
VERTEX
  8
0
 10
14.3993
 20
44.5659
  0
VERTEX
  8
0
 10
14.3949
 20
44.6252
  0
VERTEX
  8
0
 10
14.3818
 20
44.6784
  0
VERTEX
  8
0
 10
14.3599
 20
44.7258
  0
VERTEX
  8
0
 10
14.3292
 20
44.7672
  0
VERTEX
  8
0
 10
14.2907
 20
44.801
  0
VERTEX
  8
0
 10
14.2455
 20
44.8251
  0
VERTEX
  8
0
 10
14.1936
 20
44.8398
  0
VERTEX
  8
0
 10
14.1348
 20
44.845
  0
VERTEX
  8
0
 10
14.0882
 20
44.842
  0
VERTEX
  8
0
 10
14.0451
 20
44.8323
  0
VERTEX
  8
0
 10
14.0057
 20
44.816
  0
VERTEX
  8
0
 10
13.9699
 20
44.7931
  0
VERTEX
  8
0
 10
13.9377
 20
44.7636
  0
VERTEX
  8
0
 10
13.9091
 20
44.7274
  0
VERTEX
  8
0
 10
13.7663
 20
44.746
  0
VERTEX
  8
0
 10
13.8862
 20
45.381
  0
VERTEX
  8
0
 10
14.5016
 20
45.381
  0
VERTEX
  8
0
 10
14.5016
 20
45.237
  0
VERTEX
  8
0
 10
14.0097
 20
45.237
  0
VERTEX
  8
0
 10
13.9426
 20
44.9036
  0
VERTEX
  8
0
 10
14.0179
 20
44.9462
  0
VERTEX
  8
0
 10
14.0956
 20
44.972
  0
VERTEX
  8
0
 10
14.1757
 20
44.981
  0
VERTEX
  8
0
 10
14.2302
 20
44.978
  0
VERTEX
  8
0
 10
14.2813
 20
44.9685
  0
VERTEX
  8
0
 10
14.3292
 20
44.9524
  0
VERTEX
  8
0
 10
14.3739
 20
44.9297
  0
VERTEX
  8
0
 10
14.4152
 20
44.9005
  0
VERTEX
  8
0
 10
14.4533
 20
44.8647
  0
VERTEX
  8
0
 10
14.4857
 20
44.8253
  0
VERTEX
  8
0
 10
14.5122
 20
44.7826
  0
VERTEX
  8
0
 10
14.5328
 20
44.7369
  0
VERTEX
  8
0
 10
14.5476
 20
44.688
  0
VERTEX
  8
0
 10
14.5564
 20
44.636
  0
VERTEX
  8
0
 10
14.5593
 20
44.5808
  0
VERTEX
  8
0
 10
14.5554
 20
44.5158
  0
VERTEX
  8
0
 10
14.5437
 20
44.4544
  0
VERTEX
  8
0
 10
14.5241
 20
44.3964
  0
VERTEX
  8
0
 10
14.4967
 20
44.3419
  0
VERTEX
  8
0
 10
14.4615
 20
44.291
  0
VERTEX
  8
0
 10
14.4304
 20
44.256
  0
VERTEX
  8
0
 10
14.3966
 20
44.2257
  0
VERTEX
  8
0
 10
14.36
 20
44.2
  0
VERTEX
  8
0
 10
14.3208
 20
44.1789
  0
VERTEX
  8
0
 10
14.2789
 20
44.1625
  0
VERTEX
  8
0
 10
14.2342
 20
44.1507
  0
VERTEX
  8
0
 10
14.1868
 20
44.1435
  0
VERTEX
  8
0
 10
14.1367
 20
44.141
  0
VERTEX
  8
0
 10
14.0732
 20
44.1446
  0
VERTEX
  8
0
 10
14.0142
 20
44.1554
  0
VERTEX
  8
0
 10
13.9599
 20
44.1734
  0
VERTEX
  8
0
 10
13.9102
 20
44.1986
  0
VERTEX
  8
0
 10
13.865
 20
44.2311
  0
VERTEX
  8
0
 10
13.8249
 20
44.2708
  0
VERTEX
  8
0
 10
13.7923
 20
44.3162
  0
VERTEX
  8
0
 10
13.7671
 20
44.367
  0
VERTEX
  8
0
 10
13.7495
 20
44.4234
  0
VERTEX
  8
0
 10
13.7393
 20
44.4852
  0
VERTEX
  8
0
 10
13.7393
 20
44.4852
  0
SEQEND
  0
POLYLINE
  8
0
 66
     1
 10
0
 20
0
  0
VERTEX
  8
0
 10
14.7573
 20
44.961
  0
VERTEX
  8
0
 10
14.7153
 20
45.1954
  0
VERTEX
  8
0
 10
14.7153
 20
45.397
  0
VERTEX
  8
0
 10
14.8873
 20
45.397
  0
VERTEX
  8
0
 10
14.8873
 20
45.1954
  0
VERTEX
  8
0
 10
14.8496
 20
44.961
  0
VERTEX
  8
0
 10
14.7573
 20
44.961
  0
SEQEND
  0
POLYLINE
  8
0
 66
     1
 10
0
 20
0
  0
VERTEX
  8
0
 10
15.0365
 20
44.961
  0
VERTEX
  8
0
 10
14.9953
 20
45.1954
  0
VERTEX
  8
0
 10
14.9953
 20
45.397
  0
VERTEX
  8
0
 10
15.1673
 20
45.397
  0
VERTEX
  8
0
 10
15.1673
 20
45.1954
  0
VERTEX
  8
0
 10
15.1271
 20
44.961
  0
VERTEX
  8
0
 10
15.0365
 20
44.961
  0
SEQEND
  0
POLYLINE
  8
0
 66
     1
 10
0
 20
0
  0
VERTEX
  8
0
 10
16.1793
 20
44.157
  0
VERTEX
  8
0
 10
16.1793
 20
45.397
  0
VERTEX
  8
0
 10
16.6444
 20
45.397
  0
VERTEX
  8
0
 10
16.7317
 20
45.3928
  0
VERTEX
  8
0
 10
16.8075
 20
45.3801
  0
VERTEX
  8
0
 10
16.8718
 20
45.3589
  0
VERTEX
  8
0
 10
16.946
 20
45.3131
  0
VERTEX
  8
0
 10
17.0042
 20
45.2465
  0
VERTEX
  8
0
 10
17.0421
 20
45.1663
  0
VERTEX
  8
0
 10
17.0553
 20
45.0798
  0
VERTEX
  8
0
 10
17.0535
 20
45.0421
  0
VERTEX
  8
0
 10
17.0473
 20
45.0066
  0
VERTEX
  8
0
 10
17.0367
 20
44.9731
  0
VERTEX
  8
0
 10
17.0217
 20
44.9418
  0
VERTEX
  8
0
 10
17.0023
 20
44.9126
  0
VERTEX
  8
0
 10
16.9786
 20
44.8854
  0
VERTEX
  8
0
 10
16.9504
 20
44.8604
  0
VERTEX
  8
0
 10
16.9178
 20
44.8375
  0
VERTEX
  8
0
 10
16.8809
 20
44.8167
  0
VERTEX
  8
0
 10
16.9486
 20
44.7903
  0
VERTEX
  8
0
 10
17.0055
 20
44.754
  0
VERTEX
  8
0
 10
17.0516
 20
44.7076
  0
VERTEX
  8
0
 10
17.087
 20
44.651
  0
VERTEX
  8
0
 10
17.1083
 20
44.5873
  0
VERTEX
  8
0
 10
17.1153
 20
44.5165
  0
VERTEX
  8
0
 10
17.1071
 20
44.4385
  0
VERTEX
  8
0
 10
17.0823
 20
44.3634
  0
VERTEX
  8
0
 10
17.0413
 20
44.293
  0
VERTEX
  8
0
 10
16.9876
 20
44.2391
  0
VERTEX
  8
0
 10
16.9543
 20
44.2173
  0
VERTEX
  8
0
 10
16.9161
 20
44.1989
  0
VERTEX
  8
0
 10
16.873
 20
44.1838
  0
VERTEX
  8
0
 10
16.825
 20
44.1721
  0
VERTEX
  8
0
 10
16.7722
 20
44.1637
  0
VERTEX
  8
0
 10
16.7145
 20
44.1587
  0
VERTEX
  8
0
 10
16.652
 20
44.157
  0
VERTEX
  8
0
 10
16.1793
 20
44.157
  0
SEQEND
  0
POLYLINE
  8
0
 66
     1
 10
0
 20
0
  0
VERTEX
  8
0
 10
16.3433
 20
44.877
  0
VERTEX
  8
0
 10
16.6121
 20
44.877
  0
VERTEX
  8
0
 10
16.6778
 20
44.8786
  0
VERTEX
  8
0
 10
16.7301
 20
44.8833
  0
VERTEX
  8
0
 10
16.769
 20
44.8912
  0
VERTEX
  8
0
 10
16.8021
 20
44.9037
  0
VERTEX
  8
0
 10
16.8302
 20
44.9201
  0
VERTEX
  8
0
 10
16.8533
 20
44.9404
  0
VERTEX
  8
0
 10
16.8713
 20
44.9645
  0
VERTEX
  8
0
 10
16.8843
 20
44.9925
  0
VERTEX
  8
0
 10
16.8923
 20
45.0243
  0
VERTEX
  8
0
 10
16.8953
 20
45.0601
  0
VERTEX
  8
0
 10
16.8934
 20
45.0965
  0
VERTEX
  8
0
 10
16.8867
 20
45.1289
  0
VERTEX
  8
0
 10
16.8751
 20
45.1573
  0
VERTEX
  8
0
 10
16.8588
 20
45.1818
  0
VERTEX
  8
0
 10
16.8376
 20
45.2023
  0
VERTEX
  8
0
 10
16.8116
 20
45.2188
  0
VERTEX
  8
0
 10
16.7808
 20
45.2314
  0
VERTEX
  8
0
 10
16.7484
 20
45.2391
  0
VERTEX
  8
0
 10
16.706
 20
45.2446
  0
VERTEX
  8
0
 10
16.6538
 20
45.2479
  0
VERTEX
  8
0
 10
16.5918
 20
45.249
  0
VERTEX
  8
0
 10
16.3433
 20
45.249
  0
VERTEX
  8
0
 10
16.3433
 20
44.877
  0
SEQEND
  0
POLYLINE
  8
0
 66
     1
 10
0
 20
0
  0
VERTEX
  8
0
 10
16.3433
 20
44.305
  0
VERTEX
  8
0
 10
16.653
 20
44.305
  0
VERTEX
  8
0
 10
16.7208
 20
44.3065
  0
VERTEX
  8
0
 10
16.765
 20
44.3109
  0
VERTEX
  8
0
 10
16.8175
 20
44.3251
  0
VERTEX
  8
0
 10
16.8612
 20
44.3468
  0
VERTEX
  8
0
 10
16.8963
 20
44.376
  0
VERTEX
  8
0
 10
16.9227
 20
44.4127
  0
VERTEX
  8
0
 10
16.9407
 20
44.4606
  0
VERTEX
  8
0
 10
16.9473
 20
44.517
  0
VERTEX
  8
0
 10
16.9456
 20
44.5518
  0
VERTEX
  8
0
 10
16.9395
 20
44.5835
  0
VERTEX
  8
0
 10
16.9292
 20
44.6121
  0
VERTEX
  8
0
 10
16.9145
 20
44.6375
  0
VERTEX
  8
0
 10
16.8954
 20
44.6598
  0
VERTEX
  8
0
 10
16.8721
 20
44.679
  0
VERTEX
  8
0
 10
16.8444
 20
44.695
  0
VERTEX
  8
0
 10
16.8125
 20
44.7079
  0
VERTEX
  8
0
 10
16.7353
 20
44.7237
  0
VERTEX
  8
0
 10
16.6309
 20
44.729
  0
VERTEX
  8
0
 10
16.3433
 20
44.729
  0
VERTEX
  8
0
 10
16.3433
 20
44.305
  0
SEQEND
  0
POLYLINE
  8
0
 66
     1
 10
0
 20
0
  0
VERTEX
  8
0
 10
17.2633
 20
44.609
  0
VERTEX
  8
0
 10
17.265
 20
44.6627
  0
VERTEX
  8
0
 10
17.2702
 20
44.7132
  0
VERTEX
  8
0
 10
17.2787
 20
44.7605
  0
VERTEX
  8
0
 10
17.2907
 20
44.8046
  0
VERTEX
  8
0
 10
17.3061
 20
44.8456
  0
VERTEX
  8
0
 10
17.3249
 20
44.8833
  0
VERTEX
  8
0
 10
17.3471
 20
44.9179
  0
VERTEX
  8
0
 10
17.3727
 20
44.9493
  0
VERTEX
  8
0
 10
17.4018
 20
44.9775
  0
VERTEX
  8
0
 10
17.4498
 20
45.0133
  0
VERTEX
  8
0
 10
17.502
 20
45.0412
  0
VERTEX
  8
0
 10
17.5584
 20
45.0611
  0
VERTEX
  8
0
 10
17.619
 20
45.073
  0
VERTEX
  8
0
 10
17.6838
 20
45.077
  0
VERTEX
  8
0
 10
17.7385
 20
45.0743
  0
VERTEX
  8
0
 10
17.7898
 20
45.0663
  0
VERTEX
  8
0
 10
17.8378
 20
45.053
  0
VERTEX
  8
0
 10
17.8823
 20
45.0343
  0
VERTEX
  8
0
 10
17.9233
 20
45.0103
  0
VERTEX
  8
0
 10
17.961
 20
44.981
  0
VERTEX
  8
0
 10
17.9953
 20
44.9463
  0
VERTEX
  8
0
 10
18.0283
 20
44.9026
  0
VERTEX
  8
0
 10
18.0553
 20
44.8548
  0
VERTEX
  8
0
 10
18.0763
 20
44.8027
  0
VERTEX
  8
0
 10
18.0913
 20
44.7465
  0
VERTEX
  8
0
 10
18.1003
 20
44.6862
  0
VERTEX
  8
0
 10
18.1033
 20
44.6216
  0
VERTEX
  8
0
 10
18.1023
 20
44.5778
  0
VERTEX
  8
0
 10
18.0992
 20
44.5361
  0
VERTEX
  8
0
 10
18.094
 20
44.4964
  0
VERTEX
  8
0
 10
18.0867
 20
44.4588
  0
VERTEX
  8
0
 10
18.0774
 20
44.4233
  0
VERTEX
  8
0
 10
18.066
 20
44.3898
  0
VERTEX
  8
0
 10
18.0525
 20
44.3583
  0
VERTEX
  8
0
 10
18.0369
 20
44.3289
  0
VERTEX
  8
0
 10
18.0193
 20
44.3016
  0
VERTEX
  8
0
 10
17.9995
 20
44.2763
  0
VERTEX
  8
0
 10
17.9777
 20
44.2531
  0
VERTEX
  8
0
 10
17.9539
 20
44.232
  0
VERTEX
  8
0
 10
17.9279
 20
44.2128
  0
VERTEX
  8
0
 10
17.8999
 20
44.1958
  0
VERTEX
  8
0
 10
17.7965
 20
44.1551
  0
VERTEX
  8
0
 10
17.6838
 20
44.141
  0
VERTEX
  8
0
 10
17.6339
 20
44.1429
  0
VERTEX
  8
0
 10
17.587
 20
44.149
  0
VERTEX
  8
0
 10
17.5431
 20
44.1594
  0
VERTEX
  8
0
 10
17.502
 20
44.1741
  0
VERTEX
  8
0
 10
17.4639
 20
44.1929
  0
VERTEX
  8
0
 10
17.4287
 20
44.2161
  0
VERTEX
  8
0
 10
17.3965
 20
44.2434
  0
VERTEX
  8
0
 10
17.3671
 20
44.2751
  0
VERTEX
  8
0
 10
17.3354
 20
44.319
  0
VERTEX
  8
0
 10
17.3095
 20
44.3676
  0
VERTEX
  8
0
 10
17.2893
 20
44.4209
  0
VERTEX
  8
0
 10
17.2749
 20
44.4789
  0
VERTEX
  8
0
 10
17.2662
 20
44.5416
  0
VERTEX
  8
0
 10
17.2633
 20
44.609
  0
VERTEX
  8
0
 10
17.2633
 20
44.609
  0
SEQEND
  0
POLYLINE
  8
0
 66
     1
 10
0
 20
0
  0
VERTEX
  8
0
 10
17.4193
 20
44.6094
  0
VERTEX
  8
0
 10
17.423
 20
44.5401
  0
VERTEX
  8
0
 10
17.4339
 20
44.4776
  0
VERTEX
  8
0
 10
17.4521
 20
44.422
  0
VERTEX
  8
0
 10
17.4776
 20
44.3733
  0
VERTEX
  8
0
 10
17.5026
 20
44.3405
  0
VERTEX
  8
0
 10
17.5313
 20
44.3135
  0
VERTEX
  8
0
 10
17.5638
 20
44.2925
  0
VERTEX
  8
0
 10
17.6
 20
44.2774
  0
VERTEX
  8
0
 10
17.64
 20
44.2682
  0
VERTEX
  8
0
 10
17.6838
 20
44.265
  0
VERTEX
  8
0
 10
17.7275
 20
44.2678
  0
VERTEX
  8
0
 10
17.7675
 20
44.2769
  0
VERTEX
  8
0
 10
17.8037
 20
44.2923
  0
VERTEX
  8
0
 10
17.8362
 20
44.3139
  0
VERTEX
  8
0
 10
17.8649
 20
44.3417
  0
VERTEX
  8
0
 10
17.8899
 20
44.3759
  0
VERTEX
  8
0
 10
17.9218
 20
44.4437
  0
VERTEX
  8
0
 10
17.941
 20
44.5233
  0
VERTEX
  8
0
 10
17.9473
 20
44.6145
  0
VERTEX
  8
0
 10
17.9407
 20
44.7027
  0
VERTEX
  8
0
 10
17.9207
 20
44.78
  0
VERTEX
  8
0
 10
17.8873
 20
44.8464
  0
VERTEX
  8
0
 10
17.862
 20
44.8789
  0
VERTEX
  8
0
 10
17.8332
 20
44.9056
  0
VERTEX
  8
0
 10
17.801
 20
44.9263
  0
VERTEX
  8
0
 10
17.7653
 20
44.9411
  0
VERTEX
  8
0
 10
17.7263
 20
44.95
  0
VERTEX
  8
0
 10
17.6838
 20
44.953
  0
VERTEX
  8
0
 10
17.64
 20
44.95
  0
VERTEX
  8
0
 10
17.6
 20
44.941
  0
VERTEX
  8
0
 10
17.5638
 20
44.9259
  0
VERTEX
  8
0
 10
17.5313
 20
44.9049
  0
VERTEX
  8
0
 10
17.5026
 20
44.8778
  0
VERTEX
  8
0
 10
17.4776
 20
44.8447
  0
VERTEX
  8
0
 10
17.4453
 20
44.7779
  0
VERTEX
  8
0
 10
17.4258
 20
44.6995
  0
VERTEX
  8
0
 10
17.4193
 20
44.6094
  0
VERTEX
  8
0
 10
17.4193
 20
44.6094
  0
SEQEND
  0
POLYLINE
  8
0
 66
     1
 10
0
 20
0
  0
VERTEX
  8
0
 10
18.2833
 20
44.157
  0
VERTEX
  8
0
 10
18.2833
 20
45.0576
  0
VERTEX
  8
0
 10
18.4193
 20
45.0576
  0
VERTEX
  8
0
 10
18.4193
 20
44.9216
  0
VERTEX
  8
0
 10
18.4591
 20
44.9859
  0
VERTEX
  8
0
 10
18.4955
 20
45.0291
  0
VERTEX
  8
0
 10
18.5501
 20
45.065
  0
VERTEX
  8
0
 10
18.614
 20
45.077
  0
VERTEX
  8
0
 10
18.6911
 20
45.0648
  0
VERTEX
  8
0
 10
18.7705
 20
45.0282
  0
VERTEX
  8
0
 10
18.7181
 20
44.8879
  0
VERTEX
  8
0
 10
18.6624
 20
44.9127
  0
VERTEX
  8
0
 10
18.6067
 20
44.921
  0
VERTEX
  8
0
 10
18.5577
 20
44.9123
  0
VERTEX
  8
0
 10
18.5121
 20
44.8862
  0
VERTEX
  8
0
 10
18.4816
 20
44.852
  0
VERTEX
  8
0
 10
18.4606
 20
44.8072
  0
VERTEX
  8
0
 10
18.4417
 20
44.7228
  0
VERTEX
  8
0
 10
18.4353
 20
44.629
  0
VERTEX
  8
0
 10
18.4353
 20
44.157
  0
VERTEX
  8
0
 10
18.2833
 20
44.157
  0
SEQEND
  0
POLYLINE
  8
0
 66
     1
 10
0
 20
0
  0
VERTEX
  8
0
 10
19.4433
 20
44.157
  0
VERTEX
  8
0
 10
19.4433
 20
44.2741
  0
VERTEX
  8
0
 10
19.4177
 20
44.239
  0
VERTEX
  8
0
 10
19.3888
 20
44.2092
  0
VERTEX
  8
0
 10
19.3566
 20
44.1849
  0
VERTEX
  8
0
 10
19.321
 20
44.1658
  0
VERTEX
  8
0
 10
19.2821
 20
44.1522
  0
VERTEX
  8
0
 10
19.2399
 20
44.1439
  0
VERTEX
  8
0
 10
19.1944
 20
44.141
  0
VERTEX
  8
0
 10
19.1234
 20
44.1474
  0
VERTEX
  8
0
 10
19.0569
 20
44.168
  0
VERTEX
  8
0
 10
18.9949
 20
44.2026
  0
VERTEX
  8
0
 10
18.9171
 20
44.2732
  0
VERTEX
  8
0
 10
18.8595
 20
44.3653
  0
VERTEX
  8
0
 10
18.8238
 20
44.4775
  0
VERTEX
  8
0
 10
18.8113
 20
44.6082
  0
VERTEX
  8
0
 10
18.8123
 20
44.6556
  0
VERTEX
  8
0
 10
18.8158
 20
44.7006
  0
VERTEX
  8
0
 10
18.8218
 20
44.7432
  0
VERTEX
  8
0
 10
18.8304
 20
44.7835
  0
VERTEX
  8
0
 10
18.8415
 20
44.8213
  0
VERTEX
  8
0
 10
18.8551
 20
44.8567
  0
VERTEX
  8
0
 10
18.8712
 20
44.8897
  0
VERTEX
  8
0
 10
18.8898
 20
44.9203
  0
VERTEX
  8
0
 10
18.911
 20
44.9486
  0
VERTEX
  8
0
 10
18.9347
 20
44.9744
  0
VERTEX
  8
0
 10
18.9609
 20
44.9978
  0
VERTEX
  8
0
 10
18.9896
 20
45.0188
  0
VERTEX
  8
0
 10
19.051
 20
45.0511
  0
VERTEX
  8
0
 10
19.1175
 20
45.0705
  0
VERTEX
  8
0
 10
19.189
 20
45.077
  0
VERTEX
  8
0
 10
19.2325
 20
45.0745
  0
VERTEX
  8
0
 10
19.2733
 20
45.067
  0
VERTEX
  8
0
 10
19.3112
 20
45.0545
  0
VERTEX
  8
0
 10
19.3464
 20
45.037
  0
VERTEX
  8
0
 10
19.3788
 20
45.0145
  0
VERTEX
  8
0
 10
19.4085
 20
44.987
  0
VERTEX
  8
0
 10
19.4353
 20
44.9546
  0
VERTEX
  8
0
 10
19.4353
 20
45.397
  0
VERTEX
  8
0
 10
19.5873
 20
45.397
  0
VERTEX
  8
0
 10
19.5873
 20
44.157
  0
VERTEX
  8
0
 10
19.4433
 20
44.157
  0
SEQEND
  0
POLYLINE
  8
0
 66
     1
 10
0
 20
0
  0
VERTEX
  8
0
 10
18.9673
 20
44.6086
  0
VERTEX
  8
0
 10
18.9732
 20
44.5225
  0
VERTEX
  8
0
 10
18.991
 20
44.4461
  0
VERTEX
  8
0
 10
19.0205
 20
44.3792
  0
VERTEX
  8
0
 10
19.0439
 20
44.3446
  0
VERTEX
  8
0
 10
19.0706
 20
44.3162
  0
VERTEX
  8
0
 10
19.1008
 20
44.294
  0
VERTEX
  8
0
 10
19.1343
 20
44.2781
  0
VERTEX
  8
0
 10
19.1711
 20
44.2684
  0
VERTEX
  8
0
 10
19.2114
 20
44.265
  0
VERTEX
  8
0
 10
19.2511
 20
44.2678
  0
VERTEX
  8
0
 10
19.2874
 20
44.2766
  0
VERTEX
  8
0
 10
19.3203
 20
44.2916
  0
VERTEX
  8
0
 10
19.3499
 20
44.3127
  0
VERTEX
  8
0
 10
19.3761
 20
44.34
  0
VERTEX
  8
0
 10
19.3989
 20
44.3733
  0
VERTEX
  8
0
 10
19.4275
 20
44.4379
  0
VERTEX
  8
0
 10
19.4447
 20
44.5121
  0
VERTEX
  8
0
 10
19.4504
 20
44.5959
  0
VERTEX
  8
0
 10
19.4449
 20
44.6866
  0
VERTEX
  8
0
 10
19.4283
 20
44.7659
  0
VERTEX
  8
0
 10
19.4006
 20
44.8337
  0
VERTEX
  8
0
 10
19.3773
 20
44.8701
  0
VERTEX
  8
0
 10
19.3503
 20
44.9
  0
VERTEX
  8
0
 10
19.3195
 20
44.9232
  0
VERTEX
  8
0
 10
19.285
 20
44.9397
  0
VERTEX
  8
0
 10
19.2467
 20
44.9497
  0
VERTEX
  8
0
 10
19.2046
 20
44.953
  0
VERTEX
  8
0
 10
19.1637
 20
44.9498
  0
VERTEX
  8
0
 10
19.1266
 20
44.9403
  0
VERTEX
  8
0
 10
19.0932
 20
44.9244
  0
VERTEX
  8
0
 10
19.0635
 20
44.9022
  0
VERTEX
  8
0
 10
19.0376
 20
44.8736
  0
VERTEX
  8
0
 10
19.0155
 20
44.8387
  0
VERTEX
  8
0
 10
18.9887
 20
44.7733
  0
VERTEX
  8
0
 10
18.9727
 20
44.6966
  0
VERTEX
  8
0
 10
18.9673
 20
44.6086
  0
VERTEX
  8
0
 10
18.9673
 20
44.6086
  0
SEQEND
  0
POLYLINE
  8
0
 66
     1
 10
0
 20
0
  0
VERTEX
  8
0
 10
20.4355
 20
44.4497
  0
VERTEX
  8
0
 10
20.5928
 20
44.4304
  0
VERTEX
  8
0
 10
20.5834
 20
44.3991
  0
VERTEX
  8
0
 10
20.5726
 20
44.3696
  0
VERTEX
  8
0
 10
20.5602
 20
44.3419
  0
VERTEX
  8
0
 10
20.5464
 20
44.316
  0
VERTEX
  8
0
 10
20.5312
 20
44.2919
  0
VERTEX
  8
0
 10
20.5144
 20
44.2696
  0
VERTEX
  8
0
 10
20.4962
 20
44.2491
  0
VERTEX
  8
0
 10
20.4765
 20
44.2303
  0
VERTEX
  8
0
 10
20.4554
 20
44.2133
  0
VERTEX
  8
0
 10
20.4327
 20
44.1982
  0
VERTEX
  8
0
 10
20.4086
 20
44.1848
  0
VERTEX
  8
0
 10
20.383
 20
44.1731
  0
VERTEX
  8
0
 10
20.356
 20
44.1633
  0
VERTEX
  8
0
 10
20.3274
 20
44.1553
  0
VERTEX
  8
0
 10
20.2974
 20
44.149
  0
VERTEX
  8
0
 10
20.2659
 20
44.1446
  0
VERTEX
  8
0
 10
20.233
 20
44.1419
  0
VERTEX
  8
0
 10
20.1985
 20
44.141
  0
VERTEX
  8
0
 10
20.1438
 20
44.1435
  0
VERTEX
  8
0
 10
20.0924
 20
44.1508
  0
VERTEX
  8
0
 10
20.0444
 20
44.1631
  0
VERTEX
  8
0
 10
19.9998
 20
44.1804
  0
VERTEX
  8
0
 10
19.9585
 20
44.2025
  0
VERTEX
  8
0
 10
19.9206
 20
44.2296
  0
VERTEX
  8
0
 10
19.8861
 20
44.2616
  0
VERTEX
  8
0
 10
19.8557
 20
44.2981
  0
VERTEX
  8
0
 10
19.8299
 20
44.3385
  0
VERTEX
  8
0
 10
19.8088
 20
44.3831
  0
VERTEX
  8
0
 10
19.7924
 20
44.4316
  0
VERTEX
  8
0
 10
19.7807
 20
44.4842
  0
VERTEX
  8
0
 10
19.7737
 20
44.5408
  0
VERTEX
  8
0
 10
19.7713
 20
44.6014
  0
VERTEX
  8
0
 10
19.7742
 20
44.6686
  0
VERTEX
  8
0
 10
19.7828
 20
44.7314
  0
VERTEX
  8
0
 10
19.7971
 20
44.7897
  0
VERTEX
  8
0
 10
19.8171
 20
44.8435
  0
VERTEX
  8
0
 10
19.8429
 20
44.8929
  0
VERTEX
  8
0
 10
19.8743
 20
44.9379
  0
VERTEX
  8
0
 10
19.904
 20
44.9705
  0
VERTEX
  8
0
 10
19.9365
 20
44.9987
  0
VERTEX
  8
0
 10
19.9718
 20
45.0226
  0
VERTEX
  8
0
 10
20.0098
 20
45.0422
  0
VERTEX
  8
0
 10
20.0507
 20
45.0574
  0
VERTEX
  8
0
 10
20.0944
 20
45.0683
  0
VERTEX
  8
0
 10
20.1408
 20
45.0748
  0
VERTEX
  8
0
 10
20.1901
 20
45.077
  0
VERTEX
  8
0
 10
20.2381
 20
45.0749
  0
VERTEX
  8
0
 10
20.2834
 20
45.0684
  0
VERTEX
  8
0
 10
20.3259
 20
45.0578
  0
VERTEX
  8
0
 10
20.3657
 20
45.0428
  0
VERTEX
  8
0
 10
20.4027
 20
45.0236
  0
VERTEX
  8
0
 10
20.437
 20
45.0001
  0
VERTEX
  8
0
 10
20.4686
 20
44.9723
  0
VERTEX
  8
0
 10
20.4974
 20
44.9403
  0
VERTEX
  8
0
 10
20.5281
 20
44.8963
  0
VERTEX
  8
0
 10
20.5532
 20
44.848
  0
VERTEX
  8
0
 10
20.5727
 20
44.7956
  0
VERTEX
  8
0
 10
20.5867
 20
44.739
  0
VERTEX
  8
0
 10
20.595
 20
44.6782
  0
VERTEX
  8
0
 10
20.5978
 20
44.6132
  0
VERTEX
  8
0
 10
20.5976
 20
44.5923
  0
VERTEX
  8
0
 10
20.597
 20
44.573
  0
VERTEX
  8
0
 10
19.9273
 20
44.573
  0
VERTEX
  8
0
 10
19.9383
 20
44.4903
  0
VERTEX
  8
0
 10
19.9623
 20
44.4187
  0
VERTEX
  8
0
 10
19.9992
 20
44.358
  0
VERTEX
  8
0
 10
20.0307
 20
44.3245
  0
VERTEX
  8
0
 10
20.0664
 20
44.2985
  0
VERTEX
  8
0
 10
20.1064
 20
44.2799
  0
VERTEX
  8
0
 10
20.1505
 20
44.2687
  0
VERTEX
  8
0
 10
20.1988
 20
44.265
  0
VERTEX
  8
0
 10
20.2317
 20
44.2668
  0
VERTEX
  8
0
 10
20.2626
 20
44.2724
  0
VERTEX
  8
0
 10
20.2915
 20
44.2816
  0
VERTEX
  8
0
 10
20.3182
 20
44.2945
  0
VERTEX
  8
0
 10
20.3429
 20
44.3112
  0
VERTEX
  8
0
 10
20.3656
 20
44.3315
  0
VERTEX
  8
0
 10
20.3862
 20
44.3555
  0
VERTEX
  8
0
 10
20.4047
 20
44.3832
  0
VERTEX
  8
0
 10
20.4211
 20
44.4146
  0
VERTEX
  8
0
 10
20.4355
 20
44.4497
  0
VERTEX
  8
0
 10
20.4355
 20
44.4497
  0
SEQEND
  0
POLYLINE
  8
0
 66
     1
 10
0
 20
0
  0
VERTEX
  8
0
 10
19.9368
 20
44.697
  0
VERTEX
  8
0
 10
20.4374
 20
44.697
  0
VERTEX
  8
0
 10
20.4265
 20
44.7657
  0
VERTEX
  8
0
 10
20.4074
 20
44.822
  0
VERTEX
  8
0
 10
20.38
 20
44.8657
  0
VERTEX
  8
0
 10
20.341
 20
44.9036
  0
VERTEX
  8
0
 10
20.2966
 20
44.9308
  0
VERTEX
  8
0
 10
20.2469
 20
44.9472
  0
VERTEX
  8
0
 10
20.1917
 20
44.953
  0
VERTEX
  8
0
 10
20.139
 20
44.9487
  0
VERTEX
  8
0
 10
20.0913
 20
44.9349
  0
VERTEX
  8
0
 10
20.0486
 20
44.9117
  0
VERTEX
  8
0
 10
20.0111
 20
44.8791
  0
VERTEX
  8
0
 10
19.9732
 20
44.8275
  0
VERTEX
  8
0
 10
19.9484
 20
44.7668
  0
VERTEX
  8
0
 10
19.9368
 20
44.697
  0
VERTEX
  8
0
 10
19.9368
 20
44.697
  0
SEQEND
  0
POLYLINE
  8
0
 66
     1
 10
0
 20
0
  0
VERTEX
  8
0
 10
20.7833
 20
44.157
  0
VERTEX
  8
0
 10
20.7833
 20
45.0576
  0
VERTEX
  8
0
 10
20.9193
 20
45.0576
  0
VERTEX
  8
0
 10
20.9193
 20
44.9216
  0
VERTEX
  8
0
 10
20.9591
 20
44.9859
  0
VERTEX
  8
0
 10
20.9955
 20
45.0291
  0
VERTEX
  8
0
 10
21.0501
 20
45.065
  0
VERTEX
  8
0
 10
21.114
 20
45.077
  0
VERTEX
  8
0
 10
21.1911
 20
45.0648
  0
VERTEX
  8
0
 10
21.2705
 20
45.0282
  0
VERTEX
  8
0
 10
21.2181
 20
44.8879
  0
VERTEX
  8
0
 10
21.1624
 20
44.9127
  0
VERTEX
  8
0
 10
21.1067
 20
44.921
  0
VERTEX
  8
0
 10
21.0577
 20
44.9123
  0
VERTEX
  8
0
 10
21.0121
 20
44.8862
  0
VERTEX
  8
0
 10
20.9816
 20
44.852
  0
VERTEX
  8
0
 10
20.9606
 20
44.8072
  0
VERTEX
  8
0
 10
20.9417
 20
44.7228
  0
VERTEX
  8
0
 10
20.9353
 20
44.629
  0
VERTEX
  8
0
 10
20.9353
 20
44.157
  0
VERTEX
  8
0
 10
20.7833
 20
44.157
  0
SEQEND
  0
POLYLINE
  8
0
 66
     1
 10
0
 20
0
  0
VERTEX
  8
0
 10
21.4113
 20
44.157
  0
VERTEX
  8
0
 10
21.4113
 20
44.333
  0
VERTEX
  8
0
 10
21.5833
 20
44.333
  0
VERTEX
  8
0
 10
21.5833
 20
44.1607
  0
VERTEX
  8
0
 10
21.5816
 20
44.1218
  0
VERTEX
  8
0
 10
21.5763
 20
44.0859
  0
VERTEX
  8
0
 10
21.5676
 20
44.0529
  0
VERTEX
  8
0
 10
21.5554
 20
44.0229
  0
VERTEX
  8
0
 10
21.5396
 20
43.9958
  0
VERTEX
  8
0
 10
21.5204
 20
43.9717
  0
VERTEX
  8
0
 10
21.4977
 20
43.9505
  0
VERTEX
  8
0
 10
21.4714
 20
43.9323
  0
VERTEX
  8
0
 10
21.4417
 20
43.917
  0
VERTEX
  8
0
 10
21.3993
 20
43.9807
  0
VERTEX
  8
0
 10
21.4276
 20
43.9962
  0
VERTEX
  8
0
 10
21.4509
 20
44.0172
  0
VERTEX
  8
0
 10
21.4694
 20
44.0438
  0
VERTEX
  8
0
 10
21.483
 20
44.076
  0
VERTEX
  8
0
 10
21.4917
 20
44.1137
  0
VERTEX
  8
0
 10
21.4956
 20
44.157
  0
VERTEX
  8
0
 10
21.4113
 20
44.157
  0
SEQEND
  0
POLYLINE
  8
0
 66
     1
 10
0
 20
0
  0
VERTEX
  8
0
 10
22.8835
 20
44.157
  0
VERTEX
  8
0
 10
22.5553
 20
45.397
  0
VERTEX
  8
0
 10
22.7233
 20
45.397
  0
VERTEX
  8
0
 10
22.9116
 20
44.5869
  0
VERTEX
  8
0
 10
22.9399
 20
44.4588
  0
VERTEX
  8
0
 10
22.964
 20
44.3341
  0
VERTEX
  8
0
 10
22.975
 20
44.3805
  0
VERTEX
  8
0
 10
22.9848
 20
44.4218
  0
VERTEX
  8
0
 10
22.9935
 20
44.458
  0
VERTEX
  8
0
 10
23.0011
 20
44.4892
  0
VERTEX
  8
0
 10
23.0074
 20
44.5152
  0
VERTEX
  8
0
 10
23.0127
 20
44.5362
  0
VERTEX
  8
0
 10
23.0167
 20
44.5521
  0
VERTEX
  8
0
 10
23.0196
 20
44.5629
  0
VERTEX
  8
0
 10
23.2551
 20
45.397
  0
VERTEX
  8
0
 10
23.4527
 20
45.397
  0
VERTEX
  8
0
 10
23.63
 20
44.7722
  0
VERTEX
  8
0
 10
23.6872
 20
44.5466
  0
VERTEX
  8
0
 10
23.7266
 20
44.3341
  0
VERTEX
  8
0
 10
23.7345
 20
44.3721
  0
VERTEX
  8
0
 10
23.7446
 20
44.418
  0
VERTEX
  8
0
 10
23.757
 20
44.4718
  0
VERTEX
  8
0
 10
23.7716
 20
44.5336
  0
VERTEX
  8
0
 10
23.7885
 20
44.6032
  0
VERTEX
  8
0
 10
23.9808
 20
45.397
  0
VERTEX
  8
0
 10
24.1466
 20
45.397
  0
VERTEX
  8
0
 10
23.8073
 20
44.157
  0
VERTEX
  8
0
 10
23.6507
 20
44.157
  0
VERTEX
  8
0
 10
23.3863
 20
45.1034
  0
VERTEX
  8
0
 10
23.3722
 20
45.1569
  0
VERTEX
  8
0
 10
23.3613
 20
45.1991
  0
VERTEX
  8
0
 10
23.3536
 20
45.2298
  0
VERTEX
  8
0
 10
23.3491
 20
45.2491
  0
VERTEX
  8
0
 10
23.332
 20
45.1748
  0
VERTEX
  8
0
 10
23.3137
 20
45.1039
  0
VERTEX
  8
0
 10
23.0505
 20
44.157
  0
VERTEX
  8
0
 10
22.8835
 20
44.157
  0
SEQEND
  0
POLYLINE
  8
0
 66
     1
 10
0
 20
0
  0
VERTEX
  8
0
 10
24.2833
 20
44.157
  0
VERTEX
  8
0
 10
24.2833
 20
45.397
  0
VERTEX
  8
0
 10
24.4353
 20
45.397
  0
VERTEX
  8
0
 10
24.4353
 20
44.9546
  0
VERTEX
  8
0
 10
24.4724
 20
44.9917
  0
VERTEX
  8
0
 10
24.5127
 20
45.0222
  0
VERTEX
  8
0
 10
24.556
 20
45.046
  0
VERTEX
  8
0
 10
24.6024
 20
45.063
  0
VERTEX
  8
0
 10
24.6519
 20
45.0734
  0
VERTEX
  8
0
 10
24.7046
 20
45.077
  0
VERTEX
  8
0
 10
24.7967
 20
45.0675
  0
VERTEX
  8
0
 10
24.8781
 20
45.0372
  0
VERTEX
  8
0
 10
24.9277
 20
45.0029
  0
VERTEX
  8
0
 10
24.9658
 20
44.9588
  0
VERTEX
  8
0
 10
24.9925
 20
44.905
  0
VERTEX
  8
0
 10
25.0096
 20
44.8283
  0
VERTEX
  8
0
 10
25.0153
 20
44.7271
  0
VERTEX
  8
0
 10
25.0153
 20
44.157
  0
VERTEX
  8
0
 10
24.8633
 20
44.157
  0
VERTEX
  8
0
 10
24.8633
 20
44.7266
  0
VERTEX
  8
0
 10
24.8624
 20
44.7565
  0
VERTEX
  8
0
 10
24.8595
 20
44.7841
  0
VERTEX
  8
0
 10
24.8546
 20
44.8096
  0
VERTEX
  8
0
 10
24.8478
 20
44.8329
  0
VERTEX
  8
0
 10
24.8391
 20
44.854
  0
VERTEX
  8
0
 10
24.8285
 20
44.8729
  0
VERTEX
  8
0
 10
24.8159
 20
44.8896
  0
VERTEX
  8
0
 10
24.8013
 20
44.9041
  0
VERTEX
  8
0
 10
24.7849
 20
44.9164
  0
VERTEX
  8
0
 10
24.7665
 20
44.9265
  0
VERTEX
  8
0
 10
24.7461
 20
44.9344
  0
VERTEX
  8
0
 10
24.7238
 20
44.9401
  0
VERTEX
  8
0
 10
24.6996
 20
44.9437
  0
VERTEX
  8
0
 10
24.6735
 20
44.945
  0
VERTEX
  8
0
 10
24.6078
 20
44.9368
  0
VERTEX
  8
0
 10
24.5464
 20
44.9103
  0
VERTEX
  8
0
 10
24.4954
 20
44.8687
  0
VERTEX
  8
0
 10
24.4612
 20
44.8151
  0
VERTEX
  8
0
 10
24.4418
 20
44.7436
  0
VERTEX
  8
0
 10
24.4353
 20
44.6487
  0
VERTEX
  8
0
 10
24.4353
 20
44.157
  0
VERTEX
  8
0
 10
24.2833
 20
44.157
  0
SEQEND
  0
POLYLINE
  8
0
 66
     1
 10
0
 20
0
  0
VERTEX
  8
0
 10
25.2433
 20
45.221
  0
VERTEX
  8
0
 10
25.2433
 20
45.397
  0
VERTEX
  8
0
 10
25.3953
 20
45.397
  0
VERTEX
  8
0
 10
25.3953
 20
45.221
  0
VERTEX
  8
0
 10
25.2433
 20
45.221
  0
SEQEND
  0
POLYLINE
  8
0
 66
     1
 10
0
 20
0
  0
VERTEX
  8
0
 10
25.2433
 20
44.157
  0
VERTEX
  8
0
 10
25.2433
 20
45.0576
  0
VERTEX
  8
0
 10
25.3953
 20
45.0576
  0
VERTEX
  8
0
 10
25.3953
 20
44.157
  0
VERTEX
  8
0
 10
25.2433
 20
44.157
  0
SEQEND
  0
POLYLINE
  8
0
 66
     1
 10
0
 20
0
  0
VERTEX
  8
0
 10
25.9629
 20
44.2969
  0
VERTEX
  8
0
 10
25.9846
 20
44.1625
  0
VERTEX
  8
0
 10
25.9236
 20
44.1528
  0
VERTEX
  8
0
 10
25.87
 20
44.149
  0
VERTEX
  8
0
 10
25.829
 20
44.1505
  0
VERTEX
  8
0
 10
25.7924
 20
44.156
  0
VERTEX
  8
0
 10
25.7604
 20
44.1655
  0
VERTEX
  8
0
 10
25.733
 20
44.179
  0
VERTEX
  8
0
 10
25.7101
 20
44.1964
  0
VERTEX
  8
0
 10
25.6917
 20
44.2179
  0
VERTEX
  8
0
 10
25.6779
 20
44.2433
  0
VERTEX
  8
0
 10
25.6698
 20
44.2709
  0
VERTEX
  8
0
 10
25.664
 20
44.31
  0
VERTEX
  8
0
 10
25.6605
 20
44.3606
  0
VERTEX
  8
0
 10
25.6593
 20
44.4226
  0
VERTEX
  8
0
 10
25.6593
 20
44.937
  0
VERTEX
  8
0
 10
25.5473
 20
44.937
  0
VERTEX
  8
0
 10
25.5473
 20
45.057
  0
VERTEX
  8
0
 10
25.6593
 20
45.057
  0
VERTEX
  8
0
 10
25.6593
 20
45.2782
  0
VERTEX
  8
0
 10
25.8113
 20
45.369
  0
VERTEX
  8
0
 10
25.8113
 20
45.057
  0
VERTEX
  8
0
 10
25.9633
 20
45.057
  0
VERTEX
  8
0
 10
25.9633
 20
44.937
  0
VERTEX
  8
0
 10
25.8113
 20
44.937
  0
VERTEX
  8
0
 10
25.8113
 20
44.4131
  0
VERTEX
  8
0
 10
25.812
 20
44.3725
  0
VERTEX
  8
0
 10
25.8138
 20
44.3506
  0
VERTEX
  8
0
 10
25.8245
 20
44.3206
  0
VERTEX
  8
0
 10
25.8448
 20
44.3
  0
VERTEX
  8
0
 10
25.8662
 20
44.2922
  0
VERTEX
  8
0
 10
25.8967
 20
44.289
  0
VERTEX
  8
0
 10
25.9254
 20
44.2906
  0
VERTEX
  8
0
 10
25.9629
 20
44.2969
  0
VERTEX
  8
0
 10
25.9629
 20
44.2969
  0
SEQEND
  0
POLYLINE
  8
0
 66
     1
 10
0
 20
0
  0
VERTEX
  8
0
 10
26.7235
 20
44.4497
  0
VERTEX
  8
0
 10
26.8808
 20
44.4304
  0
VERTEX
  8
0
 10
26.8714
 20
44.3991
  0
VERTEX
  8
0
 10
26.8606
 20
44.3696
  0
VERTEX
  8
0
 10
26.8482
 20
44.3419
  0
VERTEX
  8
0
 10
26.8344
 20
44.316
  0
VERTEX
  8
0
 10
26.8192
 20
44.2919
  0
VERTEX
  8
0
 10
26.8024
 20
44.2696
  0
VERTEX
  8
0
 10
26.7842
 20
44.2491
  0
VERTEX
  8
0
 10
26.7645
 20
44.2303
  0
VERTEX
  8
0
 10
26.7434
 20
44.2133
  0
VERTEX
  8
0
 10
26.7207
 20
44.1982
  0
VERTEX
  8
0
 10
26.6966
 20
44.1848
  0
VERTEX
  8
0
 10
26.671
 20
44.1731
  0
VERTEX
  8
0
 10
26.644
 20
44.1633
  0
VERTEX
  8
0
 10
26.6154
 20
44.1553
  0
VERTEX
  8
0
 10
26.5854
 20
44.149
  0
VERTEX
  8
0
 10
26.5539
 20
44.1446
  0
VERTEX
  8
0
 10
26.521
 20
44.1419
  0
VERTEX
  8
0
 10
26.4865
 20
44.141
  0
VERTEX
  8
0
 10
26.4318
 20
44.1435
  0
VERTEX
  8
0
 10
26.3804
 20
44.1508
  0
VERTEX
  8
0
 10
26.3324
 20
44.1631
  0
VERTEX
  8
0
 10
26.2878
 20
44.1804
  0
VERTEX
  8
0
 10
26.2465
 20
44.2025
  0
VERTEX
  8
0
 10
26.2086
 20
44.2296
  0
VERTEX
  8
0
 10
26.1741
 20
44.2616
  0
VERTEX
  8
0
 10
26.1437
 20
44.2981
  0
VERTEX
  8
0
 10
26.1179
 20
44.3385
  0
VERTEX
  8
0
 10
26.0968
 20
44.3831
  0
VERTEX
  8
0
 10
26.0804
 20
44.4316
  0
VERTEX
  8
0
 10
26.0687
 20
44.4842
  0
VERTEX
  8
0
 10
26.0617
 20
44.5408
  0
VERTEX
  8
0
 10
26.0593
 20
44.6014
  0
VERTEX
  8
0
 10
26.0622
 20
44.6686
  0
VERTEX
  8
0
 10
26.0708
 20
44.7314
  0
VERTEX
  8
0
 10
26.0851
 20
44.7897
  0
VERTEX
  8
0
 10
26.1051
 20
44.8435
  0
VERTEX
  8
0
 10
26.1309
 20
44.8929
  0
VERTEX
  8
0
 10
26.1623
 20
44.9379
  0
VERTEX
  8
0
 10
26.192
 20
44.9705
  0
VERTEX
  8
0
 10
26.2245
 20
44.9987
  0
VERTEX
  8
0
 10
26.2598
 20
45.0226
  0
VERTEX
  8
0
 10
26.2978
 20
45.0422
  0
VERTEX
  8
0
 10
26.3387
 20
45.0574
  0
VERTEX
  8
0
 10
26.3824
 20
45.0683
  0
VERTEX
  8
0
 10
26.4288
 20
45.0748
  0
VERTEX
  8
0
 10
26.4781
 20
45.077
  0
VERTEX
  8
0
 10
26.5261
 20
45.0749
  0
VERTEX
  8
0
 10
26.5714
 20
45.0684
  0
VERTEX
  8
0
 10
26.6139
 20
45.0578
  0
VERTEX
  8
0
 10
26.6537
 20
45.0428
  0
VERTEX
  8
0
 10
26.6907
 20
45.0236
  0
VERTEX
  8
0
 10
26.725
 20
45.0001
  0
VERTEX
  8
0
 10
26.7566
 20
44.9723
  0
VERTEX
  8
0
 10
26.7854
 20
44.9403
  0
VERTEX
  8
0
 10
26.8161
 20
44.8963
  0
VERTEX
  8
0
 10
26.8412
 20
44.848
  0
VERTEX
  8
0
 10
26.8607
 20
44.7956
  0
VERTEX
  8
0
 10
26.8747
 20
44.739
  0
VERTEX
  8
0
 10
26.883
 20
44.6782
  0
VERTEX
  8
0
 10
26.8858
 20
44.6132
  0
VERTEX
  8
0
 10
26.8856
 20
44.5923
  0
VERTEX
  8
0
 10
26.885
 20
44.573
  0
VERTEX
  8
0
 10
26.2153
 20
44.573
  0
VERTEX
  8
0
 10
26.2263
 20
44.4903
  0
VERTEX
  8
0
 10
26.2503
 20
44.4187
  0
VERTEX
  8
0
 10
26.2872
 20
44.358
  0
VERTEX
  8
0
 10
26.3187
 20
44.3245
  0
VERTEX
  8
0
 10
26.3544
 20
44.2985
  0
VERTEX
  8
0
 10
26.3944
 20
44.2799
  0
VERTEX
  8
0
 10
26.4385
 20
44.2687
  0
VERTEX
  8
0
 10
26.4868
 20
44.265
  0
VERTEX
  8
0
 10
26.5197
 20
44.2668
  0
VERTEX
  8
0
 10
26.5506
 20
44.2724
  0
VERTEX
  8
0
 10
26.5795
 20
44.2816
  0
VERTEX
  8
0
 10
26.6062
 20
44.2945
  0
VERTEX
  8
0
 10
26.6309
 20
44.3112
  0
VERTEX
  8
0
 10
26.6536
 20
44.3315
  0
VERTEX
  8
0
 10
26.6742
 20
44.3555
  0
VERTEX
  8
0
 10
26.6927
 20
44.3832
  0
VERTEX
  8
0
 10
26.7091
 20
44.4146
  0
VERTEX
  8
0
 10
26.7235
 20
44.4497
  0
VERTEX
  8
0
 10
26.7235
 20
44.4497
  0
SEQEND
  0
POLYLINE
  8
0
 66
     1
 10
0
 20
0
  0
VERTEX
  8
0
 10
26.2248
 20
44.697
  0
VERTEX
  8
0
 10
26.7254
 20
44.697
  0
VERTEX
  8
0
 10
26.7145
 20
44.7657
  0
VERTEX
  8
0
 10
26.6954
 20
44.822
  0
VERTEX
  8
0
 10
26.668
 20
44.8657
  0
VERTEX
  8
0
 10
26.629
 20
44.9036
  0
VERTEX
  8
0
 10
26.5846
 20
44.9308
  0
VERTEX
  8
0
 10
26.5349
 20
44.9472
  0
VERTEX
  8
0
 10
26.4797
 20
44.953
  0
VERTEX
  8
0
 10
26.427
 20
44.9487
  0
VERTEX
  8
0
 10
26.3793
 20
44.9349
  0
VERTEX
  8
0
 10
26.3366
 20
44.9117
  0
VERTEX
  8
0
 10
26.2991
 20
44.8791
  0
VERTEX
  8
0
 10
26.2612
 20
44.8275
  0
VERTEX
  8
0
 10
26.2364
 20
44.7668
  0
VERTEX
  8
0
 10
26.2248
 20
44.697
  0
VERTEX
  8
0
 10
26.2248
 20
44.697
  0
SEQEND
  0
POLYLINE
  8
0
 66
     1
 10
0
 20
0
  0
VERTEX
  8
0
 10
27.8193
 20
44.609
  0
VERTEX
  8
0
 10
27.821
 20
44.6627
  0
VERTEX
  8
0
 10
27.8262
 20
44.7132
  0
VERTEX
  8
0
 10
27.8347
 20
44.7605
  0
VERTEX
  8
0
 10
27.8467
 20
44.8046
  0
VERTEX
  8
0
 10
27.8621
 20
44.8456
  0
VERTEX
  8
0
 10
27.8809
 20
44.8833
  0
VERTEX
  8
0
 10
27.9031
 20
44.9179
  0
VERTEX
  8
0
 10
27.9287
 20
44.9493
  0
VERTEX
  8
0
 10
27.9578
 20
44.9775
  0
VERTEX
  8
0
 10
28.0058
 20
45.0133
  0
VERTEX
  8
0
 10
28.058
 20
45.0412
  0
VERTEX
  8
0
 10
28.1144
 20
45.0611
  0
VERTEX
  8
0
 10
28.175
 20
45.073
  0
VERTEX
  8
0
 10
28.2398
 20
45.077
  0
VERTEX
  8
0
 10
28.2945
 20
45.0743
  0
VERTEX
  8
0
 10
28.3458
 20
45.0663
  0
VERTEX
  8
0
 10
28.3938
 20
45.053
  0
VERTEX
  8
0
 10
28.4383
 20
45.0343
  0
VERTEX
  8
0
 10
28.4793
 20
45.0103
  0
VERTEX
  8
0
 10
28.517
 20
44.981
  0
VERTEX
  8
0
 10
28.5513
 20
44.9463
  0
VERTEX
  8
0
 10
28.5843
 20
44.9026
  0
VERTEX
  8
0
 10
28.6113
 20
44.8548
  0
VERTEX
  8
0
 10
28.6323
 20
44.8027
  0
VERTEX
  8
0
 10
28.6473
 20
44.7465
  0
VERTEX
  8
0
 10
28.6563
 20
44.6862
  0
VERTEX
  8
0
 10
28.6593
 20
44.6216
  0
VERTEX
  8
0
 10
28.6583
 20
44.5778
  0
VERTEX
  8
0
 10
28.6552
 20
44.5361
  0
VERTEX
  8
0
 10
28.65
 20
44.4964
  0
VERTEX
  8
0
 10
28.6427
 20
44.4588
  0
VERTEX
  8
0
 10
28.6334
 20
44.4233
  0
VERTEX
  8
0
 10
28.622
 20
44.3898
  0
VERTEX
  8
0
 10
28.6085
 20
44.3583
  0
VERTEX
  8
0
 10
28.5929
 20
44.3289
  0
VERTEX
  8
0
 10
28.5753
 20
44.3016
  0
VERTEX
  8
0
 10
28.5555
 20
44.2763
  0
VERTEX
  8
0
 10
28.5337
 20
44.2531
  0
VERTEX
  8
0
 10
28.5099
 20
44.232
  0
VERTEX
  8
0
 10
28.4839
 20
44.2128
  0
VERTEX
  8
0
 10
28.4559
 20
44.1958
  0
VERTEX
  8
0
 10
28.3525
 20
44.1551
  0
VERTEX
  8
0
 10
28.2398
 20
44.141
  0
VERTEX
  8
0
 10
28.1899
 20
44.1429
  0
VERTEX
  8
0
 10
28.143
 20
44.149
  0
VERTEX
  8
0
 10
28.0991
 20
44.1594
  0
VERTEX
  8
0
 10
28.058
 20
44.1741
  0
VERTEX
  8
0
 10
28.0199
 20
44.1929
  0
VERTEX
  8
0
 10
27.9847
 20
44.2161
  0
VERTEX
  8
0
 10
27.9525
 20
44.2434
  0
VERTEX
  8
0
 10
27.9231
 20
44.2751
  0
VERTEX
  8
0
 10
27.8914
 20
44.319
  0
VERTEX
  8
0
 10
27.8655
 20
44.3676
  0
VERTEX
  8
0
 10
27.8453
 20
44.4209
  0
VERTEX
  8
0
 10
27.8309
 20
44.4789
  0
VERTEX
  8
0
 10
27.8222
 20
44.5416
  0
VERTEX
  8
0
 10
27.8193
 20
44.609
  0
VERTEX
  8
0
 10
27.8193
 20
44.609
  0
SEQEND
  0
POLYLINE
  8
0
 66
     1
 10
0
 20
0
  0
VERTEX
  8
0
 10
27.9753
 20
44.6094
  0
VERTEX
  8
0
 10
27.979
 20
44.5401
  0
VERTEX
  8
0
 10
27.9899
 20
44.4776
  0
VERTEX
  8
0
 10
28.0081
 20
44.422
  0
VERTEX
  8
0
 10
28.0336
 20
44.3733
  0
VERTEX
  8
0
 10
28.0586
 20
44.3405
  0
VERTEX
  8
0
 10
28.0873
 20
44.3135
  0
VERTEX
  8
0
 10
28.1198
 20
44.2925
  0
VERTEX
  8
0
 10
28.156
 20
44.2774
  0
VERTEX
  8
0
 10
28.196
 20
44.2682
  0
VERTEX
  8
0
 10
28.2398
 20
44.265
  0
VERTEX
  8
0
 10
28.2835
 20
44.2678
  0
VERTEX
  8
0
 10
28.3235
 20
44.2769
  0
VERTEX
  8
0
 10
28.3597
 20
44.2923
  0
VERTEX
  8
0
 10
28.3922
 20
44.3139
  0
VERTEX
  8
0
 10
28.4209
 20
44.3417
  0
VERTEX
  8
0
 10
28.4459
 20
44.3759
  0
VERTEX
  8
0
 10
28.4778
 20
44.4437
  0
VERTEX
  8
0
 10
28.497
 20
44.5233
  0
VERTEX
  8
0
 10
28.5033
 20
44.6145
  0
VERTEX
  8
0
 10
28.4967
 20
44.7027
  0
VERTEX
  8
0
 10
28.4767
 20
44.78
  0
VERTEX
  8
0
 10
28.4433
 20
44.8464
  0
VERTEX
  8
0
 10
28.418
 20
44.8789
  0
VERTEX
  8
0
 10
28.3892
 20
44.9056
  0
VERTEX
  8
0
 10
28.357
 20
44.9263
  0
VERTEX
  8
0
 10
28.3213
 20
44.9411
  0
VERTEX
  8
0
 10
28.2823
 20
44.95
  0
VERTEX
  8
0
 10
28.2398
 20
44.953
  0
VERTEX
  8
0
 10
28.196
 20
44.95
  0
VERTEX
  8
0
 10
28.156
 20
44.941
  0
VERTEX
  8
0
 10
28.1198
 20
44.9259
  0
VERTEX
  8
0
 10
28.0873
 20
44.9049
  0
VERTEX
  8
0
 10
28.0586
 20
44.8778
  0
VERTEX
  8
0
 10
28.0336
 20
44.8447
  0
VERTEX
  8
0
 10
28.0013
 20
44.7779
  0
VERTEX
  8
0
 10
27.9818
 20
44.6995
  0
VERTEX
  8
0
 10
27.9753
 20
44.6094
  0
VERTEX
  8
0
 10
27.9753
 20
44.6094
  0
SEQEND
  0
POLYLINE
  8
0
 66
     1
 10
0
 20
0
  0
VERTEX
  8
0
 10
28.8393
 20
44.157
  0
VERTEX
  8
0
 10
28.8393
 20
45.0576
  0
VERTEX
  8
0
 10
28.9753
 20
45.0576
  0
VERTEX
  8
0
 10
28.9753
 20
44.9301
  0
VERTEX
  8
0
 10
29.0014
 20
44.9643
  0
VERTEX
  8
0
 10
29.0302
 20
44.994
  0
VERTEX
  8
0
 10
29.0618
 20
45.0192
  0
VERTEX
  8
0
 10
29.0961
 20
45.0398
  0
VERTEX
  8
0
 10
29.1332
 20
45.0559
  0
VERTEX
  8
0
 10
29.1729
 20
45.0675
  0
VERTEX
  8
0
 10
29.2155
 20
45.0745
  0
VERTEX
  8
0
 10
29.2608
 20
45.077
  0
VERTEX
  8
0
 10
29.3372
 20
45.0696
  0
VERTEX
  8
0
 10
29.4094
 20
45.0474
  0
VERTEX
  8
0
 10
29.4471
 20
45.0278
  0
VERTEX
  8
0
 10
29.4797
 20
45.0034
  0
VERTEX
  8
0
 10
29.5071
 20
44.9743
  0
VERTEX
  8
0
 10
29.5295
 20
44.9404
  0
VERTEX
  8
0
 10
29.5468
 20
44.9018
  0
VERTEX
  8
0
 10
29.5589
 20
44.8584
  0
VERTEX
  8
0
 10
29.5636
 20
44.8243
  0
VERTEX
  8
0
 10
29.5664
 20
44.7748
  0
VERTEX
  8
0
 10
29.5673
 20
44.7102
  0
VERTEX
  8
0
 10
29.5673
 20
44.157
  0
VERTEX
  8
0
 10
29.4153
 20
44.157
  0
VERTEX
  8
0
 10
29.4153
 20
44.7044
  0
VERTEX
  8
0
 10
29.4124
 20
44.774
  0
VERTEX
  8
0
 10
29.4035
 20
44.8238
  0
VERTEX
  8
0
 10
29.3778
 20
44.8776
  0
VERTEX
  8
0
 10
29.3344
 20
44.9171
  0
VERTEX
  8
0
 10
29.2857
 20
44.938
  0
VERTEX
  8
0
 10
29.229
 20
44.945
  0
VERTEX
  8
0
 10
29.2047
 20
44.9442
  0
VERTEX
  8
0
 10
29.1816
 20
44.9417
  0
VERTEX
  8
0
 10
29.1599
 20
44.9376
  0
VERTEX
  8
0
 10
29.1395
 20
44.9318
  0
VERTEX
  8
0
 10
29.1204
 20
44.9245
  0
VERTEX
  8
0
 10
29.1026
 20
44.9154
  0
VERTEX
  8
0
 10
29.0861
 20
44.9047
  0
VERTEX
  8
0
 10
29.071
 20
44.8924
  0
VERTEX
  8
0
 10
29.0572
 20
44.8784
  0
VERTEX
  8
0
 10
29.0447
 20
44.8628
  0
VERTEX
  8
0
 10
29.0335
 20
44.8456
  0
VERTEX
  8
0
 10
29.0236
 20
44.8267
  0
VERTEX
  8
0
 10
29.015
 20
44.8062
  0
VERTEX
  8
0
 10
29.0078
 20
44.784
  0
VERTEX
  8
0
 10
29.0019
 20
44.7602
  0
VERTEX
  8
0
 10
28.9973
 20
44.7347
  0
VERTEX
  8
0
 10
28.994
 20
44.7076
  0
VERTEX
  8
0
 10
28.992
 20
44.6788
  0
VERTEX
  8
0
 10
28.9913
 20
44.6484
  0
VERTEX
  8
0
 10
28.9913
 20
44.157
  0
VERTEX
  8
0
 10
28.8393
 20
44.157
  0
SEQEND
  0
POLYLINE
  8
0
 66
     1
 10
0
 20
0
  0
VERTEX
  8
0
 10
31.2033
 20
44.645
  0
VERTEX
  8
0
 10
31.2033
 20
44.793
  0
VERTEX
  8
0
 10
31.7273
 20
44.793
  0
VERTEX
  8
0
 10
31.7273
 20
44.3341
  0
VERTEX
  8
0
 10
31.6733
 20
44.2936
  0
VERTEX
  8
0
 10
31.6186
 20
44.2578
  0
VERTEX
  8
0
 10
31.5632
 20
44.2268
  0
VERTEX
  8
0
 10
31.507
 20
44.2006
  0
VERTEX
  8
0
 10
31.4501
 20
44.1791
  0
VERTEX
  8
0
 10
31.3925
 20
44.1624
  0
VERTEX
  8
0
 10
31.3341
 20
44.1505
  0
VERTEX
  8
0
 10
31.275
 20
44.1434
  0
VERTEX
  8
0
 10
31.2152
 20
44.141
  0
VERTEX
  8
0
 10
31.1273
 20
44.1455
  0
VERTEX
  8
0
 10
31.0442
 20
44.1591
  0
VERTEX
  8
0
 10
30.9658
 20
44.1818
  0
VERTEX
  8
0
 10
30.8921
 20
44.2136
  0
VERTEX
  8
0
 10
30.8334
 20
44.2483
  0
VERTEX
  8
0
 10
30.7807
 20
44.2887
  0
VERTEX
  8
0
 10
30.7342
 20
44.335
  0
VERTEX
  8
0
 10
30.6937
 20
44.3871
  0
VERTEX
  8
0
 10
30.6593
 20
44.4449
  0
VERTEX
  8
0
 10
30.626
 20
44.5203
  0
VERTEX
  8
0
 10
30.6023
 20
44.6005
  0
VERTEX
  8
0
 10
30.5881
 20
44.6854
  0
VERTEX
  8
0
 10
30.5833
 20
44.7751
  0
VERTEX
  8
0
 10
30.5911
 20
44.8906
  0
VERTEX
  8
0
 10
30.6145
 20
44.9995
  0
VERTEX
  8
0
 10
30.6534
 20
45.1019
  0
VERTEX
  8
0
 10
30.6872
 20
45.1645
  0
VERTEX
  8
0
 10
30.7263
 20
45.2202
  0
VERTEX
  8
0
 10
30.7709
 20
45.2688
  0
VERTEX
  8
0
 10
30.8209
 20
45.3104
  0
VERTEX
  8
0
 10
30.8763
 20
45.345
  0
VERTEX
  8
0
 10
30.9499
 20
45.3782
  0
VERTEX
  8
0
 10
31.0289
 20
45.402
  0
VERTEX
  8
0
 10
31.1132
 20
45.4162
  0
VERTEX
  8
0
 10
31.203
 20
45.421
  0
VERTEX
  8
0
 10
31.33
 20
45.4099
  0
VERTEX
  8
0
 10
31.4461
 20
45.3765
  0
VERTEX
  8
0
 10
31.5449
 20
45.3228
  0
VERTEX
  8
0
 10
31.62
 20
45.2507
  0
VERTEX
  8
0
 10
31.6707
 20
45.1643
  0
VERTEX
  8
0
 10
31.7095
 20
45.0526
  0
VERTEX
  8
0
 10
31.5616
 20
45.0119
  0
VERTEX
  8
0
 10
31.5318
 20
45.0938
  0
VERTEX
  8
0
 10
31.4966
 20
45.1546
  0
VERTEX
  8
0
 10
31.4441
 20
45.2075
  0
VERTEX
  8
0
 10
31.3745
 20
45.2475
  0
VERTEX
  8
0
 10
31.2926
 20
45.2726
  0
VERTEX
  8
0
 10
31.2034
 20
45.281
  0
VERTEX
  8
0
 10
31.0995
 20
45.2724
  0
VERTEX
  8
0
 10
31.009
 20
45.2465
  0
VERTEX
  8
0
 10
30.9623
 20
45.2238
  0
VERTEX
  8
0
 10
30.9203
 20
45.1962
  0
VERTEX
  8
0
 10
30.8829
 20
45.1635
  0
VERTEX
  8
0
 10
30.8502
 20
45.1258
  0
VERTEX
  8
0
 10
30.8221
 20
45.0832
  0
VERTEX
  8
0
 10
30.7986
 20
45.0355
  0
VERTEX
  8
0
 10
30.7636
 20
44.918
  0
VERTEX
  8
0
 10
30.7513
 20
44.7874
  0
VERTEX
  8
0
 10
30.7521
 20
44.7443
  0
VERTEX
  8
0
 10
30.7549
 20
44.7032
  0
VERTEX
  8
0
 10
30.7597
 20
44.664
  0
VERTEX
  8
0
 10
30.7665
 20
44.6268
  0
VERTEX
  8
0
 10
30.7754
 20
44.5916
  0
VERTEX
  8
0
 10
30.7862
 20
44.5583
  0
VERTEX
  8
0
 10
30.7991
 20
44.527
  0
VERTEX
  8
0
 10
30.8139
 20
44.4976
  0
VERTEX
  8
0
 10
30.8308
 20
44.4702
  0
VERTEX
  8
0
 10
30.8497
 20
44.4447
  0
VERTEX
  8
0
 10
30.8706
 20
44.4212
  0
VERTEX
  8
0
 10
30.8935
 20
44.3997
  0
VERTEX
  8
0
 10
30.9184
 20
44.3801
  0
VERTEX
  8
0
 10
30.9454
 20
44.3625
  0
VERTEX
  8
0
 10
30.9743
 20
44.3468
  0
VERTEX
  8
0
 10
31.0867
 20
44.3068
  0
VERTEX
  8
0
 10
31.2058
 20
44.293
  0
VERTEX
  8
0
 10
31.2989
 20
44.3011
  0
VERTEX
  8
0
 10
31.3975
 20
44.3269
  0
VERTEX
  8
0
 10
31.4928
 20
44.3677
  0
VERTEX
  8
0
 10
31.5673
 20
44.4189
  0
VERTEX
  8
0
 10
31.5673
 20
44.645
  0
VERTEX
  8
0
 10
31.2033
 20
44.645
  0
SEQEND
  0
POLYLINE
  8
0
 66
     1
 10
0
 20
0
  0
VERTEX
  8
0
 10
31.9553
 20
44.157
  0
VERTEX
  8
0
 10
31.9553
 20
45.0576
  0
VERTEX
  8
0
 10
32.0913
 20
45.0576
  0
VERTEX
  8
0
 10
32.0913
 20
44.9216
  0
VERTEX
  8
0
 10
32.1311
 20
44.9859
  0
VERTEX
  8
0
 10
32.1675
 20
45.0291
  0
VERTEX
  8
0
 10
32.2221
 20
45.065
  0
VERTEX
  8
0
 10
32.286
 20
45.077
  0
VERTEX
  8
0
 10
32.3631
 20
45.0648
  0
VERTEX
  8
0
 10
32.4425
 20
45.0282
  0
VERTEX
  8
0
 10
32.3901
 20
44.8879
  0
VERTEX
  8
0
 10
32.3344
 20
44.9127
  0
VERTEX
  8
0
 10
32.2787
 20
44.921
  0
VERTEX
  8
0
 10
32.2297
 20
44.9123
  0
VERTEX
  8
0
 10
32.1841
 20
44.8862
  0
VERTEX
  8
0
 10
32.1536
 20
44.852
  0
VERTEX
  8
0
 10
32.1326
 20
44.8072
  0
VERTEX
  8
0
 10
32.1137
 20
44.7228
  0
VERTEX
  8
0
 10
32.1073
 20
44.629
  0
VERTEX
  8
0
 10
32.1073
 20
44.157
  0
VERTEX
  8
0
 10
31.9553
 20
44.157
  0
SEQEND
  0
POLYLINE
  8
0
 66
     1
 10
0
 20
0
  0
VERTEX
  8
0
 10
33.1475
 20
44.4497
  0
VERTEX
  8
0
 10
33.3048
 20
44.4304
  0
VERTEX
  8
0
 10
33.2954
 20
44.3991
  0
VERTEX
  8
0
 10
33.2846
 20
44.3696
  0
VERTEX
  8
0
 10
33.2722
 20
44.3419
  0
VERTEX
  8
0
 10
33.2584
 20
44.316
  0
VERTEX
  8
0
 10
33.2432
 20
44.2919
  0
VERTEX
  8
0
 10
33.2264
 20
44.2696
  0
VERTEX
  8
0
 10
33.2082
 20
44.2491
  0
VERTEX
  8
0
 10
33.1885
 20
44.2303
  0
VERTEX
  8
0
 10
33.1674
 20
44.2133
  0
VERTEX
  8
0
 10
33.1447
 20
44.1982
  0
VERTEX
  8
0
 10
33.1206
 20
44.1848
  0
VERTEX
  8
0
 10
33.095
 20
44.1731
  0
VERTEX
  8
0
 10
33.068
 20
44.1633
  0
VERTEX
  8
0
 10
33.0394
 20
44.1553
  0
VERTEX
  8
0
 10
33.0094
 20
44.149
  0
VERTEX
  8
0
 10
32.9779
 20
44.1446
  0
VERTEX
  8
0
 10
32.945
 20
44.1419
  0
VERTEX
  8
0
 10
32.9105
 20
44.141
  0
VERTEX
  8
0
 10
32.8558
 20
44.1435
  0
VERTEX
  8
0
 10
32.8044
 20
44.1508
  0
VERTEX
  8
0
 10
32.7564
 20
44.1631
  0
VERTEX
  8
0
 10
32.7118
 20
44.1804
  0
VERTEX
  8
0
 10
32.6705
 20
44.2025
  0
VERTEX
  8
0
 10
32.6326
 20
44.2296
  0
VERTEX
  8
0
 10
32.5981
 20
44.2616
  0
VERTEX
  8
0
 10
32.5677
 20
44.2981
  0
VERTEX
  8
0
 10
32.5419
 20
44.3385
  0
VERTEX
  8
0
 10
32.5208
 20
44.3831
  0
VERTEX
  8
0
 10
32.5044
 20
44.4316
  0
VERTEX
  8
0
 10
32.4927
 20
44.4842
  0
VERTEX
  8
0
 10
32.4857
 20
44.5408
  0
VERTEX
  8
0
 10
32.4833
 20
44.6014
  0
VERTEX
  8
0
 10
32.4862
 20
44.6686
  0
VERTEX
  8
0
 10
32.4948
 20
44.7314
  0
VERTEX
  8
0
 10
32.5091
 20
44.7897
  0
VERTEX
  8
0
 10
32.5291
 20
44.8435
  0
VERTEX
  8
0
 10
32.5549
 20
44.8929
  0
VERTEX
  8
0
 10
32.5863
 20
44.9379
  0
VERTEX
  8
0
 10
32.616
 20
44.9705
  0
VERTEX
  8
0
 10
32.6485
 20
44.9987
  0
VERTEX
  8
0
 10
32.6838
 20
45.0226
  0
VERTEX
  8
0
 10
32.7218
 20
45.0422
  0
VERTEX
  8
0
 10
32.7627
 20
45.0574
  0
VERTEX
  8
0
 10
32.8064
 20
45.0683
  0
VERTEX
  8
0
 10
32.8528
 20
45.0748
  0
VERTEX
  8
0
 10
32.9021
 20
45.077
  0
VERTEX
  8
0
 10
32.9501
 20
45.0749
  0
VERTEX
  8
0
 10
32.9954
 20
45.0684
  0
VERTEX
  8
0
 10
33.0379
 20
45.0578
  0
VERTEX
  8
0
 10
33.0777
 20
45.0428
  0
VERTEX
  8
0
 10
33.1147
 20
45.0236
  0
VERTEX
  8
0
 10
33.149
 20
45.0001
  0
VERTEX
  8
0
 10
33.1806
 20
44.9723
  0
VERTEX
  8
0
 10
33.2094
 20
44.9403
  0
VERTEX
  8
0
 10
33.2401
 20
44.8963
  0
VERTEX
  8
0
 10
33.2652
 20
44.848
  0
VERTEX
  8
0
 10
33.2847
 20
44.7956
  0
VERTEX
  8
0
 10
33.2987
 20
44.739
  0
VERTEX
  8
0
 10
33.307
 20
44.6782
  0
VERTEX
  8
0
 10
33.3098
 20
44.6132
  0
VERTEX
  8
0
 10
33.3096
 20
44.5923
  0
VERTEX
  8
0
 10
33.309
 20
44.573
  0
VERTEX
  8
0
 10
32.6393
 20
44.573
  0
VERTEX
  8
0
 10
32.6503
 20
44.4903
  0
VERTEX
  8
0
 10
32.6743
 20
44.4187
  0
VERTEX
  8
0
 10
32.7112
 20
44.358
  0
VERTEX
  8
0
 10
32.7427
 20
44.3245
  0
VERTEX
  8
0
 10
32.7784
 20
44.2985
  0
VERTEX
  8
0
 10
32.8184
 20
44.2799
  0
VERTEX
  8
0
 10
32.8625
 20
44.2687
  0
VERTEX
  8
0
 10
32.9108
 20
44.265
  0
VERTEX
  8
0
 10
32.9437
 20
44.2668
  0
VERTEX
  8
0
 10
32.9746
 20
44.2724
  0
VERTEX
  8
0
 10
33.0035
 20
44.2816
  0
VERTEX
  8
0
 10
33.0302
 20
44.2945
  0
VERTEX
  8
0
 10
33.0549
 20
44.3112
  0
VERTEX
  8
0
 10
33.0776
 20
44.3315
  0
VERTEX
  8
0
 10
33.0982
 20
44.3555
  0
VERTEX
  8
0
 10
33.1167
 20
44.3832
  0
VERTEX
  8
0
 10
33.1331
 20
44.4146
  0
VERTEX
  8
0
 10
33.1475
 20
44.4497
  0
VERTEX
  8
0
 10
33.1475
 20
44.4497
  0
SEQEND
  0
POLYLINE
  8
0
 66
     1
 10
0
 20
0
  0
VERTEX
  8
0
 10
32.6488
 20
44.697
  0
VERTEX
  8
0
 10
33.1494
 20
44.697
  0
VERTEX
  8
0
 10
33.1385
 20
44.7657
  0
VERTEX
  8
0
 10
33.1194
 20
44.822
  0
VERTEX
  8
0
 10
33.092
 20
44.8657
  0
VERTEX
  8
0
 10
33.053
 20
44.9036
  0
VERTEX
  8
0
 10
33.0086
 20
44.9308
  0
VERTEX
  8
0
 10
32.9589
 20
44.9472
  0
VERTEX
  8
0
 10
32.9037
 20
44.953
  0
VERTEX
  8
0
 10
32.851
 20
44.9487
  0
VERTEX
  8
0
 10
32.8033
 20
44.9349
  0
VERTEX
  8
0
 10
32.7606
 20
44.9117
  0
VERTEX
  8
0
 10
32.7231
 20
44.8791
  0
VERTEX
  8
0
 10
32.6852
 20
44.8275
  0
VERTEX
  8
0
 10
32.6604
 20
44.7668
  0
VERTEX
  8
0
 10
32.6488
 20
44.697
  0
VERTEX
  8
0
 10
32.6488
 20
44.697
  0
SEQEND
  0
POLYLINE
  8
0
 66
     1
 10
0
 20
0
  0
VERTEX
  8
0
 10
34.1075
 20
44.4497
  0
VERTEX
  8
0
 10
34.2648
 20
44.4304
  0
VERTEX
  8
0
 10
34.2554
 20
44.3991
  0
VERTEX
  8
0
 10
34.2446
 20
44.3696
  0
VERTEX
  8
0
 10
34.2322
 20
44.3419
  0
VERTEX
  8
0
 10
34.2184
 20
44.316
  0
VERTEX
  8
0
 10
34.2032
 20
44.2919
  0
VERTEX
  8
0
 10
34.1864
 20
44.2696
  0
VERTEX
  8
0
 10
34.1682
 20
44.2491
  0
VERTEX
  8
0
 10
34.1485
 20
44.2303
  0
VERTEX
  8
0
 10
34.1274
 20
44.2133
  0
VERTEX
  8
0
 10
34.1047
 20
44.1982
  0
VERTEX
  8
0
 10
34.0806
 20
44.1848
  0
VERTEX
  8
0
 10
34.055
 20
44.1731
  0
VERTEX
  8
0
 10
34.028
 20
44.1633
  0
VERTEX
  8
0
 10
33.9994
 20
44.1553
  0
VERTEX
  8
0
 10
33.9694
 20
44.149
  0
VERTEX
  8
0
 10
33.9379
 20
44.1446
  0
VERTEX
  8
0
 10
33.905
 20
44.1419
  0
VERTEX
  8
0
 10
33.8705
 20
44.141
  0
VERTEX
  8
0
 10
33.8158
 20
44.1435
  0
VERTEX
  8
0
 10
33.7644
 20
44.1508
  0
VERTEX
  8
0
 10
33.7164
 20
44.1631
  0
VERTEX
  8
0
 10
33.6718
 20
44.1804
  0
VERTEX
  8
0
 10
33.6305
 20
44.2025
  0
VERTEX
  8
0
 10
33.5926
 20
44.2296
  0
VERTEX
  8
0
 10
33.5581
 20
44.2616
  0
VERTEX
  8
0
 10
33.5277
 20
44.2981
  0
VERTEX
  8
0
 10
33.5019
 20
44.3385
  0
VERTEX
  8
0
 10
33.4808
 20
44.3831
  0
VERTEX
  8
0
 10
33.4644
 20
44.4316
  0
VERTEX
  8
0
 10
33.4527
 20
44.4842
  0
VERTEX
  8
0
 10
33.4457
 20
44.5408
  0
VERTEX
  8
0
 10
33.4433
 20
44.6014
  0
VERTEX
  8
0
 10
33.4462
 20
44.6686
  0
VERTEX
  8
0
 10
33.4548
 20
44.7314
  0
VERTEX
  8
0
 10
33.4691
 20
44.7897
  0
VERTEX
  8
0
 10
33.4891
 20
44.8435
  0
VERTEX
  8
0
 10
33.5149
 20
44.8929
  0
VERTEX
  8
0
 10
33.5463
 20
44.9379
  0
VERTEX
  8
0
 10
33.576
 20
44.9705
  0
VERTEX
  8
0
 10
33.6085
 20
44.9987
  0
VERTEX
  8
0
 10
33.6438
 20
45.0226
  0
VERTEX
  8
0
 10
33.6818
 20
45.0422
  0
VERTEX
  8
0
 10
33.7227
 20
45.0574
  0
VERTEX
  8
0
 10
33.7664
 20
45.0683
  0
VERTEX
  8
0
 10
33.8128
 20
45.0748
  0
VERTEX
  8
0
 10
33.8621
 20
45.077
  0
VERTEX
  8
0
 10
33.9101
 20
45.0749
  0
VERTEX
  8
0
 10
33.9554
 20
45.0684
  0
VERTEX
  8
0
 10
33.9979
 20
45.0578
  0
VERTEX
  8
0
 10
34.0377
 20
45.0428
  0
VERTEX
  8
0
 10
34.0747
 20
45.0236
  0
VERTEX
  8
0
 10
34.109
 20
45.0001
  0
VERTEX
  8
0
 10
34.1406
 20
44.9723
  0
VERTEX
  8
0
 10
34.1694
 20
44.9403
  0
VERTEX
  8
0
 10
34.2001
 20
44.8963
  0
VERTEX
  8
0
 10
34.2252
 20
44.848
  0
VERTEX
  8
0
 10
34.2447
 20
44.7956
  0
VERTEX
  8
0
 10
34.2587
 20
44.739
  0
VERTEX
  8
0
 10
34.267
 20
44.6782
  0
VERTEX
  8
0
 10
34.2698
 20
44.6132
  0
VERTEX
  8
0
 10
34.2696
 20
44.5923
  0
VERTEX
  8
0
 10
34.269
 20
44.573
  0
VERTEX
  8
0
 10
33.5993
 20
44.573
  0
VERTEX
  8
0
 10
33.6103
 20
44.4903
  0
VERTEX
  8
0
 10
33.6343
 20
44.4187
  0
VERTEX
  8
0
 10
33.6712
 20
44.358
  0
VERTEX
  8
0
 10
33.7027
 20
44.3245
  0
VERTEX
  8
0
 10
33.7384
 20
44.2985
  0
VERTEX
  8
0
 10
33.7784
 20
44.2799
  0
VERTEX
  8
0
 10
33.8225
 20
44.2687
  0
VERTEX
  8
0
 10
33.8708
 20
44.265
  0
VERTEX
  8
0
 10
33.9037
 20
44.2668
  0
VERTEX
  8
0
 10
33.9346
 20
44.2724
  0
VERTEX
  8
0
 10
33.9635
 20
44.2816
  0
VERTEX
  8
0
 10
33.9902
 20
44.2945
  0
VERTEX
  8
0
 10
34.0149
 20
44.3112
  0
VERTEX
  8
0
 10
34.0376
 20
44.3315
  0
VERTEX
  8
0
 10
34.0582
 20
44.3555
  0
VERTEX
  8
0
 10
34.0767
 20
44.3832
  0
VERTEX
  8
0
 10
34.0931
 20
44.4146
  0
VERTEX
  8
0
 10
34.1075
 20
44.4497
  0
VERTEX
  8
0
 10
34.1075
 20
44.4497
  0
SEQEND
  0
POLYLINE
  8
0
 66
     1
 10
0
 20
0
  0
VERTEX
  8
0
 10
33.6088
 20
44.697
  0
VERTEX
  8
0
 10
34.1094
 20
44.697
  0
VERTEX
  8
0
 10
34.0985
 20
44.7657
  0
VERTEX
  8
0
 10
34.0794
 20
44.822
  0
VERTEX
  8
0
 10
34.052
 20
44.8657
  0
VERTEX
  8
0
 10
34.013
 20
44.9036
  0
VERTEX
  8
0
 10
33.9686
 20
44.9308
  0
VERTEX
  8
0
 10
33.9189
 20
44.9472
  0
VERTEX
  8
0
 10
33.8637
 20
44.953
  0
VERTEX
  8
0
 10
33.811
 20
44.9487
  0
VERTEX
  8
0
 10
33.7633
 20
44.9349
  0
VERTEX
  8
0
 10
33.7206
 20
44.9117
  0
VERTEX
  8
0
 10
33.6831
 20
44.8791
  0
VERTEX
  8
0
 10
33.6452
 20
44.8275
  0
VERTEX
  8
0
 10
33.6204
 20
44.7668
  0
VERTEX
  8
0
 10
33.6088
 20
44.697
  0
VERTEX
  8
0
 10
33.6088
 20
44.697
  0
SEQEND
  0
POLYLINE
  8
0
 66
     1
 10
0
 20
0
  0
VERTEX
  8
0
 10
34.4553
 20
44.157
  0
VERTEX
  8
0
 10
34.4553
 20
45.0576
  0
VERTEX
  8
0
 10
34.5913
 20
45.0576
  0
VERTEX
  8
0
 10
34.5913
 20
44.9301
  0
VERTEX
  8
0
 10
34.6174
 20
44.9643
  0
VERTEX
  8
0
 10
34.6462
 20
44.994
  0
VERTEX
  8
0
 10
34.6778
 20
45.0192
  0
VERTEX
  8
0
 10
34.7121
 20
45.0398
  0
VERTEX
  8
0
 10
34.7492
 20
45.0559
  0
VERTEX
  8
0
 10
34.7889
 20
45.0675
  0
VERTEX
  8
0
 10
34.8315
 20
45.0745
  0
VERTEX
  8
0
 10
34.8768
 20
45.077
  0
VERTEX
  8
0
 10
34.9532
 20
45.0696
  0
VERTEX
  8
0
 10
35.0254
 20
45.0474
  0
VERTEX
  8
0
 10
35.0631
 20
45.0278
  0
VERTEX
  8
0
 10
35.0957
 20
45.0034
  0
VERTEX
  8
0
 10
35.1231
 20
44.9743
  0
VERTEX
  8
0
 10
35.1455
 20
44.9404
  0
VERTEX
  8
0
 10
35.1628
 20
44.9018
  0
VERTEX
  8
0
 10
35.1749
 20
44.8584
  0
VERTEX
  8
0
 10
35.1796
 20
44.8243
  0
VERTEX
  8
0
 10
35.1824
 20
44.7748
  0
VERTEX
  8
0
 10
35.1833
 20
44.7102
  0
VERTEX
  8
0
 10
35.1833
 20
44.157
  0
VERTEX
  8
0
 10
35.0313
 20
44.157
  0
VERTEX
  8
0
 10
35.0313
 20
44.7044
  0
VERTEX
  8
0
 10
35.0284
 20
44.774
  0
VERTEX
  8
0
 10
35.0195
 20
44.8238
  0
VERTEX
  8
0
 10
34.9938
 20
44.8776
  0
VERTEX
  8
0
 10
34.9504
 20
44.9171
  0
VERTEX
  8
0
 10
34.9017
 20
44.938
  0
VERTEX
  8
0
 10
34.845
 20
44.945
  0
VERTEX
  8
0
 10
34.8207
 20
44.9442
  0
VERTEX
  8
0
 10
34.7976
 20
44.9417
  0
VERTEX
  8
0
 10
34.7759
 20
44.9376
  0
VERTEX
  8
0
 10
34.7555
 20
44.9318
  0
VERTEX
  8
0
 10
34.7364
 20
44.9245
  0
VERTEX
  8
0
 10
34.7186
 20
44.9154
  0
VERTEX
  8
0
 10
34.7021
 20
44.9047
  0
VERTEX
  8
0
 10
34.687
 20
44.8924
  0
VERTEX
  8
0
 10
34.6732
 20
44.8784
  0
VERTEX
  8
0
 10
34.6607
 20
44.8628
  0
VERTEX
  8
0
 10
34.6495
 20
44.8456
  0
VERTEX
  8
0
 10
34.6396
 20
44.8267
  0
VERTEX
  8
0
 10
34.631
 20
44.8062
  0
VERTEX
  8
0
 10
34.6238
 20
44.784
  0
VERTEX
  8
0
 10
34.6179
 20
44.7602
  0
VERTEX
  8
0
 10
34.6133
 20
44.7347
  0
VERTEX
  8
0
 10
34.61
 20
44.7076
  0
VERTEX
  8
0
 10
34.608
 20
44.6788
  0
VERTEX
  8
0
 10
34.6073
 20
44.6484
  0
VERTEX
  8
0
 10
34.6073
 20
44.157
  0
VERTEX
  8
0
 10
34.4553
 20
44.157
  0
SEQEND
  0
POLYLINE
  8
0
 66
     1
 10
0
 20
0
  0
VERTEX
  8
0
 10
35.4673
 20
44.885
  0
VERTEX
  8
0
 10
35.4673
 20
45.057
  0
VERTEX
  8
0
 10
35.6393
 20
45.057
  0
VERTEX
  8
0
 10
35.6393
 20
44.885
  0
VERTEX
  8
0
 10
35.4673
 20
44.885
  0
SEQEND
  0
POLYLINE
  8
0
 66
     1
 10
0
 20
0
  0
VERTEX
  8
0
 10
35.4673
 20
44.157
  0
VERTEX
  8
0
 10
35.4673
 20
44.329
  0
VERTEX
  8
0
 10
35.6393
 20
44.329
  0
VERTEX
  8
0
 10
35.6393
 20
44.1584
  0
VERTEX
  8
0
 10
35.6376
 20
44.1199
  0
VERTEX
  8
0
 10
35.6323
 20
44.0843
  0
VERTEX
  8
0
 10
35.6236
 20
44.0516
  0
VERTEX
  8
0
 10
35.6114
 20
44.0219
  0
VERTEX
  8
0
 10
35.5956
 20
43.9951
  0
VERTEX
  8
0
 10
35.5764
 20
43.9712
  0
VERTEX
  8
0
 10
35.5537
 20
43.9502
  0
VERTEX
  8
0
 10
35.5274
 20
43.9321
  0
VERTEX
  8
0
 10
35.4977
 20
43.917
  0
VERTEX
  8
0
 10
35.4553
 20
43.9807
  0
VERTEX
  8
0
 10
35.4836
 20
43.9962
  0
VERTEX
  8
0
 10
35.5069
 20
44.0172
  0
VERTEX
  8
0
 10
35.5254
 20
44.0438
  0
VERTEX
  8
0
 10
35.539
 20
44.076
  0
VERTEX
  8
0
 10
35.5477
 20
44.1137
  0
VERTEX
  8
0
 10
35.5516
 20
44.157
  0
VERTEX
  8
0
 10
35.4673
 20
44.157
  0
SEQEND
  0
POLYLINE
  8
0
 66
     1
 10
0
 20
0
  0
VERTEX
  8
0
 10
10.4391
 20
68.2307
  0
VERTEX
  8
0
 10
10.4235
 20
68.255
  0
VERTEX
  8
0
 10
10.4092
 20
68.28
  0
VERTEX
  8
0
 10
10.3962
 20
68.3058
  0
VERTEX
  8
0
 10
10.5407
 20
68.2744
  0
VERTEX
  8
0
 10
10.6857
 20
68.2457
  0
VERTEX
  8
0
 10
10.8313
 20
68.2197
  0
VERTEX
  8
0
 10
10.9774
 20
68.1968
  0
VERTEX
  8
0
 10
11.1238
 20
68.1772
  0
VERTEX
  8
0
 10
11.2705
 20
68.1613
  0
VERTEX
  8
0
 10
11.4175
 20
68.1491
  0
VERTEX
  8
0
 10
11.5646
 20
68.1411
  0
VERTEX
  8
0
 10
11.7119
 20
68.1375
  0
VERTEX
  8
0
 10
11.8591
 20
68.1385
  0
VERTEX
  8
0
 10
12.0063
 20
68.1445
  0
VERTEX
  8
0
 10
12.1534
 20
68.1556
  0
VERTEX
  8
0
 10
12.2918
 20
68.17
  0
VERTEX
  8
0
 10
12.4297
 20
68.1873
  0
VERTEX
  8
0
 10
12.5672
 20
68.2071
  0
VERTEX
  8
0
 10
12.7043
 20
68.2292
  0
VERTEX
  8
0
 10
12.841
 20
68.2535
  0
VERTEX
  8
0
 10
12.9774
 20
68.2796
  0
VERTEX
  8
0
 10
13.1136
 20
68.3075
  0
VERTEX
  8
0
 10
13.2495
 20
68.3368
  0
VERTEX
  8
0
 10
13.3852
 20
68.3673
  0
VERTEX
  8
0
 10
13.5207
 20
68.3989
  0
VERTEX
  8
0
 10
13.6561
 20
68.4312
  0
VERTEX
  8
0
 10
13.7914
 20
68.4641
  0
VERTEX
  8
0
 10
13.9266
 20
68.4973
  0
VERTEX
  8
0
 10
14.0617
 20
68.5306
  0
VERTEX
  8
0
 10
14.1969
 20
68.5639
  0
VERTEX
  8
0
 10
14.3321
 20
68.5968
  0
VERTEX
  8
0
 10
14.4673
 20
68.6292
  0
VERTEX
  8
0
 10
14.6027
 20
68.6608
  0
VERTEX
  8
0
 10
14.7502
 20
68.6927
  0
VERTEX
  8
0
 10
14.8985
 20
68.7218
  0
VERTEX
  8
0
 10
15.0472
 20
68.7495
  0
VERTEX
  8
0
 10
15.1959
 20
68.7772
  0
VERTEX
  8
0
 10
15.3442
 20
68.8063
  0
VERTEX
  8
0
 10
15.4918
 20
68.8381
  0
VERTEX
  8
0
 10
15.6383
 20
68.874
  0
VERTEX
  8
0
 10
15.7833
 20
68.9154
  0
VERTEX
  8
0
 10
15.9265
 20
68.9638
  0
VERTEX
  8
0
 10
16.0651
 20
69.0133
  0
VERTEX
  8
0
 10
16.2047
 20
69.0602
  0
VERTEX
  8
0
 10
16.3451
 20
69.1042
  0
VERTEX
  8
0
 10
16.4864
 20
69.1451
  0
VERTEX
  8
0
 10
16.6286
 20
69.1825
  0
VERTEX
  8
0
 10
16.7715
 20
69.2164
  0
VERTEX
  8
0
 10
16.9151
 20
69.2464
  0
VERTEX
  8
0
 10
17.0595
 20
69.2722
  0
VERTEX
  8
0
 10
17.2045
 20
69.2937
  0
VERTEX
  8
0
 10
17.3502
 20
69.3106
  0
VERTEX
  8
0
 10
17.4965
 20
69.3227
  0
VERTEX
  8
0
 10
17.6434
 20
69.3297
  0
VERTEX
  8
0
 10
17.7856
 20
69.3327
  0
VERTEX
  8
0
 10
17.9279
 20
69.3335
  0
VERTEX
  8
0
 10
18.0703
 20
69.3328
  0
VERTEX
  8
0
 10
18.2127
 20
69.3312
  0
VERTEX
  8
0
 10
18.3551
 20
69.3294
  0
VERTEX
  8
0
 10
18.4974
 20
69.328
  0
VERTEX
  8
0
 10
18.6396
 20
69.3277
  0
VERTEX
  8
0
 10
18.7818
 20
69.3291
  0
VERTEX
  8
0
 10
18.9237
 20
69.3329
  0
VERTEX
  8
0
 10
19.0655
 20
69.3397
  0
VERTEX
  8
0
 10
19.207
 20
69.3502
  0
VERTEX
  8
0
 10
19.3584
 20
69.3656
  0
VERTEX
  8
0
 10
19.5096
 20
69.3842
  0
VERTEX
  8
0
 10
19.6607
 20
69.4049
  0
VERTEX
  8
0
 10
19.8116
 20
69.4267
  0
VERTEX
  8
0
 10
19.9626
 20
69.4483
  0
VERTEX
  8
0
 10
20.1136
 20
69.4688
  0
VERTEX
  8
0
 10
20.2648
 20
69.487
  0
VERTEX
  8
0
 10
20.4162
 20
69.5019
  0
VERTEX
  8
0
 10
20.5679
 20
69.5123
  0
VERTEX
  8
0
 10
20.72
 20
69.5171
  0
VERTEX
  8
0
 10
20.8702
 20
69.5146
  0
VERTEX
  8
0
 10
21.0202
 20
69.5056
  0
VERTEX
  8
0
 10
21.1703
 20
69.4927
  0
VERTEX
  8
0
 10
21.3203
 20
69.4783
  0
VERTEX
  8
0
 10
21.4703
 20
69.4651
  0
VERTEX
  8
0
 10
21.6204
 20
69.4555
  0
VERTEX
  8
0
 10
21.7706
 20
69.4521
  0
VERTEX
  8
0
 10
21.9196
 20
69.4537
  0
VERTEX
  8
0
 10
22.0685
 20
69.4568
  0
VERTEX
  8
0
 10
22.2175
 20
69.4611
  0
VERTEX
  8
0
 10
22.3665
 20
69.4661
  0
VERTEX
  8
0
 10
22.5155
 20
69.4712
  0
VERTEX
  8
0
 10
22.6645
 20
69.4761
  0
VERTEX
  8
0
 10
22.8135
 20
69.4803
  0
VERTEX
  8
0
 10
22.9625
 20
69.4834
  0
VERTEX
  8
0
 10
23.1116
 20
69.4848
  0
VERTEX
  8
0
 10
23.2607
 20
69.4841
  0
VERTEX
  8
0
 10
23.4139
 20
69.482
  0
VERTEX
  8
0
 10
23.567
 20
69.4794
  0
VERTEX
  8
0
 10
23.7202
 20
69.4764
  0
VERTEX
  8
0
 10
23.8733
 20
69.4733
  0
VERTEX
  8
0
 10
24.0265
 20
69.47
  0
VERTEX
  8
0
 10
24.1796
 20
69.4667
  0
VERTEX
  8
0
 10
24.3328
 20
69.4636
  0
VERTEX
  8
0
 10
24.4761
 20
69.3996
  0
VERTEX
  8
0
 10
24.6207
 20
69.3386
  0
VERTEX
  8
0
 10
24.7665
 20
69.2807
  0
VERTEX
  8
0
 10
24.9136
 20
69.2259
  0
VERTEX
  8
0
 10
25.0617
 20
69.1741
  0
VERTEX
  8
0
 10
25.1573
 20
69.0439
  0
VERTEX
  8
0
 10
25.2687
 20
68.9292
  0
VERTEX
  8
0
 10
25.3939
 20
68.8305
  0
VERTEX
  8
0
 10
25.5309
 20
68.7481
  0
VERTEX
  8
0
 10
25.6777
 20
68.6823
  0
VERTEX
  8
0
 10
25.8325
 20
68.6337
  0
VERTEX
  8
0
 10
25.9806
 20
68.589
  0
VERTEX
  8
0
 10
26.1245
 20
68.5323
  0
VERTEX
  8
0
 10
26.264
 20
68.465
  0
VERTEX
  8
0
 10
26.3993
 20
68.389
  0
VERTEX
  8
0
 10
26.5304
 20
68.3058
  0
VERTEX
  8
0
 10
26.5412
 20
68.2629
  0
VERTEX
  8
0
 10
26.5102
 20
68.1688
  0
VERTEX
  8
0
 10
26.442
 20
68.0982
  0
VERTEX
  8
0
 10
26.3497
 20
68.0534
  0
VERTEX
  8
0
 10
26.2054
 20
68.0146
  0
VERTEX
  8
0
 10
26.0595
 20
67.9869
  0
VERTEX
  8
0
 10
25.9124
 20
67.9694
  0
VERTEX
  8
0
 10
25.7643
 20
67.961
  0
VERTEX
  8
0
 10
25.6156
 20
67.9607
  0
VERTEX
  8
0
 10
25.4666
 20
67.9676
  0
VERTEX
  8
0
 10
25.3174
 20
67.9807
  0
VERTEX
  8
0
 10
25.1672
 20
67.9953
  0
VERTEX
  8
0
 10
25.0167
 20
68.0085
  0
VERTEX
  8
0
 10
24.8662
 20
68.0215
  0
VERTEX
  8
0
 10
24.7157
 20
68.0354
  0
VERTEX
  8
0
 10
24.5655
 20
68.0514
  0
VERTEX
  8
0
 10
24.4158
 20
68.0706
  0
VERTEX
  8
0
 10
24.2667
 20
68.0943
  0
VERTEX
  8
0
 10
24.1183
 20
68.1235
  0
VERTEX
  8
0
 10
23.9679
 20
68.2174
  0
VERTEX
  8
0
 10
23.8057
 20
68.2835
  0
VERTEX
  8
0
 10
23.6349
 20
68.3225
  0
VERTEX
  8
0
 10
23.4591
 20
68.3346
  0
VERTEX
  8
0
 10
23.2816
 20
68.3202
  0
VERTEX
  8
0
 10
23.1203
 20
68.2906
  0
VERTEX
  8
0
 10
22.9624
 20
68.2482
  0
VERTEX
  8
0
 10
22.8104
 20
68.1878
  0
VERTEX
  8
0
 10
22.789
 20
68.1235
  0
VERTEX
  8
0
 10
22.8574
 20
67.9838
  0
VERTEX
  8
0
 10
22.9125
 20
67.8389
  0
VERTEX
  8
0
 10
22.9567
 20
67.6901
  0
VERTEX
  8
0
 10
22.9923
 20
67.5386
  0
VERTEX
  8
0
 10
23.0219
 20
67.3856
  0
VERTEX
  8
0
 10
23.0728
 20
67.293
  0
VERTEX
  8
0
 10
23.168
 20
67.2382
  0
VERTEX
  8
0
 10
23.2821
 20
67.2169
  0
VERTEX
  8
0
 10
23.4271
 20
67.2076
  0
VERTEX
  8
0
 10
23.5719
 20
67.1954
  0
VERTEX
  8
0
 10
23.7164
 20
67.1803
  0
VERTEX
  8
0
 10
23.8605
 20
67.1624
  0
VERTEX
  8
0
 10
24.0043
 20
67.1416
  0
VERTEX
  8
0
 10
24.1477
 20
67.1179
  0
VERTEX
  8
0
 10
24.2906
 20
67.0915
  0
VERTEX
  8
0
 10
24.4329
 20
67.0622
  0
VERTEX
  8
0
 10
24.5746
 20
67.0301
  0
VERTEX
  8
0
 10
24.7157
 20
66.9952
  0
VERTEX
  8
0
 10
24.8561
 20
66.9575
  0
VERTEX
  8
0
 10
24.9957
 20
66.917
  0
VERTEX
  8
0
 10
25.1353
 20
66.8741
  0
VERTEX
  8
0
 10
25.2744
 20
66.8297
  0
VERTEX
  8
0
 10
25.4131
 20
66.7841
  0
VERTEX
  8
0
 10
25.5515
 20
66.7375
  0
VERTEX
  8
0
 10
25.6898
 20
66.6903
  0
VERTEX
  8
0
 10
25.828
 20
66.6429
  0
VERTEX
  8
0
 10
25.9662
 20
66.5955
  0
VERTEX
  8
0
 10
26.1044
 20
66.5484
  0
VERTEX
  8
0
 10
26.2429
 20
66.502
  0
VERTEX
  8
0
 10
26.3817
 20
66.4565
  0
VERTEX
  8
0
 10
26.5209
 20
66.4123
  0
VERTEX
  8
0
 10
26.6941
 20
66.366
  0
VERTEX
  8
0
 10
26.8703
 20
66.332
  0
VERTEX
  8
0
 10
27.0483
 20
66.3076
  0
VERTEX
  8
0
 10
27.2273
 20
66.2903
  0
VERTEX
  8
0
 10
27.2901
 20
66.2408
  0
VERTEX
  8
0
 10
27.3408
 20
66.1793
  0
VERTEX
  8
0
 10
27.3773
 20
66.1081
  0
VERTEX
  8
0
 10
27.2011
 20
66.0004
  0
VERTEX
  8
0
 10
27.0043
 20
65.9454
  0
VERTEX
  8
0
 10
26.7987
 20
65.949
  0
VERTEX
  8
0
 10
26.6444
 20
65.9806
  0
VERTEX
  8
0
 10
26.4929
 20
66.0226
  0
VERTEX
  8
0
 10
26.3444
 20
66.0741
  0
VERTEX
  8
0
 10
26.1991
 20
66.1343
  0
VERTEX
  8
0
 10
26.0571
 20
66.2026
  0
VERTEX
  8
0
 10
25.9185
 20
66.2781
  0
VERTEX
  8
0
 10
25.8472
 20
66.3122
  0
VERTEX
  8
0
 10
25.7718
 20
66.337
  0
VERTEX
  8
0
 10
25.6943
 20
66.3547
  0
VERTEX
  8
0
 10
25.6406
 20
66.3332
  0
VERTEX
  8
0
 10
25.7877
 20
66.2333
  0
VERTEX
  8
0
 10
25.9454
 20
66.1523
  0
VERTEX
  8
0
 10
26.1112
 20
66.0884
  0
VERTEX
  8
0
 10
26.2827
 20
66.0396
  0
VERTEX
  8
0
 10
26.3729
 20
65.9895
  0
VERTEX
  8
0
 10
26.4288
 20
65.9026
  0
VERTEX
  8
0
 10
26.4447
 20
65.7972
  0
VERTEX
  8
0
 10
26.3911
 20
65.765
  0
VERTEX
  8
0
 10
25.9194
 20
65.7543
  0
VERTEX
  8
0
 10
25.7996
 20
65.8084
  0
VERTEX
  8
0
 10
25.678
 20
65.8584
  0
VERTEX
  8
0
 10
25.5549
 20
65.9044
  0
VERTEX
  8
0
 10
25.4506
 20
66.0378
  0
VERTEX
  8
0
 10
25.3369
 20
66.163
  0
VERTEX
  8
0
 10
25.2142
 20
66.2795
  0
VERTEX
  8
0
 10
25.0832
 20
66.3868
  0
VERTEX
  8
0
 10
24.976
 20
66.419
  0
VERTEX
  8
0
 10
24.8338
 20
66.4154
  0
VERTEX
  8
0
 10
24.6916
 20
66.4115
  0
VERTEX
  8
0
 10
24.5494
 20
66.4073
  0
VERTEX
  8
0
 10
24.4072
 20
66.4029
  0
VERTEX
  8
0
 10
24.2651
 20
66.3985
  0
VERTEX
  8
0
 10
24.1229
 20
66.3939
  0
VERTEX
  8
0
 10
23.9807
 20
66.3895
  0
VERTEX
  8
0
 10
23.8385
 20
66.3851
  0
VERTEX
  8
0
 10
23.6964
 20
66.381
  0
VERTEX
  8
0
 10
23.5542
 20
66.3771
  0
VERTEX
  8
0
 10
23.4121
 20
66.3736
  0
VERTEX
  8
0
 10
23.27
 20
66.3705
  0
VERTEX
  8
0
 10
23.1279
 20
66.3679
  0
VERTEX
  8
0
 10
22.9858
 20
66.3658
  0
VERTEX
  8
0
 10
22.8437
 20
66.3645
  0
VERTEX
  8
0
 10
22.7016
 20
66.3638
  0
VERTEX
  8
0
 10
22.5596
 20
66.364
  0
VERTEX
  8
0
 10
22.4176
 20
66.365
  0
VERTEX
  8
0
 10
22.2756
 20
66.3671
  0
VERTEX
  8
0
 10
22.1163
 20
66.4165
  0
VERTEX
  8
0
 10
21.9948
 20
66.5371
  0
VERTEX
  8
0
 10
21.9193
 20
66.6973
  0
VERTEX
  8
0
 10
21.8804
 20
66.7658
  0
VERTEX
  8
0
 10
21.8166
 20
66.8106
  0
VERTEX
  8
0
 10
21.7384
 20
66.8264
  0
VERTEX
  8
0
 10
21.6021
 20
66.7757
  0
VERTEX
  8
0
 10
21.4642
 20
66.7279
  0
VERTEX
  8
0
 10
21.325
 20
66.6846
  0
VERTEX
  8
0
 10
21.1845
 20
66.6472
  0
VERTEX
  8
0
 10
21.043
 20
66.6172
  0
VERTEX
  8
0
 10
20.9006
 20
66.5962
  0
VERTEX
  8
0
 10
20.7574
 20
66.5857
  0
VERTEX
  8
0
 10
20.6135
 20
66.5871
  0
VERTEX
  8
0
 10
20.4708
 20
66.5995
  0
VERTEX
  8
0
 10
20.3295
 20
66.62
  0
VERTEX
  8
0
 10
20.1894
 20
66.648
  0
VERTEX
  8
0
 10
20.0507
 20
66.683
  0
VERTEX
  8
0
 10
19.9134
 20
66.7243
  0
VERTEX
  8
0
 10
19.7776
 20
66.7714
  0
VERTEX
  8
0
 10
19.6434
 20
66.8238
  0
VERTEX
  8
0
 10
19.5107
 20
66.8807
  0
VERTEX
  8
0
 10
19.3797
 20
66.9417
  0
VERTEX
  8
0
 10
19.2504
 20
67.0061
  0
VERTEX
  8
0
 10
19.1229
 20
67.0735
  0
VERTEX
  8
0
 10
18.9838
 20
67.1478
  0
VERTEX
  8
0
 10
18.8433
 20
67.2201
  0
VERTEX
  8
0
 10
18.7014
 20
67.2895
  0
VERTEX
  8
0
 10
18.5579
 20
67.3551
  0
VERTEX
  8
0
 10
18.4126
 20
67.416
  0
VERTEX
  8
0
 10
18.2656
 20
67.4713
  0
VERTEX
  8
0
 10
18.1165
 20
67.5199
  0
VERTEX
  8
0
 10
17.9654
 20
67.5612
  0
VERTEX
  8
0
 10
17.812
 20
67.594
  0
VERTEX
  8
0
 10
17.6755
 20
67.6115
  0
VERTEX
  8
0
 10
17.5395
 20
67.6146
  0
VERTEX
  8
0
 10
17.4047
 20
67.604
  0
VERTEX
  8
0
 10
17.2715
 20
67.5805
  0
VERTEX
  8
0
 10
17.1407
 20
67.5449
  0
VERTEX
  8
0
 10
17.0129
 20
67.4978
  0
VERTEX
  8
0
 10
16.8888
 20
67.4401
  0
VERTEX
  8
0
 10
16.7688
 20
67.3725
  0
VERTEX
  8
0
 10
16.6538
 20
67.2957
  0
VERTEX
  8
0
 10
16.5443
 20
67.2104
  0
VERTEX
  8
0
 10
16.4409
 20
67.1175
  0
VERTEX
  8
0
 10
16.3276
 20
67.0124
  0
VERTEX
  8
0
 10
16.2105
 20
66.9118
  0
VERTEX
  8
0
 10
16.0899
 20
66.8157
  0
VERTEX
  8
0
 10
15.9657
 20
66.7244
  0
VERTEX
  8
0
 10
15.8381
 20
66.6379
  0
VERTEX
  8
0
 10
15.7074
 20
66.5563
  0
VERTEX
  8
0
 10
15.5735
 20
66.4799
  0
VERTEX
  8
0
 10
15.4368
 20
66.4087
  0
VERTEX
  8
0
 10
15.2972
 20
66.3429
  0
VERTEX
  8
0
 10
15.155
 20
66.2826
  0
VERTEX
  8
0
 10
15.0895
 20
66.2624
  0
VERTEX
  8
0
 10
15.0213
 20
66.2519
  0
VERTEX
  8
0
 10
14.9524
 20
66.2495
  0
VERTEX
  8
0
 10
14.8623
 20
66.2561
  0
VERTEX
  8
0
 10
14.7729
 20
66.2708
  0
VERTEX
  8
0
 10
14.6844
 20
66.2903
  0
VERTEX
  8
0
 10
14.5335
 20
66.2167
  0
VERTEX
  8
0
 10
14.3775
 20
66.1565
  0
VERTEX
  8
0
 10
14.2172
 20
66.1098
  0
VERTEX
  8
0
 10
14.0535
 20
66.0771
  0
VERTEX
  8
0
 10
13.8873
 20
66.0588
  0
VERTEX
  8
0
 10
13.7196
 20
66.0551
  0
VERTEX
  8
0
 10
13.5745
 20
66.0633
  0
VERTEX
  8
0
 10
13.431
 20
66.0811
  0
VERTEX
  8
0
 10
13.2893
 20
66.1083
  0
VERTEX
  8
0
 10
13.1498
 20
66.1444
  0
VERTEX
  8
0
 10
13.0128
 20
66.1892
  0
VERTEX
  8
0
 10
12.8785
 20
66.2423
  0
VERTEX
  8
0
 10
12.7474
 20
66.3034
  0
VERTEX
  8
0
 10
12.6197
 20
66.3722
  0
VERTEX
  8
0
 10
12.4957
 20
66.4483
  0
VERTEX
  8
0
 10
12.4328
 20
66.4788
  0
VERTEX
  8
0
 10
12.3643
 20
66.4962
  0
VERTEX
  8
0
 10
12.2937
 20
66.5048
  0
VERTEX
  8
0
 10
12.1526
 20
66.4519
  0
VERTEX
  8
0
 10
12.0137
 20
66.3938
  0
VERTEX
  8
0
 10
11.8768
 20
66.3316
  0
VERTEX
  8
0
 10
11.7413
 20
66.2661
  0
VERTEX
  8
0
 10
11.6068
 20
66.1984
  0
VERTEX
  8
0
 10
11.473
 20
66.1293
  0
VERTEX
  8
0
 10
11.3394
 20
66.0598
  0
VERTEX
  8
0
 10
11.2057
 20
65.9909
  0
VERTEX
  8
0
 10
11.0267
 20
65.9279
  0
VERTEX
  8
0
 10
10.8362
 20
65.8982
  0
VERTEX
  8
0
 10
10.643
 20
65.8812
  0
VERTEX
  8
0
 10
10.5233
 20
65.8902
  0
VERTEX
  8
0
 10
10.4159
 20
65.9381
  0
VERTEX
  8
0
 10
10.3319
 20
66.0223
  0
VERTEX
  8
0
 10
10.3927
 20
66.0945
  0
VERTEX
  8
0
 10
10.4742
 20
66.1389
  0
VERTEX
  8
0
 10
10.5677
 20
66.151
  0
VERTEX
  8
0
 10
10.7235
 20
66.2089
  0
VERTEX
  8
0
 10
10.8801
 20
66.2643
  0
VERTEX
  8
0
 10
11.0372
 20
66.318
  0
VERTEX
  8
0
 10
11.1947
 20
66.3708
  0
VERTEX
  8
0
 10
11.3523
 20
66.4233
  0
VERTEX
  8
0
 10
11.5097
 20
66.4763
  0
VERTEX
  8
0
 10
11.6004
 20
66.5158
  0
VERTEX
  8
0
 10
11.6859
 20
66.5666
  0
VERTEX
  8
0
 10
11.7684
 20
66.6227
  0
VERTEX
  8
0
 10
11.7363
 20
66.6334
  0
VERTEX
  8
0
 10
11.4254
 20
66.6334
  0
VERTEX
  8
0
 10
11.2811
 20
66.5812
  0
VERTEX
  8
0
 10
11.1369
 20
66.5286
  0
VERTEX
  8
0
 10
10.9926
 20
66.4763
  0
VERTEX
  8
0
 10
10.8481
 20
66.4249
  0
VERTEX
  8
0
 10
10.7031
 20
66.3751
  0
VERTEX
  8
0
 10
10.5575
 20
66.3276
  0
VERTEX
  8
0
 10
10.4111
 20
66.2831
  0
VERTEX
  8
0
 10
10.2639
 20
66.2423
  0
VERTEX
  8
0
 10
10.1155
 20
66.2058
  0
VERTEX
  8
0
 10
9.9541
 20
66.1858
  0
VERTEX
  8
0
 10
9.7894
 20
66.1875
  0
VERTEX
  8
0
 10
9.6245
 20
66.1963
  0
VERTEX
  8
0
 10
9.4849
 20
66.2256
  0
VERTEX
  8
0
 10
9.361
 20
66.2952
  0
VERTEX
  8
0
 10
9.2599
 20
66.3975
  0
VERTEX
  8
0
 10
9.4
 20
66.4897
  0
VERTEX
  8
0
 10
9.5505
 20
66.5597
  0
VERTEX
  8
0
 10
9.7111
 20
66.5912
  0
VERTEX
  8
0
 10
9.8557
 20
66.5991
  0
VERTEX
  8
0
 10
9.9998
 20
66.611
  0
VERTEX
  8
0
 10
10.1434
 20
66.6271
  0
VERTEX
  8
0
 10
10.2862
 20
66.6476
  0
VERTEX
  8
0
 10
10.4281
 20
66.6726
  0
VERTEX
  8
0
 10
10.5689
 20
66.7022
  0
VERTEX
  8
0
 10
10.7085
 20
66.7366
  0
VERTEX
  8
0
 10
10.8467
 20
66.7759
  0
VERTEX
  8
0
 10
10.9834
 20
66.8202
  0
VERTEX
  8
0
 10
11.1184
 20
66.8697
  0
VERTEX
  8
0
 10
11.2515
 20
66.9245
  0
VERTEX
  8
0
 10
11.3826
 20
66.9848
  0
VERTEX
  8
0
 10
11.5116
 20
67.0507
  0
VERTEX
  8
0
 10
11.6105
 20
67.0951
  0
VERTEX
  8
0
 10
11.7149
 20
67.121
  0
VERTEX
  8
0
 10
11.8214
 20
67.1214
  0
VERTEX
  8
0
 10
11.9933
 20
67.0877
  0
VERTEX
  8
0
 10
12.1643
 20
67.0495
  0
VERTEX
  8
0
 10
12.3369
 20
67.0279
  0
VERTEX
  8
0
 10
12.5034
 20
67.0507
  0
VERTEX
  8
0
 10
12.6585
 20
67.1209
  0
VERTEX
  8
0
 10
12.7976
 20
67.223
  0
VERTEX
  8
0
 10
12.9543
 20
67.2157
  0
VERTEX
  8
0
 10
13.1095
 20
67.1958
  0
VERTEX
  8
0
 10
13.2625
 20
67.1635
  0
VERTEX
  8
0
 10
13.4125
 20
67.1189
  0
VERTEX
  8
0
 10
13.5587
 20
67.0622
  0
VERTEX
  8
0
 10
13.6721
 20
67.1046
  0
VERTEX
  8
0
 10
13.76
 20
67.1872
  0
VERTEX
  8
0
 10
13.8244
 20
67.2948
  0
VERTEX
  8
0
 10
13.8891
 20
67.4219
  0
VERTEX
  8
0
 10
13.9624
 20
67.5435
  0
VERTEX
  8
0
 10
14.0436
 20
67.6595
  0
VERTEX
  8
0
 10
14.1323
 20
67.7697
  0
VERTEX
  8
0
 10
14.2279
 20
67.8741
  0
VERTEX
  8
0
 10
14.3301
 20
67.9724
  0
VERTEX
  8
0
 10
14.4382
 20
68.0647
  0
VERTEX
  8
0
 10
14.5518
 20
68.1507
  0
VERTEX
  8
0
 10
14.6703
 20
68.2303
  0
VERTEX
  8
0
 10
14.7933
 20
68.3035
  0
VERTEX
  8
0
 10
14.9202
 20
68.3701
  0
VERTEX
  8
0
 10
14.9202
 20
68.413
  0
VERTEX
  8
0
 10
14.7867
 20
68.3838
  0
VERTEX
  8
0
 10
14.6531
 20
68.3548
  0
VERTEX
  8
0
 10
14.5194
 20
68.326
  0
VERTEX
  8
0
 10
14.3857
 20
68.2974
  0
VERTEX
  8
0
 10
14.2519
 20
68.2692
  0
VERTEX
  8
0
 10
14.118
 20
68.2413
  0
VERTEX
  8
0
 10
13.9841
 20
68.2138
  0
VERTEX
  8
0
 10
13.85
 20
68.1868
  0
VERTEX
  8
0
 10
13.7159
 20
68.1604
  0
VERTEX
  8
0
 10
13.5817
 20
68.1346
  0
VERTEX
  8
0
 10
13.4473
 20
68.1095
  0
VERTEX
  8
0
 10
13.3129
 20
68.0852
  0
VERTEX
  8
0
 10
13.1783
 20
68.0616
  0
VERTEX
  8
0
 10
13.0436
 20
68.0389
  0
VERTEX
  8
0
 10
12.9088
 20
68.0172
  0
VERTEX
  8
0
 10
12.7738
 20
67.9964
  0
VERTEX
  8
0
 10
12.6386
 20
67.9767
  0
VERTEX
  8
0
 10
12.5033
 20
67.9581
  0
VERTEX
  8
0
 10
12.3678
 20
67.9407
  0
VERTEX
  8
0
 10
12.2017
 20
67.9246
  0
VERTEX
  8
0
 10
12.0347
 20
67.9164
  0
VERTEX
  8
0
 10
11.8674
 20
67.9147
  0
VERTEX
  8
0
 10
11.7
 20
67.9184
  0
VERTEX
  8
0
 10
11.5329
 20
67.9263
  0
VERTEX
  8
0
 10
11.3705
 20
67.9415
  0
VERTEX
  8
0
 10
11.2098
 20
67.9675
  0
VERTEX
  8
0
 10
11.051
 20
68.0036
  0
VERTEX
  8
0
 10
10.8943
 20
68.0488
  0
VERTEX
  8
0
 10
10.74
 20
68.1023
  0
VERTEX
  8
0
 10
10.5881
 20
68.1632
  0
VERTEX
  8
0
 10
10.4391
 20
68.2307
  0
SEQEND
  0
POLYLINE
  8
0
 66
     1
 10
0
 20
0
  0
VERTEX
  8
0
 10
9.7174
 20
66.3298
  0
VERTEX
  8
0
 10
9.5363
 20
66.4254
  0
VERTEX
  8
0
 10
9.484
 20
66.4357
  0
VERTEX
  8
0
 10
9.4535
 20
66.4296
  0
VERTEX
  8
0
 10
9.4215
 20
66.4224
  0
VERTEX
  8
0
 10
9.3932
 20
66.4202
  0
VERTEX
  8
0
 10
9.4016
 20
66.3803
  0
VERTEX
  8
0
 10
9.4778
 20
66.3362
  0
VERTEX
  8
0
 10
9.5599
 20
66.3081
  0
VERTEX
  8
0
 10
9.6463
 20
66.2933
  0
VERTEX
  8
0
 10
9.6783
 20
66.2945
  0
VERTEX
  8
0
 10
9.7067
 20
66.3051
  0
VERTEX
  8
0
 10
9.7281
 20
66.3191
  0
VERTEX
  8
0
 10
9.7174
 20
66.3298
  0
SEQEND
  0
POLYLINE
  8
0
 66
     1
 10
0
 20
0
  0
VERTEX
  8
0
 10
9.7242
 20
66.3366
  0
VERTEX
  8
0
 10
9.735
 20
66.3259
  0
VERTEX
  8
0
 10
9.71
 20
66.296
  0
VERTEX
  8
0
 10
9.6786
 20
66.2848
  0
VERTEX
  8
0
 10
9.6447
 20
66.2838
  0
VERTEX
  8
0
 10
9.5568
 20
66.299
  0
VERTEX
  8
0
 10
9.473
 20
66.3279
  0
VERTEX
  8
0
 10
9.3968
 20
66.3719
  0
VERTEX
  8
0
 10
9.3838
 20
66.4178
  0
VERTEX
  8
0
 10
9.4194
 20
66.4319
  0
VERTEX
  8
0
 10
9.4517
 20
66.439
  0
VERTEX
  8
0
 10
9.4859
 20
66.4452
  0
VERTEX
  8
0
 10
9.5408
 20
66.434
  0
VERTEX
  8
0
 10
9.7242
 20
66.3366
  0
SEQEND
  0
POLYLINE
  8
0
 66
     1
 10
0
 20
0
  0
VERTEX
  8
0
 10
25.4717
 20
66.1336
  0
VERTEX
  8
0
 10
25.6131
 20
66.0423
  0
VERTEX
  8
0
 10
25.7625
 20
65.9671
  0
VERTEX
  8
0
 10
25.919
 20
65.9082
  0
VERTEX
  8
0
 10
26.0814
 20
65.8663
  0
VERTEX
  8
0
 10
26.109
 20
65.8667
  0
VERTEX
  8
0
 10
26.1331
 20
65.8775
  0
VERTEX
  8
0
 10
26.1518
 20
65.8903
  0
VERTEX
  8
0
 10
26.0211
 20
66.0249
  0
VERTEX
  8
0
 10
25.862
 20
66.1187
  0
VERTEX
  8
0
 10
25.6809
 20
66.1681
  0
VERTEX
  8
0
 10
25.6036
 20
66.2533
  0
VERTEX
  8
0
 10
25.5141
 20
66.3212
  0
VERTEX
  8
0
 10
25.4182
 20
66.3721
  0
VERTEX
  8
0
 10
25.3868
 20
66.358
  0
VERTEX
  8
0
 10
25.4684
 20
66.2754
  0
VERTEX
  8
0
 10
25.5614
 20
66.2075
  0
VERTEX
  8
0
 10
25.6643
 20
66.1553
  0
VERTEX
  8
0
 10
25.6878
 20
66.1165
  0
VERTEX
  8
0
 10
25.6744
 20
66.0917
  0
VERTEX
  8
0
 10
25.65
 20
66.0747
  0
VERTEX
  8
0
 10
25.6163
 20
66.0721
  0
VERTEX
  8
0
 10
25.5805
 20
66.0997
  0
VERTEX
  8
0
 10
25.5416
 20
66.1209
  0
VERTEX
  8
0
 10
25.4997
 20
66.1357
  0
VERTEX
  8
0
 10
25.4717
 20
66.1336
  0
SEQEND
  0
POLYLINE
  8
0
 66
     1
 10
0
 20
0
  0
VERTEX
  8
0
 10
25.4665
 20
66.1255
  0
VERTEX
  8
0
 10
25.5029
 20
66.1448
  0
VERTEX
  8
0
 10
25.5462
 20
66.1293
  0
VERTEX
  8
0
 10
25.5864
 20
66.1074
  0
VERTEX
  8
0
 10
25.6222
 20
66.0798
  0
VERTEX
  8
0
 10
25.6446
 20
66.0827
  0
VERTEX
  8
0
 10
25.6659
 20
66.0962
  0
VERTEX
  8
0
 10
25.6793
 20
66.1211
  0
VERTEX
  8
0
 10
25.6599
 20
66.1467
  0
VERTEX
  8
0
 10
25.5557
 20
66.1997
  0
VERTEX
  8
0
 10
25.4616
 20
66.2686
  0
VERTEX
  8
0
 10
25.3799
 20
66.3513
  0
VERTEX
  8
0
 10
25.4128
 20
66.3801
  0
VERTEX
  8
0
 10
25.52
 20
66.3289
  0
VERTEX
  8
0
 10
25.6107
 20
66.2598
  0
VERTEX
  8
0
 10
25.6862
 20
66.1767
  0
VERTEX
  8
0
 10
25.8669
 20
66.127
  0
VERTEX
  8
0
 10
26.028
 20
66.0316
  0
VERTEX
  8
0
 10
26.1587
 20
65.8971
  0
VERTEX
  8
0
 10
26.1369
 20
65.8686
  0
VERTEX
  8
0
 10
26.109
 20
65.857
  0
VERTEX
  8
0
 10
26.079
 20
65.857
  0
VERTEX
  8
0
 10
25.9156
 20
65.8992
  0
VERTEX
  8
0
 10
25.7581
 20
65.9585
  0
VERTEX
  8
0
 10
25.6079
 20
66.0342
  0
VERTEX
  8
0
 10
25.4665
 20
66.1255
  0
SEQEND
  0
POLYLINE
  8
0
 66
     1
 10
0
 20
0
  0
VERTEX
  8
0
 10
13.4194
 20
66.917
  0
VERTEX
  8
0
 10
13.4556
 20
66.9336
  0
VERTEX
  8
0
 10
13.491
 20
66.9549
  0
VERTEX
  8
0
 10
13.5226
 20
66.9738
  0
VERTEX
  8
0
 10
13.5038
 20
67.004
  0
VERTEX
  8
0
 10
13.3317
 20
67.0517
  0
VERTEX
  8
0
 10
13.1602
 20
67.102
  0
VERTEX
  8
0
 10
12.9888
 20
67.1526
  0
VERTEX
  8
0
 10
12.9611
 20
67.1589
  0
VERTEX
  8
0
 10
12.933
 20
67.1624
  0
VERTEX
  8
0
 10
12.9046
 20
67.1634
  0
VERTEX
  8
0
 10
12.8764
 20
67.1617
  0
VERTEX
  8
0
 10
12.8482
 20
67.158
  0
VERTEX
  8
0
 10
12.8197
 20
67.1539
  0
VERTEX
  8
0
 10
12.7462
 20
67.1064
  0
VERTEX
  8
0
 10
12.6749
 20
67.0529
  0
VERTEX
  8
0
 10
12.6086
 20
67.0006
  0
VERTEX
  8
0
 10
12.6272
 20
66.9704
  0
VERTEX
  8
0
 10
12.8411
 20
66.917
  0
VERTEX
  8
0
 10
13.4194
 20
66.917
  0
SEQEND
  0
POLYLINE
  8
0
 66
     1
 10
0
 20
0
  0
VERTEX
  8
0
 10
13.4194
 20
66.9073
  0
VERTEX
  8
0
 10
12.8399
 20
66.9073
  0
VERTEX
  8
0
 10
12.6249
 20
66.961
  0
VERTEX
  8
0
 10
12.6006
 20
66.9952
  0
VERTEX
  8
0
 10
12.6692
 20
67.0606
  0
VERTEX
  8
0
 10
12.741
 20
67.1145
  0
VERTEX
  8
0
 10
12.8183
 20
67.1635
  0
VERTEX
  8
0
 10
12.847
 20
67.1675
  0
VERTEX
  8
0
 10
12.8759
 20
67.1714
  0
VERTEX
  8
0
 10
12.905
 20
67.173
  0
VERTEX
  8
0
 10
12.9341
 20
67.1719
  0
VERTEX
  8
0
 10
12.9633
 20
67.1683
  0
VERTEX
  8
0
 10
12.9916
 20
67.1618
  0
VERTEX
  8
0
 10
13.1629
 20
67.1113
  0
VERTEX
  8
0
 10
13.3343
 20
67.061
  0
VERTEX
  8
0
 10
13.5064
 20
67.0133
  0
VERTEX
  8
0
 10
13.5306
 20
66.9791
  0
VERTEX
  8
0
 10
13.496
 20
66.9466
  0
VERTEX
  8
0
 10
13.4596
 20
66.9248
  0
VERTEX
  8
0
 10
13.4194
 20
66.9073
  0
SEQEND
  0
POLYLINE
  8
0
 66
     1
 10
0
 20
0
  0
VERTEX
  8
0
 10
11.5299
 20
66.273
  0
VERTEX
  8
0
 10
11.7123
 20
66.3535
  0
VERTEX
  8
0
 10
11.8874
 20
66.4463
  0
VERTEX
  8
0
 10
12.0553
 20
66.5517
  0
VERTEX
  8
0
 10
12.0654
 20
66.5654
  0
VERTEX
  8
0
 10
12.0345
 20
66.5924
  0
VERTEX
  8
0
 10
11.999
 20
66.6068
  0
VERTEX
  8
0
 10
11.9624
 20
66.6041
  0
VERTEX
  8
0
 10
11.7996
 20
66.5427
  0
VERTEX
  8
0
 10
11.6389
 20
66.4732
  0
VERTEX
  8
0
 10
11.4806
 20
66.3975
  0
VERTEX
  8
0
 10
11.3243
 20
66.3174
  0
VERTEX
  8
0
 10
11.1693
 20
66.2348
  0
VERTEX
  8
0
 10
11.1281
 20
66.2156
  0
VERTEX
  8
0
 10
11.0846
 20
66.2011
  0
VERTEX
  8
0
 10
11.0399
 20
66.1917
  0
VERTEX
  8
0
 10
10.9115
 20
66.1768
  0
VERTEX
  8
0
 10
10.7827
 20
66.1665
  0
VERTEX
  8
0
 10
10.6581
 20
66.1632
  0
VERTEX
  8
0
 10
10.6812
 20
66.0924
  0
VERTEX
  8
0
 10
10.7336
 20
66.045
  0
VERTEX
  8
0
 10
10.8047
 20
66.0246
  0
VERTEX
  8
0
 10
10.8545
 20
66.0162
  0
VERTEX
  8
0
 10
10.9047
 20
66.0043
  0
VERTEX
  8
0
 10
10.9544
 20
65.9988
  0
VERTEX
  8
0
 10
11.116
 20
66.0206
  0
VERTEX
  8
0
 10
11.2682
 20
66.0763
  0
VERTEX
  8
0
 10
11.4073
 20
66.1618
  0
VERTEX
  8
0
 10
11.5299
 20
66.273
  0
SEQEND
  0
POLYLINE
  8
0
 66
     1
 10
0
 20
0
  0
VERTEX
  8
0
 10
11.5352
 20
66.2648
  0
VERTEX
  8
0
 10
11.4124
 20
66.1536
  0
VERTEX
  8
0
 10
11.2715
 20
66.0673
  0
VERTEX
  8
0
 10
11.1172
 20
66.011
  0
VERTEX
  8
0
 10
10.9534
 20
65.9893
  0
VERTEX
  8
0
 10
10.9025
 20
65.9949
  0
VERTEX
  8
0
 10
10.8529
 20
66.0067
  0
VERTEX
  8
0
 10
10.802
 20
66.0153
  0
VERTEX
  8
0
 10
10.727
 20
66.0379
  0
VERTEX
  8
0
 10
10.672
 20
66.0894
  0
VERTEX
  8
0
 10
10.6489
 20
66.1602
  0
VERTEX
  8
0
 10
10.7819
 20
66.1761
  0
VERTEX
  8
0
 10
10.9104
 20
66.1864
  0
VERTEX
  8
0
 10
11.0379
 20
66.2012
  0
VERTEX
  8
0
 10
11.0816
 20
66.2102
  0
VERTEX
  8
0
 10
11.124
 20
66.2244
  0
VERTEX
  8
0
 10
11.1647
 20
66.2433
  0
VERTEX
  8
0
 10
11.3199
 20
66.326
  0
VERTEX
  8
0
 10
11.4765
 20
66.4062
  0
VERTEX
  8
0
 10
11.635
 20
66.482
  0
VERTEX
  8
0
 10
11.7962
 20
66.5518
  0
VERTEX
  8
0
 10
11.9619
 20
66.6137
  0
VERTEX
  8
0
 10
12.0027
 20
66.6157
  0
VERTEX
  8
0
 10
12.0408
 20
66.5997
  0
VERTEX
  8
0
 10
12.0718
 20
66.5727
  0
VERTEX
  8
0
 10
12.0604
 20
66.5435
  0
VERTEX
  8
0
 10
11.8919
 20
66.4378
  0
VERTEX
  8
0
 10
11.7162
 20
66.3446
  0
VERTEX
  8
0
 10
11.5352
 20
66.2648
  0
SEQEND
  0
POLYLINE
  8
0
 66
     1
 10
0
 20
0
  0
VERTEX
  8
0
 10
15.6947
 20
66.7491
  0
VERTEX
  8
0
 10
15.8022
 20
66.8514
  0
VERTEX
  8
0
 10
15.9127
 20
66.951
  0
VERTEX
  8
0
 10
16.0253
 20
67.0484
  0
VERTEX
  8
0
 10
16.1392
 20
67.1443
  0
VERTEX
  8
0
 10
16.2538
 20
67.2394
  0
VERTEX
  8
0
 10
16.3684
 20
67.3345
  0
VERTEX
  8
0
 10
16.4827
 20
67.4227
  0
VERTEX
  8
0
 10
16.4557
 20
67.444
  0
VERTEX
  8
0
 10
16.3226
 20
67.3638
  0
VERTEX
  8
0
 10
16.1942
 20
67.2769
  0
VERTEX
  8
0
 10
16.0685
 20
67.1857
  0
VERTEX
  8
0
 10
15.9436
 20
67.0932
  0
VERTEX
  8
0
 10
15.8178
 20
67.0019
  0
VERTEX
  8
0
 10
15.6931
 20
66.9172
  0
VERTEX
  8
0
 10
15.5656
 20
66.8364
  0
VERTEX
  8
0
 10
15.4362
 20
66.7587
  0
VERTEX
  8
0
 10
15.3054
 20
66.6829
  0
VERTEX
  8
0
 10
15.174
 20
66.6082
  0
VERTEX
  8
0
 10
15.0426
 20
66.5334
  0
VERTEX
  8
0
 10
14.9119
 20
66.4577
  0
VERTEX
  8
0
 10
14.9029
 20
66.443
  0
VERTEX
  8
0
 10
14.9234
 20
66.4107
  0
VERTEX
  8
0
 10
14.9518
 20
66.3894
  0
VERTEX
  8
0
 10
14.9854
 20
66.3834
  0
VERTEX
  8
0
 10
15.1448
 20
66.4116
  0
VERTEX
  8
0
 10
15.2963
 20
66.4662
  0
VERTEX
  8
0
 10
15.4388
 20
66.5434
  0
VERTEX
  8
0
 10
15.5717
 20
66.639
  0
VERTEX
  8
0
 10
15.6947
 20
66.7491
  0
SEQEND
  0
POLYLINE
  8
0
 66
     1
 10
0
 20
0
  0
VERTEX
  8
0
 10
15.7011
 20
66.7419
  0
VERTEX
  8
0
 10
15.5774
 20
66.6312
  0
VERTEX
  8
0
 10
15.4434
 20
66.5349
  0
VERTEX
  8
0
 10
15.2996
 20
66.4571
  0
VERTEX
  8
0
 10
15.1465
 20
66.4021
  0
VERTEX
  8
0
 10
14.9836
 20
66.374
  0
VERTEX
  8
0
 10
14.9459
 20
66.3817
  0
VERTEX
  8
0
 10
14.9153
 20
66.4055
  0
VERTEX
  8
0
 10
14.8947
 20
66.4378
  0
VERTEX
  8
0
 10
14.9071
 20
66.466
  0
VERTEX
  8
0
 10
15.0379
 20
66.5418
  0
VERTEX
  8
0
 10
15.1692
 20
66.6165
  0
VERTEX
  8
0
 10
15.3006
 20
66.6913
  0
VERTEX
  8
0
 10
15.4312
 20
66.7669
  0
VERTEX
  8
0
 10
15.5605
 20
66.8446
  0
VERTEX
  8
0
 10
15.6877
 20
66.9252
  0
VERTEX
  8
0
 10
15.8122
 20
67.0097
  0
VERTEX
  8
0
 10
15.9379
 20
67.1009
  0
VERTEX
  8
0
 10
16.0628
 20
67.1935
  0
VERTEX
  8
0
 10
16.1888
 20
67.2848
  0
VERTEX
  8
0
 10
16.3176
 20
67.3721
  0
VERTEX
  8
0
 10
16.4508
 20
67.4523
  0
VERTEX
  8
0
 10
16.4881
 20
67.4307
  0
VERTEX
  8
0
 10
16.3746
 20
67.3271
  0
VERTEX
  8
0
 10
16.26
 20
67.232
  0
VERTEX
  8
0
 10
16.1454
 20
67.1369
  0
VERTEX
  8
0
 10
16.0316
 20
67.0411
  0
VERTEX
  8
0
 10
15.9192
 20
66.9438
  0
VERTEX
  8
0
 10
15.8089
 20
66.8444
  0
VERTEX
  8
0
 10
15.7011
 20
66.7419
  0
SEQEND
  0
POLYLINE
  8
0
 66
     1
 10
0
 20
0
  0
VERTEX
  8
0
 10
22.9241
 20
67.4248
  0
VERTEX
  8
0
 10
22.8823
 20
67.5942
  0
VERTEX
  8
0
 10
22.8198
 20
67.7548
  0
VERTEX
  8
0
 10
22.7371
 20
67.9059
  0
VERTEX
  8
0
 10
22.6412
 20
68.0442
  0
VERTEX
  8
0
 10
22.598
 20
68.0214
  0
VERTEX
  8
0
 10
22.5697
 20
67.9853
  0
VERTEX
  8
0
 10
22.5578
 20
67.94
  0
VERTEX
  8
0
 10
22.6136
 20
67.7945
  0
VERTEX
  8
0
 10
22.6716
 20
67.6468
  0
VERTEX
  8
0
 10
22.7332
 20
67.5008
  0
VERTEX
  8
0
 10
22.7996
 20
67.3573
  0
VERTEX
  8
0
 10
22.8725
 20
67.2171
  0
VERTEX
  8
0
 10
22.9288
 20
67.1492
  0
VERTEX
  8
0
 10
23.0044
 20
67.1033
  0
VERTEX
  8
0
 10
23.0908
 20
67.0796
  0
VERTEX
  8
0
 10
23.2352
 20
67.0597
  0
VERTEX
  8
0
 10
23.3802
 20
67.0399
  0
VERTEX
  8
0
 10
23.5253
 20
67.0205
  0
VERTEX
  8
0
 10
23.6704
 20
67.0013
  0
VERTEX
  8
0
 10
23.8155
 20
66.9825
  0
VERTEX
  8
0
 10
23.9607
 20
66.964
  0
VERTEX
  8
0
 10
24.106
 20
66.9458
  0
VERTEX
  8
0
 10
24.2512
 20
66.9279
  0
VERTEX
  8
0
 10
24.3965
 20
66.9103
  0
VERTEX
  8
0
 10
24.5419
 20
66.8932
  0
VERTEX
  8
0
 10
24.6873
 20
66.8763
  0
VERTEX
  8
0
 10
24.7475
 20
66.8727
  0
VERTEX
  8
0
 10
24.8079
 20
66.8731
  0
VERTEX
  8
0
 10
24.8676
 20
66.8646
  0
VERTEX
  8
0
 10
24.7178
 20
66.9019
  0
VERTEX
  8
0
 10
24.5674
 20
66.9362
  0
VERTEX
  8
0
 10
24.4164
 20
66.9675
  0
VERTEX
  8
0
 10
24.2649
 20
66.9957
  0
VERTEX
  8
0
 10
24.1128
 20
67.0209
  0
VERTEX
  8
0
 10
23.9602
 20
67.043
  0
VERTEX
  8
0
 10
23.8072
 20
67.0619
  0
VERTEX
  8
0
 10
23.6539
 20
67.0778
  0
VERTEX
  8
0
 10
23.5002
 20
67.0905
  0
VERTEX
  8
0
 10
23.3462
 20
67.1
  0
VERTEX
  8
0
 10
23.3321
 20
67.1004
  0
VERTEX
  8
0
 10
23.3179
 20
67.1003
  0
VERTEX
  8
0
 10
23.3036
 20
67.1004
  0
VERTEX
  8
0
 10
23.1289
 20
67.1456
  0
VERTEX
  8
0
 10
22.9951
 20
67.2603
  0
VERTEX
  8
0
 10
22.9241
 20
67.4248
  0
SEQEND
  0
POLYLINE
  8
0
 66
     1
 10
0
 20
0
  0
VERTEX
  8
0
 10
22.933
 20
67.4286
  0
VERTEX
  8
0
 10
23.0031
 20
67.2662
  0
VERTEX
  8
0
 10
23.1335
 20
67.1544
  0
VERTEX
  8
0
 10
23.3036
 20
67.11
  0
VERTEX
  8
0
 10
23.3179
 20
67.1099
  0
VERTEX
  8
0
 10
23.3323
 20
67.11
  0
VERTEX
  8
0
 10
23.3468
 20
67.1097
  0
VERTEX
  8
0
 10
23.501
 20
67.1001
  0
VERTEX
  8
0
 10
23.6549
 20
67.0874
  0
VERTEX
  8
0
 10
23.8084
 20
67.0715
  0
VERTEX
  8
0
 10
23.9616
 20
67.0525
  0
VERTEX
  8
0
 10
24.1144
 20
67.0304
  0
VERTEX
  8
0
 10
24.2666
 20
67.0052
  0
VERTEX
  8
0
 10
24.4184
 20
66.977
  0
VERTEX
  8
0
 10
24.5696
 20
66.9456
  0
VERTEX
  8
0
 10
24.7201
 20
66.9113
  0
VERTEX
  8
0
 10
24.8699
 20
66.8739
  0
VERTEX
  8
0
 10
24.808
 20
66.8635
  0
VERTEX
  8
0
 10
24.7469
 20
66.8631
  0
VERTEX
  8
0
 10
24.6861
 20
66.8668
  0
VERTEX
  8
0
 10
24.5407
 20
66.8836
  0
VERTEX
  8
0
 10
24.3954
 20
66.9008
  0
VERTEX
  8
0
 10
24.2501
 20
66.9183
  0
VERTEX
  8
0
 10
24.1048
 20
66.9362
  0
VERTEX
  8
0
 10
23.9595
 20
66.9544
  0
VERTEX
  8
0
 10
23.8143
 20
66.9729
  0
VERTEX
  8
0
 10
23.6691
 20
66.9918
  0
VERTEX
  8
0
 10
23.524
 20
67.0109
  0
VERTEX
  8
0
 10
23.3789
 20
67.0304
  0
VERTEX
  8
0
 10
23.2338
 20
67.0501
  0
VERTEX
  8
0
 10
23.0882
 20
67.0703
  0
VERTEX
  8
0
 10
22.9993
 20
67.095
  0
VERTEX
  8
0
 10
22.9213
 20
67.143
  0
VERTEX
  8
0
 10
22.8639
 20
67.2126
  0
VERTEX
  8
0
 10
22.7909
 20
67.3533
  0
VERTEX
  8
0
 10
22.7243
 20
67.4971
  0
VERTEX
  8
0
 10
22.6626
 20
67.6433
  0
VERTEX
  8
0
 10
22.6046
 20
67.7911
  0
VERTEX
  8
0
 10
22.5485
 20
67.9425
  0
VERTEX
  8
0
 10
22.5621
 20
67.9914
  0
VERTEX
  8
0
 10
22.5935
 20
68.03
  0
VERTEX
  8
0
 10
22.6367
 20
68.0527
  0
VERTEX
  8
0
 10
22.7456
 20
67.9106
  0
VERTEX
  8
0
 10
22.8288
 20
67.7583
  0
VERTEX
  8
0
 10
22.8917
 20
67.5965
  0
VERTEX
  8
0
 10
22.933
 20
67.4286
  0
SEQEND
  0
POLYLINE
  8
0
 66
     1
 10
0
 20
0
  0
VERTEX
  8
0
 10
11.0716
 20
68.1128
  0
VERTEX
  8
0
 10
11.168
 20
68.0969
  0
VERTEX
  8
0
 10
11.2644
 20
68.0819
  0
VERTEX
  8
0
 10
11.3613
 20
68.0738
  0
VERTEX
  8
0
 10
11.4971
 20
68.0714
  0
VERTEX
  8
0
 10
11.6328
 20
68.0715
  0
VERTEX
  8
0
 10
11.7682
 20
68.0741
  0
VERTEX
  8
0
 10
11.9035
 20
68.079
  0
VERTEX
  8
0
 10
12.0387
 20
68.0863
  0
VERTEX
  8
0
 10
12.1736
 20
68.0958
  0
VERTEX
  8
0
 10
12.3084
 20
68.1075
  0
VERTEX
  8
0
 10
12.4429
 20
68.1213
  0
VERTEX
  8
0
 10
12.5772
 20
68.1372
  0
VERTEX
  8
0
 10
12.7113
 20
68.155
  0
VERTEX
  8
0
 10
12.8452
 20
68.1748
  0
VERTEX
  8
0
 10
12.9788
 20
68.1964
  0
VERTEX
  8
0
 10
13.1122
 20
68.2198
  0
VERTEX
  8
0
 10
13.2454
 20
68.245
  0
VERTEX
  8
0
 10
13.3783
 20
68.2718
  0
VERTEX
  8
0
 10
13.5109
 20
68.3002
  0
VERTEX
  8
0
 10
13.6432
 20
68.3301
  0
VERTEX
  8
0
 10
13.7752
 20
68.3615
  0
VERTEX
  8
0
 10
13.907
 20
68.3943
  0
VERTEX
  8
0
 10
14.0384
 20
68.4285
  0
VERTEX
  8
0
 10
14.1695
 20
68.4639
  0
VERTEX
  8
0
 10
14.3004
 20
68.5005
  0
VERTEX
  8
0
 10
14.4308
 20
68.5383
  0
VERTEX
  8
0
 10
14.586
 20
68.5791
  0
VERTEX
  8
0
 10
14.7431
 20
68.6127
  0
VERTEX
  8
0
 10
14.9014
 20
68.6416
  0
VERTEX
  8
0
 10
15.0602
 20
68.6684
  0
VERTEX
  8
0
 10
15.2189
 20
68.6956
  0
VERTEX
  8
0
 10
15.3767
 20
68.7257
  0
VERTEX
  8
0
 10
15.533
 20
68.7614
  0
VERTEX
  8
0
 10
15.6871
 20
68.8051
  0
VERTEX
  8
0
 10
15.819
 20
68.8469
  0
VERTEX
  8
0
 10
15.9512
 20
68.888
  0
VERTEX
  8
0
 10
16.0837
 20
68.9282
  0
VERTEX
  8
0
 10
16.2166
 20
68.9671
  0
VERTEX
  8
0
 10
16.3499
 20
69.0045
  0
VERTEX
  8
0
 10
16.4835
 20
69.0401
  0
VERTEX
  8
0
 10
16.6176
 20
69.0736
  0
VERTEX
  8
0
 10
16.752
 20
69.1048
  0
VERTEX
  8
0
 10
16.887
 20
69.1333
  0
VERTEX
  8
0
 10
17.0224
 20
69.159
  0
VERTEX
  8
0
 10
17.1584
 20
69.1814
  0
VERTEX
  8
0
 10
17.2948
 20
69.2004
  0
VERTEX
  8
0
 10
17.4319
 20
69.2155
  0
VERTEX
  8
0
 10
17.5695
 20
69.2267
  0
VERTEX
  8
0
 10
17.7077
 20
69.2335
  0
VERTEX
  8
0
 10
17.8597
 20
69.2372
  0
VERTEX
  8
0
 10
18.0119
 20
69.2387
  0
VERTEX
  8
0
 10
18.1642
 20
69.2388
  0
VERTEX
  8
0
 10
18.3164
 20
69.2385
  0
VERTEX
  8
0
 10
18.4686
 20
69.2385
  0
VERTEX
  8
0
 10
18.6205
 20
69.2397
  0
VERTEX
  8
0
 10
18.7722
 20
69.2429
  0
VERTEX
  8
0
 10
18.9236
 20
69.2489
  0
VERTEX
  8
0
 10
19.0745
 20
69.2585
  0
VERTEX
  8
0
 10
19.2249
 20
69.2727
  0
VERTEX
  8
0
 10
19.3747
 20
69.2921
  0
VERTEX
  8
0
 10
19.5197
 20
69.301
  0
VERTEX
  8
0
 10
19.6643
 20
69.3152
  0
VERTEX
  8
0
 10
19.8088
 20
69.3332
  0
VERTEX
  8
0
 10
19.9533
 20
69.353
  0
VERTEX
  8
0
 10
20.0978
 20
69.373
  0
VERTEX
  8
0
 10
20.2424
 20
69.3914
  0
VERTEX
  8
0
 10
20.3873
 20
69.4064
  0
VERTEX
  8
0
 10
20.5325
 20
69.4163
  0
VERTEX
  8
0
 10
20.6987
 20
69.4207
  0
VERTEX
  8
0
 10
20.8648
 20
69.4193
  0
VERTEX
  8
0
 10
21.031
 20
69.4132
  0
VERTEX
  8
0
 10
21.1972
 20
69.4037
  0
VERTEX
  8
0
 10
21.3634
 20
69.3919
  0
VERTEX
  8
0
 10
21.5297
 20
69.3789
  0
VERTEX
  8
0
 10
21.696
 20
69.3659
  0
VERTEX
  8
0
 10
21.8884
 20
69.3652
  0
VERTEX
  8
0
 10
22.0814
 20
69.3813
  0
VERTEX
  8
0
 10
22.2745
 20
69.3988
  0
VERTEX
  8
0
 10
22.4355
 20
69.4069
  0
VERTEX
  8
0
 10
22.5966
 20
69.4095
  0
VERTEX
  8
0
 10
22.7576
 20
69.4068
  0
VERTEX
  8
0
 10
22.9185
 20
69.3987
  0
VERTEX
  8
0
 10
23.0791
 20
69.3855
  0
VERTEX
  8
0
 10
23.2393
 20
69.3671
  0
VERTEX
  8
0
 10
23.325
 20
69.3135
  0
VERTEX
  8
0
 10
23.2554
 20
69.2117
  0
VERTEX
  8
0
 10
23.1605
 20
69.135
  0
VERTEX
  8
0
 10
23.0463
 20
69.0884
  0
VERTEX
  8
0
 10
23.0771
 20
69.0635
  0
VERTEX
  8
0
 10
23.1137
 20
69.049
  0
VERTEX
  8
0
 10
23.1535
 20
69.0443
  0
VERTEX
  8
0
 10
23.2464
 20
69.0426
  0
VERTEX
  8
0
 10
23.3393
 20
69.0388
  0
VERTEX
  8
0
 10
23.4322
 20
69.0348
  0
VERTEX
  8
0
 10
23.4921
 20
68.9895
  0
VERTEX
  8
0
 10
23.5612
 20
68.9608
  0
VERTEX
  8
0
 10
23.6357
 20
68.9471
  0
VERTEX
  8
0
 10
23.6907
 20
68.9511
  0
VERTEX
  8
0
 10
23.7392
 20
68.9732
  0
VERTEX
  8
0
 10
23.7753
 20
69.0133
  0
VERTEX
  8
0
 10
23.6038
 20
69.0991
  0
VERTEX
  8
0
 10
23.6252
 20
69.1205
  0
VERTEX
  8
0
 10
23.7005
 20
69.1104
  0
VERTEX
  8
0
 10
23.774
 20
69.1251
  0
VERTEX
  8
0
 10
23.8396
 20
69.1634
  0
VERTEX
  8
0
 10
23.7967
 20
69.3028
  0
VERTEX
  8
0
 10
23.6038
 20
69.3028
  0
VERTEX
  8
0
 10
23.5354
 20
69.2243
  0
VERTEX
  8
0
 10
23.4522
 20
69.1628
  0
VERTEX
  8
0
 10
23.3572
 20
69.1205
  0
VERTEX
  8
0
 10
23.3036
 20
69.1527
  0
VERTEX
  8
0
 10
23.4084
 20
69.2587
  0
VERTEX
  8
0
 10
23.5269
 20
69.3485
  0
VERTEX
  8
0
 10
23.6574
 20
69.4207
  0
VERTEX
  8
0
 10
23.7511
 20
69.4027
  0
VERTEX
  8
0
 10
23.844
 20
69.3813
  0
VERTEX
  8
0
 10
23.9361
 20
69.3564
  0
VERTEX
  8
0
 10
24.0072
 20
69.3789
  0
VERTEX
  8
0
 10
24.0787
 20
69.4003
  0
VERTEX
  8
0
 10
24.1505
 20
69.4207
  0
VERTEX
  8
0
 10
24.3061
 20
69.3739
  0
VERTEX
  8
0
 10
24.4604
 20
69.3229
  0
VERTEX
  8
0
 10
24.6131
 20
69.2678
  0
VERTEX
  8
0
 10
24.7643
 20
69.2085
  0
VERTEX
  8
0
 10
24.9139
 20
69.1451
  0
VERTEX
  8
0
 10
25.0617
 20
69.0776
  0
VERTEX
  8
0
 10
25.0612
 20
69.0475
  0
VERTEX
  8
0
 10
25.0522
 20
69.019
  0
VERTEX
  8
0
 10
25.0354
 20
68.9939
  0
VERTEX
  8
0
 10
25.012
 20
68.975
  0
VERTEX
  8
0
 10
24.9845
 20
68.9635
  0
VERTEX
  8
0
 10
24.9546
 20
68.9591
  0
VERTEX
  8
0
 10
24.9045
 20
68.9565
  0
VERTEX
  8
0
 10
24.8545
 20
68.9528
  0
VERTEX
  8
0
 10
24.8045
 20
68.949
  0
VERTEX
  8
0
 10
24.8152
 20
68.9061
  0
VERTEX
  8
0
 10
24.9335
 20
68.8694
  0
VERTEX
  8
0
 10
25.0561
 20
68.855
  0
VERTEX
  8
0
 10
25.1797
 20
68.8632
  0
VERTEX
  8
0
 10
26.2624
 20
68.3486
  0
VERTEX
  8
0
 10
26.2624
 20
68.1557
  0
VERTEX
  8
0
 10
26.1483
 20
68.1006
  0
VERTEX
  8
0
 10
26.0253
 20
68.072
  0
VERTEX
  8
0
 10
25.8978
 20
68.0677
  0
VERTEX
  8
0
 10
25.7177
 20
68.0824
  0
VERTEX
  8
0
 10
25.5392
 20
68.1083
  0
VERTEX
  8
0
 10
25.3632
 20
68.1465
  0
VERTEX
  8
0
 10
25.1904
 20
68.1986
  0
VERTEX
  8
0
 10
25.1253
 20
68.1877
  0
VERTEX
  8
0
 10
25.061
 20
68.1734
  0
VERTEX
  8
0
 10
24.9974
 20
68.1557
  0
VERTEX
  8
0
 10
24.8062
 20
68.1905
  0
VERTEX
  8
0
 10
24.6127
 20
68.2048
  0
VERTEX
  8
0
 10
24.4185
 20
68.1986
  0
VERTEX
  8
0
 10
24.2686
 20
68.258
  0
VERTEX
  8
0
 10
24.1279
 20
68.3348
  0
VERTEX
  8
0
 10
23.9977
 20
68.4281
  0
VERTEX
  8
0
 10
23.8797
 20
68.5367
  0
VERTEX
  8
0
 10
23.7753
 20
68.6595
  0
VERTEX
  8
0
 10
23.7513
 20
68.6726
  0
VERTEX
  8
0
 10
23.7262
 20
68.6834
  0
VERTEX
  8
0
 10
23.7002
 20
68.6917
  0
VERTEX
  8
0
 10
23.6681
 20
68.6488
  0
VERTEX
  8
0
 10
23.7051
 20
68.5809
  0
VERTEX
  8
0
 10
23.7338
 20
68.5092
  0
VERTEX
  8
0
 10
23.7539
 20
68.4344
  0
VERTEX
  8
0
 10
23.6289
 20
68.45
  0
VERTEX
  8
0
 10
23.5038
 20
68.4649
  0
VERTEX
  8
0
 10
23.3784
 20
68.4742
  0
VERTEX
  8
0
 10
23.2301
 20
68.4697
  0
VERTEX
  8
0
 10
23.0848
 20
68.4457
  0
VERTEX
  8
0
 10
22.944
 20
68.4033
  0
VERTEX
  8
0
 10
22.8092
 20
68.3436
  0
VERTEX
  8
0
 10
22.682
 20
68.2678
  0
VERTEX
  8
0
 10
22.5639
 20
68.1771
  0
VERTEX
  8
0
 10
22.4888
 20
68.027
  0
VERTEX
  8
0
 10
22.4247
 20
68.0602
  0
VERTEX
  8
0
 10
22.3672
 20
68.1034
  0
VERTEX
  8
0
 10
22.3173
 20
68.1557
  0
VERTEX
  8
0
 10
22.2959
 20
68.1342
  0
VERTEX
  8
0
 10
22.4089
 20
67.9931
  0
VERTEX
  8
0
 10
22.4968
 20
67.8363
  0
VERTEX
  8
0
 10
22.5643
 20
67.6682
  0
VERTEX
  8
0
 10
22.6165
 20
67.4934
  0
VERTEX
  8
0
 10
22.6717
 20
67.3532
  0
VERTEX
  8
0
 10
22.7551
 20
67.2344
  0
VERTEX
  8
0
 10
22.862
 20
67.1365
  0
VERTEX
  8
0
 10
22.9877
 20
67.0593
  0
VERTEX
  8
0
 10
23.1277
 20
67.0023
  0
VERTEX
  8
0
 10
23.2773
 20
66.9652
  0
VERTEX
  8
0
 10
23.4319
 20
66.9477
  0
VERTEX
  8
0
 10
23.5692
 20
66.9399
  0
VERTEX
  8
0
 10
23.7064
 20
66.9305
  0
VERTEX
  8
0
 10
23.8435
 20
66.9195
  0
VERTEX
  8
0
 10
23.9806
 20
66.907
  0
VERTEX
  8
0
 10
24.1175
 20
66.8929
  0
VERTEX
  8
0
 10
24.2543
 20
66.8773
  0
VERTEX
  8
0
 10
24.3909
 20
66.8601
  0
VERTEX
  8
0
 10
24.5274
 20
66.8415
  0
VERTEX
  8
0
 10
24.6636
 20
66.8213
  0
VERTEX
  8
0
 10
24.7996
 20
66.7995
  0
VERTEX
  8
0
 10
24.9354
 20
66.7763
  0
VERTEX
  8
0
 10
25.0708
 20
66.7516
  0
VERTEX
  8
0
 10
25.206
 20
66.7254
  0
VERTEX
  8
0
 10
25.3408
 20
66.6977
  0
VERTEX
  8
0
 10
25.4753
 20
66.6686
  0
VERTEX
  8
0
 10
25.6094
 20
66.6379
  0
VERTEX
  8
0
 10
25.743
 20
66.6059
  0
VERTEX
  8
0
 10
25.9
 20
66.5616
  0
VERTEX
  8
0
 10
26.0548
 20
66.5089
  0
VERTEX
  8
0
 10
26.2081
 20
66.4511
  0
VERTEX
  8
0
 10
26.3611
 20
66.3915
  0
VERTEX
  8
0
 10
26.5147
 20
66.3332
  0
VERTEX
  8
0
 10
26.6698
 20
66.2796
  0
VERTEX
  8
0
 10
26.6274
 20
66.2713
  0
VERTEX
  8
0
 10
26.5844
 20
66.2677
  0
VERTEX
  8
0
 10
26.5412
 20
66.2689
  0
VERTEX
  8
0
 10
26.6269
 20
66.2176
  0
VERTEX
  8
0
 10
26.7208
 20
66.1851
  0
VERTEX
  8
0
 10
26.8199
 20
66.1724
  0
VERTEX
  8
0
 10
26.862
 20
66.137
  0
VERTEX
  8
0
 10
26.8846
 20
66.0881
  0
VERTEX
  8
0
 10
26.8842
 20
66.033
  0
VERTEX
  8
0
 10
26.7191
 20
66.0626
  0
VERTEX
  8
0
 10
26.56
 20
66.1137
  0
VERTEX
  8
0
 10
26.4068
 20
66.1821
  0
VERTEX
  8
0
 10
26.2592
 20
66.2636
  0
VERTEX
  8
0
 10
26.1112
 20
66.3418
  0
VERTEX
  8
0
 10
25.9565
 20
66.4044
  0
VERTEX
  8
0
 10
25.7964
 20
66.4522
  0
VERTEX
  8
0
 10
25.6323
 20
66.4861
  0
VERTEX
  8
0
 10
25.4656
 20
66.5069
  0
VERTEX
  8
0
 10
25.2976
 20
66.5155
  0
VERTEX
  8
0
 10
25.2675
 20
66.499
  0
VERTEX
  8
0
 10
25.2351
 20
66.4882
  0
VERTEX
  8
0
 10
25.2011
 20
66.4833
  0
VERTEX
  8
0
 10
25.1625
 20
66.5085
  0
VERTEX
  8
0
 10
25.1365
 20
66.5456
  0
VERTEX
  8
0
 10
25.1261
 20
66.5905
  0
VERTEX
  8
0
 10
23.9254
 20
66.6334
  0
VERTEX
  8
0
 10
23.518
 20
66.6119
  0
VERTEX
  8
0
 10
23.5394
 20
66.5262
  0
VERTEX
  8
0
 10
23.3675
 20
66.5227
  0
VERTEX
  8
0
 10
23.1955
 20
66.518
  0
VERTEX
  8
0
 10
23.0244
 20
66.5207
  0
VERTEX
  8
0
 10
22.8553
 20
66.5392
  0
VERTEX
  8
0
 10
22.6938
 20
66.5776
  0
VERTEX
  8
0
 10
22.5376
 20
66.6334
  0
VERTEX
  8
0
 10
22.3867
 20
66.7039
  0
VERTEX
  8
0
 10
22.2407
 20
66.7864
  0
VERTEX
  8
0
 10
22.0997
 20
66.8781
  0
VERTEX
  8
0
 10
21.9636
 20
66.9764
  0
VERTEX
  8
0
 10
21.9314
 20
66.9657
  0
VERTEX
  8
0
 10
22.0213
 20
66.8213
  0
VERTEX
  8
0
 10
22.1408
 20
66.7018
  0
VERTEX
  8
0
 10
22.2852
 20
66.6119
  0
VERTEX
  8
0
 10
22.2744
 20
66.4833
  0
VERTEX
  8
0
 10
22.1493
 20
66.5186
  0
VERTEX
  8
0
 10
22.0498
 20
66.6019
  0
VERTEX
  8
0
 10
21.9752
 20
66.715
  0
VERTEX
  8
0
 10
21.9075
 20
66.8332
  0
VERTEX
  8
0
 10
21.83
 20
66.9436
  0
VERTEX
  8
0
 10
21.7435
 20
67.0461
  0
VERTEX
  8
0
 10
21.6486
 20
67.1404
  0
VERTEX
  8
0
 10
21.5462
 20
67.2263
  0
VERTEX
  8
0
 10
21.4368
 20
67.3037
  0
VERTEX
  8
0
 10
21.3214
 20
67.3723
  0
VERTEX
  8
0
 10
21.2005
 20
67.432
  0
VERTEX
  8
0
 10
21.0749
 20
67.4825
  0
VERTEX
  8
0
 10
20.9453
 20
67.5236
  0
VERTEX
  8
0
 10
20.8125
 20
67.5551
  0
VERTEX
  8
0
 10
20.6771
 20
67.5768
  0
VERTEX
  8
0
 10
20.6021
 20
67.5446
  0
VERTEX
  8
0
 10
20.7299
 20
67.4196
  0
VERTEX
  8
0
 10
20.8799
 20
67.3261
  0
VERTEX
  8
0
 10
21.0464
 20
67.2668
  0
VERTEX
  8
0
 10
21.2238
 20
67.2445
  0
VERTEX
  8
0
 10
21.3205
 20
67.1954
  0
VERTEX
  8
0
 10
21.407
 20
67.1306
  0
VERTEX
  8
0
 10
21.4811
 20
67.0515
  0
VERTEX
  8
0
 10
21.3503
 20
66.97
  0
VERTEX
  8
0
 10
21.2121
 20
66.9038
  0
VERTEX
  8
0
 10
21.0678
 20
66.8537
  0
VERTEX
  8
0
 10
20.9189
 20
66.8203
  0
VERTEX
  8
0
 10
20.7668
 20
66.8043
  0
VERTEX
  8
0
 10
20.6129
 20
66.8064
  0
VERTEX
  8
0
 10
20.4577
 20
66.8213
  0
VERTEX
  8
0
 10
20.3037
 20
66.8431
  0
VERTEX
  8
0
 10
20.1509
 20
66.8718
  0
VERTEX
  8
0
 10
19.9996
 20
66.9071
  0
VERTEX
  8
0
 10
19.85
 20
66.9491
  0
VERTEX
  8
0
 10
19.7024
 20
66.9975
  0
VERTEX
  8
0
 10
19.5568
 20
67.0523
  0
VERTEX
  8
0
 10
19.4136
 20
67.1134
  0
VERTEX
  8
0
 10
19.273
 20
67.1806
  0
VERTEX
  8
0
 10
19.1421
 20
67.2453
  0
VERTEX
  8
0
 10
19.0102
 20
67.3079
  0
VERTEX
  8
0
 10
18.8774
 20
67.3684
  0
VERTEX
  8
0
 10
18.7437
 20
67.4267
  0
VERTEX
  8
0
 10
18.6091
 20
67.4828
  0
VERTEX
  8
0
 10
18.4736
 20
67.5367
  0
VERTEX
  8
0
 10
18.3372
 20
67.5884
  0
VERTEX
  8
0
 10
18.2
 20
67.6378
  0
VERTEX
  8
0
 10
18.062
 20
67.685
  0
VERTEX
  8
0
 10
17.9232
 20
67.7299
  0
VERTEX
  8
0
 10
17.7836
 20
67.7724
  0
VERTEX
  8
0
 10
17.6432
 20
67.8126
  0
VERTEX
  8
0
 10
17.6432
 20
67.8341
  0
VERTEX
  8
0
 10
17.7076
 20
67.8273
  0
VERTEX
  8
0
 10
17.7719
 20
67.8198
  0
VERTEX
  8
0
 10
17.8362
 20
67.8143
  0
VERTEX
  8
0
 10
17.8648
 20
67.8152
  0
VERTEX
  8
0
 10
17.8934
 20
67.8191
  0
VERTEX
  8
0
 10
17.9219
 20
67.8233
  0
VERTEX
  8
0
 10
17.8081
 20
67.8828
  0
VERTEX
  8
0
 10
17.6855
 20
67.9187
  0
VERTEX
  8
0
 10
17.5575
 20
67.9313
  0
VERTEX
  8
0
 10
17.3716
 20
67.9337
  0
VERTEX
  8
0
 10
17.1858
 20
67.9374
  0
VERTEX
  8
0
 10
17
 20
67.9413
  0
VERTEX
  8
0
 10
16.852
 20
67.8795
  0
VERTEX
  8
0
 10
16.7098
 20
67.807
  0
VERTEX
  8
0
 10
16.5729
 20
67.725
  0
VERTEX
  8
0
 10
16.4411
 20
67.6349
  0
VERTEX
  8
0
 10
16.3137
 20
67.5376
  0
VERTEX
  8
0
 10
16.1905
 20
67.4347
  0
VERTEX
  8
0
 10
16.0709
 20
67.3271
  0
VERTEX
  8
0
 10
15.9534
 20
67.2248
  0
VERTEX
  8
0
 10
15.8302
 20
67.1299
  0
VERTEX
  8
0
 10
15.7019
 20
67.0421
  0
VERTEX
  8
0
 10
15.569
 20
66.9611
  0
VERTEX
  8
0
 10
15.4322
 20
66.8864
  0
VERTEX
  8
0
 10
15.2919
 20
66.8177
  0
VERTEX
  8
0
 10
15.1487
 20
66.7547
  0
VERTEX
  8
0
 10
15.0032
 20
66.6969
  0
VERTEX
  8
0
 10
14.8559
 20
66.6441
  0
VERTEX
  8
0
 10
14.7379
 20
66.5431
  0
VERTEX
  8
0
 10
14.6138
 20
66.45
  0
VERTEX
  8
0
 10
14.4839
 20
66.3658
  0
VERTEX
  8
0
 10
14.3484
 20
66.2914
  0
VERTEX
  8
0
 10
14.2075
 20
66.2279
  0
VERTEX
  8
0
 10
14.0615
 20
66.1762
  0
VERTEX
  8
0
 10
13.9356
 20
66.1496
  0
VERTEX
  8
0
 10
13.8065
 20
66.1399
  0
VERTEX
  8
0
 10
13.6766
 20
66.1384
  0
VERTEX
  8
0
 10
13.5075
 20
66.1483
  0
VERTEX
  8
0
 10
13.342
 20
66.1789
  0
VERTEX
  8
0
 10
13.1816
 20
66.2291
  0
VERTEX
  8
0
 10
13.0276
 20
66.2976
  0
VERTEX
  8
0
 10
12.8811
 20
66.3835
  0
VERTEX
  8
0
 10
12.7533
 20
66.4631
  0
VERTEX
  8
0
 10
12.6209
 20
66.535
  0
VERTEX
  8
0
 10
12.4843
 20
66.5983
  0
VERTEX
  8
0
 10
12.3441
 20
66.6518
  0
VERTEX
  8
0
 10
12.2008
 20
66.6945
  0
VERTEX
  8
0
 10
12.055
 20
66.7254
  0
VERTEX
  8
0
 10
11.9072
 20
66.7434
  0
VERTEX
  8
0
 10
11.7579
 20
66.7474
  0
VERTEX
  8
0
 10
11.6084
 20
66.7398
  0
VERTEX
  8
0
 10
11.4599
 20
66.7241
  0
VERTEX
  8
0
 10
11.3122
 20
66.7011
  0
VERTEX
  8
0
 10
11.1656
 20
66.6713
  0
VERTEX
  8
0
 10
11.0201
 20
66.6355
  0
VERTEX
  8
0
 10
10.8756
 20
66.5941
  0
VERTEX
  8
0
 10
10.7324
 20
66.548
  0
VERTEX
  8
0
 10
10.5904
 20
66.4976
  0
VERTEX
  8
0
 10
10.4498
 20
66.4437
  0
VERTEX
  8
0
 10
10.3105
 20
66.3868
  0
VERTEX
  8
0
 10
10.1604
 20
66.3761
  0
VERTEX
  8
0
 10
10.119
 20
66.3191
  0
VERTEX
  8
0
 10
10.0609
 20
66.2812
  0
VERTEX
  8
0
 10
9.9921
 20
66.2663
  0
VERTEX
  8
0
 10
9.9225
 20
66.2769
  0
VERTEX
  8
0
 10
9.8622
 20
66.3111
  0
VERTEX
  8
0
 10
9.8173
 20
66.3654
  0
VERTEX
  8
0
 10
9.7485
 20
66.3806
  0
VERTEX
  8
0
 10
9.6896
 20
66.4174
  0
VERTEX
  8
0
 10
9.6458
 20
66.4726
  0
VERTEX
  8
0
 10
9.6831
 20
66.5191
  0
VERTEX
  8
0
 10
9.7364
 20
66.542
  0
VERTEX
  8
0
 10
9.7959
 20
66.5369
  0
VERTEX
  8
0
 10
9.9968
 20
66.5352
  0
VERTEX
  8
0
 10
10.1972
 20
66.5363
  0
VERTEX
  8
0
 10
10.394
 20
66.5606
  0
VERTEX
  8
0
 10
10.5405
 20
66.5966
  0
VERTEX
  8
0
 10
10.6852
 20
66.6389
  0
VERTEX
  8
0
 10
10.8283
 20
66.6869
  0
VERTEX
  8
0
 10
10.97
 20
66.7398
  0
VERTEX
  8
0
 10
11.1103
 20
66.7969
  0
VERTEX
  8
0
 10
11.2494
 20
66.8573
  0
VERTEX
  8
0
 10
11.3875
 20
66.9204
  0
VERTEX
  8
0
 10
11.5247
 20
66.9854
  0
VERTEX
  8
0
 10
11.6612
 20
67.0515
  0
VERTEX
  8
0
 10
11.819
 20
67.0426
  0
VERTEX
  8
0
 10
11.9755
 20
67.0225
  0
VERTEX
  8
0
 10
12.1303
 20
66.992
  0
VERTEX
  8
0
 10
12.2832
 20
66.9522
  0
VERTEX
  8
0
 10
12.4339
 20
66.9037
  0
VERTEX
  8
0
 10
12.5865
 20
66.8563
  0
VERTEX
  8
0
 10
12.7422
 20
66.8205
  0
VERTEX
  8
0
 10
12.8998
 20
66.7972
  0
VERTEX
  8
0
 10
13.0585
 20
66.7873
  0
VERTEX
  8
0
 10
13.2173
 20
66.7919
  0
VERTEX
  8
0
 10
13.3752
 20
66.8118
  0
VERTEX
  8
0
 10
13.5289
 20
66.8611
  0
VERTEX
  8
0
 10
13.6631
 20
66.9455
  0
VERTEX
  8
0
 10
13.7785
 20
67.0577
  0
VERTEX
  8
0
 10
13.876
 20
67.1902
  0
VERTEX
  8
0
 10
13.9565
 20
67.3356
  0
VERTEX
  8
0
 10
14.0245
 20
67.463
  0
VERTEX
  8
0
 10
14.102
 20
67.5839
  0
VERTEX
  8
0
 10
14.1881
 20
67.6982
  0
VERTEX
  8
0
 10
14.2823
 20
67.806
  0
VERTEX
  8
0
 10
14.384
 20
67.9071
  0
VERTEX
  8
0
 10
14.4924
 20
68.0015
  0
VERTEX
  8
0
 10
14.6069
 20
68.089
  0
VERTEX
  8
0
 10
14.7269
 20
68.1697
  0
VERTEX
  8
0
 10
14.8517
 20
68.2435
  0
VERTEX
  8
0
 10
14.9807
 20
68.3103
  0
VERTEX
  8
0
 10
15.1132
 20
68.3701
  0
VERTEX
  8
0
 10
15.1346
 20
68.4237
  0
VERTEX
  8
0
 10
15.0703
 20
68.488
  0
VERTEX
  8
0
 10
14.9149
 20
68.4831
  0
VERTEX
  8
0
 10
14.7602
 20
68.4719
  0
VERTEX
  8
0
 10
14.6061
 20
68.4551
  0
VERTEX
  8
0
 10
14.4527
 20
68.4331
  0
VERTEX
  8
0
 10
14.2999
 20
68.4062
  0
VERTEX
  8
0
 10
14.1478
 20
68.375
  0
VERTEX
  8
0
 10
13.9965
 20
68.3398
  0
VERTEX
  8
0
 10
13.8458
 20
68.3011
  0
VERTEX
  8
0
 10
13.6959
 20
68.2594
  0
VERTEX
  8
0
 10
13.5602
 20
68.2221
  0
VERTEX
  8
0
 10
13.4238
 20
68.1879
  0
VERTEX
  8
0
 10
13.2867
 20
68.1569
  0
VERTEX
  8
0
 10
13.1489
 20
68.129
  0
VERTEX
  8
0
 10
13.0107
 20
68.104
  0
VERTEX
  8
0
 10
12.8719
 20
68.0819
  0
VERTEX
  8
0
 10
12.7327
 20
68.0627
  0
VERTEX
  8
0
 10
12.5931
 20
68.0463
  0
VERTEX
  8
0
 10
12.4531
 20
68.0325
  0
VERTEX
  8
0
 10
12.3129
 20
68.0214
  0
VERTEX
  8
0
 10
12.1724
 20
68.0128
  0
VERTEX
  8
0
 10
12.0317
 20
68.0066
  0
VERTEX
  8
0
 10
11.8909
 20
68.0029
  0
VERTEX
  8
0
 10
11.75
 20
68.0015
  0
VERTEX
  8
0
 10
11.6091
 20
68.0024
  0
VERTEX
  8
0
 10
11.4682
 20
68.0054
  0
VERTEX
  8
0
 10
11.4468
 20
68.0059
  0
VERTEX
  8
0
 10
11.4254
 20
68.0059
  0
VERTEX
  8
0
 10
11.4039
 20
68.0052
  0
VERTEX
  8
0
 10
11.2623
 20
68.0104
  0
VERTEX
  8
0
 10
11.1251
 20
68.0428
  0
VERTEX
  8
0
 10
10.9966
 20
68.1021
  0
VERTEX
  8
0
 10
11.0716
 20
68.1128
  0
SEQEND
  0
POLYLINE
  8
0
 66
     1
 10
0
 20
0
  0
VERTEX
  8
0
 10
21.8844
 20
68.8285
  0
VERTEX
  8
0
 10
21.8404
 20
68.8977
  0
VERTEX
  8
0
 10
21.783
 20
68.9544
  0
VERTEX
  8
0
 10
21.7155
 20
69.0008
  0
VERTEX
  8
0
 10
21.6135
 20
69.0538
  0
VERTEX
  8
0
 10
21.5064
 20
69.0935
  0
VERTEX
  8
0
 10
21.4002
 20
69.1205
  0
VERTEX
  8
0
 10
21.3967
 20
69.0823
  0
VERTEX
  8
0
 10
21.5293
 20
69.0451
  0
VERTEX
  8
0
 10
21.6527
 20
68.9835
  0
VERTEX
  8
0
 10
21.7628
 20
68.8992
  0
VERTEX
  8
0
 10
21.8061
 20
68.8774
  0
VERTEX
  8
0
 10
21.8435
 20
68.844
  0
VERTEX
  8
0
 10
21.863
 20
68.8016
  0
VERTEX
  8
0
 10
21.8844
 20
68.8285
  0
SEQEND
  0
POLYLINE
  8
0
 66
     1
 10
0
 20
0
  0
VERTEX
  8
0
 10
21.8926
 20
68.8337
  0
VERTEX
  8
0
 10
21.8711
 20
68.7962
  0
VERTEX
  8
0
 10
21.8371
 20
68.8368
  0
VERTEX
  8
0
 10
21.8018
 20
68.8688
  0
VERTEX
  8
0
 10
21.7569
 20
68.8916
  0
VERTEX
  8
0
 10
21.6484
 20
68.9749
  0
VERTEX
  8
0
 10
21.5267
 20
69.0359
  0
VERTEX
  8
0
 10
21.3941
 20
69.073
  0
VERTEX
  8
0
 10
21.3905
 20
69.1205
  0
VERTEX
  8
0
 10
21.5098
 20
69.1025
  0
VERTEX
  8
0
 10
21.618
 20
69.0623
  0
VERTEX
  8
0
 10
21.721
 20
69.0087
  0
VERTEX
  8
0
 10
21.7897
 20
68.9612
  0
VERTEX
  8
0
 10
21.8486
 20
68.9028
  0
VERTEX
  8
0
 10
21.8926
 20
68.8337
  0
SEQEND
  0
POLYLINE
  8
0
 66
     1
 10
0
 20
0
  0
VERTEX
  8
0
 10
17.05
 20
68.1156
  0
VERTEX
  8
0
 10
17.1221
 20
68.2284
  0
VERTEX
  8
0
 10
17.2212
 20
68.3198
  0
VERTEX
  8
0
 10
17.3399
 20
68.3868
  0
VERTEX
  8
0
 10
17.4097
 20
68.4289
  0
VERTEX
  8
0
 10
17.4664
 20
68.4863
  0
VERTEX
  8
0
 10
17.5124
 20
68.548
  0
VERTEX
  8
0
 10
17.4954
 20
68.5588
  0
VERTEX
  8
0
 10
17.4105
 20
68.5143
  0
VERTEX
  8
0
 10
17.3318
 20
68.4611
  0
VERTEX
  8
0
 10
17.2623
 20
68.3971
  0
VERTEX
  8
0
 10
17.1511
 20
68.2794
  0
VERTEX
  8
0
 10
17.0331
 20
68.168
  0
VERTEX
  8
0
 10
16.9065
 20
68.0662
  0
VERTEX
  8
0
 10
16.8925
 20
68.0319
  0
VERTEX
  8
0
 10
16.9577
 20
68.0352
  0
VERTEX
  8
0
 10
17.012
 20
68.0648
  0
VERTEX
  8
0
 10
17.05
 20
68.1156
  0
SEQEND
  0
POLYLINE
  8
0
 66
     1
 10
0
 20
0
  0
VERTEX
  8
0
 10
17.0577
 20
68.1098
  0
VERTEX
  8
0
 10
17.0166
 20
68.0563
  0
VERTEX
  8
0
 10
16.9582
 20
68.0256
  0
VERTEX
  8
0
 10
16.893
 20
68.0222
  0
VERTEX
  8
0
 10
16.9005
 20
68.0737
  0
VERTEX
  8
0
 10
17.0265
 20
68.175
  0
VERTEX
  8
0
 10
17.1441
 20
68.286
  0
VERTEX
  8
0
 10
17.2558
 20
68.4041
  0
VERTEX
  8
0
 10
17.3264
 20
68.4691
  0
VERTEX
  8
0
 10
17.406
 20
68.5228
  0
VERTEX
  8
0
 10
17.4909
 20
68.5673
  0
VERTEX
  8
0
 10
17.5167
 20
68.5567
  0
VERTEX
  8
0
 10
17.4733
 20
68.4795
  0
VERTEX
  8
0
 10
17.4147
 20
68.4207
  0
VERTEX
  8
0
 10
17.3446
 20
68.3784
  0
VERTEX
  8
0
 10
17.2277
 20
68.3127
  0
VERTEX
  8
0
 10
17.1302
 20
68.2232
  0
VERTEX
  8
0
 10
17.0577
 20
68.1098
  0
SEQEND
  0
POLYLINE
  8
0
 66
     1
 10
0
 20
0
  0
VERTEX
  8
0
 10
12.9039
 20
66.6715
  0
VERTEX
  8
0
 10
12.7096
 20
66.7083
  0
VERTEX
  8
0
 10
12.5165
 20
66.7515
  0
VERTEX
  8
0
 10
12.3245
 20
66.7991
  0
VERTEX
  8
0
 10
12.3111
 20
66.8008
  0
VERTEX
  8
0
 10
12.2974
 20
66.8006
  0
VERTEX
  8
0
 10
12.2864
 20
66.8084
  0
VERTEX
  8
0
 10
12.3342
 20
66.7615
  0
VERTEX
  8
0
 10
12.3915
 20
66.7298
  0
VERTEX
  8
0
 10
12.4555
 20
66.7112
  0
VERTEX
  8
0
 10
12.5557
 20
66.6881
  0
VERTEX
  8
0
 10
12.6557
 20
66.6623
  0
VERTEX
  8
0
 10
12.7561
 20
66.6408
  0
VERTEX
  8
0
 10
12.805
 20
66.6366
  0
VERTEX
  8
0
 10
12.8546
 20
66.6371
  0
VERTEX
  8
0
 10
12.9
 20
66.6334
  0
VERTEX
  8
0
 10
12.9039
 20
66.6715
  0
SEQEND
  0
POLYLINE
  8
0
 66
     1
 10
0
 20
0
  0
VERTEX
  8
0
 10
12.9057
 20
66.681
  0
VERTEX
  8
0
 10
12.9096
 20
66.6334
  0
VERTEX
  8
0
 10
12.8547
 20
66.6275
  0
VERTEX
  8
0
 10
12.8042
 20
66.627
  0
VERTEX
  8
0
 10
12.7541
 20
66.6314
  0
VERTEX
  8
0
 10
12.6532
 20
66.6529
  0
VERTEX
  8
0
 10
12.5535
 20
66.6787
  0
VERTEX
  8
0
 10
12.4528
 20
66.7019
  0
VERTEX
  8
0
 10
12.3868
 20
66.7214
  0
VERTEX
  8
0
 10
12.3275
 20
66.7546
  0
VERTEX
  8
0
 10
12.2796
 20
66.8015
  0
VERTEX
  8
0
 10
12.2973
 20
66.8102
  0
VERTEX
  8
0
 10
12.3123
 20
66.8104
  0
VERTEX
  8
0
 10
12.3269
 20
66.8084
  0
VERTEX
  8
0
 10
12.5186
 20
66.7609
  0
VERTEX
  8
0
 10
12.7114
 20
66.7178
  0
VERTEX
  8
0
 10
12.9057
 20
66.681
  0
SEQEND
  0
POLYLINE
  8
0
 66
     1
 10
0
 20
0
  0
VERTEX
  8
0
 10
21.3512
 20
63.6186
  0
VERTEX
  8
0
 10
21.2167
 20
63.6198
  0
VERTEX
  8
0
 10
21.0822
 20
63.621
  0
VERTEX
  8
0
 10
20.9478
 20
63.6222
  0
VERTEX
  8
0
 10
20.8133
 20
63.6233
  0
VERTEX
  8
0
 10
20.6788
 20
63.6245
  0
VERTEX
  8
0
 10
20.5444
 20
63.6257
  0
VERTEX
  8
0
 10
20.4099
 20
63.6269
  0
VERTEX
  8
0
 10
20.2754
 20
63.6281
  0
VERTEX
  8
0
 10
20.1409
 20
63.6292
  0
VERTEX
  8
0
 10
20.0065
 20
63.6304
  0
VERTEX
  8
0
 10
19.872
 20
63.6316
  0
VERTEX
  8
0
 10
19.7375
 20
63.6328
  0
VERTEX
  8
0
 10
19.603
 20
63.634
  0
VERTEX
  8
0
 10
19.4686
 20
63.6351
  0
VERTEX
  8
0
 10
19.3341
 20
63.6363
  0
VERTEX
  8
0
 10
19.1996
 20
63.6375
  0
VERTEX
  8
0
 10
19.0651
 20
63.6387
  0
VERTEX
  8
0
 10
18.9307
 20
63.6399
  0
VERTEX
  8
0
 10
18.7962
 20
63.641
  0
VERTEX
  8
0
 10
18.6617
 20
63.6422
  0
VERTEX
  8
0
 10
18.5272
 20
63.6434
  0
VERTEX
  8
0
 10
18.3928
 20
63.6446
  0
VERTEX
  8
0
 10
18.2583
 20
63.6458
  0
VERTEX
  8
0
 10
18.1238
 20
63.6469
  0
VERTEX
  8
0
 10
17.9893
 20
63.6481
  0
VERTEX
  8
0
 10
17.8549
 20
63.6493
  0
VERTEX
  8
0
 10
17.7204
 20
63.6505
  0
VERTEX
  8
0
 10
17.5859
 20
63.6517
  0
VERTEX
  8
0
 10
17.4514
 20
63.6528
  0
VERTEX
  8
0
 10
17.317
 20
63.654
  0
VERTEX
  8
0
 10
17.1825
 20
63.6552
  0
VERTEX
  8
0
 10
17.1342
 20
63.7676
  0
VERTEX
  8
0
 10
17.0822
 20
63.8799
  0
VERTEX
  8
0
 10
17.0266
 20
63.9918
  0
VERTEX
  8
0
 10
16.9674
 20
64.1033
  0
VERTEX
  8
0
 10
16.9046
 20
64.2143
  0
VERTEX
  8
0
 10
16.8384
 20
64.3248
  0
VERTEX
  8
0
 10
16.7688
 20
64.4346
  0
VERTEX
  8
0
 10
16.6958
 20
64.5436
  0
VERTEX
  8
0
 10
16.6195
 20
64.6518
  0
VERTEX
  8
0
 10
16.5399
 20
64.759
  0
VERTEX
  8
0
 10
16.4571
 20
64.8653
  0
VERTEX
  8
0
 10
16.3712
 20
64.9704
  0
VERTEX
  8
0
 10
16.2822
 20
65.0743
  0
VERTEX
  8
0
 10
16.1902
 20
65.1769
  0
VERTEX
  8
0
 10
16.0952
 20
65.2781
  0
VERTEX
  8
0
 10
15.9973
 20
65.3778
  0
VERTEX
  8
0
 10
15.8966
 20
65.476
  0
VERTEX
  8
0
 10
15.793
 20
65.5725
  0
VERTEX
  8
0
 10
15.6866
 20
65.6672
  0
VERTEX
  8
0
 10
15.5776
 20
65.7601
  0
VERTEX
  8
0
 10
15.466
 20
65.8511
  0
VERTEX
  8
0
 10
15.3517
 20
65.9401
  0
VERTEX
  8
0
 10
15.2349
 20
66.0269
  0
VERTEX
  8
0
 10
15.1157
 20
66.1116
  0
VERTEX
  8
0
 10
14.994
 20
66.194
  0
VERTEX
  8
0
 10
14.87
 20
66.274
  0
VERTEX
  8
0
 10
15.0112
 20
66.331
  0
VERTEX
  8
0
 10
15.148
 20
66.3898
  0
VERTEX
  8
0
 10
15.2809
 20
66.4503
  0
VERTEX
  8
0
 10
15.41
 20
66.5129
  0
VERTEX
  8
0
 10
15.5358
 20
66.5777
  0
VERTEX
  8
0
 10
15.6584
 20
66.6449
  0
VERTEX
  8
0
 10
15.7782
 20
66.7147
  0
VERTEX
  8
0
 10
15.8954
 20
66.7873
  0
VERTEX
  8
0
 10
16.0104
 20
66.8628
  0
VERTEX
  8
0
 10
16.1235
 20
66.9415
  0
VERTEX
  8
0
 10
16.2349
 20
67.0235
  0
VERTEX
  8
0
 10
16.3449
 20
67.1091
  0
VERTEX
  8
0
 10
16.4538
 20
67.1983
  0
VERTEX
  8
0
 10
16.5746
 20
67.1417
  0
VERTEX
  8
0
 10
16.6949
 20
67.0839
  0
VERTEX
  8
0
 10
16.8146
 20
67.025
  0
VERTEX
  8
0
 10
16.9338
 20
66.9649
  0
VERTEX
  8
0
 10
17.0524
 20
66.9037
  0
VERTEX
  8
0
 10
17.1704
 20
66.8414
  0
VERTEX
  8
0
 10
17.288
 20
66.778
  0
VERTEX
  8
0
 10
17.4049
 20
66.7135
  0
VERTEX
  8
0
 10
17.5213
 20
66.648
  0
VERTEX
  8
0
 10
17.637
 20
66.5814
  0
VERTEX
  8
0
 10
17.7522
 20
66.5138
  0
VERTEX
  8
0
 10
17.8668
 20
66.4452
  0
VERTEX
  8
0
 10
17.9808
 20
66.3756
  0
VERTEX
  8
0
 10
18.0941
 20
66.305
  0
VERTEX
  8
0
 10
18.2069
 20
66.2334
  0
VERTEX
  8
0
 10
18.319
 20
66.1609
  0
VERTEX
  8
0
 10
18.4304
 20
66.0874
  0
VERTEX
  8
0
 10
18.5412
 20
66.013
  0
VERTEX
  8
0
 10
18.6514
 20
65.9378
  0
VERTEX
  8
0
 10
18.7609
 20
65.8616
  0
VERTEX
  8
0
 10
18.8697
 20
65.7845
  0
VERTEX
  8
0
 10
18.9779
 20
65.7066
  0
VERTEX
  8
0
 10
19.0854
 20
65.6279
  0
VERTEX
  8
0
 10
19.1922
 20
65.5483
  0
VERTEX
  8
0
 10
19.2982
 20
65.4679
  0
VERTEX
  8
0
 10
19.4036
 20
65.3867
  0
VERTEX
  8
0
 10
19.5083
 20
65.3047
  0
VERTEX
  8
0
 10
19.6122
 20
65.222
  0
VERTEX
  8
0
 10
19.7154
 20
65.1385
  0
VERTEX
  8
0
 10
19.8179
 20
65.0543
  0
VERTEX
  8
0
 10
19.9196
 20
64.9693
  0
VERTEX
  8
0
 10
20.0206
 20
64.8836
  0
VERTEX
  8
0
 10
20.1209
 20
64.7973
  0
VERTEX
  8
0
 10
20.2203
 20
64.7102
  0
VERTEX
  8
0
 10
20.319
 20
64.6225
  0
VERTEX
  8
0
 10
20.4169
 20
64.5342
  0
VERTEX
  8
0
 10
20.514
 20
64.4452
  0
VERTEX
  8
0
 10
20.6103
 20
64.3556
  0
VERTEX
  8
0
 10
20.7058
 20
64.2655
  0
VERTEX
  8
0
 10
20.8005
 20
64.1747
  0
VERTEX
  8
0
 10
20.8944
 20
64.0833
  0
VERTEX
  8
0
 10
20.9874
 20
63.9914
  0
VERTEX
  8
0
 10
21.0796
 20
63.899
  0
VERTEX
  8
0
 10
21.171
 20
63.8061
  0
VERTEX
  8
0
 10
21.2615
 20
63.7126
  0
VERTEX
  8
0
 10
21.3512
 20
63.6186
  0
SEQEND
  0
POLYLINE
  8
0
 66
     1
 10
0
 20
0
  0
VERTEX
  8
0
 10
22.8723
 20
63.6921
  0
VERTEX
  8
0
 10
22.8685
 20
63.6956
  0
VERTEX
  8
0
 10
22.8582
 20
63.7049
  0
VERTEX
  8
0
 10
22.8416
 20
63.7198
  0
VERTEX
  8
0
 10
22.8188
 20
63.7401
  0
VERTEX
  8
0
 10
22.79
 20
63.7658
  0
VERTEX
  8
0
 10
22.7552
 20
63.7965
  0
VERTEX
  8
0
 10
22.7146
 20
63.8321
  0
VERTEX
  8
0
 10
22.6685
 20
63.8724
  0
VERTEX
  8
0
 10
22.6168
 20
63.9172
  0
VERTEX
  8
0
 10
22.5598
 20
63.9663
  0
VERTEX
  8
0
 10
22.4975
 20
64.0195
  0
VERTEX
  8
0
 10
22.4302
 20
64.0766
  0
VERTEX
  8
0
 10
22.358
 20
64.1375
  0
VERTEX
  8
0
 10
22.281
 20
64.202
  0
VERTEX
  8
0
 10
22.1993
 20
64.2697
  0
VERTEX
  8
0
 10
22.1132
 20
64.3407
  0
VERTEX
  8
0
 10
22.0226
 20
64.4146
  0
VERTEX
  8
0
 10
21.9278
 20
64.4913
  0
VERTEX
  8
0
 10
21.829
 20
64.5705
  0
VERTEX
  8
0
 10
21.7262
 20
64.6522
  0
VERTEX
  8
0
 10
21.6195
 20
64.7361
  0
VERTEX
  8
0
 10
21.5093
 20
64.822
  0
VERTEX
  8
0
 10
21.3955
 20
64.9097
  0
VERTEX
  8
0
 10
21.2783
 20
64.999
  0
VERTEX
  8
0
 10
21.1578
 20
65.0897
  0
VERTEX
  8
0
 10
21.0343
 20
65.1817
  0
VERTEX
  8
0
 10
20.9078
 20
65.2748
  0
VERTEX
  8
0
 10
20.7785
 20
65.3687
  0
VERTEX
  8
0
 10
20.6465
 20
65.4633
  0
VERTEX
  8
0
 10
20.5119
 20
65.5583
  0
VERTEX
  8
0
 10
20.375
 20
65.6537
  0
VERTEX
  8
0
 10
20.2357
 20
65.7491
  0
VERTEX
  8
0
 10
20.0944
 20
65.8444
  0
VERTEX
  8
0
 10
19.9511
 20
65.9395
  0
VERTEX
  8
0
 10
19.806
 20
66.0341
  0
VERTEX
  8
0
 10
19.6591
 20
66.1279
  0
VERTEX
  8
0
 10
19.5107
 20
66.221
  0
VERTEX
  8
0
 10
19.3609
 20
66.3129
  0
VERTEX
  8
0
 10
19.2098
 20
66.4037
  0
VERTEX
  8
0
 10
19.0576
 20
66.4929
  0
VERTEX
  8
0
 10
18.9044
 20
66.5806
  0
VERTEX
  8
0
 10
18.7503
 20
66.6664
  0
VERTEX
  8
0
 10
18.5955
 20
66.7502
  0
VERTEX
  8
0
 10
18.4402
 20
66.8318
  0
VERTEX
  8
0
 10
18.2844
 20
66.911
  0
VERTEX
  8
0
 10
18.1283
 20
66.9876
  0
VERTEX
  8
0
 10
17.9721
 20
67.0615
  0
VERTEX
  8
0
 10
17.8159
 20
67.1323
  0
VERTEX
  8
0
 10
17.6598
 20
67.2
  0
VERTEX
  8
0
 10
17.504
 20
67.2643
  0
VERTEX
  8
0
 10
17.3486
 20
67.3251
  0
VERTEX
  8
0
 10
17.1937
 20
67.3822
  0
VERTEX
  8
0
 10
17.0237
 20
67.4407
  0
VERTEX
  8
0
 10
17.1454
 20
67.5767
  0
VERTEX
  8
0
 10
17.2974
 20
67.663
  0
VERTEX
  8
0
 10
17.48
 20
67.7004
  0
VERTEX
  8
0
 10
17.6856
 20
67.6771
  0
VERTEX
  8
0
 10
17.8575
 20
67.635
  0
VERTEX
  8
0
 10
18.0344
 20
67.5885
  0
VERTEX
  8
0
 10
18.2122
 20
67.5365
  0
VERTEX
  8
0
 10
18.3855
 20
67.4784
  0
VERTEX
  8
0
 10
18.5489
 20
67.4132
  0
VERTEX
  8
0
 10
18.691
 20
67.3514
  0
VERTEX
  8
0
 10
18.8268
 20
67.2848
  0
VERTEX
  8
0
 10
18.9579
 20
67.215
  0
VERTEX
  8
0
 10
19.0861
 20
67.1433
  0
VERTEX
  8
0
 10
19.2132
 20
67.071
  0
VERTEX
  8
0
 10
19.341
 20
66.9995
  0
VERTEX
  8
0
 10
19.4716
 20
66.93
  0
VERTEX
  8
0
 10
19.6066
 20
66.8638
  0
VERTEX
  8
0
 10
19.7479
 20
66.8023
  0
VERTEX
  8
0
 10
19.8994
 20
66.7462
  0
VERTEX
  8
0
 10
20.0483
 20
66.7
  0
VERTEX
  8
0
 10
20.1945
 20
66.6635
  0
VERTEX
  8
0
 10
20.3382
 20
66.6363
  0
VERTEX
  8
0
 10
20.4793
 20
66.6182
  0
VERTEX
  8
0
 10
20.618
 20
66.6089
  0
VERTEX
  8
0
 10
20.7544
 20
66.6079
  0
VERTEX
  8
0
 10
20.8884
 20
66.615
  0
VERTEX
  8
0
 10
21.0203
 20
66.6299
  0
VERTEX
  8
0
 10
21.1499
 20
66.6523
  0
VERTEX
  8
0
 10
21.2774
 20
66.6819
  0
VERTEX
  8
0
 10
21.4029
 20
66.7183
  0
VERTEX
  8
0
 10
21.5263
 20
66.7612
  0
VERTEX
  8
0
 10
21.6479
 20
66.8104
  0
VERTEX
  8
0
 10
21.7751
 20
66.869
  0
VERTEX
  8
0
 10
21.9159
 20
66.7088
  0
VERTEX
  8
0
 10
22.0513
 20
66.5475
  0
VERTEX
  8
0
 10
22.1829
 20
66.3976
  0
VERTEX
  8
0
 10
22.3246
 20
66.401
  0
VERTEX
  8
0
 10
22.4712
 20
66.4029
  0
VERTEX
  8
0
 10
22.6175
 20
66.4033
  0
VERTEX
  8
0
 10
22.7634
 20
66.4026
  0
VERTEX
  8
0
 10
22.9091
 20
66.4011
  0
VERTEX
  8
0
 10
23.0547
 20
66.399
  0
VERTEX
  8
0
 10
23.2001
 20
66.3967
  0
VERTEX
  8
0
 10
23.3456
 20
66.3943
  0
VERTEX
  8
0
 10
23.491
 20
66.3922
  0
VERTEX
  8
0
 10
23.6366
 20
66.3907
  0
VERTEX
  8
0
 10
23.7824
 20
66.39
  0
VERTEX
  8
0
 10
23.9285
 20
66.3904
  0
VERTEX
  8
0
 10
24.0749
 20
66.3923
  0
VERTEX
  8
0
 10
24.2248
 20
66.3959
  0
VERTEX
  8
0
 10
24.3793
 20
66.3065
  0
VERTEX
  8
0
 10
24.5267
 20
66.2187
  0
VERTEX
  8
0
 10
24.6697
 20
66.1308
  0
VERTEX
  8
0
 10
24.8085
 20
66.0429
  0
VERTEX
  8
0
 10
24.9431
 20
65.9551
  0
VERTEX
  8
0
 10
25.0738
 20
65.8672
  0
VERTEX
  8
0
 10
25.2006
 20
65.7793
  0
VERTEX
  8
0
 10
25.3237
 20
65.6915
  0
VERTEX
  8
0
 10
25.4432
 20
65.6036
  0
VERTEX
  8
0
 10
25.5593
 20
65.5157
  0
VERTEX
  8
0
 10
25.672
 20
65.4278
  0
VERTEX
  8
0
 10
25.7816
 20
65.3399
  0
VERTEX
  8
0
 10
25.8881
 20
65.2521
  0
VERTEX
  8
0
 10
25.9917
 20
65.1642
  0
VERTEX
  8
0
 10
26.0924
 20
65.0763
  0
VERTEX
  8
0
 10
26.1906
 20
64.9884
  0
VERTEX
  8
0
 10
26.2862
 20
64.9005
  0
VERTEX
  8
0
 10
26.3794
 20
64.8127
  0
VERTEX
  8
0
 10
26.4704
 20
64.7248
  0
VERTEX
  8
0
 10
26.5592
 20
64.6369
  0
VERTEX
  8
0
 10
26.6461
 20
64.549
  0
VERTEX
  8
0
 10
26.731
 20
64.4612
  0
VERTEX
  8
0
 10
26.8143
 20
64.3733
  0
VERTEX
  8
0
 10
26.8959
 20
64.2854
  0
VERTEX
  8
0
 10
26.9761
 20
64.1976
  0
VERTEX
  8
0
 10
27.055
 20
64.1097
  0
VERTEX
  8
0
 10
27.1327
 20
64.0219
  0
VERTEX
  8
0
 10
27.2093
 20
63.9341
  0
VERTEX
  8
0
 10
27.2849
 20
63.8462
  0
VERTEX
  8
0
 10
27.3598
 20
63.7584
  0
VERTEX
  8
0
 10
27.434
 20
63.6706
  0
VERTEX
  8
0
 10
27.5
 20
63.5645
  0
VERTEX
  8
0
 10
27.488
 20
63.5635
  0
VERTEX
  8
0
 10
27.4527
 20
63.5633
  0
VERTEX
  8
0
 10
27.397
 20
63.5638
  0
VERTEX
  8
0
 10
27.3216
 20
63.5649
  0
VERTEX
  8
0
 10
27.2281
 20
63.5666
  0
VERTEX
  8
0
 10
27.1176
 20
63.5688
  0
VERTEX
  8
0
 10
26.9917
 20
63.5716
  0
VERTEX
  8
0
 10
26.8518
 20
63.5749
  0
VERTEX
  8
0
 10
26.6992
 20
63.5785
  0
VERTEX
  8
0
 10
26.5354
 20
63.5826
  0
VERTEX
  8
0
 10
26.3617
 20
63.587
  0
VERTEX
  8
0
 10
26.1795
 20
63.5917
  0
VERTEX
  8
0
 10
25.9904
 20
63.5967
  0
VERTEX
  8
0
 10
25.7956
 20
63.6019
  0
VERTEX
  8
0
 10
25.5965
 20
63.6073
  0
VERTEX
  8
0
 10
25.3947
 20
63.6128
  0
VERTEX
  8
0
 10
25.1914
 20
63.6184
  0
VERTEX
  8
0
 10
24.9881
 20
63.6241
  0
VERTEX
  8
0
 10
24.7862
 20
63.6298
  0
VERTEX
  8
0
 10
24.5871
 20
63.6355
  0
VERTEX
  8
0
 10
24.3922
 20
63.6411
  0
VERTEX
  8
0
 10
24.2029
 20
63.6466
  0
VERTEX
  8
0
 10
24.0206
 20
63.6519
  0
VERTEX
  8
0
 10
23.8467
 20
63.6571
  0
VERTEX
  8
0
 10
23.6826
 20
63.662
  0
VERTEX
  8
0
 10
23.5298
 20
63.6667
  0
VERTEX
  8
0
 10
23.3896
 20
63.671
  0
VERTEX
  8
0
 10
23.2634
 20
63.675
  0
VERTEX
  8
0
 10
23.1526
 20
63.6786
  0
VERTEX
  8
0
 10
23.0587
 20
63.6818
  0
VERTEX
  8
0
 10
22.983
 20
63.6845
  0
VERTEX
  8
0
 10
22.9269
 20
63.6867
  0
VERTEX
  8
0
 10
22.8918
 20
63.6883
  0
VERTEX
  8
0
 10
22.8723
 20
63.6921
  0
SEQEND
  0
POLYLINE
  8
0
 66
     1
 10
0
 20
0
  0
VERTEX
  8
0
 10
16.2587
 20
69.0499
  0
VERTEX
  8
0
 10
16.144
 20
69.0755
  0
VERTEX
  8
0
 10
16.0288
 20
69.1009
  0
VERTEX
  8
0
 10
15.9129
 20
69.126
  0
VERTEX
  8
0
 10
15.7965
 20
69.1509
  0
VERTEX
  8
0
 10
15.6795
 20
69.1755
  0
VERTEX
  8
0
 10
15.562
 20
69.1999
  0
VERTEX
  8
0
 10
15.4439
 20
69.224
  0
VERTEX
  8
0
 10
15.3253
 20
69.2479
  0
VERTEX
  8
0
 10
15.2062
 20
69.2716
  0
VERTEX
  8
0
 10
15.0865
 20
69.295
  0
VERTEX
  8
0
 10
14.9663
 20
69.3182
  0
VERTEX
  8
0
 10
14.8457
 20
69.3411
  0
VERTEX
  8
0
 10
14.7245
 20
69.3638
  0
VERTEX
  8
0
 10
14.6028
 20
69.3863
  0
VERTEX
  8
0
 10
14.4807
 20
69.4085
  0
VERTEX
  8
0
 10
14.3581
 20
69.4304
  0
VERTEX
  8
0
 10
14.235
 20
69.4522
  0
VERTEX
  8
0
 10
14.1115
 20
69.4736
  0
VERTEX
  8
0
 10
13.9876
 20
69.4949
  0
VERTEX
  8
0
 10
13.8632
 20
69.5159
  0
VERTEX
  8
0
 10
13.7384
 20
69.5366
  0
VERTEX
  8
0
 10
13.6132
 20
69.5572
  0
VERTEX
  8
0
 10
13.4875
 20
69.5774
  0
VERTEX
  8
0
 10
13.3615
 20
69.5975
  0
VERTEX
  8
0
 10
13.2351
 20
69.6173
  0
VERTEX
  8
0
 10
13.1083
 20
69.6368
  0
VERTEX
  8
0
 10
12.9811
 20
69.6561
  0
VERTEX
  8
0
 10
12.8536
 20
69.6752
  0
VERTEX
  8
0
 10
12.7257
 20
69.694
  0
VERTEX
  8
0
 10
12.5975
 20
69.7126
  0
VERTEX
  8
0
 10
12.4689
 20
69.731
  0
VERTEX
  8
0
 10
12.34
 20
69.7491
  0
VERTEX
  8
0
 10
12.2108
 20
69.767
  0
VERTEX
  8
0
 10
12.0813
 20
69.7846
  0
VERTEX
  8
0
 10
11.9514
 20
69.802
  0
VERTEX
  8
0
 10
11.8213
 20
69.8192
  0
VERTEX
  8
0
 10
11.6909
 20
69.8361
  0
VERTEX
  8
0
 10
11.5602
 20
69.8528
  0
VERTEX
  8
0
 10
11.4292
 20
69.8693
  0
VERTEX
  8
0
 10
11.298
 20
69.8855
  0
VERTEX
  8
0
 10
11.1666
 20
69.9014
  0
VERTEX
  8
0
 10
11.0349
 20
69.9172
  0
VERTEX
  8
0
 10
10.9029
 20
69.9327
  0
VERTEX
  8
0
 10
10.7707
 20
69.9479
  0
VERTEX
  8
0
 10
10.6384
 20
69.9629
  0
VERTEX
  8
0
 10
10.5058
 20
69.9777
  0
VERTEX
  8
0
 10
10.373
 20
69.9923
  0
VERTEX
  8
0
 10
10.24
 20
70.0066
  0
VERTEX
  8
0
 10
10.1069
 20
70.0207
  0
VERTEX
  8
0
 10
9.9735
 20
70.0345
  0
VERTEX
  8
0
 10
9.84
 20
70.0481
  0
VERTEX
  8
0
 10
9.7064
 20
70.0615
  0
VERTEX
  8
0
 10
9.5726
 20
70.0746
  0
VERTEX
  8
0
 10
9.4387
 20
70.0875
  0
VERTEX
  8
0
 10
9.3046
 20
70.1001
  0
VERTEX
  8
0
 10
9.1704
 20
70.1126
  0
VERTEX
  8
0
 10
9.0361
 20
70.1248
  0
VERTEX
  8
0
 10
8.9017
 20
70.1367
  0
VERTEX
  8
0
 10
8.7672
 20
70.1484
  0
VERTEX
  8
0
 10
8.6327
 20
70.1599
  0
VERTEX
  8
0
 10
8.498
 20
70.1711
  0
VERTEX
  8
0
 10
8.3633
 20
70.1822
  0
VERTEX
  8
0
 10
8.2285
 20
70.1929
  0
VERTEX
  8
0
 10
8.0937
 20
70.2035
  0
VERTEX
  8
0
 10
7.9588
 20
70.2138
  0
VERTEX
  8
0
 10
7.8239
 20
70.2239
  0
VERTEX
  8
0
 10
7.689
 20
70.2337
  0
VERTEX
  8
0
 10
7.554
 20
70.2433
  0
VERTEX
  8
0
 10
7.4191
 20
70.2527
  0
VERTEX
  8
0
 10
7.2841
 20
70.2618
  0
VERTEX
  8
0
 10
7.1492
 20
70.2707
  0
VERTEX
  8
0
 10
7.0143
 20
70.2794
  0
VERTEX
  8
0
 10
6.8794
 20
70.2878
  0
VERTEX
  8
0
 10
6.7445
 20
70.2961
  0
VERTEX
  8
0
 10
6.6097
 20
70.304
  0
VERTEX
  8
0
 10
6.4749
 20
70.3118
  0
VERTEX
  8
0
 10
6.3402
 20
70.3193
  0
VERTEX
  8
0
 10
6.2056
 20
70.3266
  0
VERTEX
  8
0
 10
6.071
 20
70.3336
  0
VERTEX
  8
0
 10
5.9366
 20
70.3404
  0
VERTEX
  8
0
 10
5.8022
 20
70.347
  0
VERTEX
  8
0
 10
5.668
 20
70.3534
  0
VERTEX
  8
0
 10
5.5338
 20
70.3595
  0
VERTEX
  8
0
 10
5.3998
 20
70.3654
  0
VERTEX
  8
0
 10
5.2659
 20
70.371
  0
VERTEX
  8
0
 10
5.1321
 20
70.3764
  0
VERTEX
  8
0
 10
4.9985
 20
70.3816
  0
VERTEX
  8
0
 10
4.8651
 20
70.3866
  0
VERTEX
  8
0
 10
4.7318
 20
70.3913
  0
VERTEX
  8
0
 10
4.5987
 20
70.3958
  0
VERTEX
  8
0
 10
4.4658
 20
70.4001
  0
VERTEX
  8
0
 10
4.3331
 20
70.4042
  0
VERTEX
  8
0
 10
4.2006
 20
70.408
  0
VERTEX
  8
0
 10
4.0682
 20
70.4116
  0
VERTEX
  8
0
 10
3.9361
 20
70.4149
  0
VERTEX
  8
0
 10
3.8043
 20
70.418
  0
VERTEX
  8
0
 10
3.6726
 20
70.4209
  0
VERTEX
  8
0
 10
3.5413
 20
70.4236
  0
VERTEX
  8
0
 10
3.4101
 20
70.426
  0
VERTEX
  8
0
 10
3.2793
 20
70.4282
  0
VERTEX
  8
0
 10
3.1486
 20
70.4302
  0
VERTEX
  8
0
 10
3.0183
 20
70.432
  0
VERTEX
  8
0
 10
2.8883
 20
70.4335
  0
VERTEX
  8
0
 10
2.7586
 20
70.4348
  0
VERTEX
  8
0
 10
2.6291
 20
70.4359
  0
VERTEX
  8
0
 10
2.5
 20
70.4367
  0
VERTEX
  8
0
 10
2.6287
 20
70.4246
  0
VERTEX
  8
0
 10
2.7574
 20
70.4122
  0
VERTEX
  8
0
 10
2.8862
 20
70.3997
  0
VERTEX
  8
0
 10
3.015
 20
70.387
  0
VERTEX
  8
0
 10
3.144
 20
70.3741
  0
VERTEX
  8
0
 10
3.2729
 20
70.361
  0
VERTEX
  8
0
 10
3.402
 20
70.3477
  0
VERTEX
  8
0
 10
3.5311
 20
70.3343
  0
VERTEX
  8
0
 10
3.6603
 20
70.3206
  0
VERTEX
  8
0
 10
3.7895
 20
70.3067
  0
VERTEX
  8
0
 10
3.9188
 20
70.2926
  0
VERTEX
  8
0
 10
4.0481
 20
70.2783
  0
VERTEX
  8
0
 10
4.1775
 20
70.2638
  0
VERTEX
  8
0
 10
4.3069
 20
70.249
  0
VERTEX
  8
0
 10
4.4364
 20
70.234
  0
VERTEX
  8
0
 10
4.5659
 20
70.2189
  0
VERTEX
  8
0
 10
4.6955
 20
70.2034
  0
VERTEX
  8
0
 10
4.8251
 20
70.1878
  0
VERTEX
  8
0
 10
4.9547
 20
70.1719
  0
VERTEX
  8
0
 10
5.0844
 20
70.1558
  0
VERTEX
  8
0
 10
5.2142
 20
70.1394
  0
VERTEX
  8
0
 10
5.3439
 20
70.1229
  0
VERTEX
  8
0
 10
5.4737
 20
70.106
  0
VERTEX
  8
0
 10
5.6036
 20
70.0889
  0
VERTEX
  8
0
 10
5.7334
 20
70.0716
  0
VERTEX
  8
0
 10
5.8633
 20
70.054
  0
VERTEX
  8
0
 10
5.9933
 20
70.0361
  0
VERTEX
  8
0
 10
6.1232
 20
70.018
  0
VERTEX
  8
0
 10
6.2532
 20
69.9996
  0
VERTEX
  8
0
 10
6.3832
 20
69.981
  0
VERTEX
  8
0
 10
6.5132
 20
69.962
  0
VERTEX
  8
0
 10
6.6433
 20
69.9429
  0
VERTEX
  8
0
 10
6.7733
 20
69.9234
  0
VERTEX
  8
0
 10
6.9034
 20
69.9036
  0
VERTEX
  8
0
 10
7.0335
 20
69.8836
  0
VERTEX
  8
0
 10
7.1636
 20
69.8633
  0
VERTEX
  8
0
 10
7.2937
 20
69.8427
  0
VERTEX
  8
0
 10
7.4239
 20
69.8218
  0
VERTEX
  8
0
 10
7.554
 20
69.8006
  0
VERTEX
  8
0
 10
7.6841
 20
69.7791
  0
VERTEX
  8
0
 10
7.8143
 20
69.7573
  0
VERTEX
  8
0
 10
7.9444
 20
69.7352
  0
VERTEX
  8
0
 10
8.0746
 20
69.7128
  0
VERTEX
  8
0
 10
8.2047
 20
69.6901
  0
VERTEX
  8
0
 10
8.3349
 20
69.6671
  0
VERTEX
  8
0
 10
8.465
 20
69.6437
  0
VERTEX
  8
0
 10
8.5952
 20
69.6201
  0
VERTEX
  8
0
 10
8.7253
 20
69.5961
  0
VERTEX
  8
0
 10
8.8554
 20
69.5718
  0
VERTEX
  8
0
 10
8.9856
 20
69.5472
  0
VERTEX
  8
0
 10
9.1157
 20
69.5222
  0
VERTEX
  8
0
 10
9.2458
 20
69.4969
  0
VERTEX
  8
0
 10
9.3758
 20
69.4712
  0
VERTEX
  8
0
 10
9.5059
 20
69.4453
  0
VERTEX
  8
0
 10
9.6359
 20
69.4189
  0
VERTEX
  8
0
 10
9.766
 20
69.3923
  0
VERTEX
  8
0
 10
9.896
 20
69.3652
  0
VERTEX
  8
0
 10
10.0259
 20
69.3379
  0
VERTEX
  8
0
 10
10.1559
 20
69.3101
  0
VERTEX
  8
0
 10
10.2858
 20
69.282
  0
VERTEX
  8
0
 10
10.4157
 20
69.2536
  0
VERTEX
  8
0
 10
10.5456
 20
69.2248
  0
VERTEX
  8
0
 10
10.6754
 20
69.1956
  0
VERTEX
  8
0
 10
10.8052
 20
69.166
  0
VERTEX
  8
0
 10
10.935
 20
69.1361
  0
VERTEX
  8
0
 10
11.0647
 20
69.1058
  0
VERTEX
  8
0
 10
11.1944
 20
69.0751
  0
VERTEX
  8
0
 10
11.3241
 20
69.044
  0
VERTEX
  8
0
 10
11.4537
 20
69.0125
  0
VERTEX
  8
0
 10
11.5833
 20
68.9807
  0
VERTEX
  8
0
 10
11.7128
 20
68.9484
  0
VERTEX
  8
0
 10
11.8423
 20
68.9158
  0
VERTEX
  8
0
 10
11.9717
 20
68.8828
  0
VERTEX
  8
0
 10
12.1011
 20
68.8493
  0
VERTEX
  8
0
 10
12.2304
 20
68.8155
  0
VERTEX
  8
0
 10
12.3597
 20
68.7812
  0
VERTEX
  8
0
 10
12.4889
 20
68.7465
  0
VERTEX
  8
0
 10
12.6181
 20
68.7114
  0
VERTEX
  8
0
 10
12.7472
 20
68.6759
  0
VERTEX
  8
0
 10
12.8762
 20
68.64
  0
VERTEX
  8
0
 10
13.0052
 20
68.6037
  0
VERTEX
  8
0
 10
13.1341
 20
68.5669
  0
VERTEX
  8
0
 10
13.263
 20
68.5297
  0
VERTEX
  8
0
 10
13.3918
 20
68.4921
  0
VERTEX
  8
0
 10
13.5205
 20
68.454
  0
VERTEX
  8
0
 10
13.6491
 20
68.4155
  0
VERTEX
  8
0
 10
13.7776
 20
68.441
  0
VERTEX
  8
0
 10
13.9091
 20
68.4692
  0
VERTEX
  8
0
 10
14.0432
 20
68.4996
  0
VERTEX
  8
0
 10
14.1795
 20
68.5321
  0
VERTEX
  8
0
 10
14.3177
 20
68.5663
  0
VERTEX
  8
0
 10
14.4574
 20
68.6018
  0
VERTEX
  8
0
 10
14.5984
 20
68.6384
  0
VERTEX
  8
0
 10
14.7403
 20
68.6758
  0
VERTEX
  8
0
 10
14.8827
 20
68.7137
  0
VERTEX
  8
0
 10
15.0252
 20
68.7517
  0
VERTEX
  8
0
 10
15.1676
 20
68.7896
  0
VERTEX
  8
0
 10
15.3094
 20
68.827
  0
VERTEX
  8
0
 10
15.4504
 20
68.8636
  0
VERTEX
  8
0
 10
15.5902
 20
68.8991
  0
VERTEX
  8
0
 10
15.7284
 20
68.9333
  0
VERTEX
  8
0
 10
15.8647
 20
68.9658
  0
VERTEX
  8
0
 10
15.9987
 20
68.9962
  0
VERTEX
  8
0
 10
16.1302
 20
69.0244
  0
VERTEX
  8
0
 10
16.2587
 20
69.0499
  0
SEQEND
  0
POLYLINE
  8
0
 66
     1
 10
0
 20
0
  0
VERTEX
  8
0
 10
13.0793
 20
68.3022
  0
VERTEX
  8
0
 10
12.9512
 20
68.3373
  0
VERTEX
  8
0
 10
12.8231
 20
68.3722
  0
VERTEX
  8
0
 10
12.6949
 20
68.407
  0
VERTEX
  8
0
 10
12.5668
 20
68.4416
  0
VERTEX
  8
0
 10
12.4385
 20
68.476
  0
VERTEX
  8
0
 10
12.3103
 20
68.5102
  0
VERTEX
  8
0
 10
12.182
 20
68.5443
  0
VERTEX
  8
0
 10
12.0536
 20
68.5781
  0
VERTEX
  8
0
 10
11.9252
 20
68.6118
  0
VERTEX
  8
0
 10
11.7968
 20
68.6453
  0
VERTEX
  8
0
 10
11.6683
 20
68.6785
  0
VERTEX
  8
0
 10
11.5398
 20
68.7116
  0
VERTEX
  8
0
 10
11.4112
 20
68.7444
  0
VERTEX
  8
0
 10
11.2826
 20
68.7771
  0
VERTEX
  8
0
 10
11.1539
 20
68.8095
  0
VERTEX
  8
0
 10
11.0252
 20
68.8417
  0
VERTEX
  8
0
 10
10.8965
 20
68.8737
  0
VERTEX
  8
0
 10
10.7677
 20
68.9055
  0
VERTEX
  8
0
 10
10.6388
 20
68.937
  0
VERTEX
  8
0
 10
10.5099
 20
68.9683
  0
VERTEX
  8
0
 10
10.3809
 20
68.9994
  0
VERTEX
  8
0
 10
10.2519
 20
69.0302
  0
VERTEX
  8
0
 10
10.1228
 20
69.0608
  0
VERTEX
  8
0
 10
9.9937
 20
69.0911
  0
VERTEX
  8
0
 10
9.8645
 20
69.1212
  0
VERTEX
  8
0
 10
9.7352
 20
69.151
  0
VERTEX
  8
0
 10
9.6059
 20
69.1806
  0
VERTEX
  8
0
 10
9.4766
 20
69.2099
  0
VERTEX
  8
0
 10
9.3472
 20
69.2389
  0
VERTEX
  8
0
 10
9.2177
 20
69.2677
  0
VERTEX
  8
0
 10
9.0882
 20
69.2962
  0
VERTEX
  8
0
 10
8.9585
 20
69.3244
  0
VERTEX
  8
0
 10
8.8289
 20
69.3523
  0
VERTEX
  8
0
 10
8.6992
 20
69.3799
  0
VERTEX
  8
0
 10
8.5694
 20
69.4073
  0
VERTEX
  8
0
 10
8.4395
 20
69.4343
  0
VERTEX
  8
0
 10
8.3096
 20
69.4611
  0
VERTEX
  8
0
 10
8.1796
 20
69.4876
  0
VERTEX
  8
0
 10
8.0495
 20
69.5137
  0
VERTEX
  8
0
 10
7.9194
 20
69.5396
  0
VERTEX
  8
0
 10
7.7892
 20
69.5651
  0
VERTEX
  8
0
 10
7.6589
 20
69.5903
  0
VERTEX
  8
0
 10
7.5286
 20
69.6152
  0
VERTEX
  8
0
 10
7.3982
 20
69.6398
  0
VERTEX
  8
0
 10
7.2677
 20
69.664
  0
VERTEX
  8
0
 10
7.1371
 20
69.6879
  0
VERTEX
  8
0
 10
7.0065
 20
69.7115
  0
VERTEX
  8
0
 10
6.8758
 20
69.7348
  0
VERTEX
  8
0
 10
6.745
 20
69.7577
  0
VERTEX
  8
0
 10
6.6142
 20
69.7802
  0
VERTEX
  8
0
 10
6.4832
 20
69.8024
  0
VERTEX
  8
0
 10
6.3522
 20
69.8243
  0
VERTEX
  8
0
 10
6.2211
 20
69.8458
  0
VERTEX
  8
0
 10
6.0899
 20
69.8669
  0
VERTEX
  8
0
 10
5.9587
 20
69.8877
  0
VERTEX
  8
0
 10
5.8273
 20
69.9081
  0
VERTEX
  8
0
 10
5.6959
 20
69.9281
  0
VERTEX
  8
0
 10
5.5644
 20
69.9477
  0
VERTEX
  8
0
 10
5.4328
 20
69.967
  0
VERTEX
  8
0
 10
5.3011
 20
69.9859
  0
VERTEX
  8
0
 10
5.1694
 20
70.0044
  0
VERTEX
  8
0
 10
5.0375
 20
70.0225
  0
VERTEX
  8
0
 10
4.9056
 20
70.0402
  0
VERTEX
  8
0
 10
4.7736
 20
70.0575
  0
VERTEX
  8
0
 10
4.6415
 20
70.0744
  0
VERTEX
  8
0
 10
4.5093
 20
70.0909
  0
VERTEX
  8
0
 10
4.377
 20
70.107
  0
VERTEX
  8
0
 10
4.2446
 20
70.1227
  0
VERTEX
  8
0
 10
4.1121
 20
70.138
  0
VERTEX
  8
0
 10
3.9795
 20
70.1528
  0
VERTEX
  8
0
 10
3.8468
 20
70.1672
  0
VERTEX
  8
0
 10
3.7141
 20
70.1812
  0
VERTEX
  8
0
 10
3.5812
 20
70.1948
  0
VERTEX
  8
0
 10
3.4483
 20
70.2079
  0
VERTEX
  8
0
 10
3.3152
 20
70.2206
  0
VERTEX
  8
0
 10
3.182
 20
70.2328
  0
VERTEX
  8
0
 10
3.314
 20
70.2101
  0
VERTEX
  8
0
 10
3.4458
 20
70.1871
  0
VERTEX
  8
0
 10
3.5774
 20
70.1637
  0
VERTEX
  8
0
 10
3.709
 20
70.1401
  0
VERTEX
  8
0
 10
3.8404
 20
70.1161
  0
VERTEX
  8
0
 10
3.9716
 20
70.0918
  0
VERTEX
  8
0
 10
4.1027
 20
70.0672
  0
VERTEX
  8
0
 10
4.2337
 20
70.0423
  0
VERTEX
  8
0
 10
4.3645
 20
70.017
  0
VERTEX
  8
0
 10
4.4952
 20
69.9913
  0
VERTEX
  8
0
 10
4.6258
 20
69.9654
  0
VERTEX
  8
0
 10
4.7561
 20
69.9391
  0
VERTEX
  8
0
 10
4.8864
 20
69.9124
  0
VERTEX
  8
0
 10
5.0165
 20
69.8854
  0
VERTEX
  8
0
 10
5.1464
 20
69.858
  0
VERTEX
  8
0
 10
5.2762
 20
69.8302
  0
VERTEX
  8
0
 10
5.4058
 20
69.8021
  0
VERTEX
  8
0
 10
5.5352
 20
69.7736
  0
VERTEX
  8
0
 10
5.6645
 20
69.7447
  0
VERTEX
  8
0
 10
5.7936
 20
69.7155
  0
VERTEX
  8
0
 10
5.9226
 20
69.6858
  0
VERTEX
  8
0
 10
6.0514
 20
69.6558
  0
VERTEX
  8
0
 10
6.18
 20
69.6254
  0
VERTEX
  8
0
 10
6.3085
 20
69.5945
  0
VERTEX
  8
0
 10
6.4368
 20
69.5633
  0
VERTEX
  8
0
 10
6.5649
 20
69.5317
  0
VERTEX
  8
0
 10
6.6928
 20
69.4996
  0
VERTEX
  8
0
 10
6.8206
 20
69.4672
  0
VERTEX
  8
0
 10
6.9481
 20
69.4343
  0
VERTEX
  8
0
 10
7.0755
 20
69.401
  0
VERTEX
  8
0
 10
7.2027
 20
69.3673
  0
VERTEX
  8
0
 10
7.3297
 20
69.3331
  0
VERTEX
  8
0
 10
7.4566
 20
69.2985
  0
VERTEX
  8
0
 10
7.5832
 20
69.2635
  0
VERTEX
  8
0
 10
7.7097
 20
69.228
  0
VERTEX
  8
0
 10
7.836
 20
69.1921
  0
VERTEX
  8
0
 10
7.962
 20
69.1557
  0
VERTEX
  8
0
 10
8.0879
 20
69.1188
  0
VERTEX
  8
0
 10
8.2136
 20
69.0815
  0
VERTEX
  8
0
 10
8.3391
 20
69.0438
  0
VERTEX
  8
0
 10
8.4643
 20
69.0055
  0
VERTEX
  8
0
 10
8.5894
 20
68.9668
  0
VERTEX
  8
0
 10
8.7143
 20
68.9277
  0
VERTEX
  8
0
 10
8.839
 20
68.888
  0
VERTEX
  8
0
 10
8.9634
 20
68.8478
  0
VERTEX
  8
0
 10
9.0877
 20
68.8072
  0
VERTEX
  8
0
 10
9.2117
 20
68.7661
  0
VERTEX
  8
0
 10
9.3355
 20
68.7244
  0
VERTEX
  8
0
 10
9.4591
 20
68.6823
  0
VERTEX
  8
0
 10
9.5825
 20
68.6397
  0
VERTEX
  8
0
 10
9.7057
 20
68.5965
  0
VERTEX
  8
0
 10
9.8286
 20
68.5529
  0
VERTEX
  8
0
 10
9.9514
 20
68.5087
  0
VERTEX
  8
0
 10
10.0739
 20
68.464
  0
VERTEX
  8
0
 10
10.1961
 20
68.4187
  0
VERTEX
  8
0
 10
10.3182
 20
68.373
  0
VERTEX
  8
0
 10
10.44
 20
68.3267
  0
VERTEX
  8
0
 10
10.5777
 20
68.2683
  0
VERTEX
  8
0
 10
10.7145
 20
68.2182
  0
VERTEX
  8
0
 10
10.8506
 20
68.176
  0
VERTEX
  8
0
 10
10.9859
 20
68.1412
  0
VERTEX
  8
0
 10
11.1205
 20
68.1135
  0
VERTEX
  8
0
 10
11.2545
 20
68.0926
  0
VERTEX
  8
0
 10
11.3878
 20
68.0781
  0
VERTEX
  8
0
 10
11.5205
 20
68.0696
  0
VERTEX
  8
0
 10
11.6526
 20
68.0667
  0
VERTEX
  8
0
 10
11.7842
 20
68.0691
  0
VERTEX
  8
0
 10
11.9153
 20
68.0764
  0
VERTEX
  8
0
 10
12.046
 20
68.0882
  0
VERTEX
  8
0
 10
12.1762
 20
68.1043
  0
VERTEX
  8
0
 10
12.306
 20
68.1241
  0
VERTEX
  8
0
 10
12.4356
 20
68.1473
  0
VERTEX
  8
0
 10
12.5648
 20
68.1737
  0
VERTEX
  8
0
 10
12.6937
 20
68.2027
  0
VERTEX
  8
0
 10
12.8224
 20
68.234
  0
VERTEX
  8
0
 10
12.9509
 20
68.2673
  0
VERTEX
  8
0
 10
13.0793
 20
68.3022
  0
SEQEND
  0
POLYLINE
  8
0
 66
     1
 10
0
 20
0
  0
VERTEX
  8
0
 10
11.5807
 20
67.9548
  0
VERTEX
  8
0
 10
11.7013
 20
67.912
  0
VERTEX
  8
0
 10
11.8315
 20
67.8633
  0
VERTEX
  8
0
 10
11.9689
 20
67.8093
  0
VERTEX
  8
0
 10
12.1113
 20
67.7509
  0
VERTEX
  8
0
 10
12.2565
 20
67.6888
  0
VERTEX
  8
0
 10
12.4024
 20
67.6237
  0
VERTEX
  8
0
 10
12.5468
 20
67.5563
  0
VERTEX
  8
0
 10
12.6874
 20
67.4873
  0
VERTEX
  8
0
 10
12.8221
 20
67.4175
  0
VERTEX
  8
0
 10
12.9488
 20
67.3476
  0
VERTEX
  8
0
 10
13.0651
 20
67.2783
  0
VERTEX
  8
0
 10
13.169
 20
67.2102
  0
VERTEX
  8
0
 10
13.2544
 20
67.146
  0
VERTEX
  8
0
 10
13.4667
 20
67.0922
  0
VERTEX
  8
0
 10
13.5975
 20
67.0672
  0
VERTEX
  8
0
 10
13.6864
 20
67.0905
  0
VERTEX
  8
0
 10
13.7267
 20
67.1388
  0
VERTEX
  8
0
 10
13.767
 20
67.1872
  0
VERTEX
  8
0
 10
13.8072
 20
67.2355
  0
VERTEX
  8
0
 10
13.8704
 20
67.3544
  0
VERTEX
  8
0
 10
13.9348
 20
67.4752
  0
VERTEX
  8
0
 10
13.9992
 20
67.596
  0
VERTEX
  8
0
 10
14.0972
 20
67.7107
  0
VERTEX
  8
0
 10
14.1939
 20
67.8235
  0
VERTEX
  8
0
 10
14.2811
 20
67.9253
  0
VERTEX
  8
0
 10
14.1349
 20
67.9973
  0
VERTEX
  8
0
 10
13.9591
 20
68.0594
  0
VERTEX
  8
0
 10
13.7759
 20
68.1086
  0
VERTEX
  8
0
 10
13.5985
 20
68.147
  0
VERTEX
  8
0
 10
13.47
 20
68.1162
  0
VERTEX
  8
0
 10
13.3356
 20
68.0873
  0
VERTEX
  8
0
 10
13.1982
 20
68.0609
  0
VERTEX
  8
0
 10
13.0582
 20
68.0369
  0
VERTEX
  8
0
 10
12.9158
 20
68.0154
  0
VERTEX
  8
0
 10
12.7714
 20
67.9964
  0
VERTEX
  8
0
 10
12.6252
 20
67.9798
  0
VERTEX
  8
0
 10
12.4775
 20
67.9658
  0
VERTEX
  8
0
 10
12.3286
 20
67.9541
  0
VERTEX
  8
0
 10
12.1789
 20
67.945
  0
VERTEX
  8
0
 10
12.0285
 20
67.9383
  0
VERTEX
  8
0
 10
11.8779
 20
67.9341
  0
VERTEX
  8
0
 10
11.7273
 20
67.9324
  0
VERTEX
  8
0
 10
11.5807
 20
67.9548
  0
SEQEND
  0
POLYLINE
  8
0
 66
     1
 10
0
 20
0
  0
VERTEX
  8
0
 10
11.5732
 20
67.9337
  0
VERTEX
  8
0
 10
11.727
 20
67.9547
  0
VERTEX
  8
0
 10
11.8773
 20
67.9564
  0
VERTEX
  8
0
 10
12.0275
 20
67.9606
  0
VERTEX
  8
0
 10
12.1775
 20
67.9673
  0
VERTEX
  8
0
 10
12.3269
 20
67.9764
  0
VERTEX
  8
0
 10
12.4754
 20
67.988
  0
VERTEX
  8
0
 10
12.6226
 20
68.002
  0
VERTEX
  8
0
 10
12.7685
 20
68.0185
  0
VERTEX
  8
0
 10
12.9125
 20
68.0375
  0
VERTEX
  8
0
 10
13.0544
 20
68.0589
  0
VERTEX
  8
0
 10
13.194
 20
68.0828
  0
VERTEX
  8
0
 10
13.3309
 20
68.1091
  0
VERTEX
  8
0
 10
13.4648
 20
68.138
  0
VERTEX
  8
0
 10
13.5983
 20
68.1699
  0
VERTEX
  8
0
 10
13.7817
 20
68.1302
  0
VERTEX
  8
0
 10
13.9666
 20
68.0804
  0
VERTEX
  8
0
 10
14.1448
 20
68.0173
  0
VERTEX
  8
0
 10
14.3168
 20
67.9326
  0
VERTEX
  8
0
 10
14.2108
 20
67.8089
  0
VERTEX
  8
0
 10
14.1142
 20
67.6962
  0
VERTEX
  8
0
 10
14.0189
 20
67.5854
  0
VERTEX
  8
0
 10
13.9545
 20
67.4647
  0
VERTEX
  8
0
 10
13.8901
 20
67.3439
  0
VERTEX
  8
0
 10
13.8244
 20
67.2212
  0
VERTEX
  8
0
 10
13.7841
 20
67.1729
  0
VERTEX
  8
0
 10
13.7439
 20
67.1245
  0
VERTEX
  8
0
 10
13.7036
 20
67.0762
  0
VERTEX
  8
0
 10
13.6036
 20
67.0457
  0
VERTEX
  8
0
 10
13.4612
 20
67.0706
  0
VERTEX
  8
0
 10
13.2489
 20
67.1244
  0
VERTEX
  8
0
 10
13.1567
 20
67.1915
  0
VERTEX
  8
0
 10
13.0537
 20
67.2591
  0
VERTEX
  8
0
 10
12.938
 20
67.328
  0
VERTEX
  8
0
 10
12.8119
 20
67.3977
  0
VERTEX
  8
0
 10
12.6776
 20
67.4673
  0
VERTEX
  8
0
 10
12.5373
 20
67.536
  0
VERTEX
  8
0
 10
12.3933
 20
67.6033
  0
VERTEX
  8
0
 10
12.2477
 20
67.6683
  0
VERTEX
  8
0
 10
12.1028
 20
67.7303
  0
VERTEX
  8
0
 10
11.9607
 20
67.7885
  0
VERTEX
  8
0
 10
11.8236
 20
67.8423
  0
VERTEX
  8
0
 10
11.6938
 20
67.891
  0
VERTEX
  8
0
 10
11.5732
 20
67.9337
  0
SEQEND
  0
ENDSEC
  0
EOF