  0
SECTION
  2
HEADER
  9
$ACADVER
  1
AC1009
  0
ENDSEC
  0
SECTION
  2
TABLES
  0
TABLE
  2
STYLE
 70
   1
  0
STYLE
  2
STANDARD
 70
    64
 40
0.0
 41
1.0
 50
0.0
 71
     0
 42
1.0
  3
txt
  4

  0
ENDTAB
  0
ENDSEC
  0
SECTION
  2
ENTITIES
  0
ARC
  8
0
 10
31.5
 20
31.5
 40
1.5
 50
180
 51
270
  0
ARC
  8
0
 10
52.5
 20
31.5
 40
1.5
 50
270
 51
360
  0
ARC
  8
0
 10
52.5
 20
52.5
 40
1.5
 50
0
 51
90
  0
ARC
  8
0
 10
31.5
 20
52.5
 40
1.5
 50
90
 51
180
  0
POLYLINE
  8
0
 66
     1
 10
0
 20
0
  0
VERTEX
  8
0
 10
31.5
 20
30
  0
VERTEX
  8
0
 10
52.5
 20
30
  0
SEQEND
  0
POLYLINE
  8
0
 66
     1
 10
0
 20
0
  0
VERTEX
  8
0
 10
54
 20
31.5
  0
VERTEX
  8
0
 10
54
 20
52.5
  0
SEQEND
  0
POLYLINE
  8
0
 66
     1
 10
0
 20
0
  0
VERTEX
  8
0
 10
52.5
 20
54
  0
VERTEX
  8
0
 10
31.5
 20
54
  0
SEQEND
  0
POLYLINE
  8
0
 66
     1
 10
0
 20
0
  0
VERTEX
  8
0
 10
30
 20
52.5
  0
VERTEX
  8
0
 10
30
 20
31.5
  0
SEQEND
  0
ARC
  8
0
 10
31.5
 20
31.5
 40
1.5
 50
180
 51
270
  0
ARC
  8
0
 10
31.5
 20
31.5
 40
0.75
 50
180
 51
270
  0
ARC
  8
0
 10
52.5
 20
31.5
 40
1.5
 50
270
 51
360
  0
ARC
  8
0
 10
52.5
 20
31.5
 40
0.75
 50
270
 51
360
  0
ARC
  8
0
 10
52.5
 20
52.5
 40
1.5
 50
0
 51
90
  0
ARC
  8
0
 10
52.5
 20
52.5
 40
0.75
 50
0
 51
90
  0
ARC
  8
0
 10
31.5
 20
52.5
 40
1.5
 50
90
 51
180
  0
ARC
  8
0
 10
31.5
 20
52.5
 40
0.75
 50
90
 51
180
  0
POLYLINE
  8
0
 66
     1
 10
0
 20
0
  0
VERTEX
  8
0
 10
31.5
 20
30.75
  0
VERTEX
  8
0
 10
52.5
 20
30.75
  0
SEQEND
  0
POLYLINE
  8
0
 66
     1
 10
0
 20
0
  0
VERTEX
  8
0
 10
52.5
 20
30
  0
VERTEX
  8
0
 10
31.5
 20
30
  0
SEQEND
  0
POLYLINE
  8
0
 66
     1
 10
0
 20
0
  0
VERTEX
  8
0
 10
53.25
 20
31.5
  0
VERTEX
  8
0
 10
53.25
 20
52.5
  0
SEQEND
  0
POLYLINE
  8
0
 66
     1
 10
0
 20
0
  0
VERTEX
  8
0
 10
54
 20
52.5
  0
VERTEX
  8
0
 10
54
 20
31.5
  0
SEQEND
  0
POLYLINE
  8
0
 66
     1
 10
0
 20
0
  0
VERTEX
  8
0
 10
52.5
 20
53.25
  0
VERTEX
  8
0
 10
31.5
 20
53.25
  0
SEQEND
  0
POLYLINE
  8
0
 66
     1
 10
0
 20
0
  0
VERTEX
  8
0
 10
31.5
 20
54
  0
VERTEX
  8
0
 10
52.5
 20
54
  0
SEQEND
  0
POLYLINE
  8
0
 66
     1
 10
0
 20
0
  0
VERTEX
  8
0
 10
30.75
 20
52.5
  0
VERTEX
  8
0
 10
30.75
 20
31.5
  0
SEQEND
  0
POLYLINE
  8
0
 66
     1
 10
0
 20
0
  0
VERTEX
  8
0
 10
30
 20
31.5
  0
VERTEX
  8
0
 10
30
 20
52.5
  0
SEQEND
  0
POLYLINE
  8
0
 66
     1
 10
0
 20
0
  0
VERTEX
  8
0
 10
55.7783
 20
48.5453
  0
VERTEX
  8
0
 10
55.6303
 20
48.5453
  0
VERTEX
  8
0
 10
55.6303
 20
49.3465
  0
VERTEX
  8
0
 10
55.7488
 20
49.3465
  0
VERTEX
  8
0
 10
55.817
 20
49.2875
  0
VERTEX
  8
0
 10
55.8955
 20
49.2287
  0
VERTEX
  8
0
 10
55.9844
 20
49.1701
  0
VERTEX
  8
0
 10
56.0837
 20
49.1118
  0
VERTEX
  8
0
 10
56.2914
 20
49.0109
  0
VERTEX
  8
0
 10
56.5135
 20
48.9328
  0
VERTEX
  8
0
 10
56.6769
 20
48.8954
  0
VERTEX
  8
0
 10
56.8543
 20
48.8745
  0
VERTEX
  8
0
 10
56.8543
 20
48.7183
  0
VERTEX
  8
0
 10
56.734
 20
48.7272
  0
VERTEX
  8
0
 10
56.6051
 20
48.7495
  0
VERTEX
  8
0
 10
56.4675
 20
48.785
  0
VERTEX
  8
0
 10
56.2783
 20
48.8507
  0
VERTEX
  8
0
 10
56.1027
 20
48.9328
  0
VERTEX
  8
0
 10
55.9807
 20
49.0028
  0
VERTEX
  8
0
 10
55.8726
 20
49.0757
  0
VERTEX
  8
0
 10
55.7783
 20
49.1515
  0
VERTEX
  8
0
 10
55.7783
 20
48.5453
  0
SEQEND
  0
POLYLINE
  8
0
 66
     1
 10
0
 20
0
  0
VERTEX
  8
0
 10
56.8543
 20
49.5813
  0
VERTEX
  8
0
 10
56.6783
 20
49.5813
  0
VERTEX
  8
0
 10
56.6783
 20
49.7533
  0
VERTEX
  8
0
 10
56.8543
 20
49.7533
  0
VERTEX
  8
0
 10
56.8543
 20
49.5813
  0
SEQEND
  0
POLYLINE
  8
0
 66
     1
 10
0
 20
0
  0
VERTEX
  8
0
 10
55.7783
 20
49.9933
  0
VERTEX
  8
0
 10
55.6303
 20
49.9933
  0
VERTEX
  8
0
 10
55.6303
 20
50.7945
  0
VERTEX
  8
0
 10
55.7488
 20
50.7945
  0
VERTEX
  8
0
 10
55.817
 20
50.7355
  0
VERTEX
  8
0
 10
55.8955
 20
50.6767
  0
VERTEX
  8
0
 10
55.9844
 20
50.6181
  0
VERTEX
  8
0
 10
56.0837
 20
50.5598
  0
VERTEX
  8
0
 10
56.2914
 20
50.4589
  0
VERTEX
  8
0
 10
56.5135
 20
50.3808
  0
VERTEX
  8
0
 10
56.6769
 20
50.3434
  0
VERTEX
  8
0
 10
56.8543
 20
50.3225
  0
VERTEX
  8
0
 10
56.8543
 20
50.1663
  0
VERTEX
  8
0
 10
56.734
 20
50.1752
  0
VERTEX
  8
0
 10
56.6051
 20
50.1975
  0
VERTEX
  8
0
 10
56.4675
 20
50.233
  0
VERTEX
  8
0
 10
56.2783
 20
50.2987
  0
VERTEX
  8
0
 10
56.1027
 20
50.3808
  0
VERTEX
  8
0
 10
55.9807
 20
50.4508
  0
VERTEX
  8
0
 10
55.8726
 20
50.5237
  0
VERTEX
  8
0
 10
55.7783
 20
50.5995
  0
VERTEX
  8
0
 10
55.7783
 20
49.9933
  0
SEQEND
  0
POLYLINE
  8
0
 66
     1
 10
0
 20
0
  0
VERTEX
  8
0
 10
56.7063
 20
51.7413
  0
VERTEX
  8
0
 10
56.8543
 20
51.7413
  0
VERTEX
  8
0
 10
56.8543
 20
50.9253
  0
VERTEX
  8
0
 10
56.8107
 20
50.9276
  0
VERTEX
  8
0
 10
56.7664
 20
50.9368
  0
VERTEX
  8
0
 10
56.7214
 20
50.9529
  0
VERTEX
  8
0
 10
56.6757
 20
50.9759
  0
VERTEX
  8
0
 10
56.6294
 20
51.0058
  0
VERTEX
  8
0
 10
56.5825
 20
51.0426
  0
VERTEX
  8
0
 10
56.5245
 20
51.0958
  0
VERTEX
  8
0
 10
56.4616
 20
51.1622
  0
VERTEX
  8
0
 10
56.3938
 20
51.2418
  0
VERTEX
  8
0
 10
56.3463
 20
51.2987
  0
VERTEX
  8
0
 10
56.3031
 20
51.3488
  0
VERTEX
  8
0
 10
56.264
 20
51.3921
  0
VERTEX
  8
0
 10
56.2291
 20
51.4284
  0
VERTEX
  8
0
 10
56.1985
 20
51.4578
  0
VERTEX
  8
0
 10
56.1528
 20
51.4968
  0
VERTEX
  8
0
 10
56.1085
 20
51.5286
  0
VERTEX
  8
0
 10
56.0657
 20
51.5534
  0
VERTEX
  8
0
 10
56.0244
 20
51.5711
  0
VERTEX
  8
0
 10
55.9846
 20
51.5817
  0
VERTEX
  8
0
 10
55.9462
 20
51.5853
  0
VERTEX
  8
0
 10
55.8856
 20
51.5776
  0
VERTEX
  8
0
 10
55.8332
 20
51.5545
  0
VERTEX
  8
0
 10
55.789
 20
51.5161
  0
VERTEX
  8
0
 10
55.7568
 20
51.4686
  0
VERTEX
  8
0
 10
55.7372
 20
51.4141
  0
VERTEX
  8
0
 10
55.7303
 20
51.3523
  0
VERTEX
  8
0
 10
55.7343
 20
51.2989
  0
VERTEX
  8
0
 10
55.7468
 20
51.2515
  0
VERTEX
  8
0
 10
55.768
 20
51.2102
  0
VERTEX
  8
0
 10
55.7979
 20
51.1751
  0
VERTEX
  8
0
 10
55.8487
 20
51.1394
  0
VERTEX
  8
0
 10
55.9099
 20
51.1177
  0
VERTEX
  8
0
 10
55.9816
 20
51.1101
  0
VERTEX
  8
0
 10
55.9655
 20
50.954
  0
VERTEX
  8
0
 10
55.9096
 20
50.9616
  0
VERTEX
  8
0
 10
55.8583
 20
50.9742
  0
VERTEX
  8
0
 10
55.8116
 20
50.9918
  0
VERTEX
  8
0
 10
55.7694
 20
51.0144
  0
VERTEX
  8
0
 10
55.7317
 20
51.042
  0
VERTEX
  8
0
 10
55.6987
 20
51.0747
  0
VERTEX
  8
0
 10
55.6654
 20
51.1197
  0
VERTEX
  8
0
 10
55.6396
 20
51.1703
  0
VERTEX
  8
0
 10
55.6211
 20
51.2264
  0
VERTEX
  8
0
 10
55.61
 20
51.2882
  0
VERTEX
  8
0
 10
55.6063
 20
51.3556
  0
VERTEX
  8
0
 10
55.6099
 20
51.4189
  0
VERTEX
  8
0
 10
55.6206
 20
51.4776
  0
VERTEX
  8
0
 10
55.6384
 20
51.5317
  0
VERTEX
  8
0
 10
55.6633
 20
51.5814
  0
VERTEX
  8
0
 10
55.6953
 20
51.6265
  0
VERTEX
  8
0
 10
55.7287
 20
51.6616
  0
VERTEX
  8
0
 10
55.7658
 20
51.6903
  0
VERTEX
  8
0
 10
55.8066
 20
51.7126
  0
VERTEX
  8
0
 10
55.8511
 20
51.7285
  0
VERTEX
  8
0
 10
55.8992
 20
51.7381
  0
VERTEX
  8
0
 10
55.951
 20
51.7413
  0
VERTEX
  8
0
 10
56.0004
 20
51.7376
  0
VERTEX
  8
0
 10
56.05
 20
51.7266
  0
VERTEX
  8
0
 10
56.0996
 20
51.7084
  0
VERTEX
  8
0
 10
56.1493
 20
51.6828
  0
VERTEX
  8
0
 10
56.1992
 20
51.6499
  0
VERTEX
  8
0
 10
56.2491
 20
51.6096
  0
VERTEX
  8
0
 10
56.2841
 20
51.5771
  0
VERTEX
  8
0
 10
56.3235
 20
51.5374
  0
VERTEX
  8
0
 10
56.3671
 20
51.4907
  0
VERTEX
  8
0
 10
56.4152
 20
51.4369
  0
VERTEX
  8
0
 10
56.4675
 20
51.376
  0
VERTEX
  8
0
 10
56.5015
 20
51.3357
  0
VERTEX
  8
0
 10
56.5296
 20
51.3026
  0
VERTEX
  8
0
 10
56.5518
 20
51.2768
  0
VERTEX
  8
0
 10
56.5681
 20
51.2582
  0
VERTEX
  8
0
 10
56.5785
 20
51.2468
  0
VERTEX
  8
0
 10
56.6435
 20
51.1838
  0
VERTEX
  8
0
 10
56.7063
 20
51.1363
  0
VERTEX
  8
0
 10
56.7063
 20
51.7413
  0
SEQEND
  0
LINE
  8
0
 10
56.25
 20
52.0405
 11
56.25
 21
54
  0
LINE
  8
0
 10
56.5183
 20
53.4633
 11
56.25
 21
54
  0
LINE
  8
0
 10
55.9817
 20
53.4633
 11
56.25
 21
54
  0
LINE
  8
0
 10
56.55
 20
54
 11
54.75
 21
54
  0
LINE
  8
0
 10
56.25
 20
48.2426
 11
56.25
 21
46.2831
  0
LINE
  8
0
 10
55.9817
 20
46.8198
 11
56.25
 21
46.2831
  0
LINE
  8
0
 10
56.5183
 20
46.8198
 11
56.25
 21
46.2831
  0
LINE
  8
0
 10
56.55
 20
46.2831
 11
54.75
 21
46.2831
  0
POLYLINE
  8
0
 66
     1
 10
0
 20
0
  0
VERTEX
  8
0
 10
56.178
 20
40.6208
  0
VERTEX
  8
0
 10
56.1647
 20
40.5883
  0
VERTEX
  8
0
 10
56.1495
 20
40.5588
  0
VERTEX
  8
0
 10
56.1324
 20
40.5325
  0
VERTEX
  8
0
 10
56.1133
 20
40.5092
  0
VERTEX
  8
0
 10
56.0923
 20
40.4891
  0
VERTEX
  8
0
 10
56.0694
 20
40.472
  0
VERTEX
  8
0
 10
56.0445
 20
40.4581
  0
VERTEX
  8
0
 10
56.0176
 20
40.4472
  0
VERTEX
  8
0
 10
55.9889
 20
40.4395
  0
VERTEX
  8
0
 10
55.9582
 20
40.4348
  0
VERTEX
  8
0
 10
55.9255
 20
40.4333
  0
VERTEX
  8
0
 10
55.8782
 20
40.4362
  0
VERTEX
  8
0
 10
55.834
 20
40.4451
  0
VERTEX
  8
0
 10
55.7932
 20
40.4599
  0
VERTEX
  8
0
 10
55.7555
 20
40.4806
  0
VERTEX
  8
0
 10
55.7211
 20
40.5072
  0
VERTEX
  8
0
 10
55.6899
 20
40.5398
  0
VERTEX
  8
0
 10
55.6537
 20
40.5925
  0
VERTEX
  8
0
 10
55.6277
 20
40.6516
  0
VERTEX
  8
0
 10
55.6119
 20
40.7171
  0
VERTEX
  8
0
 10
55.6063
 20
40.7891
  0
VERTEX
  8
0
 10
55.6117
 20
40.8613
  0
VERTEX
  8
0
 10
55.6277
 20
40.9274
  0
VERTEX
  8
0
 10
55.6543
 20
40.9873
  0
VERTEX
  8
0
 10
55.6916
 20
41.0411
  0
VERTEX
  8
0
 10
55.7236
 20
41.0741
  0
VERTEX
  8
0
 10
55.7586
 20
41.1012
  0
VERTEX
  8
0
 10
55.7967
 20
41.1222
  0
VERTEX
  8
0
 10
55.838
 20
41.1372
  0
VERTEX
  8
0
 10
55.8823
 20
41.1463
  0
VERTEX
  8
0
 10
55.9297
 20
41.1493
  0
VERTEX
  8
0
 10
55.9643
 20
41.1475
  0
VERTEX
  8
0
 10
55.9967
 20
41.142
  0
VERTEX
  8
0
 10
56.0269
 20
41.1329
  0
VERTEX
  8
0
 10
56.055
 20
41.1202
  0
VERTEX
  8
0
 10
56.0809
 20
41.1039
  0
VERTEX
  8
0
 10
56.1046
 20
41.0839
  0
VERTEX
  8
0
 10
56.1262
 20
41.0604
  0
VERTEX
  8
0
 10
56.1456
 20
41.0331
  0
VERTEX
  8
0
 10
56.1629
 20
41.0023
  0
VERTEX
  8
0
 10
56.178
 20
40.9678
  0
VERTEX
  8
0
 10
56.1896
 20
40.9999
  0
VERTEX
  8
0
 10
56.2028
 20
41.0295
  0
VERTEX
  8
0
 10
56.2178
 20
41.0569
  0
VERTEX
  8
0
 10
56.2345
 20
41.0818
  0
VERTEX
  8
0
 10
56.253
 20
41.1044
  0
VERTEX
  8
0
 10
56.2731
 20
41.1246
  0
VERTEX
  8
0
 10
56.2949
 20
41.1425
  0
VERTEX
  8
0
 10
56.3184
 20
41.158
  0
VERTEX
  8
0
 10
56.3437
 20
41.1711
  0
VERTEX
  8
0
 10
56.3706
 20
41.1819
  0
VERTEX
  8
0
 10
56.3993
 20
41.1903
  0
VERTEX
  8
0
 10
56.4296
 20
41.1963
  0
VERTEX
  8
0
 10
56.4617
 20
41.2
  0
VERTEX
  8
0
 10
56.4955
 20
41.2013
  0
VERTEX
  8
0
 10
56.5502
 20
41.1981
  0
VERTEX
  8
0
 10
56.6014
 20
41.1882
  0
VERTEX
  8
0
 10
56.6489
 20
41.1715
  0
VERTEX
  8
0
 10
56.6928
 20
41.1479
  0
VERTEX
  8
0
 10
56.7331
 20
41.1176
  0
VERTEX
  8
0
 10
56.7698
 20
41.0805
  0
VERTEX
  8
0
 10
56.806
 20
41.0322
  0
VERTEX
  8
0
 10
56.8342
 20
40.9794
  0
VERTEX
  8
0
 10
56.8543
 20
40.9219
  0
VERTEX
  8
0
 10
56.8663
 20
40.8599
  0
VERTEX
  8
0
 10
56.8703
 20
40.7933
  0
VERTEX
  8
0
 10
56.8663
 20
40.7255
  0
VERTEX
  8
0
 10
56.8541
 20
40.6627
  0
VERTEX
  8
0
 10
56.8339
 20
40.6049
  0
VERTEX
  8
0
 10
56.8055
 20
40.5522
  0
VERTEX
  8
0
 10
56.769
 20
40.5044
  0
VERTEX
  8
0
 10
56.732
 20
40.4682
  0
VERTEX
  8
0
 10
56.6912
 20
40.4386
  0
VERTEX
  8
0
 10
56.6468
 20
40.4155
  0
VERTEX
  8
0
 10
56.5986
 20
40.3989
  0
VERTEX
  8
0
 10
56.5468
 20
40.3888
  0
VERTEX
  8
0
 10
56.4912
 20
40.3853
  0
VERTEX
  8
0
 10
56.4587
 20
40.3862
  0
VERTEX
  8
0
 10
56.4279
 20
40.3893
  0
VERTEX
  8
0
 10
56.3987
 20
40.3944
  0
VERTEX
  8
0
 10
56.3712
 20
40.4017
  0
VERTEX
  8
0
 10
56.3453
 20
40.4111
  0
VERTEX
  8
0
 10
56.3211
 20
40.4226
  0
VERTEX
  8
0
 10
56.2986
 20
40.4362
  0
VERTEX
  8
0
 10
56.2777
 20
40.4519
  0
VERTEX
  8
0
 10
56.2585
 20
40.4697
  0
VERTEX
  8
0
 10
56.2409
 20
40.4896
  0
VERTEX
  8
0
 10
56.225
 20
40.5116
  0
VERTEX
  8
0
 10
56.2108
 20
40.5358
  0
VERTEX
  8
0
 10
56.1982
 20
40.562
  0
VERTEX
  8
0
 10
56.1872
 20
40.5904
  0
VERTEX
  8
0
 10
56.178
 20
40.6208
  0
VERTEX
  8
0
 10
56.178
 20
40.6208
  0
SEQEND
  0
POLYLINE
  8
0
 66
     1
 10
0
 20
0
  0
VERTEX
  8
0
 10
55.9212
 20
40.5893
  0
VERTEX
  8
0
 10
55.9759
 20
40.5951
  0
VERTEX
  8
0
 10
56.0239
 20
40.6137
  0
VERTEX
  8
0
 10
56.0652
 20
40.645
  0
VERTEX
  8
0
 10
56.097
 20
40.6867
  0
VERTEX
  8
0
 10
56.116
 20
40.736
  0
VERTEX
  8
0
 10
56.1223
 20
40.793
  0
VERTEX
  8
0
 10
56.1164
 20
40.8467
  0
VERTEX
  8
0
 10
56.0985
 20
40.8942
  0
VERTEX
  8
0
 10
56.0687
 20
40.9354
  0
VERTEX
  8
0
 10
56.0294
 20
40.9671
  0
VERTEX
  8
0
 10
55.9831
 20
40.9864
  0
VERTEX
  8
0
 10
55.9298
 20
40.9933
  0
VERTEX
  8
0
 10
55.8774
 20
40.9873
  0
VERTEX
  8
0
 10
55.8305
 20
40.9681
  0
VERTEX
  8
0
 10
55.7892
 20
40.9358
  0
VERTEX
  8
0
 10
55.7569
 20
40.8938
  0
VERTEX
  8
0
 10
55.7373
 20
40.8456
  0
VERTEX
  8
0
 10
55.7303
 20
40.7913
  0
VERTEX
  8
0
 10
55.7366
 20
40.7361
  0
VERTEX
  8
0
 10
55.7565
 20
40.6868
  0
VERTEX
  8
0
 10
55.79
 20
40.6433
  0
VERTEX
  8
0
 10
55.8501
 20
40.6032
  0
VERTEX
  8
0
 10
55.9212
 20
40.5893
  0
VERTEX
  8
0
 10
55.9212
 20
40.5893
  0
SEQEND
  0
POLYLINE
  8
0
 66
     1
 10
0
 20
0
  0
VERTEX
  8
0
 10
56.4938
 20
40.5413
  0
VERTEX
  8
0
 10
56.5356
 20
40.5436
  0
VERTEX
  8
0
 10
56.5739
 20
40.5509
  0
VERTEX
  8
0
 10
56.6088
 20
40.5634
  0
VERTEX
  8
0
 10
56.6402
 20
40.5808
  0
VERTEX
  8
0
 10
56.6681
 20
40.6034
  0
VERTEX
  8
0
 10
56.6925
 20
40.631
  0
VERTEX
  8
0
 10
56.7135
 20
40.6637
  0
VERTEX
  8
0
 10
56.7381
 20
40.7264
  0
VERTEX
  8
0
 10
56.7463
 20
40.7945
  0
VERTEX
  8
0
 10
56.7386
 20
40.8629
  0
VERTEX
  8
0
 10
56.7155
 20
40.9229
  0
VERTEX
  8
0
 10
56.6769
 20
40.9744
  0
VERTEX
  8
0
 10
56.6397
 20
41.0054
  0
VERTEX
  8
0
 10
56.5977
 20
41.0275
  0
VERTEX
  8
0
 10
56.5507
 20
41.0408
  0
VERTEX
  8
0
 10
56.4988
 20
41.0453
  0
VERTEX
  8
0
 10
56.4465
 20
41.0407
  0
VERTEX
  8
0
 10
56.399
 20
41.0271
  0
VERTEX
  8
0
 10
56.3563
 20
41.0044
  0
VERTEX
  8
0
 10
56.3183
 20
40.9727
  0
VERTEX
  8
0
 10
56.2787
 20
40.9201
  0
VERTEX
  8
0
 10
56.2547
 20
40.859
  0
VERTEX
  8
0
 10
56.2463
 20
40.7895
  0
VERTEX
  8
0
 10
56.2504
 20
40.7378
  0
VERTEX
  8
0
 10
56.2633
 20
40.691
  0
VERTEX
  8
0
 10
56.2851
 20
40.649
  0
VERTEX
  8
0
 10
56.3158
 20
40.6118
  0
VERTEX
  8
0
 10
56.3668
 20
40.573
  0
VERTEX
  8
0
 10
56.4262
 20
40.5495
  0
VERTEX
  8
0
 10
56.4938
 20
40.5413
  0
VERTEX
  8
0
 10
56.4938
 20
40.5413
  0
SEQEND
  0
POLYLINE
  8
0
 66
     1
 10
0
 20
0
  0
VERTEX
  8
0
 10
56.8543
 20
41.4373
  0
VERTEX
  8
0
 10
56.6783
 20
41.4373
  0
VERTEX
  8
0
 10
56.6783
 20
41.6093
  0
VERTEX
  8
0
 10
56.8543
 20
41.6093
  0
VERTEX
  8
0
 10
56.8543
 20
41.4373
  0
SEQEND
  0
POLYLINE
  8
0
 66
     1
 10
0
 20
0
  0
VERTEX
  8
0
 10
56.5261
 20
41.8293
  0
VERTEX
  8
0
 10
56.5127
 20
41.989
  0
VERTEX
  8
0
 10
56.5448
 20
41.9949
  0
VERTEX
  8
0
 10
56.5747
 20
42.0025
  0
VERTEX
  8
0
 10
56.6021
 20
42.0119
  0
VERTEX
  8
0
 10
56.6271
 20
42.0229
  0
VERTEX
  8
0
 10
56.6498
 20
42.0357
  0
VERTEX
  8
0
 10
56.67
 20
42.0501
  0
VERTEX
  8
0
 10
56.6879
 20
42.0663
  0
VERTEX
  8
0
 10
56.7034
 20
42.0842
  0
VERTEX
  8
0
 10
56.7165
 20
42.1037
  0
VERTEX
  8
0
 10
56.7273
 20
42.125
  0
VERTEX
  8
0
 10
56.7356
 20
42.148
  0
VERTEX
  8
0
 10
56.7416
 20
42.1727
  0
VERTEX
  8
0
 10
56.7451
 20
42.1991
  0
VERTEX
  8
0
 10
56.7463
 20
42.2273
  0
VERTEX
  8
0
 10
56.7426
 20
42.274
  0
VERTEX
  8
0
 10
56.7316
 20
42.3168
  0
VERTEX
  8
0
 10
56.7131
 20
42.3557
  0
VERTEX
  8
0
 10
56.6872
 20
42.3906
  0
VERTEX
  8
0
 10
56.6539
 20
42.4216
  0
VERTEX
  8
0
 10
56.5934
 20
42.4592
  0
VERTEX
  8
0
 10
56.5239
 20
42.4818
  0
VERTEX
  8
0
 10
56.4454
 20
42.4893
  0
VERTEX
  8
0
 10
56.3862
 20
42.4849
  0
VERTEX
  8
0
 10
56.3329
 20
42.4717
  0
VERTEX
  8
0
 10
56.2855
 20
42.4498
  0
VERTEX
  8
0
 10
56.2441
 20
42.4191
  0
VERTEX
  8
0
 10
56.2104
 20
42.3807
  0
VERTEX
  8
0
 10
56.1862
 20
42.3354
  0
VERTEX
  8
0
 10
56.1715
 20
42.2835
  0
VERTEX
  8
0
 10
56.1663
 20
42.2248
  0
VERTEX
  8
0
 10
56.1694
 20
42.1781
  0
VERTEX
  8
0
 10
56.179
 20
42.1351
  0
VERTEX
  8
0
 10
56.1953
 20
42.0957
  0
VERTEX
  8
0
 10
56.2182
 20
42.0598
  0
VERTEX
  8
0
 10
56.2477
 20
42.0277
  0
VERTEX
  8
0
 10
56.2838
 20
41.9991
  0
VERTEX
  8
0
 10
56.2653
 20
41.8563
  0
VERTEX
  8
0
 10
55.6303
 20
41.9762
  0
VERTEX
  8
0
 10
55.6303
 20
42.5916
  0
VERTEX
  8
0
 10
55.7743
 20
42.5916
  0
VERTEX
  8
0
 10
55.7743
 20
42.0997
  0
VERTEX
  8
0
 10
56.1077
 20
42.0326
  0
VERTEX
  8
0
 10
56.0651
 20
42.1079
  0
VERTEX
  8
0
 10
56.0393
 20
42.1856
  0
VERTEX
  8
0
 10
56.0303
 20
42.2656
  0
VERTEX
  8
0
 10
56.0333
 20
42.3201
  0
VERTEX
  8
0
 10
56.0429
 20
42.3713
  0
VERTEX
  8
0
 10
56.059
 20
42.4192
  0
VERTEX
  8
0
 10
56.0816
 20
42.4638
  0
VERTEX
  8
0
 10
56.1108
 20
42.5052
  0
VERTEX
  8
0
 10
56.1466
 20
42.5433
  0
VERTEX
  8
0
 10
56.1861
 20
42.5757
  0
VERTEX
  8
0
 10
56.2287
 20
42.6022
  0
VERTEX
  8
0
 10
56.2745
 20
42.6228
  0
VERTEX
  8
0
 10
56.3233
 20
42.6375
  0
VERTEX
  8
0
 10
56.3754
 20
42.6463
  0
VERTEX
  8
0
 10
56.4305
 20
42.6493
  0
VERTEX
  8
0
 10
56.4955
 20
42.6454
  0
VERTEX
  8
0
 10
56.557
 20
42.6336
  0
VERTEX
  8
0
 10
56.6149
 20
42.614
  0
VERTEX
  8
0
 10
56.6694
 20
42.5866
  0
VERTEX
  8
0
 10
56.7203
 20
42.5514
  0
VERTEX
  8
0
 10
56.7553
 20
42.5203
  0
VERTEX
  8
0
 10
56.7857
 20
42.4865
  0
VERTEX
  8
0
 10
56.8114
 20
42.45
  0
VERTEX
  8
0
 10
56.8324
 20
42.4107
  0
VERTEX
  8
0
 10
56.8489
 20
42.3688
  0
VERTEX
  8
0
 10
56.8607
 20
42.3241
  0
VERTEX
  8
0
 10
56.8678
 20
42.2767
  0
VERTEX
  8
0
 10
56.8703
 20
42.2266
  0
VERTEX
  8
0
 10
56.8667
 20
42.1631
  0
VERTEX
  8
0
 10
56.8559
 20
42.1042
  0
VERTEX
  8
0
 10
56.8379
 20
42.0498
  0
VERTEX
  8
0
 10
56.8127
 20
42.0001
  0
VERTEX
  8
0
 10
56.7803
 20
41.955
  0
VERTEX
  8
0
 10
56.7405
 20
41.9148
  0
VERTEX
  8
0
 10
56.6952
 20
41.8822
  0
VERTEX
  8
0
 10
56.6443
 20
41.8571
  0
VERTEX
  8
0
 10
56.588
 20
41.8394
  0
VERTEX
  8
0
 10
56.5261
 20
41.8293
  0
VERTEX
  8
0
 10
56.5261
 20
41.8293
  0
SEQEND
  0
POLYLINE
  8
0
 66
     1
 10
0
 20
0
  0
VERTEX
  8
0
 10
55.8752
 20
43.6202
  0
VERTEX
  8
0
 10
55.8871
 20
43.4691
  0
VERTEX
  8
0
 10
55.8291
 20
43.4476
  0
VERTEX
  8
0
 10
55.7835
 20
43.4083
  0
VERTEX
  8
0
 10
55.7543
 20
43.3619
  0
VERTEX
  8
0
 10
55.7366
 20
43.307
  0
VERTEX
  8
0
 10
55.7303
 20
43.2437
  0
VERTEX
  8
0
 10
55.7401
 20
43.1586
  0
VERTEX
  8
0
 10
55.771
 20
43.0926
  0
VERTEX
  8
0
 10
55.7894
 20
43.0701
  0
VERTEX
  8
0
 10
55.8104
 20
43.0493
  0
VERTEX
  8
0
 10
55.834
 20
43.0303
  0
VERTEX
  8
0
 10
55.8601
 20
43.0131
  0
VERTEX
  8
0
 10
55.8889
 20
42.9976
  0
VERTEX
  8
0
 10
55.9202
 20
42.9838
  0
VERTEX
  8
0
 10
55.9541
 20
42.9718
  0
VERTEX
  8
0
 10
55.9907
 20
42.9615
  0
VERTEX
  8
0
 10
56.0298
 20
42.953
  0
VERTEX
  8
0
 10
56.0715
 20
42.9462
  0
VERTEX
  8
0
 10
56.1158
 20
42.9412
  0
VERTEX
  8
0
 10
56.1626
 20
42.9379
  0
VERTEX
  8
0
 10
56.2121
 20
42.9364
  0
VERTEX
  8
0
 10
56.1773
 20
42.9612
  0
VERTEX
  8
0
 10
56.1466
 20
42.9882
  0
VERTEX
  8
0
 10
56.12
 20
43.0173
  0
VERTEX
  8
0
 10
56.0975
 20
43.0485
  0
VERTEX
  8
0
 10
56.0791
 20
43.0818
  0
VERTEX
  8
0
 10
56.0648
 20
43.1173
  0
VERTEX
  8
0
 10
56.0545
 20
43.1549
  0
VERTEX
  8
0
 10
56.0484
 20
43.1946
  0
VERTEX
  8
0
 10
56.0463
 20
43.2364
  0
VERTEX
  8
0
 10
56.0497
 20
43.289
  0
VERTEX
  8
0
 10
56.0598
 20
43.3383
  0
VERTEX
  8
0
 10
56.0765
 20
43.3843
  0
VERTEX
  8
0
 10
56.1
 20
43.427
  0
VERTEX
  8
0
 10
56.1302
 20
43.4665
  0
VERTEX
  8
0
 10
56.1671
 20
43.5027
  0
VERTEX
  8
0
 10
56.215
 20
43.5379
  0
VERTEX
  8
0
 10
56.267
 20
43.5654
  0
VERTEX
  8
0
 10
56.3231
 20
43.5851
  0
VERTEX
  8
0
 10
56.3832
 20
43.5971
  0
VERTEX
  8
0
 10
56.4473
 20
43.6013
  0
VERTEX
  8
0
 10
56.5561
 20
43.5899
  0
VERTEX
  8
0
 10
56.6576
 20
43.5541
  0
VERTEX
  8
0
 10
56.7215
 20
43.5163
  0
VERTEX
  8
0
 10
56.7746
 20
43.4694
  0
VERTEX
  8
0
 10
56.8172
 20
43.4133
  0
VERTEX
  8
0
 10
56.857
 20
43.3201
  0
VERTEX
  8
0
 10
56.8703
 20
43.2143
  0
VERTEX
  8
0
 10
56.8699
 20
43.1909
  0
VERTEX
  8
0
 10
56.8685
 20
43.1681
  0
VERTEX
  8
0
 10
56.8662
 20
43.1459
  0
VERTEX
  8
0
 10
56.8629
 20
43.1244
  0
VERTEX
  8
0
 10
56.8588
 20
43.1036
  0
VERTEX
  8
0
 10
56.8537
 20
43.0835
  0
VERTEX
  8
0
 10
56.8476
 20
43.0639
  0
VERTEX
  8
0
 10
56.8407
 20
43.0451
  0
VERTEX
  8
0
 10
56.8328
 20
43.0269
  0
VERTEX
  8
0
 10
56.824
 20
43.0094
  0
VERTEX
  8
0
 10
56.8143
 20
42.9925
  0
VERTEX
  8
0
 10
56.8036
 20
42.9763
  0
VERTEX
  8
0
 10
56.7921
 20
42.9608
  0
VERTEX
  8
0
 10
56.7796
 20
42.9459
  0
VERTEX
  8
0
 10
56.7661
 20
42.9317
  0
VERTEX
  8
0
 10
56.7518
 20
42.9181
  0
VERTEX
  8
0
 10
56.7365
 20
42.9052
  0
VERTEX
  8
0
 10
56.7203
 20
42.8929
  0
VERTEX
  8
0
 10
56.7031
 20
42.8813
  0
VERTEX
  8
0
 10
56.6851
 20
42.8704
  0
VERTEX
  8
0
 10
56.6661
 20
42.8602
  0
VERTEX
  8
0
 10
56.6462
 20
42.8505
  0
VERTEX
  8
0
 10
56.6253
 20
42.8416
  0
VERTEX
  8
0
 10
56.6035
 20
42.8333
  0
VERTEX
  8
0
 10
56.5808
 20
42.8257
  0
VERTEX
  8
0
 10
56.5572
 20
42.8187
  0
VERTEX
  8
0
 10
56.5327
 20
42.8124
  0
VERTEX
  8
0
 10
56.5072
 20
42.8067
  0
VERTEX
  8
0
 10
56.4808
 20
42.8017
  0
VERTEX
  8
0
 10
56.4535
 20
42.7974
  0
VERTEX
  8
0
 10
56.4252
 20
42.7937
  0
VERTEX
  8
0
 10
56.396
 20
42.7907
  0
VERTEX
  8
0
 10
56.3659
 20
42.7884
  0
VERTEX
  8
0
 10
56.3349
 20
42.7867
  0
VERTEX
  8
0
 10
56.3029
 20
42.7856
  0
VERTEX
  8
0
 10
56.27
 20
42.7853
  0
VERTEX
  8
0
 10
56.2064
 20
42.7864
  0
VERTEX
  8
0
 10
56.146
 20
42.7896
  0
VERTEX
  8
0
 10
56.0889
 20
42.7951
  0
VERTEX
  8
0
 10
56.0349
 20
42.8028
  0
VERTEX
  8
0
 10
55.9843
 20
42.8127
  0
VERTEX
  8
0
 10
55.9368
 20
42.8247
  0
VERTEX
  8
0
 10
55.8926
 20
42.8389
  0
VERTEX
  8
0
 10
55.8517
 20
42.8554
  0
VERTEX
  8
0
 10
55.8139
 20
42.874
  0
VERTEX
  8
0
 10
55.7795
 20
42.8948
  0
VERTEX
  8
0
 10
55.7482
 20
42.9178
  0
VERTEX
  8
0
 10
55.715
 20
42.9484
  0
VERTEX
  8
0
 10
55.6861
 20
42.9821
  0
VERTEX
  8
0
 10
55.6618
 20
43.0192
  0
VERTEX
  8
0
 10
55.6418
 20
43.0594
  0
VERTEX
  8
0
 10
55.6263
 20
43.1029
  0
VERTEX
  8
0
 10
55.6152
 20
43.1497
  0
VERTEX
  8
0
 10
55.6086
 20
43.1997
  0
VERTEX
  8
0
 10
55.6063
 20
43.253
  0
VERTEX
  8
0
 10
55.6107
 20
43.3209
  0
VERTEX
  8
0
 10
55.6237
 20
43.3838
  0
VERTEX
  8
0
 10
55.6455
 20
43.4416
  0
VERTEX
  8
0
 10
55.6759
 20
43.4944
  0
VERTEX
  8
0
 10
55.7086
 20
43.5348
  0
VERTEX
  8
0
 10
55.7448
 20
43.5676
  0
VERTEX
  8
0
 10
55.7847
 20
43.5928
  0
VERTEX
  8
0
 10
55.8282
 20
43.6103
  0
VERTEX
  8
0
 10
55.8752
 20
43.6202
  0
VERTEX
  8
0
 10
55.8752
 20
43.6202
  0
SEQEND
  0
POLYLINE
  8
0
 66
     1
 10
0
 20
0
  0
VERTEX
  8
0
 10
56.4496
 20
42.9613
  0
VERTEX
  8
0
 10
56.525
 20
42.9686
  0
VERTEX
  8
0
 10
56.5963
 20
42.9923
  0
VERTEX
  8
0
 10
56.6616
 20
43.0328
  0
VERTEX
  8
0
 10
56.7092
 20
43.0871
  0
VERTEX
  8
0
 10
56.7367
 20
43.1473
  0
VERTEX
  8
0
 10
56.7463
 20
43.2121
  0
VERTEX
  8
0
 10
56.743
 20
43.2545
  0
VERTEX
  8
0
 10
56.7322
 20
43.2933
  0
VERTEX
  8
0
 10
56.7139
 20
43.3284
  0
VERTEX
  8
0
 10
56.6883
 20
43.3597
  0
VERTEX
  8
0
 10
56.6553
 20
43.3874
  0
VERTEX
  8
0
 10
56.597
 20
43.4192
  0
VERTEX
  8
0
 10
56.5313
 20
43.4385
  0
VERTEX
  8
0
 10
56.458
 20
43.4453
  0
VERTEX
  8
0
 10
56.3849
 20
43.4389
  0
VERTEX
  8
0
 10
56.3205
 20
43.4188
  0
VERTEX
  8
0
 10
56.265
 20
43.3849
  0
VERTEX
  8
0
 10
56.2291
 20
43.3492
  0
VERTEX
  8
0
 10
56.2034
 20
43.3075
  0
VERTEX
  8
0
 10
56.1878
 20
43.2598
  0
VERTEX
  8
0
 10
56.1823
 20
43.2062
  0
VERTEX
  8
0
 10
56.187
 20
43.1538
  0
VERTEX
  8
0
 10
56.2017
 20
43.1066
  0
VERTEX
  8
0
 10
56.2266
 20
43.0645
  0
VERTEX
  8
0
 10
56.2616
 20
43.0275
  0
VERTEX
  8
0
 10
56.3162
 20
42.9911
  0
VERTEX
  8
0
 10
56.3789
 20
42.969
  0
VERTEX
  8
0
 10
56.4496
 20
42.9613
  0
VERTEX
  8
0
 10
56.4496
 20
42.9613
  0
SEQEND
  0
LINE
  8
0
 10
56.25
 20
43.9178
 11
56.25
 21
46.2831
  0
LINE
  8
0
 10
56.5183
 20
45.7464
 11
56.25
 21
46.2831
  0
LINE
  8
0
 10
55.9817
 20
45.7464
 11
56.25
 21
46.2831
  0
LINE
  8
0
 10
56.25
 20
40.0822
 11
56.25
 21
37.7169
  0
LINE
  8
0
 10
55.9817
 20
38.2536
 11
56.25
 21
37.7169
  0
LINE
  8
0
 10
56.5183
 20
38.2536
 11
56.25
 21
37.7169
  0
LINE
  8
0
 10
56.55
 20
37.7169
 11
54.75
 21
37.7169
  0
POLYLINE
  8
0
 66
     1
 10
0
 20
0
  0
VERTEX
  8
0
 10
31.4103
 20
27.2973
  0
VERTEX
  8
0
 10
31.4103
 20
27.1493
  0
VERTEX
  8
0
 10
30.5943
 20
27.1493
  0
VERTEX
  8
0
 10
30.5967
 20
27.1929
  0
VERTEX
  8
0
 10
30.6059
 20
27.2373
  0
VERTEX
  8
0
 10
30.622
 20
27.2822
  0
VERTEX
  8
0
 10
30.645
 20
27.3279
  0
VERTEX
  8
0
 10
30.6749
 20
27.3742
  0
VERTEX
  8
0
 10
30.7117
 20
27.4211
  0
VERTEX
  8
0
 10
30.7649
 20
27.4791
  0
VERTEX
  8
0
 10
30.8313
 20
27.542
  0
VERTEX
  8
0
 10
30.9108
 20
27.6098
  0
VERTEX
  8
0
 10
30.9678
 20
27.6573
  0
VERTEX
  8
0
 10
31.0179
 20
27.7005
  0
VERTEX
  8
0
 10
31.0611
 20
27.7396
  0
VERTEX
  8
0
 10
31.0975
 20
27.7745
  0
VERTEX
  8
0
 10
31.1269
 20
27.8051
  0
VERTEX
  8
0
 10
31.1658
 20
27.8508
  0
VERTEX
  8
0
 10
31.1977
 20
27.8951
  0
VERTEX
  8
0
 10
31.2225
 20
27.9379
  0
VERTEX
  8
0
 10
31.2402
 20
27.9792
  0
VERTEX
  8
0
 10
31.2508
 20
28.0191
  0
VERTEX
  8
0
 10
31.2543
 20
28.0575
  0
VERTEX
  8
0
 10
31.2467
 20
28.118
  0
VERTEX
  8
0
 10
31.2236
 20
28.1704
  0
VERTEX
  8
0
 10
31.1852
 20
28.2146
  0
VERTEX
  8
0
 10
31.1377
 20
28.2468
  0
VERTEX
  8
0
 10
31.0831
 20
28.2664
  0
VERTEX
  8
0
 10
31.0214
 20
28.2733
  0
VERTEX
  8
0
 10
30.9679
 20
28.2694
  0
VERTEX
  8
0
 10
30.9206
 20
28.2568
  0
VERTEX
  8
0
 10
30.8793
 20
28.2356
  0
VERTEX
  8
0
 10
30.8442
 20
28.2057
  0
VERTEX
  8
0
 10
30.8085
 20
28.1549
  0
VERTEX
  8
0
 10
30.7868
 20
28.0937
  0
VERTEX
  8
0
 10
30.7792
 20
28.022
  0
VERTEX
  8
0
 10
30.6231
 20
28.0381
  0
VERTEX
  8
0
 10
30.6307
 20
28.094
  0
VERTEX
  8
0
 10
30.6432
 20
28.1453
  0
VERTEX
  8
0
 10
30.6608
 20
28.192
  0
VERTEX
  8
0
 10
30.6835
 20
28.2342
  0
VERTEX
  8
0
 10
30.7111
 20
28.2719
  0
VERTEX
  8
0
 10
30.7437
 20
28.3049
  0
VERTEX
  8
0
 10
30.7887
 20
28.3382
  0
VERTEX
  8
0
 10
30.8393
 20
28.364
  0
VERTEX
  8
0
 10
30.8955
 20
28.3825
  0
VERTEX
  8
0
 10
30.9573
 20
28.3936
  0
VERTEX
  8
0
 10
31.0247
 20
28.3973
  0
VERTEX
  8
0
 10
31.0879
 20
28.3937
  0
VERTEX
  8
0
 10
31.1466
 20
28.383
  0
VERTEX
  8
0
 10
31.2008
 20
28.3652
  0
VERTEX
  8
0
 10
31.2505
 20
28.3403
  0
VERTEX
  8
0
 10
31.2956
 20
28.3083
  0
VERTEX
  8
0
 10
31.3307
 20
28.2749
  0
VERTEX
  8
0
 10
31.3593
 20
28.2378
  0
VERTEX
  8
0
 10
31.3817
 20
28.197
  0
VERTEX
  8
0
 10
31.3976
 20
28.1526
  0
VERTEX
  8
0
 10
31.4072
 20
28.1044
  0
VERTEX
  8
0
 10
31.4103
 20
28.0526
  0
VERTEX
  8
0
 10
31.4067
 20
28.0032
  0
VERTEX
  8
0
 10
31.3957
 20
27.9537
  0
VERTEX
  8
0
 10
31.3774
 20
27.904
  0
VERTEX
  8
0
 10
31.3518
 20
27.8543
  0
VERTEX
  8
0
 10
31.3189
 20
27.8044
  0
VERTEX
  8
0
 10
31.2787
 20
27.7545
  0
VERTEX
  8
0
 10
31.2461
 20
27.7195
  0
VERTEX
  8
0
 10
31.2065
 20
27.6801
  0
VERTEX
  8
0
 10
31.1598
 20
27.6365
  0
VERTEX
  8
0
 10
31.1059
 20
27.5884
  0
VERTEX
  8
0
 10
31.045
 20
27.5361
  0
VERTEX
  8
0
 10
31.0048
 20
27.5021
  0
VERTEX
  8
0
 10
30.9717
 20
27.474
  0
VERTEX
  8
0
 10
30.9459
 20
27.4518
  0
VERTEX
  8
0
 10
30.9273
 20
27.4355
  0
VERTEX
  8
0
 10
30.9159
 20
27.4251
  0
VERTEX
  8
0
 10
30.8528
 20
27.3601
  0
VERTEX
  8
0
 10
30.8054
 20
27.2973
  0
VERTEX
  8
0
 10
31.4103
 20
27.2973
  0
SEQEND
  0
LINE
  8
0
 10
32
 20
27.45
 11
32
 21
29.25
  0
LINE
  8
0
 10
30
 20
27.45
 11
30
 21
29.25
  0
POLYLINE
  8
0
 66
     1
 10
0
 20
0
  0
VERTEX
  8
0
 10
41.9223
 20
27.2973
  0
VERTEX
  8
0
 10
41.9223
 20
27.1493
  0
VERTEX
  8
0
 10
41.1063
 20
27.1493
  0
VERTEX
  8
0
 10
41.1087
 20
27.1929
  0
VERTEX
  8
0
 10
41.1179
 20
27.2373
  0
VERTEX
  8
0
 10
41.134
 20
27.2822
  0
VERTEX
  8
0
 10
41.157
 20
27.3279
  0
VERTEX
  8
0
 10
41.1869
 20
27.3742
  0
VERTEX
  8
0
 10
41.2237
 20
27.4211
  0
VERTEX
  8
0
 10
41.2769
 20
27.4791
  0
VERTEX
  8
0
 10
41.3433
 20
27.542
  0
VERTEX
  8
0
 10
41.4228
 20
27.6098
  0
VERTEX
  8
0
 10
41.4798
 20
27.6573
  0
VERTEX
  8
0
 10
41.5299
 20
27.7005
  0
VERTEX
  8
0
 10
41.5731
 20
27.7396
  0
VERTEX
  8
0
 10
41.6095
 20
27.7745
  0
VERTEX
  8
0
 10
41.6389
 20
27.8051
  0
VERTEX
  8
0
 10
41.6778
 20
27.8508
  0
VERTEX
  8
0
 10
41.7097
 20
27.8951
  0
VERTEX
  8
0
 10
41.7345
 20
27.9379
  0
VERTEX
  8
0
 10
41.7522
 20
27.9792
  0
VERTEX
  8
0
 10
41.7628
 20
28.0191
  0
VERTEX
  8
0
 10
41.7663
 20
28.0575
  0
VERTEX
  8
0
 10
41.7587
 20
28.118
  0
VERTEX
  8
0
 10
41.7356
 20
28.1704
  0
VERTEX
  8
0
 10
41.6972
 20
28.2146
  0
VERTEX
  8
0
 10
41.6497
 20
28.2468
  0
VERTEX
  8
0
 10
41.5951
 20
28.2664
  0
VERTEX
  8
0
 10
41.5334
 20
28.2733
  0
VERTEX
  8
0
 10
41.4799
 20
28.2694
  0
VERTEX
  8
0
 10
41.4326
 20
28.2568
  0
VERTEX
  8
0
 10
41.3913
 20
28.2356
  0
VERTEX
  8
0
 10
41.3562
 20
28.2057
  0
VERTEX
  8
0
 10
41.3205
 20
28.1549
  0
VERTEX
  8
0
 10
41.2988
 20
28.0937
  0
VERTEX
  8
0
 10
41.2912
 20
28.022
  0
VERTEX
  8
0
 10
41.1351
 20
28.0381
  0
VERTEX
  8
0
 10
41.1427
 20
28.094
  0
VERTEX
  8
0
 10
41.1552
 20
28.1453
  0
VERTEX
  8
0
 10
41.1728
 20
28.192
  0
VERTEX
  8
0
 10
41.1955
 20
28.2342
  0
VERTEX
  8
0
 10
41.2231
 20
28.2719
  0
VERTEX
  8
0
 10
41.2557
 20
28.3049
  0
VERTEX
  8
0
 10
41.3007
 20
28.3382
  0
VERTEX
  8
0
 10
41.3513
 20
28.364
  0
VERTEX
  8
0
 10
41.4075
 20
28.3825
  0
VERTEX
  8
0
 10
41.4693
 20
28.3936
  0
VERTEX
  8
0
 10
41.5367
 20
28.3973
  0
VERTEX
  8
0
 10
41.5999
 20
28.3937
  0
VERTEX
  8
0
 10
41.6586
 20
28.383
  0
VERTEX
  8
0
 10
41.7128
 20
28.3652
  0
VERTEX
  8
0
 10
41.7625
 20
28.3403
  0
VERTEX
  8
0
 10
41.8076
 20
28.3083
  0
VERTEX
  8
0
 10
41.8427
 20
28.2749
  0
VERTEX
  8
0
 10
41.8713
 20
28.2378
  0
VERTEX
  8
0
 10
41.8937
 20
28.197
  0
VERTEX
  8
0
 10
41.9096
 20
28.1526
  0
VERTEX
  8
0
 10
41.9192
 20
28.1044
  0
VERTEX
  8
0
 10
41.9223
 20
28.0526
  0
VERTEX
  8
0
 10
41.9187
 20
28.0032
  0
VERTEX
  8
0
 10
41.9077
 20
27.9537
  0
VERTEX
  8
0
 10
41.8894
 20
27.904
  0
VERTEX
  8
0
 10
41.8638
 20
27.8543
  0
VERTEX
  8
0
 10
41.8309
 20
27.8044
  0
VERTEX
  8
0
 10
41.7907
 20
27.7545
  0
VERTEX
  8
0
 10
41.7581
 20
27.7195
  0
VERTEX
  8
0
 10
41.7185
 20
27.6801
  0
VERTEX
  8
0
 10
41.6718
 20
27.6365
  0
VERTEX
  8
0
 10
41.6179
 20
27.5884
  0
VERTEX
  8
0
 10
41.557
 20
27.5361
  0
VERTEX
  8
0
 10
41.5168
 20
27.5021
  0
VERTEX
  8
0
 10
41.4837
 20
27.474
  0
VERTEX
  8
0
 10
41.4579
 20
27.4518
  0
VERTEX
  8
0
 10
41.4393
 20
27.4355
  0
VERTEX
  8
0
 10
41.4279
 20
27.4251
  0
VERTEX
  8
0
 10
41.3648
 20
27.3601
  0
VERTEX
  8
0
 10
41.3174
 20
27.2973
  0
VERTEX
  8
0
 10
41.9223
 20
27.2973
  0
SEQEND
  0
POLYLINE
  8
0
 66
     1
 10
0
 20
0
  0
VERTEX
  8
0
 10
42.0863
 20
27.7648
  0
VERTEX
  8
0
 10
42.087
 20
27.8154
  0
VERTEX
  8
0
 10
42.0891
 20
27.8639
  0
VERTEX
  8
0
 10
42.0926
 20
27.9103
  0
VERTEX
  8
0
 10
42.0975
 20
27.9546
  0
VERTEX
  8
0
 10
42.1038
 20
27.9969
  0
VERTEX
  8
0
 10
42.1115
 20
28.0371
  0
VERTEX
  8
0
 10
42.1206
 20
28.0752
  0
VERTEX
  8
0
 10
42.1311
 20
28.1112
  0
VERTEX
  8
0
 10
42.143
 20
28.1452
  0
VERTEX
  8
0
 10
42.1563
 20
28.177
  0
VERTEX
  8
0
 10
42.171
 20
28.2068
  0
VERTEX
  8
0
 10
42.1871
 20
28.2346
  0
VERTEX
  8
0
 10
42.2046
 20
28.2602
  0
VERTEX
  8
0
 10
42.2235
 20
28.2838
  0
VERTEX
  8
0
 10
42.2438
 20
28.3052
  0
VERTEX
  8
0
 10
42.2655
 20
28.3246
  0
VERTEX
  8
0
 10
42.3125
 20
28.3561
  0
VERTEX
  8
0
 10
42.3657
 20
28.3787
  0
VERTEX
  8
0
 10
42.4249
 20
28.3924
  0
VERTEX
  8
0
 10
42.4903
 20
28.3973
  0
VERTEX
  8
0
 10
42.5827
 20
28.3875
  0
VERTEX
  8
0
 10
42.6653
 20
28.3568
  0
VERTEX
  8
0
 10
42.6995
 20
28.3356
  0
VERTEX
  8
0
 10
42.7311
 20
28.3098
  0
VERTEX
  8
0
 10
42.7601
 20
28.2794
  0
VERTEX
  8
0
 10
42.7866
 20
28.2442
  0
VERTEX
  8
0
 10
42.8104
 20
28.2044
  0
VERTEX
  8
0
 10
42.8317
 20
28.16
  0
VERTEX
  8
0
 10
42.8504
 20
28.1108
  0
VERTEX
  8
0
 10
42.8665
 20
28.057
  0
VERTEX
  8
0
 10
42.8787
 20
27.9988
  0
VERTEX
  8
0
 10
42.8874
 20
27.9307
  0
VERTEX
  8
0
 10
42.8926
 20
27.8527
  0
VERTEX
  8
0
 10
42.8943
 20
27.7648
  0
VERTEX
  8
0
 10
42.8935
 20
27.7111
  0
VERTEX
  8
0
 10
42.8912
 20
27.6597
  0
VERTEX
  8
0
 10
42.8872
 20
27.6106
  0
VERTEX
  8
0
 10
42.8816
 20
27.5639
  0
VERTEX
  8
0
 10
42.8744
 20
27.5196
  0
VERTEX
  8
0
 10
42.8657
 20
27.4776
  0
VERTEX
  8
0
 10
42.8553
 20
27.438
  0
VERTEX
  8
0
 10
42.8434
 20
27.4008
  0
VERTEX
  8
0
 10
42.8298
 20
27.3659
  0
VERTEX
  8
0
 10
42.8147
 20
27.3333
  0
VERTEX
  8
0
 10
42.798
 20
27.3031
  0
VERTEX
  8
0
 10
42.7797
 20
27.2753
  0
VERTEX
  8
0
 10
42.7598
 20
27.2498
  0
VERTEX
  8
0
 10
42.7382
 20
27.2267
  0
VERTEX
  8
0
 10
42.7152
 20
27.2059
  0
VERTEX
  8
0
 10
42.6681
 20
27.1744
  0
VERTEX
  8
0
 10
42.615
 20
27.1519
  0
VERTEX
  8
0
 10
42.5557
 20
27.1381
  0
VERTEX
  8
0
 10
42.4903
 20
27.1333
  0
VERTEX
  8
0
 10
42.4688
 20
27.1336
  0
VERTEX
  8
0
 10
42.4479
 20
27.1349
  0
VERTEX
  8
0
 10
42.4276
 20
27.1372
  0
VERTEX
  8
0
 10
42.4079
 20
27.1403
  0
VERTEX
  8
0
 10
42.3887
 20
27.1444
  0
VERTEX
  8
0
 10
42.3702
 20
27.1494
  0
VERTEX
  8
0
 10
42.3522
 20
27.1554
  0
VERTEX
  8
0
 10
42.3348
 20
27.1622
  0
VERTEX
  8
0
 10
42.318
 20
27.17
  0
VERTEX
  8
0
 10
42.3018
 20
27.1787
  0
VERTEX
  8
0
 10
42.2862
 20
27.1884
  0
VERTEX
  8
0
 10
42.2712
 20
27.199
  0
VERTEX
  8
0
 10
42.2567
 20
27.2105
  0
VERTEX
  8
0
 10
42.2429
 20
27.2229
  0
VERTEX
  8
0
 10
42.2296
 20
27.2363
  0
VERTEX
  8
0
 10
42.2169
 20
27.2505
  0
VERTEX
  8
0
 10
42.2048
 20
27.2658
  0
VERTEX
  8
0
 10
42.1933
 20
27.2819
  0
VERTEX
  8
0
 10
42.1824
 20
27.299
  0
VERTEX
  8
0
 10
42.1721
 20
27.317
  0
VERTEX
  8
0
 10
42.1623
 20
27.3359
  0
VERTEX
  8
0
 10
42.1532
 20
27.3557
  0
VERTEX
  8
0
 10
42.1446
 20
27.3765
  0
VERTEX
  8
0
 10
42.1366
 20
27.3982
  0
VERTEX
  8
0
 10
42.1292
 20
27.4209
  0
VERTEX
  8
0
 10
42.1224
 20
27.4444
  0
VERTEX
  8
0
 10
42.1162
 20
27.4689
  0
VERTEX
  8
0
 10
42.1106
 20
27.4943
  0
VERTEX
  8
0
 10
42.1055
 20
27.5207
  0
VERTEX
  8
0
 10
42.1011
 20
27.5479
  0
VERTEX
  8
0
 10
42.0972
 20
27.5761
  0
VERTEX
  8
0
 10
42.0939
 20
27.6053
  0
VERTEX
  8
0
 10
42.0912
 20
27.6353
  0
VERTEX
  8
0
 10
42.0891
 20
27.6663
  0
VERTEX
  8
0
 10
42.0876
 20
27.6982
  0
VERTEX
  8
0
 10
42.0867
 20
27.7311
  0
VERTEX
  8
0
 10
42.0863
 20
27.7648
  0
VERTEX
  8
0
 10
42.0863
 20
27.7648
  0
SEQEND
  0
POLYLINE
  8
0
 66
     1
 10
0
 20
0
  0
VERTEX
  8
0
 10
42.2423
 20
27.7653
  0
VERTEX
  8
0
 10
42.2437
 20
27.6862
  0
VERTEX
  8
0
 10
42.2476
 20
27.615
  0
VERTEX
  8
0
 10
42.2542
 20
27.5517
  0
VERTEX
  8
0
 10
42.2635
 20
27.4962
  0
VERTEX
  8
0
 10
42.2753
 20
27.4486
  0
VERTEX
  8
0
 10
42.2877
 20
27.4124
  0
VERTEX
  8
0
 10
42.3021
 20
27.38
  0
VERTEX
  8
0
 10
42.3185
 20
27.3514
  0
VERTEX
  8
0
 10
42.337
 20
27.3266
  0
VERTEX
  8
0
 10
42.3575
 20
27.3055
  0
VERTEX
  8
0
 10
42.38
 20
27.2883
  0
VERTEX
  8
0
 10
42.4045
 20
27.2749
  0
VERTEX
  8
0
 10
42.4311
 20
27.2652
  0
VERTEX
  8
0
 10
42.4597
 20
27.2593
  0
VERTEX
  8
0
 10
42.4903
 20
27.2573
  0
VERTEX
  8
0
 10
42.5077
 20
27.2578
  0
VERTEX
  8
0
 10
42.5245
 20
27.2596
  0
VERTEX
  8
0
 10
42.5406
 20
27.2628
  0
VERTEX
  8
0
 10
42.5561
 20
27.2672
  0
VERTEX
  8
0
 10
42.571
 20
27.273
  0
VERTEX
  8
0
 10
42.5852
 20
27.28
  0
VERTEX
  8
0
 10
42.5988
 20
27.2884
  0
VERTEX
  8
0
 10
42.6118
 20
27.298
  0
VERTEX
  8
0
 10
42.6241
 20
27.309
  0
VERTEX
  8
0
 10
42.6359
 20
27.3213
  0
VERTEX
  8
0
 10
42.6469
 20
27.3349
  0
VERTEX
  8
0
 10
42.6574
 20
27.3497
  0
VERTEX
  8
0
 10
42.6672
 20
27.3659
  0
VERTEX
  8
0
 10
42.6763
 20
27.3834
  0
VERTEX
  8
0
 10
42.6849
 20
27.4022
  0
VERTEX
  8
0
 10
42.6928
 20
27.4223
  0
VERTEX
  8
0
 10
42.7001
 20
27.4437
  0
VERTEX
  8
0
 10
42.7067
 20
27.4664
  0
VERTEX
  8
0
 10
42.7127
 20
27.4904
  0
VERTEX
  8
0
 10
42.7181
 20
27.5158
  0
VERTEX
  8
0
 10
42.7228
 20
27.5424
  0
VERTEX
  8
0
 10
42.727
 20
27.5703
  0
VERTEX
  8
0
 10
42.7304
 20
27.5995
  0
VERTEX
  8
0
 10
42.7333
 20
27.6301
  0
VERTEX
  8
0
 10
42.7355
 20
27.6619
  0
VERTEX
  8
0
 10
42.7371
 20
27.6951
  0
VERTEX
  8
0
 10
42.738
 20
27.7295
  0
VERTEX
  8
0
 10
42.7383
 20
27.7653
  0
VERTEX
  8
0
 10
42.737
 20
27.8443
  0
VERTEX
  8
0
 10
42.7331
 20
27.9155
  0
VERTEX
  8
0
 10
42.7265
 20
27.9788
  0
VERTEX
  8
0
 10
42.7172
 20
28.0343
  0
VERTEX
  8
0
 10
42.7053
 20
28.0819
  0
VERTEX
  8
0
 10
42.6928
 20
28.1181
  0
VERTEX
  8
0
 10
42.6783
 20
28.1505
  0
VERTEX
  8
0
 10
42.6617
 20
28.1791
  0
VERTEX
  8
0
 10
42.643
 20
28.204
  0
VERTEX
  8
0
 10
42.6224
 20
28.225
  0
VERTEX
  8
0
 10
42.5997
 20
28.2422
  0
VERTEX
  8
0
 10
42.575
 20
28.2557
  0
VERTEX
  8
0
 10
42.5482
 20
28.2653
  0
VERTEX
  8
0
 10
42.5195
 20
28.2712
  0
VERTEX
  8
0
 10
42.4887
 20
28.2733
  0
VERTEX
  8
0
 10
42.4388
 20
28.268
  0
VERTEX
  8
0
 10
42.3943
 20
28.2515
  0
VERTEX
  8
0
 10
42.355
 20
28.2236
  0
VERTEX
  8
0
 10
42.321
 20
28.1844
  0
VERTEX
  8
0
 10
42.3061
 20
28.1601
  0
VERTEX
  8
0
 10
42.2927
 20
28.1318
  0
VERTEX
  8
0
 10
42.2809
 20
28.0997
  0
VERTEX
  8
0
 10
42.2707
 20
28.0637
  0
VERTEX
  8
0
 10
42.262
 20
28.0237
  0
VERTEX
  8
0
 10
42.2549
 20
27.9798
  0
VERTEX
  8
0
 10
42.2494
 20
27.9321
  0
VERTEX
  8
0
 10
42.2455
 20
27.8804
  0
VERTEX
  8
0
 10
42.2431
 20
27.8248
  0
VERTEX
  8
0
 10
42.2423
 20
27.7653
  0
VERTEX
  8
0
 10
42.2423
 20
27.7653
  0
SEQEND
  0
LINE
  8
0
 10
43.1984
 20
27.75
 11
52
 21
27.75
  0
LINE
  8
0
 10
51.4633
 20
27.4817
 11
52
 21
27.75
  0
LINE
  8
0
 10
51.4633
 20
28.0183
 11
52
 21
27.75
  0
LINE
  8
0
 10
52
 20
27.45
 11
52
 21
29.25
  0
LINE
  8
0
 10
40.8016
 20
27.75
 11
32
 21
27.75
  0
LINE
  8
0
 10
32.5367
 20
28.0183
 11
32
 21
27.75
  0
LINE
  8
0
 10
32.5367
 20
27.4817
 11
32
 21
27.75
  0
POLYLINE
  8
0
 66
     1
 10
0
 20
0
  0
VERTEX
  8
0
 10
53.4103
 20
27.2973
  0
VERTEX
  8
0
 10
53.4103
 20
27.1493
  0
VERTEX
  8
0
 10
52.5943
 20
27.1493
  0
VERTEX
  8
0
 10
52.5967
 20
27.1929
  0
VERTEX
  8
0
 10
52.6059
 20
27.2373
  0
VERTEX
  8
0
 10
52.622
 20
27.2822
  0
VERTEX
  8
0
 10
52.645
 20
27.3279
  0
VERTEX
  8
0
 10
52.6749
 20
27.3742
  0
VERTEX
  8
0
 10
52.7117
 20
27.4211
  0
VERTEX
  8
0
 10
52.7649
 20
27.4791
  0
VERTEX
  8
0
 10
52.8313
 20
27.542
  0
VERTEX
  8
0
 10
52.9108
 20
27.6098
  0
VERTEX
  8
0
 10
52.9678
 20
27.6573
  0
VERTEX
  8
0
 10
53.0179
 20
27.7005
  0
VERTEX
  8
0
 10
53.0611
 20
27.7396
  0
VERTEX
  8
0
 10
53.0975
 20
27.7745
  0
VERTEX
  8
0
 10
53.1269
 20
27.8051
  0
VERTEX
  8
0
 10
53.1658
 20
27.8508
  0
VERTEX
  8
0
 10
53.1977
 20
27.8951
  0
VERTEX
  8
0
 10
53.2225
 20
27.9379
  0
VERTEX
  8
0
 10
53.2402
 20
27.9792
  0
VERTEX
  8
0
 10
53.2508
 20
28.0191
  0
VERTEX
  8
0
 10
53.2543
 20
28.0575
  0
VERTEX
  8
0
 10
53.2467
 20
28.118
  0
VERTEX
  8
0
 10
53.2236
 20
28.1704
  0
VERTEX
  8
0
 10
53.1852
 20
28.2146
  0
VERTEX
  8
0
 10
53.1377
 20
28.2468
  0
VERTEX
  8
0
 10
53.0831
 20
28.2664
  0
VERTEX
  8
0
 10
53.0214
 20
28.2733
  0
VERTEX
  8
0
 10
52.9679
 20
28.2694
  0
VERTEX
  8
0
 10
52.9206
 20
28.2568
  0
VERTEX
  8
0
 10
52.8793
 20
28.2356
  0
VERTEX
  8
0
 10
52.8442
 20
28.2057
  0
VERTEX
  8
0
 10
52.8085
 20
28.1549
  0
VERTEX
  8
0
 10
52.7868
 20
28.0937
  0
VERTEX
  8
0
 10
52.7792
 20
28.022
  0
VERTEX
  8
0
 10
52.6231
 20
28.0381
  0
VERTEX
  8
0
 10
52.6307
 20
28.094
  0
VERTEX
  8
0
 10
52.6432
 20
28.1453
  0
VERTEX
  8
0
 10
52.6608
 20
28.192
  0
VERTEX
  8
0
 10
52.6835
 20
28.2342
  0
VERTEX
  8
0
 10
52.7111
 20
28.2719
  0
VERTEX
  8
0
 10
52.7437
 20
28.3049
  0
VERTEX
  8
0
 10
52.7887
 20
28.3382
  0
VERTEX
  8
0
 10
52.8393
 20
28.364
  0
VERTEX
  8
0
 10
52.8955
 20
28.3825
  0
VERTEX
  8
0
 10
52.9573
 20
28.3936
  0
VERTEX
  8
0
 10
53.0247
 20
28.3973
  0
VERTEX
  8
0
 10
53.0879
 20
28.3937
  0
VERTEX
  8
0
 10
53.1466
 20
28.383
  0
VERTEX
  8
0
 10
53.2008
 20
28.3652
  0
VERTEX
  8
0
 10
53.2505
 20
28.3403
  0
VERTEX
  8
0
 10
53.2956
 20
28.3083
  0
VERTEX
  8
0
 10
53.3307
 20
28.2749
  0
VERTEX
  8
0
 10
53.3593
 20
28.2378
  0
VERTEX
  8
0
 10
53.3817
 20
28.197
  0
VERTEX
  8
0
 10
53.3976
 20
28.1526
  0
VERTEX
  8
0
 10
53.4072
 20
28.1044
  0
VERTEX
  8
0
 10
53.4103
 20
28.0526
  0
VERTEX
  8
0
 10
53.4067
 20
28.0032
  0
VERTEX
  8
0
 10
53.3957
 20
27.9537
  0
VERTEX
  8
0
 10
53.3774
 20
27.904
  0
VERTEX
  8
0
 10
53.3518
 20
27.8543
  0
VERTEX
  8
0
 10
53.3189
 20
27.8044
  0
VERTEX
  8
0
 10
53.2787
 20
27.7545
  0
VERTEX
  8
0
 10
53.2461
 20
27.7195
  0
VERTEX
  8
0
 10
53.2065
 20
27.6801
  0
VERTEX
  8
0
 10
53.1598
 20
27.6365
  0
VERTEX
  8
0
 10
53.1059
 20
27.5884
  0
VERTEX
  8
0
 10
53.045
 20
27.5361
  0
VERTEX
  8
0
 10
53.0048
 20
27.5021
  0
VERTEX
  8
0
 10
52.9717
 20
27.474
  0
VERTEX
  8
0
 10
52.9459
 20
27.4518
  0
VERTEX
  8
0
 10
52.9273
 20
27.4355
  0
VERTEX
  8
0
 10
52.9159
 20
27.4251
  0
VERTEX
  8
0
 10
52.8528
 20
27.3601
  0
VERTEX
  8
0
 10
52.8054
 20
27.2973
  0
VERTEX
  8
0
 10
53.4103
 20
27.2973
  0
SEQEND
  0
LINE
  8
0
 10
54
 20
27.45
 11
54
 21
29.25
  0
LINE
  8
0
 10
52
 20
27.45
 11
52
 21
29.25
  0
POLYLINE
  8
0
 66
     1
 10
0
 20
0
  0
VERTEX
  8
0
 10
55.7783
 20
32.2653
  0
VERTEX
  8
0
 10
55.6303
 20
32.2653
  0
VERTEX
  8
0
 10
55.6303
 20
33.0665
  0
VERTEX
  8
0
 10
55.7488
 20
33.0665
  0
VERTEX
  8
0
 10
55.817
 20
33.0075
  0
VERTEX
  8
0
 10
55.8955
 20
32.9487
  0
VERTEX
  8
0
 10
55.9844
 20
32.8901
  0
VERTEX
  8
0
 10
56.0837
 20
32.8318
  0
VERTEX
  8
0
 10
56.2914
 20
32.7309
  0
VERTEX
  8
0
 10
56.5135
 20
32.6528
  0
VERTEX
  8
0
 10
56.6769
 20
32.6154
  0
VERTEX
  8
0
 10
56.8543
 20
32.5945
  0
VERTEX
  8
0
 10
56.8543
 20
32.4383
  0
VERTEX
  8
0
 10
56.734
 20
32.4472
  0
VERTEX
  8
0
 10
56.6051
 20
32.4695
  0
VERTEX
  8
0
 10
56.4675
 20
32.505
  0
VERTEX
  8
0
 10
56.2783
 20
32.5707
  0
VERTEX
  8
0
 10
56.1027
 20
32.6528
  0
VERTEX
  8
0
 10
55.9807
 20
32.7228
  0
VERTEX
  8
0
 10
55.8726
 20
32.7957
  0
VERTEX
  8
0
 10
55.7783
 20
32.8715
  0
VERTEX
  8
0
 10
55.7783
 20
32.2653
  0
SEQEND
  0
POLYLINE
  8
0
 66
     1
 10
0
 20
0
  0
VERTEX
  8
0
 10
56.8543
 20
33.3013
  0
VERTEX
  8
0
 10
56.6783
 20
33.3013
  0
VERTEX
  8
0
 10
56.6783
 20
33.4733
  0
VERTEX
  8
0
 10
56.8543
 20
33.4733
  0
VERTEX
  8
0
 10
56.8543
 20
33.3013
  0
SEQEND
  0
POLYLINE
  8
0
 66
     1
 10
0
 20
0
  0
VERTEX
  8
0
 10
55.7783
 20
33.7093
  0
VERTEX
  8
0
 10
55.6303
 20
33.7093
  0
VERTEX
  8
0
 10
55.6303
 20
34.5105
  0
VERTEX
  8
0
 10
55.7488
 20
34.5105
  0
VERTEX
  8
0
 10
55.817
 20
34.4515
  0
VERTEX
  8
0
 10
55.8955
 20
34.3927
  0
VERTEX
  8
0
 10
55.9844
 20
34.3341
  0
VERTEX
  8
0
 10
56.0837
 20
34.2758
  0
VERTEX
  8
0
 10
56.2914
 20
34.1749
  0
VERTEX
  8
0
 10
56.5135
 20
34.0968
  0
VERTEX
  8
0
 10
56.6769
 20
34.0594
  0
VERTEX
  8
0
 10
56.8543
 20
34.0385
  0
VERTEX
  8
0
 10
56.8543
 20
33.8823
  0
VERTEX
  8
0
 10
56.734
 20
33.8912
  0
VERTEX
  8
0
 10
56.6051
 20
33.9135
  0
VERTEX
  8
0
 10
56.4675
 20
33.949
  0
VERTEX
  8
0
 10
56.2783
 20
34.0147
  0
VERTEX
  8
0
 10
56.1027
 20
34.0968
  0
VERTEX
  8
0
 10
55.9807
 20
34.1668
  0
VERTEX
  8
0
 10
55.8726
 20
34.2397
  0
VERTEX
  8
0
 10
55.7783
 20
34.3155
  0
VERTEX
  8
0
 10
55.7783
 20
33.7093
  0
SEQEND
  0
POLYLINE
  8
0
 66
     1
 10
0
 20
0
  0
VERTEX
  8
0
 10
56.7063
 20
35.4573
  0
VERTEX
  8
0
 10
56.8543
 20
35.4573
  0
VERTEX
  8
0
 10
56.8543
 20
34.6413
  0
VERTEX
  8
0
 10
56.8107
 20
34.6436
  0
VERTEX
  8
0
 10
56.7664
 20
34.6528
  0
VERTEX
  8
0
 10
56.7214
 20
34.6689
  0
VERTEX
  8
0
 10
56.6757
 20
34.6919
  0
VERTEX
  8
0
 10
56.6294
 20
34.7218
  0
VERTEX
  8
0
 10
56.5825
 20
34.7586
  0
VERTEX
  8
0
 10
56.5245
 20
34.8118
  0
VERTEX
  8
0
 10
56.4616
 20
34.8782
  0
VERTEX
  8
0
 10
56.3938
 20
34.9578
  0
VERTEX
  8
0
 10
56.3463
 20
35.0147
  0
VERTEX
  8
0
 10
56.3031
 20
35.0648
  0
VERTEX
  8
0
 10
56.264
 20
35.1081
  0
VERTEX
  8
0
 10
56.2291
 20
35.1444
  0
VERTEX
  8
0
 10
56.1985
 20
35.1738
  0
VERTEX
  8
0
 10
56.1528
 20
35.2128
  0
VERTEX
  8
0
 10
56.1085
 20
35.2446
  0
VERTEX
  8
0
 10
56.0657
 20
35.2694
  0
VERTEX
  8
0
 10
56.0244
 20
35.2871
  0
VERTEX
  8
0
 10
55.9846
 20
35.2977
  0
VERTEX
  8
0
 10
55.9462
 20
35.3013
  0
VERTEX
  8
0
 10
55.8856
 20
35.2936
  0
VERTEX
  8
0
 10
55.8332
 20
35.2705
  0
VERTEX
  8
0
 10
55.789
 20
35.2321
  0
VERTEX
  8
0
 10
55.7568
 20
35.1846
  0
VERTEX
  8
0
 10
55.7372
 20
35.1301
  0
VERTEX
  8
0
 10
55.7303
 20
35.0683
  0
VERTEX
  8
0
 10
55.7343
 20
35.0149
  0
VERTEX
  8
0
 10
55.7468
 20
34.9675
  0
VERTEX
  8
0
 10
55.768
 20
34.9262
  0
VERTEX
  8
0
 10
55.7979
 20
34.8911
  0
VERTEX
  8
0
 10
55.8487
 20
34.8554
  0
VERTEX
  8
0
 10
55.9099
 20
34.8337
  0
VERTEX
  8
0
 10
55.9816
 20
34.8261
  0
VERTEX
  8
0
 10
55.9655
 20
34.67
  0
VERTEX
  8
0
 10
55.9096
 20
34.6776
  0
VERTEX
  8
0
 10
55.8583
 20
34.6902
  0
VERTEX
  8
0
 10
55.8116
 20
34.7078
  0
VERTEX
  8
0
 10
55.7694
 20
34.7304
  0
VERTEX
  8
0
 10
55.7317
 20
34.758
  0
VERTEX
  8
0
 10
55.6987
 20
34.7907
  0
VERTEX
  8
0
 10
55.6654
 20
34.8357
  0
VERTEX
  8
0
 10
55.6396
 20
34.8863
  0
VERTEX
  8
0
 10
55.6211
 20
34.9424
  0
VERTEX
  8
0
 10
55.61
 20
35.0042
  0
VERTEX
  8
0
 10
55.6063
 20
35.0716
  0
VERTEX
  8
0
 10
55.6099
 20
35.1349
  0
VERTEX
  8
0
 10
55.6206
 20
35.1936
  0
VERTEX
  8
0
 10
55.6384
 20
35.2477
  0
VERTEX
  8
0
 10
55.6633
 20
35.2974
  0
VERTEX
  8
0
 10
55.6953
 20
35.3425
  0
VERTEX
  8
0
 10
55.7287
 20
35.3776
  0
VERTEX
  8
0
 10
55.7658
 20
35.4063
  0
VERTEX
  8
0
 10
55.8066
 20
35.4286
  0
VERTEX
  8
0
 10
55.8511
 20
35.4445
  0
VERTEX
  8
0
 10
55.8992
 20
35.4541
  0
VERTEX
  8
0
 10
55.951
 20
35.4573
  0
VERTEX
  8
0
 10
56.0004
 20
35.4536
  0
VERTEX
  8
0
 10
56.05
 20
35.4426
  0
VERTEX
  8
0
 10
56.0996
 20
35.4244
  0
VERTEX
  8
0
 10
56.1493
 20
35.3988
  0
VERTEX
  8
0
 10
56.1992
 20
35.3659
  0
VERTEX
  8
0
 10
56.2491
 20
35.3256
  0
VERTEX
  8
0
 10
56.2841
 20
35.2931
  0
VERTEX
  8
0
 10
56.3235
 20
35.2534
  0
VERTEX
  8
0
 10
56.3671
 20
35.2067
  0
VERTEX
  8
0
 10
56.4152
 20
35.1529
  0
VERTEX
  8
0
 10
56.4675
 20
35.092
  0
VERTEX
  8
0
 10
56.5015
 20
35.0517
  0
VERTEX
  8
0
 10
56.5296
 20
35.0186
  0
VERTEX
  8
0
 10
56.5518
 20
34.9928
  0
VERTEX
  8
0
 10
56.5681
 20
34.9742
  0
VERTEX
  8
0
 10
56.5785
 20
34.9628
  0
VERTEX
  8
0
 10
56.6435
 20
34.8998
  0
VERTEX
  8
0
 10
56.7063
 20
34.8523
  0
VERTEX
  8
0
 10
56.7063
 20
35.4573
  0
SEQEND
  0
LINE
  8
0
 10
56.25
 20
35.7574
 11
56.25
 21
37.7169
  0
LINE
  8
0
 10
56.5183
 20
37.1802
 11
56.25
 21
37.7169
  0
LINE
  8
0
 10
55.9817
 20
37.1802
 11
56.25
 21
37.7169
  0
LINE
  8
0
 10
56.55
 20
37.7169
 11
54.75
 21
37.7169
  0
LINE
  8
0
 10
56.25
 20
31.9595
 11
56.25
 21
30
  0
LINE
  8
0
 10
55.9817
 20
30.5367
 11
56.25
 21
30
  0
LINE
  8
0
 10
56.5183
 20
30.5367
 11
56.25
 21
30
  0
LINE
  8
0
 10
56.55
 20
30
 11
54.75
 21
30
  0
POLYLINE
  8
0
 66
     1
 10
0
 20
0
  0
VERTEX
  8
0
 10
59.7063
 20
41.9253
  0
VERTEX
  8
0
 10
59.8543
 20
41.9253
  0
VERTEX
  8
0
 10
59.8543
 20
41.1093
  0
VERTEX
  8
0
 10
59.8107
 20
41.1116
  0
VERTEX
  8
0
 10
59.7664
 20
41.1208
  0
VERTEX
  8
0
 10
59.7214
 20
41.1369
  0
VERTEX
  8
0
 10
59.6757
 20
41.1599
  0
VERTEX
  8
0
 10
59.6294
 20
41.1898
  0
VERTEX
  8
0
 10
59.5825
 20
41.2266
  0
VERTEX
  8
0
 10
59.5245
 20
41.2798
  0
VERTEX
  8
0
 10
59.4616
 20
41.3462
  0
VERTEX
  8
0
 10
59.3938
 20
41.4258
  0
VERTEX
  8
0
 10
59.3463
 20
41.4827
  0
VERTEX
  8
0
 10
59.3031
 20
41.5328
  0
VERTEX
  8
0
 10
59.264
 20
41.5761
  0
VERTEX
  8
0
 10
59.2291
 20
41.6124
  0
VERTEX
  8
0
 10
59.1985
 20
41.6418
  0
VERTEX
  8
0
 10
59.1528
 20
41.6808
  0
VERTEX
  8
0
 10
59.1085
 20
41.7126
  0
VERTEX
  8
0
 10
59.0657
 20
41.7374
  0
VERTEX
  8
0
 10
59.0244
 20
41.7551
  0
VERTEX
  8
0
 10
58.9846
 20
41.7657
  0
VERTEX
  8
0
 10
58.9462
 20
41.7693
  0
VERTEX
  8
0
 10
58.8856
 20
41.7616
  0
VERTEX
  8
0
 10
58.8332
 20
41.7385
  0
VERTEX
  8
0
 10
58.789
 20
41.7001
  0
VERTEX
  8
0
 10
58.7568
 20
41.6526
  0
VERTEX
  8
0
 10
58.7372
 20
41.5981
  0
VERTEX
  8
0
 10
58.7303
 20
41.5363
  0
VERTEX
  8
0
 10
58.7343
 20
41.4829
  0
VERTEX
  8
0
 10
58.7468
 20
41.4355
  0
VERTEX
  8
0
 10
58.768
 20
41.3942
  0
VERTEX
  8
0
 10
58.7979
 20
41.3591
  0
VERTEX
  8
0
 10
58.8487
 20
41.3234
  0
VERTEX
  8
0
 10
58.9099
 20
41.3017
  0
VERTEX
  8
0
 10
58.9816
 20
41.2941
  0
VERTEX
  8
0
 10
58.9655
 20
41.138
  0
VERTEX
  8
0
 10
58.9096
 20
41.1456
  0
VERTEX
  8
0
 10
58.8583
 20
41.1582
  0
VERTEX
  8
0
 10
58.8116
 20
41.1758
  0
VERTEX
  8
0
 10
58.7694
 20
41.1984
  0
VERTEX
  8
0
 10
58.7317
 20
41.226
  0
VERTEX
  8
0
 10
58.6987
 20
41.2587
  0
VERTEX
  8
0
 10
58.6654
 20
41.3037
  0
VERTEX
  8
0
 10
58.6396
 20
41.3543
  0
VERTEX
  8
0
 10
58.6211
 20
41.4104
  0
VERTEX
  8
0
 10
58.61
 20
41.4722
  0
VERTEX
  8
0
 10
58.6063
 20
41.5396
  0
VERTEX
  8
0
 10
58.6099
 20
41.6029
  0
VERTEX
  8
0
 10
58.6206
 20
41.6616
  0
VERTEX
  8
0
 10
58.6384
 20
41.7157
  0
VERTEX
  8
0
 10
58.6633
 20
41.7654
  0
VERTEX
  8
0
 10
58.6953
 20
41.8105
  0
VERTEX
  8
0
 10
58.7287
 20
41.8456
  0
VERTEX
  8
0
 10
58.7658
 20
41.8743
  0
VERTEX
  8
0
 10
58.8066
 20
41.8966
  0
VERTEX
  8
0
 10
58.8511
 20
41.9125
  0
VERTEX
  8
0
 10
58.8992
 20
41.9221
  0
VERTEX
  8
0
 10
58.951
 20
41.9253
  0
VERTEX
  8
0
 10
59.0004
 20
41.9216
  0
VERTEX
  8
0
 10
59.05
 20
41.9106
  0
VERTEX
  8
0
 10
59.0996
 20
41.8924
  0
VERTEX
  8
0
 10
59.1493
 20
41.8668
  0
VERTEX
  8
0
 10
59.1992
 20
41.8339
  0
VERTEX
  8
0
 10
59.2491
 20
41.7936
  0
VERTEX
  8
0
 10
59.2841
 20
41.7611
  0
VERTEX
  8
0
 10
59.3235
 20
41.7214
  0
VERTEX
  8
0
 10
59.3671
 20
41.6747
  0
VERTEX
  8
0
 10
59.4152
 20
41.6209
  0
VERTEX
  8
0
 10
59.4675
 20
41.56
  0
VERTEX
  8
0
 10
59.5015
 20
41.5197
  0
VERTEX
  8
0
 10
59.5296
 20
41.4866
  0
VERTEX
  8
0
 10
59.5518
 20
41.4608
  0
VERTEX
  8
0
 10
59.5681
 20
41.4422
  0
VERTEX
  8
0
 10
59.5785
 20
41.4308
  0
VERTEX
  8
0
 10
59.6435
 20
41.3678
  0
VERTEX
  8
0
 10
59.7063
 20
41.3203
  0
VERTEX
  8
0
 10
59.7063
 20
41.9253
  0
SEQEND
  0
POLYLINE
  8
0
 66
     1
 10
0
 20
0
  0
VERTEX
  8
0
 10
59.8543
 20
42.5773
  0
VERTEX
  8
0
 10
59.5543
 20
42.5773
  0
VERTEX
  8
0
 10
59.5543
 20
42.0413
  0
VERTEX
  8
0
 10
59.4143
 20
42.0413
  0
VERTEX
  8
0
 10
58.6143
 20
42.6061
  0
VERTEX
  8
0
 10
58.6143
 20
42.7293
  0
VERTEX
  8
0
 10
59.4143
 20
42.7293
  0
VERTEX
  8
0
 10
59.4143
 20
42.8973
  0
VERTEX
  8
0
 10
59.5543
 20
42.8973
  0
VERTEX
  8
0
 10
59.5543
 20
42.7293
  0
VERTEX
  8
0
 10
59.8543
 20
42.7293
  0
VERTEX
  8
0
 10
59.8543
 20
42.5773
  0
SEQEND
  0
POLYLINE
  8
0
 66
     1
 10
0
 20
0
  0
VERTEX
  8
0
 10
59.4143
 20
42.5773
  0
VERTEX
  8
0
 10
58.8633
 20
42.5773
  0
VERTEX
  8
0
 10
59.4147
 20
42.1928
  0
VERTEX
  8
0
 10
59.4143
 20
42.5773
  0
SEQEND
  0
LINE
  8
0
 10
59.25
 20
43.1984
 11
59.25
 21
54
  0
LINE
  8
0
 10
59.5183
 20
53.4633
 11
59.25
 21
54
  0
LINE
  8
0
 10
58.9817
 20
53.4633
 11
59.25
 21
54
  0
LINE
  8
0
 10
59.55
 20
54
 11
54.3
 21
54
  0
LINE
  8
0
 10
59.25
 20
40.8016
 11
59.25
 21
30
  0
LINE
  8
0
 10
58.9817
 20
30.5367
 11
59.25
 21
30
  0
LINE
  8
0
 10
59.5183
 20
30.5367
 11
59.25
 21
30
  0
LINE
  8
0
 10
59.55
 20
30
 11
54.3
 21
30
  0
POLYLINE
  8
0
 66
     1
 10
0
 20
0
  0
VERTEX
  8
0
 10
41.9223
 20
24.2973
  0
VERTEX
  8
0
 10
41.9223
 20
24.1493
  0
VERTEX
  8
0
 10
41.1063
 20
24.1493
  0
VERTEX
  8
0
 10
41.1087
 20
24.1929
  0
VERTEX
  8
0
 10
41.1179
 20
24.2373
  0
VERTEX
  8
0
 10
41.134
 20
24.2822
  0
VERTEX
  8
0
 10
41.157
 20
24.3279
  0
VERTEX
  8
0
 10
41.1869
 20
24.3742
  0
VERTEX
  8
0
 10
41.2237
 20
24.4211
  0
VERTEX
  8
0
 10
41.2769
 20
24.4791
  0
VERTEX
  8
0
 10
41.3433
 20
24.542
  0
VERTEX
  8
0
 10
41.4228
 20
24.6098
  0
VERTEX
  8
0
 10
41.4798
 20
24.6573
  0
VERTEX
  8
0
 10
41.5299
 20
24.7005
  0
VERTEX
  8
0
 10
41.5731
 20
24.7396
  0
VERTEX
  8
0
 10
41.6095
 20
24.7745
  0
VERTEX
  8
0
 10
41.6389
 20
24.8051
  0
VERTEX
  8
0
 10
41.6778
 20
24.8508
  0
VERTEX
  8
0
 10
41.7097
 20
24.8951
  0
VERTEX
  8
0
 10
41.7345
 20
24.9379
  0
VERTEX
  8
0
 10
41.7522
 20
24.9792
  0
VERTEX
  8
0
 10
41.7628
 20
25.0191
  0
VERTEX
  8
0
 10
41.7663
 20
25.0575
  0
VERTEX
  8
0
 10
41.7587
 20
25.118
  0
VERTEX
  8
0
 10
41.7356
 20
25.1704
  0
VERTEX
  8
0
 10
41.6972
 20
25.2146
  0
VERTEX
  8
0
 10
41.6497
 20
25.2468
  0
VERTEX
  8
0
 10
41.5951
 20
25.2664
  0
VERTEX
  8
0
 10
41.5334
 20
25.2733
  0
VERTEX
  8
0
 10
41.4799
 20
25.2694
  0
VERTEX
  8
0
 10
41.4326
 20
25.2568
  0
VERTEX
  8
0
 10
41.3913
 20
25.2356
  0
VERTEX
  8
0
 10
41.3562
 20
25.2057
  0
VERTEX
  8
0
 10
41.3205
 20
25.1549
  0
VERTEX
  8
0
 10
41.2988
 20
25.0937
  0
VERTEX
  8
0
 10
41.2912
 20
25.022
  0
VERTEX
  8
0
 10
41.1351
 20
25.0381
  0
VERTEX
  8
0
 10
41.1427
 20
25.094
  0
VERTEX
  8
0
 10
41.1552
 20
25.1453
  0
VERTEX
  8
0
 10
41.1728
 20
25.192
  0
VERTEX
  8
0
 10
41.1955
 20
25.2342
  0
VERTEX
  8
0
 10
41.2231
 20
25.2719
  0
VERTEX
  8
0
 10
41.2557
 20
25.3049
  0
VERTEX
  8
0
 10
41.3007
 20
25.3382
  0
VERTEX
  8
0
 10
41.3513
 20
25.364
  0
VERTEX
  8
0
 10
41.4075
 20
25.3825
  0
VERTEX
  8
0
 10
41.4693
 20
25.3936
  0
VERTEX
  8
0
 10
41.5367
 20
25.3973
  0
VERTEX
  8
0
 10
41.5999
 20
25.3937
  0
VERTEX
  8
0
 10
41.6586
 20
25.383
  0
VERTEX
  8
0
 10
41.7128
 20
25.3652
  0
VERTEX
  8
0
 10
41.7625
 20
25.3403
  0
VERTEX
  8
0
 10
41.8076
 20
25.3083
  0
VERTEX
  8
0
 10
41.8427
 20
25.2749
  0
VERTEX
  8
0
 10
41.8713
 20
25.2378
  0
VERTEX
  8
0
 10
41.8937
 20
25.197
  0
VERTEX
  8
0
 10
41.9096
 20
25.1526
  0
VERTEX
  8
0
 10
41.9192
 20
25.1044
  0
VERTEX
  8
0
 10
41.9223
 20
25.0526
  0
VERTEX
  8
0
 10
41.9187
 20
25.0032
  0
VERTEX
  8
0
 10
41.9077
 20
24.9537
  0
VERTEX
  8
0
 10
41.8894
 20
24.904
  0
VERTEX
  8
0
 10
41.8638
 20
24.8543
  0
VERTEX
  8
0
 10
41.8309
 20
24.8044
  0
VERTEX
  8
0
 10
41.7907
 20
24.7545
  0
VERTEX
  8
0
 10
41.7581
 20
24.7195
  0
VERTEX
  8
0
 10
41.7185
 20
24.6801
  0
VERTEX
  8
0
 10
41.6718
 20
24.6365
  0
VERTEX
  8
0
 10
41.6179
 20
24.5884
  0
VERTEX
  8
0
 10
41.557
 20
24.5361
  0
VERTEX
  8
0
 10
41.5168
 20
24.5021
  0
VERTEX
  8
0
 10
41.4837
 20
24.474
  0
VERTEX
  8
0
 10
41.4579
 20
24.4518
  0
VERTEX
  8
0
 10
41.4393
 20
24.4355
  0
VERTEX
  8
0
 10
41.4279
 20
24.4251
  0
VERTEX
  8
0
 10
41.3648
 20
24.3601
  0
VERTEX
  8
0
 10
41.3174
 20
24.2973
  0
VERTEX
  8
0
 10
41.9223
 20
24.2973
  0
SEQEND
  0
POLYLINE
  8
0
 66
     1
 10
0
 20
0
  0
VERTEX
  8
0
 10
42.5743
 20
24.1493
  0
VERTEX
  8
0
 10
42.5743
 20
24.4493
  0
VERTEX
  8
0
 10
42.0383
 20
24.4493
  0
VERTEX
  8
0
 10
42.0383
 20
24.5893
  0
VERTEX
  8
0
 10
42.6032
 20
25.3893
  0
VERTEX
  8
0
 10
42.7263
 20
25.3893
  0
VERTEX
  8
0
 10
42.7263
 20
24.5893
  0
VERTEX
  8
0
 10
42.8944
 20
24.5893
  0
VERTEX
  8
0
 10
42.8944
 20
24.4493
  0
VERTEX
  8
0
 10
42.7263
 20
24.4493
  0
VERTEX
  8
0
 10
42.7263
 20
24.1493
  0
VERTEX
  8
0
 10
42.5743
 20
24.1493
  0
SEQEND
  0
POLYLINE
  8
0
 66
     1
 10
0
 20
0
  0
VERTEX
  8
0
 10
42.5743
 20
24.5893
  0
VERTEX
  8
0
 10
42.5743
 20
25.1403
  0
VERTEX
  8
0
 10
42.1899
 20
24.5889
  0
VERTEX
  8
0
 10
42.5743
 20
24.5893
  0
SEQEND
  0
LINE
  8
0
 10
43.1984
 20
24.75
 11
54
 21
24.75
  0
LINE
  8
0
 10
53.4633
 20
24.4817
 11
54
 21
24.75
  0
LINE
  8
0
 10
53.4633
 20
25.0183
 11
54
 21
24.75
  0
LINE
  8
0
 10
54
 20
24.45
 11
54
 21
29.7
  0
LINE
  8
0
 10
40.8016
 20
24.75
 11
30
 21
24.75
  0
LINE
  8
0
 10
30.5367
 20
25.0183
 11
30
 21
24.75
  0
LINE
  8
0
 10
30.5367
 20
24.4817
 11
30
 21
24.75
  0
LINE
  8
0
 10
30
 20
24.45
 11
30
 21
29.7
  0
POLYLINE
  8
0
 66
     1
 10
0
 20
0
  0
VERTEX
  8
0
 10
30.4543
 20
22.1573
  0
VERTEX
  8
0
 10
30.3023
 20
22.1573
  0
VERTEX
  8
0
 10
30.3023
 20
23.1296
  0
VERTEX
  8
0
 10
30.2153
 20
23.0586
  0
VERTEX
  8
0
 10
30.1139
 20
22.9975
  0
VERTEX
  8
0
 10
29.9983
 20
22.9464
  0
VERTEX
  8
0
 10
29.9983
 20
23.0937
  0
VERTEX
  8
0
 10
30.0551
 20
23.1221
  0
VERTEX
  8
0
 10
30.1077
 20
23.1521
  0
VERTEX
  8
0
 10
30.156
 20
23.1836
  0
VERTEX
  8
0
 10
30.2
 20
23.2167
  0
VERTEX
  8
0
 10
30.2398
 20
23.2513
  0
VERTEX
  8
0
 10
30.2753
 20
23.2875
  0
VERTEX
  8
0
 10
30.3066
 20
23.3252
  0
VERTEX
  8
0
 10
30.3336
 20
23.3645
  0
VERTEX
  8
0
 10
30.3564
 20
23.4053
  0
VERTEX
  8
0
 10
30.4543
 20
23.4053
  0
VERTEX
  8
0
 10
30.4543
 20
22.1573
  0
SEQEND
  0
POLYLINE
  8
0
 66
     1
 10
0
 20
0
  0
VERTEX
  8
0
 10
30.9223
 20
22.1573
  0
VERTEX
  8
0
 10
30.9223
 20
22.3333
  0
VERTEX
  8
0
 10
31.0943
 20
22.3333
  0
VERTEX
  8
0
 10
31.0943
 20
22.1573
  0
VERTEX
  8
0
 10
30.9223
 20
22.1573
  0
SEQEND
  0
POLYLINE
  8
0
 66
     1
 10
0
 20
0
  0
VERTEX
  8
0
 10
31.3183
 20
22.4855
  0
VERTEX
  8
0
 10
31.478
 20
22.499
  0
VERTEX
  8
0
 10
31.484
 20
22.4668
  0
VERTEX
  8
0
 10
31.4916
 20
22.437
  0
VERTEX
  8
0
 10
31.5009
 20
22.4095
  0
VERTEX
  8
0
 10
31.512
 20
22.3845
  0
VERTEX
  8
0
 10
31.5247
 20
22.3618
  0
VERTEX
  8
0
 10
31.5392
 20
22.3416
  0
VERTEX
  8
0
 10
31.5554
 20
22.3237
  0
VERTEX
  8
0
 10
31.5732
 20
22.3082
  0
VERTEX
  8
0
 10
31.5928
 20
22.2951
  0
VERTEX
  8
0
 10
31.6141
 20
22.2843
  0
VERTEX
  8
0
 10
31.6371
 20
22.276
  0
VERTEX
  8
0
 10
31.6618
 20
22.27
  0
VERTEX
  8
0
 10
31.6882
 20
22.2665
  0
VERTEX
  8
0
 10
31.7163
 20
22.2653
  0
VERTEX
  8
0
 10
31.7631
 20
22.269
  0
VERTEX
  8
0
 10
31.8059
 20
22.2801
  0
VERTEX
  8
0
 10
31.8447
 20
22.2985
  0
VERTEX
  8
0
 10
31.8797
 20
22.3244
  0
VERTEX
  8
0
 10
31.9107
 20
22.3577
  0
VERTEX
  8
0
 10
31.9483
 20
22.4182
  0
VERTEX
  8
0
 10
31.9708
 20
22.4877
  0
VERTEX
  8
0
 10
31.9783
 20
22.5662
  0
VERTEX
  8
0
 10
31.974
 20
22.6254
  0
VERTEX
  8
0
 10
31.9608
 20
22.6787
  0
VERTEX
  8
0
 10
31.9389
 20
22.7261
  0
VERTEX
  8
0
 10
31.9082
 20
22.7675
  0
VERTEX
  8
0
 10
31.8697
 20
22.8012
  0
VERTEX
  8
0
 10
31.8245
 20
22.8254
  0
VERTEX
  8
0
 10
31.7726
 20
22.8401
  0
VERTEX
  8
0
 10
31.7138
 20
22.8453
  0
VERTEX
  8
0
 10
31.6672
 20
22.8422
  0
VERTEX
  8
0
 10
31.6242
 20
22.8326
  0
VERTEX
  8
0
 10
31.5847
 20
22.8163
  0
VERTEX
  8
0
 10
31.5489
 20
22.7934
  0
VERTEX
  8
0
 10
31.5167
 20
22.7639
  0
VERTEX
  8
0
 10
31.4882
 20
22.7277
  0
VERTEX
  8
0
 10
31.3453
 20
22.7463
  0
VERTEX
  8
0
 10
31.4652
 20
23.3813
  0
VERTEX
  8
0
 10
32.0807
 20
23.3813
  0
VERTEX
  8
0
 10
32.0807
 20
23.2373
  0
VERTEX
  8
0
 10
31.5887
 20
23.2373
  0
VERTEX
  8
0
 10
31.5217
 20
22.9038
  0
VERTEX
  8
0
 10
31.5969
 20
22.9465
  0
VERTEX
  8
0
 10
31.6746
 20
22.9723
  0
VERTEX
  8
0
 10
31.7547
 20
22.9813
  0
VERTEX
  8
0
 10
31.8092
 20
22.9783
  0
VERTEX
  8
0
 10
31.8603
 20
22.9687
  0
VERTEX
  8
0
 10
31.9082
 20
22.9526
  0
VERTEX
  8
0
 10
31.9529
 20
22.93
  0
VERTEX
  8
0
 10
31.9942
 20
22.9008
  0
VERTEX
  8
0
 10
32.0323
 20
22.865
  0
VERTEX
  8
0
 10
32.0647
 20
22.8255
  0
VERTEX
  8
0
 10
32.0912
 20
22.7829
  0
VERTEX
  8
0
 10
32.1118
 20
22.7372
  0
VERTEX
  8
0
 10
32.1266
 20
22.6883
  0
VERTEX
  8
0
 10
32.1354
 20
22.6362
  0
VERTEX
  8
0
 10
32.1383
 20
22.5811
  0
VERTEX
  8
0
 10
32.1344
 20
22.5161
  0
VERTEX
  8
0
 10
32.1227
 20
22.4546
  0
VERTEX
  8
0
 10
32.1031
 20
22.3967
  0
VERTEX
  8
0
 10
32.0757
 20
22.3422
  0
VERTEX
  8
0
 10
32.0405
 20
22.2913
  0
VERTEX
  8
0
 10
32.0094
 20
22.2563
  0
VERTEX
  8
0
 10
31.9756
 20
22.2259
  0
VERTEX
  8
0
 10
31.939
 20
22.2002
  0
VERTEX
  8
0
 10
31.8998
 20
22.1792
  0
VERTEX
  8
0
 10
31.8579
 20
22.1627
  0
VERTEX
  8
0
 10
31.8132
 20
22.1509
  0
VERTEX
  8
0
 10
31.7658
 20
22.1438
  0
VERTEX
  8
0
 10
31.7157
 20
22.1413
  0
VERTEX
  8
0
 10
31.6522
 20
22.1449
  0
VERTEX
  8
0
 10
31.5933
 20
22.1557
  0
VERTEX
  8
0
 10
31.5389
 20
22.1737
  0
VERTEX
  8
0
 10
31.4892
 20
22.1989
  0
VERTEX
  8
0
 10
31.444
 20
22.2313
  0
VERTEX
  8
0
 10
31.4039
 20
22.2711
  0
VERTEX
  8
0
 10
31.3713
 20
22.3164
  0
VERTEX
  8
0
 10
31.3461
 20
22.3673
  0
VERTEX
  8
0
 10
31.3285
 20
22.4236
  0
VERTEX
  8
0
 10
31.3183
 20
22.4855
  0
VERTEX
  8
0
 10
31.3183
 20
22.4855
  0
SEQEND
  0
POLYLINE
  8
0
 66
     1
 10
0
 20
0
  0
VERTEX
  8
0
 10
32.2863
 20
22.7728
  0
VERTEX
  8
0
 10
32.287
 20
22.8234
  0
VERTEX
  8
0
 10
32.2891
 20
22.8719
  0
VERTEX
  8
0
 10
32.2926
 20
22.9183
  0
VERTEX
  8
0
 10
32.2975
 20
22.9626
  0
VERTEX
  8
0
 10
32.3038
 20
23.0049
  0
VERTEX
  8
0
 10
32.3115
 20
23.0451
  0
VERTEX
  8
0
 10
32.3206
 20
23.0832
  0
VERTEX
  8
0
 10
32.3311
 20
23.1192
  0
VERTEX
  8
0
 10
32.343
 20
23.1532
  0
VERTEX
  8
0
 10
32.3563
 20
23.185
  0
VERTEX
  8
0
 10
32.371
 20
23.2148
  0
VERTEX
  8
0
 10
32.3871
 20
23.2426
  0
VERTEX
  8
0
 10
32.4046
 20
23.2682
  0
VERTEX
  8
0
 10
32.4235
 20
23.2918
  0
VERTEX
  8
0
 10
32.4438
 20
23.3132
  0
VERTEX
  8
0
 10
32.4655
 20
23.3326
  0
VERTEX
  8
0
 10
32.5125
 20
23.3641
  0
VERTEX
  8
0
 10
32.5657
 20
23.3867
  0
VERTEX
  8
0
 10
32.6249
 20
23.4004
  0
VERTEX
  8
0
 10
32.6903
 20
23.4053
  0
VERTEX
  8
0
 10
32.7827
 20
23.3955
  0
VERTEX
  8
0
 10
32.8653
 20
23.3648
  0
VERTEX
  8
0
 10
32.8995
 20
23.3436
  0
VERTEX
  8
0
 10
32.9311
 20
23.3178
  0
VERTEX
  8
0
 10
32.9601
 20
23.2874
  0
VERTEX
  8
0
 10
32.9866
 20
23.2522
  0
VERTEX
  8
0
 10
33.0104
 20
23.2124
  0
VERTEX
  8
0
 10
33.0317
 20
23.168
  0
VERTEX
  8
0
 10
33.0504
 20
23.1188
  0
VERTEX
  8
0
 10
33.0665
 20
23.065
  0
VERTEX
  8
0
 10
33.0787
 20
23.0068
  0
VERTEX
  8
0
 10
33.0874
 20
22.9387
  0
VERTEX
  8
0
 10
33.0926
 20
22.8607
  0
VERTEX
  8
0
 10
33.0943
 20
22.7728
  0
VERTEX
  8
0
 10
33.0935
 20
22.7191
  0
VERTEX
  8
0
 10
33.0912
 20
22.6677
  0
VERTEX
  8
0
 10
33.0872
 20
22.6186
  0
VERTEX
  8
0
 10
33.0816
 20
22.5719
  0
VERTEX
  8
0
 10
33.0744
 20
22.5276
  0
VERTEX
  8
0
 10
33.0657
 20
22.4856
  0
VERTEX
  8
0
 10
33.0553
 20
22.446
  0
VERTEX
  8
0
 10
33.0434
 20
22.4088
  0
VERTEX
  8
0
 10
33.0298
 20
22.3739
  0
VERTEX
  8
0
 10
33.0147
 20
22.3413
  0
VERTEX
  8
0
 10
32.998
 20
22.3111
  0
VERTEX
  8
0
 10
32.9797
 20
22.2833
  0
VERTEX
  8
0
 10
32.9598
 20
22.2578
  0
VERTEX
  8
0
 10
32.9382
 20
22.2347
  0
VERTEX
  8
0
 10
32.9152
 20
22.2139
  0
VERTEX
  8
0
 10
32.8681
 20
22.1824
  0
VERTEX
  8
0
 10
32.815
 20
22.1599
  0
VERTEX
  8
0
 10
32.7557
 20
22.1461
  0
VERTEX
  8
0
 10
32.6903
 20
22.1413
  0
VERTEX
  8
0
 10
32.6688
 20
22.1416
  0
VERTEX
  8
0
 10
32.6479
 20
22.1429
  0
VERTEX
  8
0
 10
32.6276
 20
22.1452
  0
VERTEX
  8
0
 10
32.6079
 20
22.1483
  0
VERTEX
  8
0
 10
32.5887
 20
22.1524
  0
VERTEX
  8
0
 10
32.5702
 20
22.1574
  0
VERTEX
  8
0
 10
32.5522
 20
22.1634
  0
VERTEX
  8
0
 10
32.5348
 20
22.1702
  0
VERTEX
  8
0
 10
32.518
 20
22.178
  0
VERTEX
  8
0
 10
32.5018
 20
22.1867
  0
VERTEX
  8
0
 10
32.4862
 20
22.1964
  0
VERTEX
  8
0
 10
32.4712
 20
22.207
  0
VERTEX
  8
0
 10
32.4567
 20
22.2185
  0
VERTEX
  8
0
 10
32.4429
 20
22.2309
  0
VERTEX
  8
0
 10
32.4296
 20
22.2443
  0
VERTEX
  8
0
 10
32.4169
 20
22.2585
  0
VERTEX
  8
0
 10
32.4048
 20
22.2738
  0
VERTEX
  8
0
 10
32.3933
 20
22.2899
  0
VERTEX
  8
0
 10
32.3824
 20
22.307
  0
VERTEX
  8
0
 10
32.3721
 20
22.325
  0
VERTEX
  8
0
 10
32.3623
 20
22.3439
  0
VERTEX
  8
0
 10
32.3532
 20
22.3637
  0
VERTEX
  8
0
 10
32.3446
 20
22.3845
  0
VERTEX
  8
0
 10
32.3366
 20
22.4062
  0
VERTEX
  8
0
 10
32.3292
 20
22.4289
  0
VERTEX
  8
0
 10
32.3224
 20
22.4524
  0
VERTEX
  8
0
 10
32.3162
 20
22.4769
  0
VERTEX
  8
0
 10
32.3106
 20
22.5023
  0
VERTEX
  8
0
 10
32.3055
 20
22.5287
  0
VERTEX
  8
0
 10
32.3011
 20
22.5559
  0
VERTEX
  8
0
 10
32.2972
 20
22.5841
  0
VERTEX
  8
0
 10
32.2939
 20
22.6133
  0
VERTEX
  8
0
 10
32.2912
 20
22.6433
  0
VERTEX
  8
0
 10
32.2891
 20
22.6743
  0
VERTEX
  8
0
 10
32.2876
 20
22.7062
  0
VERTEX
  8
0
 10
32.2867
 20
22.7391
  0
VERTEX
  8
0
 10
32.2863
 20
22.7728
  0
VERTEX
  8
0
 10
32.2863
 20
22.7728
  0
SEQEND
  0
POLYLINE
  8
0
 66
     1
 10
0
 20
0
  0
VERTEX
  8
0
 10
32.4423
 20
22.7733
  0
VERTEX
  8
0
 10
32.4437
 20
22.6942
  0
VERTEX
  8
0
 10
32.4476
 20
22.623
  0
VERTEX
  8
0
 10
32.4542
 20
22.5597
  0
VERTEX
  8
0
 10
32.4635
 20
22.5042
  0
VERTEX
  8
0
 10
32.4753
 20
22.4566
  0
VERTEX
  8
0
 10
32.4877
 20
22.4204
  0
VERTEX
  8
0
 10
32.5021
 20
22.388
  0
VERTEX
  8
0
 10
32.5185
 20
22.3594
  0
VERTEX
  8
0
 10
32.537
 20
22.3346
  0
VERTEX
  8
0
 10
32.5575
 20
22.3135
  0
VERTEX
  8
0
 10
32.58
 20
22.2963
  0
VERTEX
  8
0
 10
32.6045
 20
22.2829
  0
VERTEX
  8
0
 10
32.6311
 20
22.2732
  0
VERTEX
  8
0
 10
32.6597
 20
22.2673
  0
VERTEX
  8
0
 10
32.6903
 20
22.2653
  0
VERTEX
  8
0
 10
32.7077
 20
22.2658
  0
VERTEX
  8
0
 10
32.7245
 20
22.2676
  0
VERTEX
  8
0
 10
32.7406
 20
22.2708
  0
VERTEX
  8
0
 10
32.7561
 20
22.2752
  0
VERTEX
  8
0
 10
32.771
 20
22.281
  0
VERTEX
  8
0
 10
32.7852
 20
22.288
  0
VERTEX
  8
0
 10
32.7988
 20
22.2964
  0
VERTEX
  8
0
 10
32.8118
 20
22.306
  0
VERTEX
  8
0
 10
32.8241
 20
22.317
  0
VERTEX
  8
0
 10
32.8359
 20
22.3293
  0
VERTEX
  8
0
 10
32.8469
 20
22.3429
  0
VERTEX
  8
0
 10
32.8574
 20
22.3577
  0
VERTEX
  8
0
 10
32.8672
 20
22.3739
  0
VERTEX
  8
0
 10
32.8763
 20
22.3914
  0
VERTEX
  8
0
 10
32.8849
 20
22.4102
  0
VERTEX
  8
0
 10
32.8928
 20
22.4303
  0
VERTEX
  8
0
 10
32.9001
 20
22.4517
  0
VERTEX
  8
0
 10
32.9067
 20
22.4744
  0
VERTEX
  8
0
 10
32.9127
 20
22.4984
  0
VERTEX
  8
0
 10
32.9181
 20
22.5238
  0
VERTEX
  8
0
 10
32.9228
 20
22.5504
  0
VERTEX
  8
0
 10
32.927
 20
22.5783
  0
VERTEX
  8
0
 10
32.9304
 20
22.6075
  0
VERTEX
  8
0
 10
32.9333
 20
22.6381
  0
VERTEX
  8
0
 10
32.9355
 20
22.6699
  0
VERTEX
  8
0
 10
32.9371
 20
22.7031
  0
VERTEX
  8
0
 10
32.938
 20
22.7375
  0
VERTEX
  8
0
 10
32.9383
 20
22.7733
  0
VERTEX
  8
0
 10
32.937
 20
22.8523
  0
VERTEX
  8
0
 10
32.9331
 20
22.9235
  0
VERTEX
  8
0
 10
32.9265
 20
22.9868
  0
VERTEX
  8
0
 10
32.9172
 20
23.0423
  0
VERTEX
  8
0
 10
32.9053
 20
23.0899
  0
VERTEX
  8
0
 10
32.8928
 20
23.1261
  0
VERTEX
  8
0
 10
32.8783
 20
23.1585
  0
VERTEX
  8
0
 10
32.8617
 20
23.1871
  0
VERTEX
  8
0
 10
32.843
 20
23.212
  0
VERTEX
  8
0
 10
32.8224
 20
23.233
  0
VERTEX
  8
0
 10
32.7997
 20
23.2502
  0
VERTEX
  8
0
 10
32.775
 20
23.2637
  0
VERTEX
  8
0
 10
32.7482
 20
23.2733
  0
VERTEX
  8
0
 10
32.7195
 20
23.2792
  0
VERTEX
  8
0
 10
32.6887
 20
23.2813
  0
VERTEX
  8
0
 10
32.6388
 20
23.276
  0
VERTEX
  8
0
 10
32.5943
 20
23.2595
  0
VERTEX
  8
0
 10
32.555
 20
23.2316
  0
VERTEX
  8
0
 10
32.521
 20
23.1924
  0
VERTEX
  8
0
 10
32.5061
 20
23.1681
  0
VERTEX
  8
0
 10
32.4927
 20
23.1398
  0
VERTEX
  8
0
 10
32.4809
 20
23.1077
  0
VERTEX
  8
0
 10
32.4707
 20
23.0717
  0
VERTEX
  8
0
 10
32.462
 20
23.0317
  0
VERTEX
  8
0
 10
32.4549
 20
22.9878
  0
VERTEX
  8
0
 10
32.4494
 20
22.9401
  0
VERTEX
  8
0
 10
32.4455
 20
22.8884
  0
VERTEX
  8
0
 10
32.4431
 20
22.8328
  0
VERTEX
  8
0
 10
32.4423
 20
22.7733
  0
VERTEX
  8
0
 10
32.4423
 20
22.7733
  0
SEQEND
  0
POLYLINE
  8
0
 66
     1
 10
0
 20
0
  0
VERTEX
  8
0
 10
33.2963
 20
22.9613
  0
VERTEX
  8
0
 10
33.2543
 20
23.1956
  0
VERTEX
  8
0
 10
33.2543
 20
23.3973
  0
VERTEX
  8
0
 10
33.4263
 20
23.3973
  0
VERTEX
  8
0
 10
33.4263
 20
23.1956
  0
VERTEX
  8
0
 10
33.3886
 20
22.9613
  0
VERTEX
  8
0
 10
33.2963
 20
22.9613
  0
SEQEND
  0
POLYLINE
  8
0
 66
     1
 10
0
 20
0
  0
VERTEX
  8
0
 10
33.5755
 20
22.9613
  0
VERTEX
  8
0
 10
33.5343
 20
23.1956
  0
VERTEX
  8
0
 10
33.5343
 20
23.3973
  0
VERTEX
  8
0
 10
33.7063
 20
23.3973
  0
VERTEX
  8
0
 10
33.7063
 20
23.1956
  0
VERTEX
  8
0
 10
33.6661
 20
22.9613
  0
VERTEX
  8
0
 10
33.5755
 20
22.9613
  0
SEQEND
  0
POLYLINE
  8
0
 66
     1
 10
0
 20
0
  0
VERTEX
  8
0
 10
34.7263
 20
22.1573
  0
VERTEX
  8
0
 10
34.7263
 20
23.3973
  0
VERTEX
  8
0
 10
35.2743
 20
23.3973
  0
VERTEX
  8
0
 10
35.3615
 20
23.3947
  0
VERTEX
  8
0
 10
35.4343
 20
23.3871
  0
VERTEX
  8
0
 10
35.4927
 20
23.3745
  0
VERTEX
  8
0
 10
35.5456
 20
23.3537
  0
VERTEX
  8
0
 10
35.5917
 20
23.3254
  0
VERTEX
  8
0
 10
35.6308
 20
23.2894
  0
VERTEX
  8
0
 10
35.6629
 20
23.2459
  0
VERTEX
  8
0
 10
35.7011
 20
23.1573
  0
VERTEX
  8
0
 10
35.7143
 20
23.059
  0
VERTEX
  8
0
 10
35.7137
 20
23.0321
  0
VERTEX
  8
0
 10
35.7115
 20
23.0063
  0
VERTEX
  8
0
 10
35.7077
 20
22.9816
  0
VERTEX
  8
0
 10
35.7023
 20
22.958
  0
VERTEX
  8
0
 10
35.6953
 20
22.9355
  0
VERTEX
  8
0
 10
35.6867
 20
22.914
  0
VERTEX
  8
0
 10
35.6765
 20
22.8936
  0
VERTEX
  8
0
 10
35.6647
 20
22.8743
  0
VERTEX
  8
0
 10
35.6514
 20
22.8561
  0
VERTEX
  8
0
 10
35.6364
 20
22.8389
  0
VERTEX
  8
0
 10
35.6199
 20
22.8229
  0
VERTEX
  8
0
 10
35.6018
 20
22.8079
  0
VERTEX
  8
0
 10
35.5821
 20
22.794
  0
VERTEX
  8
0
 10
35.5608
 20
22.7811
  0
VERTEX
  8
0
 10
35.5379
 20
22.7694
  0
VERTEX
  8
0
 10
35.5134
 20
22.7587
  0
VERTEX
  8
0
 10
35.4873
 20
22.7491
  0
VERTEX
  8
0
 10
35.4596
 20
22.7406
  0
VERTEX
  8
0
 10
35.4304
 20
22.7331
  0
VERTEX
  8
0
 10
35.3995
 20
22.7267
  0
VERTEX
  8
0
 10
35.3671
 20
22.7215
  0
VERTEX
  8
0
 10
35.4247
 20
22.6904
  0
VERTEX
  8
0
 10
35.4658
 20
22.6597
  0
VERTEX
  8
0
 10
35.5374
 20
22.5834
  0
VERTEX
  8
0
 10
35.6018
 20
22.4948
  0
VERTEX
  8
0
 10
35.817
 20
22.1573
  0
VERTEX
  8
0
 10
35.6137
 20
22.1573
  0
VERTEX
  8
0
 10
35.4482
 20
22.4193
  0
VERTEX
  8
0
 10
35.397
 20
22.4981
  0
VERTEX
  8
0
 10
35.3569
 20
22.5561
  0
VERTEX
  8
0
 10
35.2971
 20
22.6294
  0
VERTEX
  8
0
 10
35.2462
 20
22.6742
  0
VERTEX
  8
0
 10
35.209
 20
22.6948
  0
VERTEX
  8
0
 10
35.1718
 20
22.7073
  0
VERTEX
  8
0
 10
35.1359
 20
22.7118
  0
VERTEX
  8
0
 10
35.0805
 20
22.7133
  0
VERTEX
  8
0
 10
34.8903
 20
22.7133
  0
VERTEX
  8
0
 10
34.8903
 20
22.1573
  0
VERTEX
  8
0
 10
34.7263
 20
22.1573
  0
SEQEND
  0
POLYLINE
  8
0
 66
     1
 10
0
 20
0
  0
VERTEX
  8
0
 10
34.8903
 20
22.8533
  0
VERTEX
  8
0
 10
35.242
 20
22.8533
  0
VERTEX
  8
0
 10
35.292
 20
22.8548
  0
VERTEX
  8
0
 10
35.3374
 20
22.8593
  0
VERTEX
  8
0
 10
35.3782
 20
22.8669
  0
VERTEX
  8
0
 10
35.4144
 20
22.8775
  0
VERTEX
  8
0
 10
35.446
 20
22.8911
  0
VERTEX
  8
0
 10
35.4731
 20
22.9077
  0
VERTEX
  8
0
 10
35.4956
 20
22.9273
  0
VERTEX
  8
0
 10
35.5135
 20
22.95
  0
VERTEX
  8
0
 10
35.5381
 20
23.0034
  0
VERTEX
  8
0
 10
35.5463
 20
23.0611
  0
VERTEX
  8
0
 10
35.5411
 20
23.1107
  0
VERTEX
  8
0
 10
35.5255
 20
23.1534
  0
VERTEX
  8
0
 10
35.4994
 20
23.1893
  0
VERTEX
  8
0
 10
35.4628
 20
23.2184
  0
VERTEX
  8
0
 10
35.4124
 20
23.2422
  0
VERTEX
  8
0
 10
35.352
 20
23.2565
  0
VERTEX
  8
0
 10
35.2816
 20
23.2613
  0
VERTEX
  8
0
 10
34.8903
 20
23.2613
  0
VERTEX
  8
0
 10
34.8903
 20
22.8533
  0
SEQEND
  0
POLYLINE
  8
0
 66
     1
 10
0
 20
0
  0
VERTEX
  8
0
 10
36.5428
 20
22.2718
  0
VERTEX
  8
0
 10
36.4912
 20
22.2322
  0
VERTEX
  8
0
 10
36.4383
 20
22.1997
  0
VERTEX
  8
0
 10
36.3839
 20
22.1743
  0
VERTEX
  8
0
 10
36.3283
 20
22.1561
  0
VERTEX
  8
0
 10
36.2712
 20
22.1451
  0
VERTEX
  8
0
 10
36.2128
 20
22.1413
  0
VERTEX
  8
0
 10
36.1304
 20
22.1476
  0
VERTEX
  8
0
 10
36.0589
 20
22.1679
  0
VERTEX
  8
0
 10
35.9983
 20
22.2021
  0
VERTEX
  8
0
 10
35.9655
 20
22.2318
  0
VERTEX
  8
0
 10
35.9399
 20
22.2663
  0
VERTEX
  8
0
 10
35.9215
 20
22.3055
  0
VERTEX
  8
0
 10
35.9103
 20
22.3495
  0
VERTEX
  8
0
 10
35.9063
 20
22.3981
  0
VERTEX
  8
0
 10
35.9091
 20
22.4405
  0
VERTEX
  8
0
 10
35.9179
 20
22.4798
  0
VERTEX
  8
0
 10
35.9329
 20
22.516
  0
VERTEX
  8
0
 10
35.9539
 20
22.5491
  0
VERTEX
  8
0
 10
35.9811
 20
22.5791
  0
VERTEX
  8
0
 10
36.0143
 20
22.606
  0
VERTEX
  8
0
 10
36.0649
 20
22.6349
  0
VERTEX
  8
0
 10
36.1239
 20
22.6558
  0
VERTEX
  8
0
 10
36.1791
 20
22.6674
  0
VERTEX
  8
0
 10
36.2588
 20
22.6786
  0
VERTEX
  8
0
 10
36.3301
 20
22.688
  0
VERTEX
  8
0
 10
36.3928
 20
22.698
  0
VERTEX
  8
0
 10
36.4469
 20
22.7084
  0
VERTEX
  8
0
 10
36.4925
 20
22.7195
  0
VERTEX
  8
0
 10
36.5295
 20
22.731
  0
VERTEX
  8
0
 10
36.5297
 20
22.7575
  0
VERTEX
  8
0
 10
36.5303
 20
22.7708
  0
VERTEX
  8
0
 10
36.5256
 20
22.8266
  0
VERTEX
  8
0
 10
36.5112
 20
22.8703
  0
VERTEX
  8
0
 10
36.4873
 20
22.9017
  0
VERTEX
  8
0
 10
36.4426
 20
22.93
  0
VERTEX
  8
0
 10
36.385
 20
22.9471
  0
VERTEX
  8
0
 10
36.3145
 20
22.9533
  0
VERTEX
  8
0
 10
36.2516
 20
22.9497
  0
VERTEX
  8
0
 10
36.2002
 20
22.9378
  0
VERTEX
  8
0
 10
36.1602
 20
22.9176
  0
VERTEX
  8
0
 10
36.1273
 20
22.8855
  0
VERTEX
  8
0
 10
36.1009
 20
22.8402
  0
VERTEX
  8
0
 10
36.0809
 20
22.7818
  0
VERTEX
  8
0
 10
35.9325
 20
22.802
  0
VERTEX
  8
0
 10
35.9443
 20
22.8461
  0
VERTEX
  8
0
 10
35.9599
 20
22.8863
  0
VERTEX
  8
0
 10
35.9792
 20
22.9226
  0
VERTEX
  8
0
 10
36.0024
 20
22.955
  0
VERTEX
  8
0
 10
36.0294
 20
22.9834
  0
VERTEX
  8
0
 10
36.0601
 20
23.008
  0
VERTEX
  8
0
 10
36.0946
 20
23.0286
  0
VERTEX
  8
0
 10
36.133
 20
23.0453
  0
VERTEX
  8
0
 10
36.2263
 20
23.0689
  0
VERTEX
  8
0
 10
36.336
 20
23.0773
  0
VERTEX
  8
0
 10
36.3868
 20
23.076
  0
VERTEX
  8
0
 10
36.4336
 20
23.0716
  0
VERTEX
  8
0
 10
36.4762
 20
23.0642
  0
VERTEX
  8
0
 10
36.5147
 20
23.0538
  0
VERTEX
  8
0
 10
36.5491
 20
23.0403
  0
VERTEX
  8
0
 10
36.5793
 20
23.0237
  0
VERTEX
  8
0
 10
36.6055
 20
23.0041
  0
VERTEX
  8
0
 10
36.6276
 20
22.9815
  0
VERTEX
  8
0
 10
36.6558
 20
22.9358
  0
VERTEX
  8
0
 10
36.6748
 20
22.8782
  0
VERTEX
  8
0
 10
36.679
 20
22.8475
  0
VERTEX
  8
0
 10
36.6815
 20
22.8006
  0
VERTEX
  8
0
 10
36.6823
 20
22.7376
  0
VERTEX
  8
0
 10
36.6823
 20
22.5343
  0
VERTEX
  8
0
 10
36.6824
 20
22.4912
  0
VERTEX
  8
0
 10
36.6824
 20
22.4536
  0
VERTEX
  8
0
 10
36.6825
 20
22.4213
  0
VERTEX
  8
0
 10
36.6826
 20
22.3945
  0
VERTEX
  8
0
 10
36.6827
 20
22.373
  0
VERTEX
  8
0
 10
36.6828
 20
22.357
  0
VERTEX
  8
0
 10
36.683
 20
22.3463
  0
VERTEX
  8
0
 10
36.6832
 20
22.3411
  0
VERTEX
  8
0
 10
36.6989
 20
22.2392
  0
VERTEX
  8
0
 10
36.732
 20
22.1573
  0
VERTEX
  8
0
 10
36.5733
 20
22.1573
  0
VERTEX
  8
0
 10
36.5543
 20
22.2104
  0
VERTEX
  8
0
 10
36.5428
 20
22.2718
  0
VERTEX
  8
0
 10
36.5428
 20
22.2718
  0
SEQEND
  0
POLYLINE
  8
0
 66
     1
 10
0
 20
0
  0
VERTEX
  8
0
 10
36.5303
 20
22.6112
  0
VERTEX
  8
0
 10
36.484
 20
22.5953
  0
VERTEX
  8
0
 10
36.4273
 20
22.5805
  0
VERTEX
  8
0
 10
36.3603
 20
22.5667
  0
VERTEX
  8
0
 10
36.2831
 20
22.554
  0
VERTEX
  8
0
 10
36.2184
 20
22.5435
  0
VERTEX
  8
0
 10
36.1772
 20
22.5338
  0
VERTEX
  8
0
 10
36.1258
 20
22.5092
  0
VERTEX
  8
0
 10
36.0913
 20
22.4741
  0
VERTEX
  8
0
 10
36.076
 20
22.4406
  0
VERTEX
  8
0
 10
36.0703
 20
22.4026
  0
VERTEX
  8
0
 10
36.0762
 20
22.3586
  0
VERTEX
  8
0
 10
36.095
 20
22.3222
  0
VERTEX
  8
0
 10
36.1267
 20
22.2932
  0
VERTEX
  8
0
 10
36.182
 20
22.2692
  0
VERTEX
  8
0
 10
36.2503
 20
22.2613
  0
VERTEX
  8
0
 10
36.2905
 20
22.263
  0
VERTEX
  8
0
 10
36.3277
 20
22.2683
  0
VERTEX
  8
0
 10
36.362
 20
22.2772
  0
VERTEX
  8
0
 10
36.3934
 20
22.2895
  0
VERTEX
  8
0
 10
36.4218
 20
22.3054
  0
VERTEX
  8
0
 10
36.4473
 20
22.3248
  0
VERTEX
  8
0
 10
36.4698
 20
22.3478
  0
VERTEX
  8
0
 10
36.4894
 20
22.3743
  0
VERTEX
  8
0
 10
36.506
 20
22.4043
  0
VERTEX
  8
0
 10
36.5242
 20
22.4678
  0
VERTEX
  8
0
 10
36.5303
 20
22.5557
  0
VERTEX
  8
0
 10
36.5303
 20
22.6112
  0
SEQEND
  0
POLYLINE
  8
0
 66
     1
 10
0
 20
0
  0
VERTEX
  8
0
 10
37.4983
 20
22.1573
  0
VERTEX
  8
0
 10
37.4983
 20
22.2744
  0
VERTEX
  8
0
 10
37.4727
 20
22.2393
  0
VERTEX
  8
0
 10
37.4438
 20
22.2095
  0
VERTEX
  8
0
 10
37.4116
 20
22.1851
  0
VERTEX
  8
0
 10
37.376
 20
22.1661
  0
VERTEX
  8
0
 10
37.3371
 20
22.1525
  0
VERTEX
  8
0
 10
37.2949
 20
22.1442
  0
VERTEX
  8
0
 10
37.2494
 20
22.1413
  0
VERTEX
  8
0
 10
37.1784
 20
22.1477
  0
VERTEX
  8
0
 10
37.1119
 20
22.1682
  0
VERTEX
  8
0
 10
37.0499
 20
22.2028
  0
VERTEX
  8
0
 10
36.9721
 20
22.2735
  0
VERTEX
  8
0
 10
36.9145
 20
22.3656
  0
VERTEX
  8
0
 10
36.8788
 20
22.4777
  0
VERTEX
  8
0
 10
36.8663
 20
22.6085
  0
VERTEX
  8
0
 10
36.8673
 20
22.6559
  0
VERTEX
  8
0
 10
36.8708
 20
22.7009
  0
VERTEX
  8
0
 10
36.8769
 20
22.7435
  0
VERTEX
  8
0
 10
36.8854
 20
22.7837
  0
VERTEX
  8
0
 10
36.8965
 20
22.8216
  0
VERTEX
  8
0
 10
36.9101
 20
22.857
  0
VERTEX
  8
0
 10
36.9262
 20
22.89
  0
VERTEX
  8
0
 10
36.9448
 20
22.9206
  0
VERTEX
  8
0
 10
36.966
 20
22.9488
  0
VERTEX
  8
0
 10
36.9897
 20
22.9747
  0
VERTEX
  8
0
 10
37.0159
 20
22.9981
  0
VERTEX
  8
0
 10
37.0447
 20
23.0191
  0
VERTEX
  8
0
 10
37.106
 20
23.0514
  0
VERTEX
  8
0
 10
37.1725
 20
23.0708
  0
VERTEX
  8
0
 10
37.244
 20
23.0773
  0
VERTEX
  8
0
 10
37.2875
 20
23.0748
  0
VERTEX
  8
0
 10
37.3283
 20
23.0673
  0
VERTEX
  8
0
 10
37.3662
 20
23.0548
  0
VERTEX
  8
0
 10
37.4014
 20
23.0373
  0
VERTEX
  8
0
 10
37.4339
 20
23.0148
  0
VERTEX
  8
0
 10
37.4635
 20
22.9873
  0
VERTEX
  8
0
 10
37.4903
 20
22.9548
  0
VERTEX
  8
0
 10
37.4903
 20
23.3973
  0
VERTEX
  8
0
 10
37.6423
 20
23.3973
  0
VERTEX
  8
0
 10
37.6423
 20
22.1573
  0
VERTEX
  8
0
 10
37.4983
 20
22.1573
  0
SEQEND
  0
POLYLINE
  8
0
 66
     1
 10
0
 20
0
  0
VERTEX
  8
0
 10
37.0223
 20
22.6088
  0
VERTEX
  8
0
 10
37.0283
 20
22.5228
  0
VERTEX
  8
0
 10
37.046
 20
22.4464
  0
VERTEX
  8
0
 10
37.0755
 20
22.3795
  0
VERTEX
  8
0
 10
37.0989
 20
22.3448
  0
VERTEX
  8
0
 10
37.1257
 20
22.3164
  0
VERTEX
  8
0
 10
37.1558
 20
22.2943
  0
VERTEX
  8
0
 10
37.1893
 20
22.2783
  0
VERTEX
  8
0
 10
37.2262
 20
22.2687
  0
VERTEX
  8
0
 10
37.2664
 20
22.2653
  0
VERTEX
  8
0
 10
37.3061
 20
22.268
  0
VERTEX
  8
0
 10
37.3424
 20
22.2769
  0
VERTEX
  8
0
 10
37.3753
 20
22.2919
  0
VERTEX
  8
0
 10
37.4049
 20
22.313
  0
VERTEX
  8
0
 10
37.4311
 20
22.3402
  0
VERTEX
  8
0
 10
37.4539
 20
22.3736
  0
VERTEX
  8
0
 10
37.4825
 20
22.4382
  0
VERTEX
  8
0
 10
37.4997
 20
22.5124
  0
VERTEX
  8
0
 10
37.5054
 20
22.5961
  0
VERTEX
  8
0
 10
37.4999
 20
22.6869
  0
VERTEX
  8
0
 10
37.4833
 20
22.7661
  0
VERTEX
  8
0
 10
37.4556
 20
22.834
  0
VERTEX
  8
0
 10
37.4323
 20
22.8704
  0
VERTEX
  8
0
 10
37.4053
 20
22.9002
  0
VERTEX
  8
0
 10
37.3745
 20
22.9234
  0
VERTEX
  8
0
 10
37.34
 20
22.94
  0
VERTEX
  8
0
 10
37.3017
 20
22.95
  0
VERTEX
  8
0
 10
37.2597
 20
22.9533
  0
VERTEX
  8
0
 10
37.2187
 20
22.9501
  0
VERTEX
  8
0
 10
37.1816
 20
22.9406
  0
VERTEX
  8
0
 10
37.1482
 20
22.9247
  0
VERTEX
  8
0
 10
37.1185
 20
22.9025
  0
VERTEX
  8
0
 10
37.0926
 20
22.8739
  0
VERTEX
  8
0
 10
37.0705
 20
22.839
  0
VERTEX
  8
0
 10
37.0437
 20
22.7736
  0
VERTEX
  8
0
 10
37.0277
 20
22.6968
  0
VERTEX
  8
0
 10
37.0223
 20
22.6088
  0
VERTEX
  8
0
 10
37.0223
 20
22.6088
  0
SEQEND
  0
POLYLINE
  8
0
 66
     1
 10
0
 20
0
  0
VERTEX
  8
0
 10
37.8783
 20
23.2213
  0
VERTEX
  8
0
 10
37.8783
 20
23.3973
  0
VERTEX
  8
0
 10
38.0303
 20
23.3973
  0
VERTEX
  8
0
 10
38.0303
 20
23.2213
  0
VERTEX
  8
0
 10
37.8783
 20
23.2213
  0
SEQEND
  0
POLYLINE
  8
0
 66
     1
 10
0
 20
0
  0
VERTEX
  8
0
 10
37.8783
 20
22.1573
  0
VERTEX
  8
0
 10
37.8783
 20
23.0578
  0
VERTEX
  8
0
 10
38.0303
 20
23.0578
  0
VERTEX
  8
0
 10
38.0303
 20
22.1573
  0
VERTEX
  8
0
 10
37.8783
 20
22.1573
  0
SEQEND
  0
POLYLINE
  8
0
 66
     1
 10
0
 20
0
  0
VERTEX
  8
0
 10
38.8543
 20
22.1573
  0
VERTEX
  8
0
 10
38.8543
 20
22.293
  0
VERTEX
  8
0
 10
38.8271
 20
22.2574
  0
VERTEX
  8
0
 10
38.7975
 20
22.2266
  0
VERTEX
  8
0
 10
38.7655
 20
22.2005
  0
VERTEX
  8
0
 10
38.7311
 20
22.1792
  0
VERTEX
  8
0
 10
38.6943
 20
22.1626
  0
VERTEX
  8
0
 10
38.655
 20
22.1507
  0
VERTEX
  8
0
 10
38.6134
 20
22.1436
  0
VERTEX
  8
0
 10
38.5693
 20
22.1413
  0
VERTEX
  8
0
 10
38.4993
 20
22.1478
  0
VERTEX
  8
0
 10
38.4315
 20
22.1674
  0
VERTEX
  8
0
 10
38.3655
 20
22.2018
  0
VERTEX
  8
0
 10
38.3182
 20
22.2475
  0
VERTEX
  8
0
 10
38.2905
 20
22.2977
  0
VERTEX
  8
0
 10
38.2717
 20
22.3606
  0
VERTEX
  8
0
 10
38.2647
 20
22.4188
  0
VERTEX
  8
0
 10
38.2623
 20
22.5023
  0
VERTEX
  8
0
 10
38.2623
 20
23.0573
  0
VERTEX
  8
0
 10
38.4143
 20
23.0573
  0
VERTEX
  8
0
 10
38.4143
 20
22.5613
  0
VERTEX
  8
0
 10
38.4149
 20
22.5058
  0
VERTEX
  8
0
 10
38.4167
 20
22.4606
  0
VERTEX
  8
0
 10
38.4196
 20
22.4258
  0
VERTEX
  8
0
 10
38.4237
 20
22.4013
  0
VERTEX
  8
0
 10
38.4331
 20
22.3716
  0
VERTEX
  8
0
 10
38.4461
 20
22.3459
  0
VERTEX
  8
0
 10
38.4627
 20
22.3241
  0
VERTEX
  8
0
 10
38.4829
 20
22.3061
  0
VERTEX
  8
0
 10
38.5067
 20
22.2921
  0
VERTEX
  8
0
 10
38.5341
 20
22.2819
  0
VERTEX
  8
0
 10
38.5651
 20
22.2756
  0
VERTEX
  8
0
 10
38.5997
 20
22.2733
  0
VERTEX
  8
0
 10
38.666
 20
22.2814
  0
VERTEX
  8
0
 10
38.7279
 20
22.3074
  0
VERTEX
  8
0
 10
38.779
 20
22.3487
  0
VERTEX
  8
0
 10
38.813
 20
22.403
  0
VERTEX
  8
0
 10
38.832
 20
22.477
  0
VERTEX
  8
0
 10
38.8383
 20
22.5781
  0
VERTEX
  8
0
 10
38.8383
 20
23.0573
  0
VERTEX
  8
0
 10
38.9903
 20
23.0573
  0
VERTEX
  8
0
 10
38.9903
 20
22.1573
  0
VERTEX
  8
0
 10
38.8543
 20
22.1573
  0
SEQEND
  0
POLYLINE
  8
0
 66
     1
 10
0
 20
0
  0
VERTEX
  8
0
 10
39.1663
 20
22.4289
  0
VERTEX
  8
0
 10
39.3165
 20
22.4525
  0
VERTEX
  8
0
 10
39.3221
 20
22.4226
  0
VERTEX
  8
0
 10
39.3302
 20
22.3953
  0
VERTEX
  8
0
 10
39.3408
 20
22.3706
  0
VERTEX
  8
0
 10
39.3539
 20
22.3485
  0
VERTEX
  8
0
 10
39.3695
 20
22.329
  0
VERTEX
  8
0
 10
39.3876
 20
22.3121
  0
VERTEX
  8
0
 10
39.4082
 20
22.2978
  0
VERTEX
  8
0
 10
39.4313
 20
22.2861
  0
VERTEX
  8
0
 10
39.4568
 20
22.277
  0
VERTEX
  8
0
 10
39.4849
 20
22.2705
  0
VERTEX
  8
0
 10
39.5155
 20
22.2666
  0
VERTEX
  8
0
 10
39.5485
 20
22.2653
  0
VERTEX
  8
0
 10
39.6232
 20
22.2729
  0
VERTEX
  8
0
 10
39.6852
 20
22.2956
  0
VERTEX
  8
0
 10
39.7236
 20
22.3246
  0
VERTEX
  8
0
 10
39.7467
 20
22.362
  0
VERTEX
  8
0
 10
39.7543
 20
22.4079
  0
VERTEX
  8
0
 10
39.7431
 20
22.4539
  0
VERTEX
  8
0
 10
39.7095
 20
22.489
  0
VERTEX
  8
0
 10
39.6884
 20
22.4998
  0
VERTEX
  8
0
 10
39.6554
 20
22.512
  0
VERTEX
  8
0
 10
39.6106
 20
22.5255
  0
VERTEX
  8
0
 10
39.554
 20
22.5405
  0
VERTEX
  8
0
 10
39.501
 20
22.5538
  0
VERTEX
  8
0
 10
39.4563
 20
22.5656
  0
VERTEX
  8
0
 10
39.4199
 20
22.5757
  0
VERTEX
  8
0
 10
39.3919
 20
22.5842
  0
VERTEX
  8
0
 10
39.3722
 20
22.5911
  0
VERTEX
  8
0
 10
39.3079
 20
22.621
  0
VERTEX
  8
0
 10
39.2583
 20
22.6567
  0
VERTEX
  8
0
 10
39.2233
 20
22.6983
  0
VERTEX
  8
0
 10
39.1986
 20
22.755
  0
VERTEX
  8
0
 10
39.1903
 20
22.819
  0
VERTEX
  8
0
 10
39.1944
 20
22.8657
  0
VERTEX
  8
0
 10
39.2067
 20
22.9086
  0
VERTEX
  8
0
 10
39.2272
 20
22.9478
  0
VERTEX
  8
0
 10
39.2559
 20
22.9832
  0
VERTEX
  8
0
 10
39.2927
 20
23.0148
  0
VERTEX
  8
0
 10
39.3387
 20
23.0418
  0
VERTEX
  8
0
 10
39.3921
 20
23.0612
  0
VERTEX
  8
0
 10
39.4529
 20
23.073
  0
VERTEX
  8
0
 10
39.5211
 20
23.0773
  0
VERTEX
  8
0
 10
39.619
 20
23.0701
  0
VERTEX
  8
0
 10
39.7063
 20
23.047
  0
VERTEX
  8
0
 10
39.7758
 20
23.0108
  0
VERTEX
  8
0
 10
39.8255
 20
22.9628
  0
VERTEX
  8
0
 10
39.8566
 20
22.9043
  0
VERTEX
  8
0
 10
39.8772
 20
22.8265
  0
VERTEX
  8
0
 10
39.7274
 20
22.8063
  0
VERTEX
  8
0
 10
39.7214
 20
22.834
  0
VERTEX
  8
0
 10
39.7124
 20
22.8589
  0
VERTEX
  8
0
 10
39.7003
 20
22.8809
  0
VERTEX
  8
0
 10
39.6852
 20
22.8999
  0
VERTEX
  8
0
 10
39.667
 20
22.9161
  0
VERTEX
  8
0
 10
39.6457
 20
22.9293
  0
VERTEX
  8
0
 10
39.6214
 20
22.9397
  0
VERTEX
  8
0
 10
39.594
 20
22.9471
  0
VERTEX
  8
0
 10
39.5635
 20
22.9516
  0
VERTEX
  8
0
 10
39.53
 20
22.9533
  0
VERTEX
  8
0
 10
39.4963
 20
22.9524
  0
VERTEX
  8
0
 10
39.4658
 20
22.9497
  0
VERTEX
  8
0
 10
39.4385
 20
22.945
  0
VERTEX
  8
0
 10
39.4144
 20
22.9384
  0
VERTEX
  8
0
 10
39.3934
 20
22.9298
  0
VERTEX
  8
0
 10
39.3756
 20
22.9193
  0
VERTEX
  8
0
 10
39.361
 20
22.9068
  0
VERTEX
  8
0
 10
39.3496
 20
22.8924
  0
VERTEX
  8
0
 10
39.3413
 20
22.8761
  0
VERTEX
  8
0
 10
39.3362
 20
22.8578
  0
VERTEX
  8
0
 10
39.3343
 20
22.8376
  0
VERTEX
  8
0
 10
39.3386
 20
22.8103
  0
VERTEX
  8
0
 10
39.3531
 20
22.784
  0
VERTEX
  8
0
 10
39.3775
 20
22.7611
  0
VERTEX
  8
0
 10
39.4117
 20
22.744
  0
VERTEX
  8
0
 10
39.423
 20
22.74
  0
VERTEX
  8
0
 10
39.4422
 20
22.7341
  0
VERTEX
  8
0
 10
39.4692
 20
22.7263
  0
VERTEX
  8
0
 10
39.5041
 20
22.7166
  0
VERTEX
  8
0
 10
39.5467
 20
22.7051
  0
VERTEX
  8
0
 10
39.6082
 20
22.6879
  0
VERTEX
  8
0
 10
39.6616
 20
22.6723
  0
VERTEX
  8
0
 10
39.7068
 20
22.6581
  0
VERTEX
  8
0
 10
39.7438
 20
22.6454
  0
VERTEX
  8
0
 10
39.7727
 20
22.6342
  0
VERTEX
  8
0
 10
39.8048
 20
22.6184
  0
VERTEX
  8
0
 10
39.8326
 20
22.5996
  0
VERTEX
  8
0
 10
39.8562
 20
22.5779
  0
VERTEX
  8
0
 10
39.8755
 20
22.5532
  0
VERTEX
  8
0
 10
39.8906
 20
22.5255
  0
VERTEX
  8
0
 10
39.9014
 20
22.4949
  0
VERTEX
  8
0
 10
39.908
 20
22.4614
  0
VERTEX
  8
0
 10
39.9103
 20
22.4249
  0
VERTEX
  8
0
 10
39.8996
 20
22.3515
  0
VERTEX
  8
0
 10
39.8657
 20
22.2814
  0
VERTEX
  8
0
 10
39.8436
 20
22.2522
  0
VERTEX
  8
0
 10
39.8182
 20
22.2263
  0
VERTEX
  8
0
 10
39.7896
 20
22.2039
  0
VERTEX
  8
0
 10
39.7578
 20
22.1849
  0
VERTEX
  8
0
 10
39.7226
 20
22.1694
  0
VERTEX
  8
0
 10
39.6842
 20
22.1572
  0
VERTEX
  8
0
 10
39.6425
 20
22.1485
  0
VERTEX
  8
0
 10
39.5975
 20
22.1432
  0
VERTEX
  8
0
 10
39.5493
 20
22.1413
  0
VERTEX
  8
0
 10
39.5168
 20
22.1418
  0
VERTEX
  8
0
 10
39.4858
 20
22.1438
  0
VERTEX
  8
0
 10
39.4561
 20
22.1473
  0
VERTEX
  8
0
 10
39.4279
 20
22.1522
  0
VERTEX
  8
0
 10
39.401
 20
22.1586
  0
VERTEX
  8
0
 10
39.3756
 20
22.1664
  0
VERTEX
  8
0
 10
39.3515
 20
22.1757
  0
VERTEX
  8
0
 10
39.3289
 20
22.1865
  0
VERTEX
  8
0
 10
39.3076
 20
22.1987
  0
VERTEX
  8
0
 10
39.2878
 20
22.2123
  0
VERTEX
  8
0
 10
39.2693
 20
22.2274
  0
VERTEX
  8
0
 10
39.2523
 20
22.244
  0
VERTEX
  8
0
 10
39.2367
 20
22.262
  0
VERTEX
  8
0
 10
39.2224
 20
22.2815
  0
VERTEX
  8
0
 10
39.2096
 20
22.3024
  0
VERTEX
  8
0
 10
39.1981
 20
22.3248
  0
VERTEX
  8
0
 10
39.1881
 20
22.3486
  0
VERTEX
  8
0
 10
39.1794
 20
22.3739
  0
VERTEX
  8
0
 10
39.1722
 20
22.4007
  0
VERTEX
  8
0
 10
39.1663
 20
22.4289
  0
VERTEX
  8
0
 10
39.1663
 20
22.4289
  0
SEQEND
  0
POLYLINE
  8
0
 66
     1
 10
0
 20
0
  0
VERTEX
  8
0
 10
40.1383
 20
22.1573
  0
VERTEX
  8
0
 10
40.1383
 20
22.3333
  0
VERTEX
  8
0
 10
40.3103
 20
22.3333
  0
VERTEX
  8
0
 10
40.3103
 20
22.161
  0
VERTEX
  8
0
 10
40.3086
 20
22.1221
  0
VERTEX
  8
0
 10
40.3033
 20
22.0862
  0
VERTEX
  8
0
 10
40.2946
 20
22.0532
  0
VERTEX
  8
0
 10
40.2824
 20
22.0232
  0
VERTEX
  8
0
 10
40.2666
 20
21.9961
  0
VERTEX
  8
0
 10
40.2474
 20
21.972
  0
VERTEX
  8
0
 10
40.2247
 20
21.9508
  0
VERTEX
  8
0
 10
40.1984
 20
21.9326
  0
VERTEX
  8
0
 10
40.1687
 20
21.9173
  0
VERTEX
  8
0
 10
40.1263
 20
21.981
  0
VERTEX
  8
0
 10
40.1546
 20
21.9965
  0
VERTEX
  8
0
 10
40.1779
 20
22.0175
  0
VERTEX
  8
0
 10
40.1964
 20
22.0441
  0
VERTEX
  8
0
 10
40.21
 20
22.0763
  0
VERTEX
  8
0
 10
40.2187
 20
22.114
  0
VERTEX
  8
0
 10
40.2226
 20
22.1573
  0
VERTEX
  8
0
 10
40.1383
 20
22.1573
  0
SEQEND
  0
POLYLINE
  8
0
 66
     1
 10
0
 20
0
  0
VERTEX
  8
0
 10
41.3383
 20
22.7728
  0
VERTEX
  8
0
 10
41.339
 20
22.8234
  0
VERTEX
  8
0
 10
41.3411
 20
22.8719
  0
VERTEX
  8
0
 10
41.3446
 20
22.9183
  0
VERTEX
  8
0
 10
41.3495
 20
22.9626
  0
VERTEX
  8
0
 10
41.3558
 20
23.0049
  0
VERTEX
  8
0
 10
41.3635
 20
23.0451
  0
VERTEX
  8
0
 10
41.3726
 20
23.0832
  0
VERTEX
  8
0
 10
41.3831
 20
23.1192
  0
VERTEX
  8
0
 10
41.395
 20
23.1532
  0
VERTEX
  8
0
 10
41.4083
 20
23.185
  0
VERTEX
  8
0
 10
41.423
 20
23.2148
  0
VERTEX
  8
0
 10
41.4391
 20
23.2426
  0
VERTEX
  8
0
 10
41.4566
 20
23.2682
  0
VERTEX
  8
0
 10
41.4755
 20
23.2918
  0
VERTEX
  8
0
 10
41.4958
 20
23.3132
  0
VERTEX
  8
0
 10
41.5175
 20
23.3326
  0
VERTEX
  8
0
 10
41.5645
 20
23.3641
  0
VERTEX
  8
0
 10
41.6177
 20
23.3867
  0
VERTEX
  8
0
 10
41.6769
 20
23.4004
  0
VERTEX
  8
0
 10
41.7423
 20
23.4053
  0
VERTEX
  8
0
 10
41.8347
 20
23.3955
  0
VERTEX
  8
0
 10
41.9173
 20
23.3648
  0
VERTEX
  8
0
 10
41.9515
 20
23.3436
  0
VERTEX
  8
0
 10
41.9831
 20
23.3178
  0
VERTEX
  8
0
 10
42.0121
 20
23.2874
  0
VERTEX
  8
0
 10
42.0386
 20
23.2522
  0
VERTEX
  8
0
 10
42.0624
 20
23.2124
  0
VERTEX
  8
0
 10
42.0837
 20
23.168
  0
VERTEX
  8
0
 10
42.1024
 20
23.1188
  0
VERTEX
  8
0
 10
42.1185
 20
23.065
  0
VERTEX
  8
0
 10
42.1307
 20
23.0068
  0
VERTEX
  8
0
 10
42.1394
 20
22.9387
  0
VERTEX
  8
0
 10
42.1446
 20
22.8607
  0
VERTEX
  8
0
 10
42.1463
 20
22.7728
  0
VERTEX
  8
0
 10
42.1455
 20
22.7191
  0
VERTEX
  8
0
 10
42.1432
 20
22.6677
  0
VERTEX
  8
0
 10
42.1392
 20
22.6186
  0
VERTEX
  8
0
 10
42.1336
 20
22.5719
  0
VERTEX
  8
0
 10
42.1264
 20
22.5276
  0
VERTEX
  8
0
 10
42.1177
 20
22.4856
  0
VERTEX
  8
0
 10
42.1073
 20
22.446
  0
VERTEX
  8
0
 10
42.0954
 20
22.4088
  0
VERTEX
  8
0
 10
42.0818
 20
22.3739
  0
VERTEX
  8
0
 10
42.0667
 20
22.3413
  0
VERTEX
  8
0
 10
42.05
 20
22.3111
  0
VERTEX
  8
0
 10
42.0317
 20
22.2833
  0
VERTEX
  8
0
 10
42.0118
 20
22.2578
  0
VERTEX
  8
0
 10
41.9902
 20
22.2347
  0
VERTEX
  8
0
 10
41.9672
 20
22.2139
  0
VERTEX
  8
0
 10
41.9201
 20
22.1824
  0
VERTEX
  8
0
 10
41.867
 20
22.1599
  0
VERTEX
  8
0
 10
41.8077
 20
22.1461
  0
VERTEX
  8
0
 10
41.7423
 20
22.1413
  0
VERTEX
  8
0
 10
41.7208
 20
22.1416
  0
VERTEX
  8
0
 10
41.6999
 20
22.1429
  0
VERTEX
  8
0
 10
41.6796
 20
22.1452
  0
VERTEX
  8
0
 10
41.6599
 20
22.1483
  0
VERTEX
  8
0
 10
41.6407
 20
22.1524
  0
VERTEX
  8
0
 10
41.6222
 20
22.1574
  0
VERTEX
  8
0
 10
41.6042
 20
22.1634
  0
VERTEX
  8
0
 10
41.5868
 20
22.1702
  0
VERTEX
  8
0
 10
41.57
 20
22.178
  0
VERTEX
  8
0
 10
41.5538
 20
22.1867
  0
VERTEX
  8
0
 10
41.5382
 20
22.1964
  0
VERTEX
  8
0
 10
41.5232
 20
22.207
  0
VERTEX
  8
0
 10
41.5087
 20
22.2185
  0
VERTEX
  8
0
 10
41.4949
 20
22.2309
  0
VERTEX
  8
0
 10
41.4816
 20
22.2443
  0
VERTEX
  8
0
 10
41.4689
 20
22.2585
  0
VERTEX
  8
0
 10
41.4568
 20
22.2738
  0
VERTEX
  8
0
 10
41.4453
 20
22.2899
  0
VERTEX
  8
0
 10
41.4344
 20
22.307
  0
VERTEX
  8
0
 10
41.4241
 20
22.325
  0
VERTEX
  8
0
 10
41.4143
 20
22.3439
  0
VERTEX
  8
0
 10
41.4052
 20
22.3637
  0
VERTEX
  8
0
 10
41.3966
 20
22.3845
  0
VERTEX
  8
0
 10
41.3886
 20
22.4062
  0
VERTEX
  8
0
 10
41.3812
 20
22.4289
  0
VERTEX
  8
0
 10
41.3744
 20
22.4524
  0
VERTEX
  8
0
 10
41.3682
 20
22.4769
  0
VERTEX
  8
0
 10
41.3626
 20
22.5023
  0
VERTEX
  8
0
 10
41.3575
 20
22.5287
  0
VERTEX
  8
0
 10
41.3531
 20
22.5559
  0
VERTEX
  8
0
 10
41.3492
 20
22.5841
  0
VERTEX
  8
0
 10
41.3459
 20
22.6133
  0
VERTEX
  8
0
 10
41.3432
 20
22.6433
  0
VERTEX
  8
0
 10
41.3411
 20
22.6743
  0
VERTEX
  8
0
 10
41.3396
 20
22.7062
  0
VERTEX
  8
0
 10
41.3387
 20
22.7391
  0
VERTEX
  8
0
 10
41.3383
 20
22.7728
  0
VERTEX
  8
0
 10
41.3383
 20
22.7728
  0
SEQEND
  0
POLYLINE
  8
0
 66
     1
 10
0
 20
0
  0
VERTEX
  8
0
 10
41.4943
 20
22.7733
  0
VERTEX
  8
0
 10
41.4957
 20
22.6942
  0
VERTEX
  8
0
 10
41.4996
 20
22.623
  0
VERTEX
  8
0
 10
41.5062
 20
22.5597
  0
VERTEX
  8
0
 10
41.5155
 20
22.5042
  0
VERTEX
  8
0
 10
41.5273
 20
22.4566
  0
VERTEX
  8
0
 10
41.5397
 20
22.4204
  0
VERTEX
  8
0
 10
41.5541
 20
22.388
  0
VERTEX
  8
0
 10
41.5705
 20
22.3594
  0
VERTEX
  8
0
 10
41.589
 20
22.3346
  0
VERTEX
  8
0
 10
41.6095
 20
22.3135
  0
VERTEX
  8
0
 10
41.632
 20
22.2963
  0
VERTEX
  8
0
 10
41.6565
 20
22.2829
  0
VERTEX
  8
0
 10
41.6831
 20
22.2732
  0
VERTEX
  8
0
 10
41.7117
 20
22.2673
  0
VERTEX
  8
0
 10
41.7423
 20
22.2653
  0
VERTEX
  8
0
 10
41.7597
 20
22.2658
  0
VERTEX
  8
0
 10
41.7765
 20
22.2676
  0
VERTEX
  8
0
 10
41.7926
 20
22.2708
  0
VERTEX
  8
0
 10
41.8081
 20
22.2752
  0
VERTEX
  8
0
 10
41.823
 20
22.281
  0
VERTEX
  8
0
 10
41.8372
 20
22.288
  0
VERTEX
  8
0
 10
41.8508
 20
22.2964
  0
VERTEX
  8
0
 10
41.8638
 20
22.306
  0
VERTEX
  8
0
 10
41.8761
 20
22.317
  0
VERTEX
  8
0
 10
41.8879
 20
22.3293
  0
VERTEX
  8
0
 10
41.8989
 20
22.3429
  0
VERTEX
  8
0
 10
41.9094
 20
22.3577
  0
VERTEX
  8
0
 10
41.9192
 20
22.3739
  0
VERTEX
  8
0
 10
41.9283
 20
22.3914
  0
VERTEX
  8
0
 10
41.9369
 20
22.4102
  0
VERTEX
  8
0
 10
41.9448
 20
22.4303
  0
VERTEX
  8
0
 10
41.9521
 20
22.4517
  0
VERTEX
  8
0
 10
41.9587
 20
22.4744
  0
VERTEX
  8
0
 10
41.9647
 20
22.4984
  0
VERTEX
  8
0
 10
41.9701
 20
22.5238
  0
VERTEX
  8
0
 10
41.9748
 20
22.5504
  0
VERTEX
  8
0
 10
41.979
 20
22.5783
  0
VERTEX
  8
0
 10
41.9824
 20
22.6075
  0
VERTEX
  8
0
 10
41.9853
 20
22.6381
  0
VERTEX
  8
0
 10
41.9875
 20
22.6699
  0
VERTEX
  8
0
 10
41.9891
 20
22.7031
  0
VERTEX
  8
0
 10
41.99
 20
22.7375
  0
VERTEX
  8
0
 10
41.9903
 20
22.7733
  0
VERTEX
  8
0
 10
41.989
 20
22.8523
  0
VERTEX
  8
0
 10
41.9851
 20
22.9235
  0
VERTEX
  8
0
 10
41.9785
 20
22.9868
  0
VERTEX
  8
0
 10
41.9692
 20
23.0423
  0
VERTEX
  8
0
 10
41.9573
 20
23.0899
  0
VERTEX
  8
0
 10
41.9448
 20
23.1261
  0
VERTEX
  8
0
 10
41.9303
 20
23.1585
  0
VERTEX
  8
0
 10
41.9137
 20
23.1871
  0
VERTEX
  8
0
 10
41.895
 20
23.212
  0
VERTEX
  8
0
 10
41.8744
 20
23.233
  0
VERTEX
  8
0
 10
41.8517
 20
23.2502
  0
VERTEX
  8
0
 10
41.827
 20
23.2637
  0
VERTEX
  8
0
 10
41.8002
 20
23.2733
  0
VERTEX
  8
0
 10
41.7715
 20
23.2792
  0
VERTEX
  8
0
 10
41.7407
 20
23.2813
  0
VERTEX
  8
0
 10
41.6908
 20
23.276
  0
VERTEX
  8
0
 10
41.6463
 20
23.2595
  0
VERTEX
  8
0
 10
41.607
 20
23.2316
  0
VERTEX
  8
0
 10
41.573
 20
23.1924
  0
VERTEX
  8
0
 10
41.5581
 20
23.1681
  0
VERTEX
  8
0
 10
41.5447
 20
23.1398
  0
VERTEX
  8
0
 10
41.5329
 20
23.1077
  0
VERTEX
  8
0
 10
41.5227
 20
23.0717
  0
VERTEX
  8
0
 10
41.514
 20
23.0317
  0
VERTEX
  8
0
 10
41.5069
 20
22.9878
  0
VERTEX
  8
0
 10
41.5014
 20
22.9401
  0
VERTEX
  8
0
 10
41.4975
 20
22.8884
  0
VERTEX
  8
0
 10
41.4951
 20
22.8328
  0
VERTEX
  8
0
 10
41.4943
 20
22.7733
  0
VERTEX
  8
0
 10
41.4943
 20
22.7733
  0
SEQEND
  0
POLYLINE
  8
0
 66
     1
 10
0
 20
0
  0
VERTEX
  8
0
 10
42.3823
 20
22.1573
  0
VERTEX
  8
0
 10
42.3823
 20
22.3333
  0
VERTEX
  8
0
 10
42.5543
 20
22.3333
  0
VERTEX
  8
0
 10
42.5543
 20
22.1573
  0
VERTEX
  8
0
 10
42.3823
 20
22.1573
  0
SEQEND
  0
POLYLINE
  8
0
 66
     1
 10
0
 20
0
  0
VERTEX
  8
0
 10
42.7903
 20
23.2333
  0
VERTEX
  8
0
 10
42.7903
 20
23.3813
  0
VERTEX
  8
0
 10
43.5915
 20
23.3813
  0
VERTEX
  8
0
 10
43.5915
 20
23.2628
  0
VERTEX
  8
0
 10
43.5325
 20
23.1946
  0
VERTEX
  8
0
 10
43.4738
 20
23.1161
  0
VERTEX
  8
0
 10
43.4152
 20
23.0272
  0
VERTEX
  8
0
 10
43.3568
 20
22.9279
  0
VERTEX
  8
0
 10
43.2559
 20
22.7202
  0
VERTEX
  8
0
 10
43.1778
 20
22.4981
  0
VERTEX
  8
0
 10
43.1405
 20
22.3347
  0
VERTEX
  8
0
 10
43.1196
 20
22.1573
  0
VERTEX
  8
0
 10
42.9634
 20
22.1573
  0
VERTEX
  8
0
 10
42.9723
 20
22.2776
  0
VERTEX
  8
0
 10
42.9945
 20
22.4065
  0
VERTEX
  8
0
 10
43.0301
 20
22.5441
  0
VERTEX
  8
0
 10
43.0957
 20
22.7333
  0
VERTEX
  8
0
 10
43.1778
 20
22.909
  0
VERTEX
  8
0
 10
43.2479
 20
23.0309
  0
VERTEX
  8
0
 10
43.3208
 20
23.139
  0
VERTEX
  8
0
 10
43.3965
 20
23.2333
  0
VERTEX
  8
0
 10
42.7903
 20
23.2333
  0
SEQEND
  0
POLYLINE
  8
0
 66
     1
 10
0
 20
0
  0
VERTEX
  8
0
 10
43.7383
 20
22.4855
  0
VERTEX
  8
0
 10
43.898
 20
22.499
  0
VERTEX
  8
0
 10
43.904
 20
22.4668
  0
VERTEX
  8
0
 10
43.9116
 20
22.437
  0
VERTEX
  8
0
 10
43.9209
 20
22.4095
  0
VERTEX
  8
0
 10
43.932
 20
22.3845
  0
VERTEX
  8
0
 10
43.9447
 20
22.3618
  0
VERTEX
  8
0
 10
43.9592
 20
22.3416
  0
VERTEX
  8
0
 10
43.9754
 20
22.3237
  0
VERTEX
  8
0
 10
43.9932
 20
22.3082
  0
VERTEX
  8
0
 10
44.0128
 20
22.2951
  0
VERTEX
  8
0
 10
44.0341
 20
22.2843
  0
VERTEX
  8
0
 10
44.0571
 20
22.276
  0
VERTEX
  8
0
 10
44.0818
 20
22.27
  0
VERTEX
  8
0
 10
44.1082
 20
22.2665
  0
VERTEX
  8
0
 10
44.1363
 20
22.2653
  0
VERTEX
  8
0
 10
44.1831
 20
22.269
  0
VERTEX
  8
0
 10
44.2259
 20
22.2801
  0
VERTEX
  8
0
 10
44.2647
 20
22.2985
  0
VERTEX
  8
0
 10
44.2997
 20
22.3244
  0
VERTEX
  8
0
 10
44.3307
 20
22.3577
  0
VERTEX
  8
0
 10
44.3683
 20
22.4182
  0
VERTEX
  8
0
 10
44.3908
 20
22.4877
  0
VERTEX
  8
0
 10
44.3983
 20
22.5662
  0
VERTEX
  8
0
 10
44.394
 20
22.6254
  0
VERTEX
  8
0
 10
44.3808
 20
22.6787
  0
VERTEX
  8
0
 10
44.3589
 20
22.7261
  0
VERTEX
  8
0
 10
44.3282
 20
22.7675
  0
VERTEX
  8
0
 10
44.2897
 20
22.8012
  0
VERTEX
  8
0
 10
44.2445
 20
22.8254
  0
VERTEX
  8
0
 10
44.1926
 20
22.8401
  0
VERTEX
  8
0
 10
44.1338
 20
22.8453
  0
VERTEX
  8
0
 10
44.0872
 20
22.8422
  0
VERTEX
  8
0
 10
44.0442
 20
22.8326
  0
VERTEX
  8
0
 10
44.0047
 20
22.8163
  0
VERTEX
  8
0
 10
43.9689
 20
22.7934
  0
VERTEX
  8
0
 10
43.9367
 20
22.7639
  0
VERTEX
  8
0
 10
43.9082
 20
22.7277
  0
VERTEX
  8
0
 10
43.7653
 20
22.7463
  0
VERTEX
  8
0
 10
43.8852
 20
23.3813
  0
VERTEX
  8
0
 10
44.5007
 20
23.3813
  0
VERTEX
  8
0
 10
44.5007
 20
23.2373
  0
VERTEX
  8
0
 10
44.0087
 20
23.2373
  0
VERTEX
  8
0
 10
43.9417
 20
22.9038
  0
VERTEX
  8
0
 10
44.0169
 20
22.9465
  0
VERTEX
  8
0
 10
44.0946
 20
22.9723
  0
VERTEX
  8
0
 10
44.1747
 20
22.9813
  0
VERTEX
  8
0
 10
44.2292
 20
22.9783
  0
VERTEX
  8
0
 10
44.2803
 20
22.9687
  0
VERTEX
  8
0
 10
44.3282
 20
22.9526
  0
VERTEX
  8
0
 10
44.3729
 20
22.93
  0
VERTEX
  8
0
 10
44.4142
 20
22.9008
  0
VERTEX
  8
0
 10
44.4523
 20
22.865
  0
VERTEX
  8
0
 10
44.4847
 20
22.8255
  0
VERTEX
  8
0
 10
44.5112
 20
22.7829
  0
VERTEX
  8
0
 10
44.5318
 20
22.7372
  0
VERTEX
  8
0
 10
44.5466
 20
22.6883
  0
VERTEX
  8
0
 10
44.5554
 20
22.6362
  0
VERTEX
  8
0
 10
44.5583
 20
22.5811
  0
VERTEX
  8
0
 10
44.5544
 20
22.5161
  0
VERTEX
  8
0
 10
44.5427
 20
22.4546
  0
VERTEX
  8
0
 10
44.5231
 20
22.3967
  0
VERTEX
  8
0
 10
44.4957
 20
22.3422
  0
VERTEX
  8
0
 10
44.4605
 20
22.2913
  0
VERTEX
  8
0
 10
44.4294
 20
22.2563
  0
VERTEX
  8
0
 10
44.3956
 20
22.2259
  0
VERTEX
  8
0
 10
44.359
 20
22.2002
  0
VERTEX
  8
0
 10
44.3198
 20
22.1792
  0
VERTEX
  8
0
 10
44.2779
 20
22.1627
  0
VERTEX
  8
0
 10
44.2332
 20
22.1509
  0
VERTEX
  8
0
 10
44.1858
 20
22.1438
  0
VERTEX
  8
0
 10
44.1357
 20
22.1413
  0
VERTEX
  8
0
 10
44.0722
 20
22.1449
  0
VERTEX
  8
0
 10
44.0133
 20
22.1557
  0
VERTEX
  8
0
 10
43.9589
 20
22.1737
  0
VERTEX
  8
0
 10
43.9092
 20
22.1989
  0
VERTEX
  8
0
 10
43.864
 20
22.2313
  0
VERTEX
  8
0
 10
43.8239
 20
22.2711
  0
VERTEX
  8
0
 10
43.7913
 20
22.3164
  0
VERTEX
  8
0
 10
43.7661
 20
22.3673
  0
VERTEX
  8
0
 10
43.7485
 20
22.4236
  0
VERTEX
  8
0
 10
43.7383
 20
22.4855
  0
VERTEX
  8
0
 10
43.7383
 20
22.4855
  0
SEQEND
  0
POLYLINE
  8
0
 66
     1
 10
0
 20
0
  0
VERTEX
  8
0
 10
44.7563
 20
22.9613
  0
VERTEX
  8
0
 10
44.7143
 20
23.1956
  0
VERTEX
  8
0
 10
44.7143
 20
23.3973
  0
VERTEX
  8
0
 10
44.8863
 20
23.3973
  0
VERTEX
  8
0
 10
44.8863
 20
23.1956
  0
VERTEX
  8
0
 10
44.8486
 20
22.9613
  0
VERTEX
  8
0
 10
44.7563
 20
22.9613
  0
SEQEND
  0
POLYLINE
  8
0
 66
     1
 10
0
 20
0
  0
VERTEX
  8
0
 10
45.0355
 20
22.9613
  0
VERTEX
  8
0
 10
44.9943
 20
23.1956
  0
VERTEX
  8
0
 10
44.9943
 20
23.3973
  0
VERTEX
  8
0
 10
45.1663
 20
23.3973
  0
VERTEX
  8
0
 10
45.1663
 20
23.1956
  0
VERTEX
  8
0
 10
45.1261
 20
22.9613
  0
VERTEX
  8
0
 10
45.0355
 20
22.9613
  0
SEQEND
  0
POLYLINE
  8
0
 66
     1
 10
0
 20
0
  0
VERTEX
  8
0
 10
46.1783
 20
22.1573
  0
VERTEX
  8
0
 10
46.1783
 20
23.3973
  0
VERTEX
  8
0
 10
46.6434
 20
23.3973
  0
VERTEX
  8
0
 10
46.7307
 20
23.393
  0
VERTEX
  8
0
 10
46.8065
 20
23.3803
  0
VERTEX
  8
0
 10
46.8708
 20
23.3592
  0
VERTEX
  8
0
 10
46.945
 20
23.3133
  0
VERTEX
  8
0
 10
47.0032
 20
23.2467
  0
VERTEX
  8
0
 10
47.0411
 20
23.1666
  0
VERTEX
  8
0
 10
47.0543
 20
23.0801
  0
VERTEX
  8
0
 10
47.0525
 20
23.0424
  0
VERTEX
  8
0
 10
47.0463
 20
23.0069
  0
VERTEX
  8
0
 10
47.0357
 20
22.9734
  0
VERTEX
  8
0
 10
47.0207
 20
22.9421
  0
VERTEX
  8
0
 10
47.0013
 20
22.9128
  0
VERTEX
  8
0
 10
46.9776
 20
22.8857
  0
VERTEX
  8
0
 10
46.9494
 20
22.8607
  0
VERTEX
  8
0
 10
46.9168
 20
22.8378
  0
VERTEX
  8
0
 10
46.8799
 20
22.817
  0
VERTEX
  8
0
 10
46.9476
 20
22.7906
  0
VERTEX
  8
0
 10
47.0045
 20
22.7542
  0
VERTEX
  8
0
 10
47.0507
 20
22.7079
  0
VERTEX
  8
0
 10
47.086
 20
22.6513
  0
VERTEX
  8
0
 10
47.1073
 20
22.5876
  0
VERTEX
  8
0
 10
47.1143
 20
22.5168
  0
VERTEX
  8
0
 10
47.1061
 20
22.4387
  0
VERTEX
  8
0
 10
47.0813
 20
22.3636
  0
VERTEX
  8
0
 10
47.0404
 20
22.2932
  0
VERTEX
  8
0
 10
46.9867
 20
22.2393
  0
VERTEX
  8
0
 10
46.9533
 20
22.2176
  0
VERTEX
  8
0
 10
46.9151
 20
22.1991
  0
VERTEX
  8
0
 10
46.872
 20
22.1841
  0
VERTEX
  8
0
 10
46.8241
 20
22.1723
  0
VERTEX
  8
0
 10
46.7712
 20
22.164
  0
VERTEX
  8
0
 10
46.7135
 20
22.1589
  0
VERTEX
  8
0
 10
46.651
 20
22.1573
  0
VERTEX
  8
0
 10
46.1783
 20
22.1573
  0
SEQEND
  0
POLYLINE
  8
0
 66
     1
 10
0
 20
0
  0
VERTEX
  8
0
 10
46.3423
 20
22.8773
  0
VERTEX
  8
0
 10
46.6112
 20
22.8773
  0
VERTEX
  8
0
 10
46.6768
 20
22.8788
  0
VERTEX
  8
0
 10
46.7291
 20
22.8836
  0
VERTEX
  8
0
 10
46.768
 20
22.8915
  0
VERTEX
  8
0
 10
46.8011
 20
22.904
  0
VERTEX
  8
0
 10
46.8292
 20
22.9204
  0
VERTEX
  8
0
 10
46.8523
 20
22.9406
  0
VERTEX
  8
0
 10
46.8703
 20
22.9648
  0
VERTEX
  8
0
 10
46.8833
 20
22.9927
  0
VERTEX
  8
0
 10
46.8913
 20
23.0246
  0
VERTEX
  8
0
 10
46.8943
 20
23.0603
  0
VERTEX
  8
0
 10
46.8924
 20
23.0967
  0
VERTEX
  8
0
 10
46.8857
 20
23.1292
  0
VERTEX
  8
0
 10
46.8741
 20
23.1576
  0
VERTEX
  8
0
 10
46.8578
 20
23.1821
  0
VERTEX
  8
0
 10
46.8366
 20
23.2026
  0
VERTEX
  8
0
 10
46.8106
 20
23.2191
  0
VERTEX
  8
0
 10
46.7798
 20
23.2316
  0
VERTEX
  8
0
 10
46.7474
 20
23.2394
  0
VERTEX
  8
0
 10
46.705
 20
23.2449
  0
VERTEX
  8
0
 10
46.6528
 20
23.2482
  0
VERTEX
  8
0
 10
46.5908
 20
23.2493
  0
VERTEX
  8
0
 10
46.3423
 20
23.2493
  0
VERTEX
  8
0
 10
46.3423
 20
22.8773
  0
SEQEND
  0
POLYLINE
  8
0
 66
     1
 10
0
 20
0
  0
VERTEX
  8
0
 10
46.3423
 20
22.3053
  0
VERTEX
  8
0
 10
46.652
 20
22.3053
  0
VERTEX
  8
0
 10
46.7198
 20
22.3067
  0
VERTEX
  8
0
 10
46.764
 20
22.3111
  0
VERTEX
  8
0
 10
46.8165
 20
22.3254
  0
VERTEX
  8
0
 10
46.8602
 20
22.3471
  0
VERTEX
  8
0
 10
46.8953
 20
22.3763
  0
VERTEX
  8
0
 10
46.9217
 20
22.413
  0
VERTEX
  8
0
 10
46.9397
 20
22.4609
  0
VERTEX
  8
0
 10
46.9463
 20
22.5173
  0
VERTEX
  8
0
 10
46.9446
 20
22.5521
  0
VERTEX
  8
0
 10
46.9385
 20
22.5838
  0
VERTEX
  8
0
 10
46.9282
 20
22.6123
  0
VERTEX
  8
0
 10
46.9135
 20
22.6378
  0
VERTEX
  8
0
 10
46.8944
 20
22.6601
  0
VERTEX
  8
0
 10
46.8711
 20
22.6793
  0
VERTEX
  8
0
 10
46.8434
 20
22.6953
  0
VERTEX
  8
0
 10
46.8115
 20
22.7082
  0
VERTEX
  8
0
 10
46.7343
 20
22.724
  0
VERTEX
  8
0
 10
46.6299
 20
22.7293
  0
VERTEX
  8
0
 10
46.3423
 20
22.7293
  0
VERTEX
  8
0
 10
46.3423
 20
22.3053
  0
SEQEND
  0
POLYLINE
  8
0
 66
     1
 10
0
 20
0
  0
VERTEX
  8
0
 10
47.2663
 20
22.6093
  0
VERTEX
  8
0
 10
47.2681
 20
22.663
  0
VERTEX
  8
0
 10
47.2732
 20
22.7135
  0
VERTEX
  8
0
 10
47.2817
 20
22.7608
  0
VERTEX
  8
0
 10
47.2937
 20
22.8049
  0
VERTEX
  8
0
 10
47.3091
 20
22.8458
  0
VERTEX
  8
0
 10
47.3279
 20
22.8836
  0
VERTEX
  8
0
 10
47.3501
 20
22.9182
  0
VERTEX
  8
0
 10
47.3757
 20
22.9496
  0
VERTEX
  8
0
 10
47.4048
 20
22.9778
  0
VERTEX
  8
0
 10
47.4528
 20
23.0136
  0
VERTEX
  8
0
 10
47.505
 20
23.0414
  0
VERTEX
  8
0
 10
47.5614
 20
23.0613
  0
VERTEX
  8
0
 10
47.622
 20
23.0733
  0
VERTEX
  8
0
 10
47.6868
 20
23.0773
  0
VERTEX
  8
0
 10
47.7415
 20
23.0746
  0
VERTEX
  8
0
 10
47.7928
 20
23.0666
  0
VERTEX
  8
0
 10
47.8408
 20
23.0533
  0
VERTEX
  8
0
 10
47.8853
 20
23.0346
  0
VERTEX
  8
0
 10
47.9263
 20
23.0106
  0
VERTEX
  8
0
 10
47.964
 20
22.9813
  0
VERTEX
  8
0
 10
47.9983
 20
22.9466
  0
VERTEX
  8
0
 10
48.0313
 20
22.9029
  0
VERTEX
  8
0
 10
48.0583
 20
22.855
  0
VERTEX
  8
0
 10
48.0793
 20
22.803
  0
VERTEX
  8
0
 10
48.0943
 20
22.7468
  0
VERTEX
  8
0
 10
48.1033
 20
22.6864
  0
VERTEX
  8
0
 10
48.1063
 20
22.6219
  0
VERTEX
  8
0
 10
48.1053
 20
22.5781
  0
VERTEX
  8
0
 10
48.1022
 20
22.5364
  0
VERTEX
  8
0
 10
48.097
 20
22.4967
  0
VERTEX
  8
0
 10
48.0897
 20
22.4591
  0
VERTEX
  8
0
 10
48.0804
 20
22.4235
  0
VERTEX
  8
0
 10
48.069
 20
22.39
  0
VERTEX
  8
0
 10
48.0555
 20
22.3586
  0
VERTEX
  8
0
 10
48.0399
 20
22.3292
  0
VERTEX
  8
0
 10
48.0223
 20
22.3019
  0
VERTEX
  8
0
 10
48.0025
 20
22.2766
  0
VERTEX
  8
0
 10
47.9807
 20
22.2534
  0
VERTEX
  8
0
 10
47.9569
 20
22.2322
  0
VERTEX
  8
0
 10
47.9309
 20
22.2131
  0
VERTEX
  8
0
 10
47.9029
 20
22.1961
  0
VERTEX
  8
0
 10
47.7995
 20
22.1554
  0
VERTEX
  8
0
 10
47.6868
 20
22.1413
  0
VERTEX
  8
0
 10
47.6369
 20
22.1432
  0
VERTEX
  8
0
 10
47.59
 20
22.1493
  0
VERTEX
  8
0
 10
47.5461
 20
22.1597
  0
VERTEX
  8
0
 10
47.505
 20
22.1743
  0
VERTEX
  8
0
 10
47.4669
 20
22.1932
  0
VERTEX
  8
0
 10
47.4317
 20
22.2163
  0
VERTEX
  8
0
 10
47.3995
 20
22.2437
  0
VERTEX
  8
0
 10
47.3702
 20
22.2753
  0
VERTEX
  8
0
 10
47.3384
 20
22.3193
  0
VERTEX
  8
0
 10
47.3125
 20
22.3679
  0
VERTEX
  8
0
 10
47.2923
 20
22.4212
  0
VERTEX
  8
0
 10
47.2779
 20
22.4792
  0
VERTEX
  8
0
 10
47.2692
 20
22.5419
  0
VERTEX
  8
0
 10
47.2663
 20
22.6093
  0
VERTEX
  8
0
 10
47.2663
 20
22.6093
  0
SEQEND
  0
POLYLINE
  8
0
 66
     1
 10
0
 20
0
  0
VERTEX
  8
0
 10
47.4223
 20
22.6097
  0
VERTEX
  8
0
 10
47.426
 20
22.5404
  0
VERTEX
  8
0
 10
47.4369
 20
22.4779
  0
VERTEX
  8
0
 10
47.4551
 20
22.4223
  0
VERTEX
  8
0
 10
47.4807
 20
22.3736
  0
VERTEX
  8
0
 10
47.5056
 20
22.3407
  0
VERTEX
  8
0
 10
47.5343
 20
22.3138
  0
VERTEX
  8
0
 10
47.5668
 20
22.2928
  0
VERTEX
  8
0
 10
47.603
 20
22.2777
  0
VERTEX
  8
0
 10
47.643
 20
22.2685
  0
VERTEX
  8
0
 10
47.6868
 20
22.2653
  0
VERTEX
  8
0
 10
47.7305
 20
22.2681
  0
VERTEX
  8
0
 10
47.7705
 20
22.2772
  0
VERTEX
  8
0
 10
47.8067
 20
22.2925
  0
VERTEX
  8
0
 10
47.8392
 20
22.3142
  0
VERTEX
  8
0
 10
47.8679
 20
22.342
  0
VERTEX
  8
0
 10
47.8929
 20
22.3761
  0
VERTEX
  8
0
 10
47.9248
 20
22.444
  0
VERTEX
  8
0
 10
47.944
 20
22.5236
  0
VERTEX
  8
0
 10
47.9503
 20
22.6148
  0
VERTEX
  8
0
 10
47.9437
 20
22.703
  0
VERTEX
  8
0
 10
47.9237
 20
22.7803
  0
VERTEX
  8
0
 10
47.8903
 20
22.8466
  0
VERTEX
  8
0
 10
47.865
 20
22.8792
  0
VERTEX
  8
0
 10
47.8362
 20
22.9059
  0
VERTEX
  8
0
 10
47.804
 20
22.9266
  0
VERTEX
  8
0
 10
47.7683
 20
22.9414
  0
VERTEX
  8
0
 10
47.7293
 20
22.9503
  0
VERTEX
  8
0
 10
47.6868
 20
22.9533
  0
VERTEX
  8
0
 10
47.643
 20
22.9503
  0
VERTEX
  8
0
 10
47.603
 20
22.9412
  0
VERTEX
  8
0
 10
47.5668
 20
22.9262
  0
VERTEX
  8
0
 10
47.5343
 20
22.9051
  0
VERTEX
  8
0
 10
47.5056
 20
22.878
  0
VERTEX
  8
0
 10
47.4807
 20
22.845
  0
VERTEX
  8
0
 10
47.4483
 20
22.7782
  0
VERTEX
  8
0
 10
47.4288
 20
22.6998
  0
VERTEX
  8
0
 10
47.4223
 20
22.6097
  0
VERTEX
  8
0
 10
47.4223
 20
22.6097
  0
SEQEND
  0
POLYLINE
  8
0
 66
     1
 10
0
 20
0
  0
VERTEX
  8
0
 10
48.2823
 20
22.1573
  0
VERTEX
  8
0
 10
48.2823
 20
23.0578
  0
VERTEX
  8
0
 10
48.4183
 20
23.0578
  0
VERTEX
  8
0
 10
48.4183
 20
22.9219
  0
VERTEX
  8
0
 10
48.4581
 20
22.9861
  0
VERTEX
  8
0
 10
48.4945
 20
23.0294
  0
VERTEX
  8
0
 10
48.5491
 20
23.0653
  0
VERTEX
  8
0
 10
48.613
 20
23.0773
  0
VERTEX
  8
0
 10
48.6902
 20
23.0651
  0
VERTEX
  8
0
 10
48.7695
 20
23.0285
  0
VERTEX
  8
0
 10
48.7172
 20
22.8881
  0
VERTEX
  8
0
 10
48.6614
 20
22.913
  0
VERTEX
  8
0
 10
48.6057
 20
22.9213
  0
VERTEX
  8
0
 10
48.5567
 20
22.9126
  0
VERTEX
  8
0
 10
48.5112
 20
22.8865
  0
VERTEX
  8
0
 10
48.4806
 20
22.8523
  0
VERTEX
  8
0
 10
48.4597
 20
22.8075
  0
VERTEX
  8
0
 10
48.4407
 20
22.723
  0
VERTEX
  8
0
 10
48.4343
 20
22.6293
  0
VERTEX
  8
0
 10
48.4343
 20
22.1573
  0
VERTEX
  8
0
 10
48.2823
 20
22.1573
  0
SEQEND
  0
POLYLINE
  8
0
 66
     1
 10
0
 20
0
  0
VERTEX
  8
0
 10
49.4423
 20
22.1573
  0
VERTEX
  8
0
 10
49.4423
 20
22.2744
  0
VERTEX
  8
0
 10
49.4167
 20
22.2393
  0
VERTEX
  8
0
 10
49.3878
 20
22.2095
  0
VERTEX
  8
0
 10
49.3556
 20
22.1851
  0
VERTEX
  8
0
 10
49.32
 20
22.1661
  0
VERTEX
  8
0
 10
49.2811
 20
22.1525
  0
VERTEX
  8
0
 10
49.2389
 20
22.1442
  0
VERTEX
  8
0
 10
49.1934
 20
22.1413
  0
VERTEX
  8
0
 10
49.1224
 20
22.1477
  0
VERTEX
  8
0
 10
49.0559
 20
22.1682
  0
VERTEX
  8
0
 10
48.9939
 20
22.2028
  0
VERTEX
  8
0
 10
48.9161
 20
22.2735
  0
VERTEX
  8
0
 10
48.8585
 20
22.3656
  0
VERTEX
  8
0
 10
48.8228
 20
22.4777
  0
VERTEX
  8
0
 10
48.8103
 20
22.6085
  0
VERTEX
  8
0
 10
48.8113
 20
22.6559
  0
VERTEX
  8
0
 10
48.8148
 20
22.7009
  0
VERTEX
  8
0
 10
48.8209
 20
22.7435
  0
VERTEX
  8
0
 10
48.8294
 20
22.7837
  0
VERTEX
  8
0
 10
48.8405
 20
22.8216
  0
VERTEX
  8
0
 10
48.8541
 20
22.857
  0
VERTEX
  8
0
 10
48.8702
 20
22.89
  0
VERTEX
  8
0
 10
48.8888
 20
22.9206
  0
VERTEX
  8
0
 10
48.91
 20
22.9488
  0
VERTEX
  8
0
 10
48.9337
 20
22.9747
  0
VERTEX
  8
0
 10
48.9599
 20
22.9981
  0
VERTEX
  8
0
 10
48.9887
 20
23.0191
  0
VERTEX
  8
0
 10
49.05
 20
23.0514
  0
VERTEX
  8
0
 10
49.1165
 20
23.0708
  0
VERTEX
  8
0
 10
49.188
 20
23.0773
  0
VERTEX
  8
0
 10
49.2315
 20
23.0748
  0
VERTEX
  8
0
 10
49.2723
 20
23.0673
  0
VERTEX
  8
0
 10
49.3102
 20
23.0548
  0
VERTEX
  8
0
 10
49.3454
 20
23.0373
  0
VERTEX
  8
0
 10
49.3779
 20
23.0148
  0
VERTEX
  8
0
 10
49.4075
 20
22.9873
  0
VERTEX
  8
0
 10
49.4343
 20
22.9548
  0
VERTEX
  8
0
 10
49.4343
 20
23.3973
  0
VERTEX
  8
0
 10
49.5863
 20
23.3973
  0
VERTEX
  8
0
 10
49.5863
 20
22.1573
  0
VERTEX
  8
0
 10
49.4423
 20
22.1573
  0
SEQEND
  0
POLYLINE
  8
0
 66
     1
 10
0
 20
0
  0
VERTEX
  8
0
 10
48.9663
 20
22.6088
  0
VERTEX
  8
0
 10
48.9723
 20
22.5228
  0
VERTEX
  8
0
 10
48.99
 20
22.4464
  0
VERTEX
  8
0
 10
49.0195
 20
22.3795
  0
VERTEX
  8
0
 10
49.0429
 20
22.3448
  0
VERTEX
  8
0
 10
49.0697
 20
22.3164
  0
VERTEX
  8
0
 10
49.0998
 20
22.2943
  0
VERTEX
  8
0
 10
49.1333
 20
22.2783
  0
VERTEX
  8
0
 10
49.1702
 20
22.2687
  0
VERTEX
  8
0
 10
49.2104
 20
22.2653
  0
VERTEX
  8
0
 10
49.2501
 20
22.268
  0
VERTEX
  8
0
 10
49.2864
 20
22.2769
  0
VERTEX
  8
0
 10
49.3193
 20
22.2919
  0
VERTEX
  8
0
 10
49.3489
 20
22.313
  0
VERTEX
  8
0
 10
49.3751
 20
22.3402
  0
VERTEX
  8
0
 10
49.3979
 20
22.3736
  0
VERTEX
  8
0
 10
49.4265
 20
22.4382
  0
VERTEX
  8
0
 10
49.4437
 20
22.5124
  0
VERTEX
  8
0
 10
49.4494
 20
22.5961
  0
VERTEX
  8
0
 10
49.4439
 20
22.6869
  0
VERTEX
  8
0
 10
49.4273
 20
22.7661
  0
VERTEX
  8
0
 10
49.3996
 20
22.834
  0
VERTEX
  8
0
 10
49.3763
 20
22.8704
  0
VERTEX
  8
0
 10
49.3493
 20
22.9002
  0
VERTEX
  8
0
 10
49.3185
 20
22.9234
  0
VERTEX
  8
0
 10
49.284
 20
22.94
  0
VERTEX
  8
0
 10
49.2457
 20
22.95
  0
VERTEX
  8
0
 10
49.2037
 20
22.9533
  0
VERTEX
  8
0
 10
49.1627
 20
22.9501
  0
VERTEX
  8
0
 10
49.1256
 20
22.9406
  0
VERTEX
  8
0
 10
49.0922
 20
22.9247
  0
VERTEX
  8
0
 10
49.0625
 20
22.9025
  0
VERTEX
  8
0
 10
49.0366
 20
22.8739
  0
VERTEX
  8
0
 10
49.0145
 20
22.839
  0
VERTEX
  8
0
 10
48.9877
 20
22.7736
  0
VERTEX
  8
0
 10
48.9717
 20
22.6968
  0
VERTEX
  8
0
 10
48.9663
 20
22.6088
  0
VERTEX
  8
0
 10
48.9663
 20
22.6088
  0
SEQEND
  0
POLYLINE
  8
0
 66
     1
 10
0
 20
0
  0
VERTEX
  8
0
 10
50.4345
 20
22.45
  0
VERTEX
  8
0
 10
50.5918
 20
22.4306
  0
VERTEX
  8
0
 10
50.5824
 20
22.3994
  0
VERTEX
  8
0
 10
50.5716
 20
22.3699
  0
VERTEX
  8
0
 10
50.5592
 20
22.3422
  0
VERTEX
  8
0
 10
50.5455
 20
22.3163
  0
VERTEX
  8
0
 10
50.5302
 20
22.2922
  0
VERTEX
  8
0
 10
50.5134
 20
22.2699
  0
VERTEX
  8
0
 10
50.4952
 20
22.2493
  0
VERTEX
  8
0
 10
50.4755
 20
22.2306
  0
VERTEX
  8
0
 10
50.4544
 20
22.2136
  0
VERTEX
  8
0
 10
50.4317
 20
22.1984
  0
VERTEX
  8
0
 10
50.4076
 20
22.185
  0
VERTEX
  8
0
 10
50.382
 20
22.1734
  0
VERTEX
  8
0
 10
50.355
 20
22.1636
  0
VERTEX
  8
0
 10
50.3264
 20
22.1556
  0
VERTEX
  8
0
 10
50.2964
 20
22.1493
  0
VERTEX
  8
0
 10
50.2649
 20
22.1448
  0
VERTEX
  8
0
 10
50.232
 20
22.1422
  0
VERTEX
  8
0
 10
50.1975
 20
22.1413
  0
VERTEX
  8
0
 10
50.1428
 20
22.1437
  0
VERTEX
  8
0
 10
50.0914
 20
22.1511
  0
VERTEX
  8
0
 10
50.0434
 20
22.1634
  0
VERTEX
  8
0
 10
49.9988
 20
22.1806
  0
VERTEX
  8
0
 10
49.9575
 20
22.2028
  0
VERTEX
  8
0
 10
49.9196
 20
22.2299
  0
VERTEX
  8
0
 10
49.8852
 20
22.2619
  0
VERTEX
  8
0
 10
49.8547
 20
22.2983
  0
VERTEX
  8
0
 10
49.8289
 20
22.3388
  0
VERTEX
  8
0
 10
49.8078
 20
22.3833
  0
VERTEX
  8
0
 10
49.7914
 20
22.4319
  0
VERTEX
  8
0
 10
49.7797
 20
22.4845
  0
VERTEX
  8
0
 10
49.7727
 20
22.5411
  0
VERTEX
  8
0
 10
49.7703
 20
22.6017
  0
VERTEX
  8
0
 10
49.7732
 20
22.6689
  0
VERTEX
  8
0
 10
49.7818
 20
22.7316
  0
VERTEX
  8
0
 10
49.7961
 20
22.7899
  0
VERTEX
  8
0
 10
49.8161
 20
22.8438
  0
VERTEX
  8
0
 10
49.8419
 20
22.8932
  0
VERTEX
  8
0
 10
49.8733
 20
22.9381
  0
VERTEX
  8
0
 10
49.903
 20
22.9707
  0
VERTEX
  8
0
 10
49.9355
 20
22.999
  0
VERTEX
  8
0
 10
49.9708
 20
23.0229
  0
VERTEX
  8
0
 10
50.0088
 20
23.0425
  0
VERTEX
  8
0
 10
50.0497
 20
23.0577
  0
VERTEX
  8
0
 10
50.0934
 20
23.0686
  0
VERTEX
  8
0
 10
50.1398
 20
23.0751
  0
VERTEX
  8
0
 10
50.1891
 20
23.0773
  0
VERTEX
  8
0
 10
50.2371
 20
23.0751
  0
VERTEX
  8
0
 10
50.2824
 20
23.0687
  0
VERTEX
  8
0
 10
50.3249
 20
23.058
  0
VERTEX
  8
0
 10
50.3647
 20
23.0431
  0
VERTEX
  8
0
 10
50.4017
 20
23.0239
  0
VERTEX
  8
0
 10
50.436
 20
23.0004
  0
VERTEX
  8
0
 10
50.4676
 20
22.9726
  0
VERTEX
  8
0
 10
50.4964
 20
22.9406
  0
VERTEX
  8
0
 10
50.5271
 20
22.8965
  0
VERTEX
  8
0
 10
50.5522
 20
22.8483
  0
VERTEX
  8
0
 10
50.5717
 20
22.7959
  0
VERTEX
  8
0
 10
50.5857
 20
22.7393
  0
VERTEX
  8
0
 10
50.5941
 20
22.6785
  0
VERTEX
  8
0
 10
50.5968
 20
22.6135
  0
VERTEX
  8
0
 10
50.5966
 20
22.5925
  0
VERTEX
  8
0
 10
50.596
 20
22.5733
  0
VERTEX
  8
0
 10
49.9263
 20
22.5733
  0
VERTEX
  8
0
 10
49.9373
 20
22.4906
  0
VERTEX
  8
0
 10
49.9613
 20
22.4189
  0
VERTEX
  8
0
 10
49.9982
 20
22.3583
  0
VERTEX
  8
0
 10
50.0297
 20
22.3248
  0
VERTEX
  8
0
 10
50.0655
 20
22.2987
  0
VERTEX
  8
0
 10
50.1054
 20
22.2801
  0
VERTEX
  8
0
 10
50.1495
 20
22.269
  0
VERTEX
  8
0
 10
50.1978
 20
22.2653
  0
VERTEX
  8
0
 10
50.2307
 20
22.2671
  0
VERTEX
  8
0
 10
50.2616
 20
22.2727
  0
VERTEX
  8
0
 10
50.2905
 20
22.2819
  0
VERTEX
  8
0
 10
50.3172
 20
22.2948
  0
VERTEX
  8
0
 10
50.3419
 20
22.3115
  0
VERTEX
  8
0
 10
50.3646
 20
22.3318
  0
VERTEX
  8
0
 10
50.3852
 20
22.3558
  0
VERTEX
  8
0
 10
50.4037
 20
22.3835
  0
VERTEX
  8
0
 10
50.4201
 20
22.4149
  0
VERTEX
  8
0
 10
50.4345
 20
22.45
  0
VERTEX
  8
0
 10
50.4345
 20
22.45
  0
SEQEND
  0
POLYLINE
  8
0
 66
     1
 10
0
 20
0
  0
VERTEX
  8
0
 10
49.9358
 20
22.6973
  0
VERTEX
  8
0
 10
50.4364
 20
22.6973
  0
VERTEX
  8
0
 10
50.4255
 20
22.766
  0
VERTEX
  8
0
 10
50.4064
 20
22.8222
  0
VERTEX
  8
0
 10
50.379
 20
22.866
  0
VERTEX
  8
0
 10
50.34
 20
22.9038
  0
VERTEX
  8
0
 10
50.2956
 20
22.931
  0
VERTEX
  8
0
 10
50.2459
 20
22.9475
  0
VERTEX
  8
0
 10
50.1907
 20
22.9533
  0
VERTEX
  8
0
 10
50.138
 20
22.949
  0
VERTEX
  8
0
 10
50.0903
 20
22.9352
  0
VERTEX
  8
0
 10
50.0477
 20
22.912
  0
VERTEX
  8
0
 10
50.0101
 20
22.8794
  0
VERTEX
  8
0
 10
49.9722
 20
22.8278
  0
VERTEX
  8
0
 10
49.9474
 20
22.7671
  0
VERTEX
  8
0
 10
49.9358
 20
22.6973
  0
VERTEX
  8
0
 10
49.9358
 20
22.6973
  0
SEQEND
  0
POLYLINE
  8
0
 66
     1
 10
0
 20
0
  0
VERTEX
  8
0
 10
50.7823
 20
22.1573
  0
VERTEX
  8
0
 10
50.7823
 20
23.0578
  0
VERTEX
  8
0
 10
50.9183
 20
23.0578
  0
VERTEX
  8
0
 10
50.9183
 20
22.9219
  0
VERTEX
  8
0
 10
50.9581
 20
22.9861
  0
VERTEX
  8
0
 10
50.9945
 20
23.0294
  0
VERTEX
  8
0
 10
51.0491
 20
23.0653
  0
VERTEX
  8
0
 10
51.113
 20
23.0773
  0
VERTEX
  8
0
 10
51.1902
 20
23.0651
  0
VERTEX
  8
0
 10
51.2695
 20
23.0285
  0
VERTEX
  8
0
 10
51.2172
 20
22.8881
  0
VERTEX
  8
0
 10
51.1614
 20
22.913
  0
VERTEX
  8
0
 10
51.1057
 20
22.9213
  0
VERTEX
  8
0
 10
51.0567
 20
22.9126
  0
VERTEX
  8
0
 10
51.0112
 20
22.8865
  0
VERTEX
  8
0
 10
50.9806
 20
22.8523
  0
VERTEX
  8
0
 10
50.9597
 20
22.8075
  0
VERTEX
  8
0
 10
50.9407
 20
22.723
  0
VERTEX
  8
0
 10
50.9343
 20
22.6293
  0
VERTEX
  8
0
 10
50.9343
 20
22.1573
  0
VERTEX
  8
0
 10
50.7823
 20
22.1573
  0
SEQEND
  0
POLYLINE
  8
0
 66
     1
 10
0
 20
0
  0
VERTEX
  8
0
 10
51.4103
 20
22.1573
  0
VERTEX
  8
0
 10
51.4103
 20
22.3333
  0
VERTEX
  8
0
 10
51.5823
 20
22.3333
  0
VERTEX
  8
0
 10
51.5823
 20
22.161
  0
VERTEX
  8
0
 10
51.5806
 20
22.1221
  0
VERTEX
  8
0
 10
51.5753
 20
22.0862
  0
VERTEX
  8
0
 10
51.5666
 20
22.0532
  0
VERTEX
  8
0
 10
51.5544
 20
22.0232
  0
VERTEX
  8
0
 10
51.5386
 20
21.9961
  0
VERTEX
  8
0
 10
51.5194
 20
21.972
  0
VERTEX
  8
0
 10
51.4967
 20
21.9508
  0
VERTEX
  8
0
 10
51.4704
 20
21.9326
  0
VERTEX
  8
0
 10
51.4407
 20
21.9173
  0
VERTEX
  8
0
 10
51.3983
 20
21.981
  0
VERTEX
  8
0
 10
51.4266
 20
21.9965
  0
VERTEX
  8
0
 10
51.4499
 20
22.0175
  0
VERTEX
  8
0
 10
51.4684
 20
22.0441
  0
VERTEX
  8
0
 10
51.482
 20
22.0763
  0
VERTEX
  8
0
 10
51.4907
 20
22.114
  0
VERTEX
  8
0
 10
51.4946
 20
22.1573
  0
VERTEX
  8
0
 10
51.4103
 20
22.1573
  0
SEQEND
  0
POLYLINE
  8
0
 66
     1
 10
0
 20
0
  0
VERTEX
  8
0
 10
52.8825
 20
22.1573
  0
VERTEX
  8
0
 10
52.5543
 20
23.3973
  0
VERTEX
  8
0
 10
52.7223
 20
23.3973
  0
VERTEX
  8
0
 10
52.9106
 20
22.5872
  0
VERTEX
  8
0
 10
52.9389
 20
22.4591
  0
VERTEX
  8
0
 10
52.963
 20
22.3343
  0
VERTEX
  8
0
 10
52.974
 20
22.3808
  0
VERTEX
  8
0
 10
52.9838
 20
22.4221
  0
VERTEX
  8
0
 10
52.9925
 20
22.4583
  0
VERTEX
  8
0
 10
53.0001
 20
22.4895
  0
VERTEX
  8
0
 10
53.0065
 20
22.5155
  0
VERTEX
  8
0
 10
53.0117
 20
22.5365
  0
VERTEX
  8
0
 10
53.0157
 20
22.5524
  0
VERTEX
  8
0
 10
53.0187
 20
22.5631
  0
VERTEX
  8
0
 10
53.2542
 20
23.3973
  0
VERTEX
  8
0
 10
53.4517
 20
23.3973
  0
VERTEX
  8
0
 10
53.629
 20
22.7725
  0
VERTEX
  8
0
 10
53.6862
 20
22.5469
  0
VERTEX
  8
0
 10
53.7256
 20
22.3343
  0
VERTEX
  8
0
 10
53.7335
 20
22.3724
  0
VERTEX
  8
0
 10
53.7437
 20
22.4183
  0
VERTEX
  8
0
 10
53.756
 20
22.4721
  0
VERTEX
  8
0
 10
53.7706
 20
22.5338
  0
VERTEX
  8
0
 10
53.7875
 20
22.6035
  0
VERTEX
  8
0
 10
53.9798
 20
23.3973
  0
VERTEX
  8
0
 10
54.1457
 20
23.3973
  0
VERTEX
  8
0
 10
53.8063
 20
22.1573
  0
VERTEX
  8
0
 10
53.6497
 20
22.1573
  0
VERTEX
  8
0
 10
53.3853
 20
23.1036
  0
VERTEX
  8
0
 10
53.3712
 20
23.1572
  0
VERTEX
  8
0
 10
53.3603
 20
23.1993
  0
VERTEX
  8
0
 10
53.3526
 20
23.2301
  0
VERTEX
  8
0
 10
53.3482
 20
23.2493
  0
VERTEX
  8
0
 10
53.331
 20
23.1751
  0
VERTEX
  8
0
 10
53.3127
 20
23.1042
  0
VERTEX
  8
0
 10
53.0495
 20
22.1573
  0
VERTEX
  8
0
 10
52.8825
 20
22.1573
  0
SEQEND
  0
POLYLINE
  8
0
 66
     1
 10
0
 20
0
  0
VERTEX
  8
0
 10
54.2823
 20
22.1573
  0
VERTEX
  8
0
 10
54.2823
 20
23.3973
  0
VERTEX
  8
0
 10
54.4343
 20
23.3973
  0
VERTEX
  8
0
 10
54.4343
 20
22.9548
  0
VERTEX
  8
0
 10
54.4715
 20
22.992
  0
VERTEX
  8
0
 10
54.5117
 20
23.0225
  0
VERTEX
  8
0
 10
54.555
 20
23.0462
  0
VERTEX
  8
0
 10
54.6014
 20
23.0633
  0
VERTEX
  8
0
 10
54.651
 20
23.0736
  0
VERTEX
  8
0
 10
54.7036
 20
23.0773
  0
VERTEX
  8
0
 10
54.7957
 20
23.0677
  0
VERTEX
  8
0
 10
54.8772
 20
23.0375
  0
VERTEX
  8
0
 10
54.9267
 20
23.0032
  0
VERTEX
  8
0
 10
54.9648
 20
22.9591
  0
VERTEX
  8
0
 10
54.9915
 20
22.9053
  0
VERTEX
  8
0
 10
55.0086
 20
22.8286
  0
VERTEX
  8
0
 10
55.0143
 20
22.7274
  0
VERTEX
  8
0
 10
55.0143
 20
22.1573
  0
VERTEX
  8
0
 10
54.8623
 20
22.1573
  0
VERTEX
  8
0
 10
54.8623
 20
22.7269
  0
VERTEX
  8
0
 10
54.8614
 20
22.7567
  0
VERTEX
  8
0
 10
54.8585
 20
22.7844
  0
VERTEX
  8
0
 10
54.8536
 20
22.8099
  0
VERTEX
  8
0
 10
54.8468
 20
22.8332
  0
VERTEX
  8
0
 10
54.8381
 20
22.8542
  0
VERTEX
  8
0
 10
54.8275
 20
22.8731
  0
VERTEX
  8
0
 10
54.8149
 20
22.8898
  0
VERTEX
  8
0
 10
54.8003
 20
22.9043
  0
VERTEX
  8
0
 10
54.7839
 20
22.9166
  0
VERTEX
  8
0
 10
54.7655
 20
22.9268
  0
VERTEX
  8
0
 10
54.7451
 20
22.9347
  0
VERTEX
  8
0
 10
54.7228
 20
22.9404
  0
VERTEX
  8
0
 10
54.6986
 20
22.9439
  0
VERTEX
  8
0
 10
54.6725
 20
22.9453
  0
VERTEX
  8
0
 10
54.6068
 20
22.937
  0
VERTEX
  8
0
 10
54.5454
 20
22.9106
  0
VERTEX
  8
0
 10
54.4944
 20
22.869
  0
VERTEX
  8
0
 10
54.4602
 20
22.8153
  0
VERTEX
  8
0
 10
54.4408
 20
22.7439
  0
VERTEX
  8
0
 10
54.4343
 20
22.649
  0
VERTEX
  8
0
 10
54.4343
 20
22.1573
  0
VERTEX
  8
0
 10
54.2823
 20
22.1573
  0
SEQEND
  0
POLYLINE
  8
0
 66
     1
 10
0
 20
0
  0
VERTEX
  8
0
 10
55.2423
 20
23.2213
  0
VERTEX
  8
0
 10
55.2423
 20
23.3973
  0
VERTEX
  8
0
 10
55.3943
 20
23.3973
  0
VERTEX
  8
0
 10
55.3943
 20
23.2213
  0
VERTEX
  8
0
 10
55.2423
 20
23.2213
  0
SEQEND
  0
POLYLINE
  8
0
 66
     1
 10
0
 20
0
  0
VERTEX
  8
0
 10
55.2423
 20
22.1573
  0
VERTEX
  8
0
 10
55.2423
 20
23.0578
  0
VERTEX
  8
0
 10
55.3943
 20
23.0578
  0
VERTEX
  8
0
 10
55.3943
 20
22.1573
  0
VERTEX
  8
0
 10
55.2423
 20
22.1573
  0
SEQEND
  0
POLYLINE
  8
0
 66
     1
 10
0
 20
0
  0
VERTEX
  8
0
 10
55.9619
 20
22.2972
  0
VERTEX
  8
0
 10
55.9837
 20
22.1628
  0
VERTEX
  8
0
 10
55.9226
 20
22.1531
  0
VERTEX
  8
0
 10
55.869
 20
22.1493
  0
VERTEX
  8
0
 10
55.828
 20
22.1508
  0
VERTEX
  8
0
 10
55.7914
 20
22.1563
  0
VERTEX
  8
0
 10
55.7594
 20
22.1658
  0
VERTEX
  8
0
 10
55.732
 20
22.1792
  0
VERTEX
  8
0
 10
55.7091
 20
22.1967
  0
VERTEX
  8
0
 10
55.6907
 20
22.2181
  0
VERTEX
  8
0
 10
55.6769
 20
22.2436
  0
VERTEX
  8
0
 10
55.6688
 20
22.2712
  0
VERTEX
  8
0
 10
55.663
 20
22.3103
  0
VERTEX
  8
0
 10
55.6595
 20
22.3608
  0
VERTEX
  8
0
 10
55.6583
 20
22.4229
  0
VERTEX
  8
0
 10
55.6583
 20
22.9373
  0
VERTEX
  8
0
 10
55.5463
 20
22.9373
  0
VERTEX
  8
0
 10
55.5463
 20
23.0573
  0
VERTEX
  8
0
 10
55.6583
 20
23.0573
  0
VERTEX
  8
0
 10
55.6583
 20
23.2785
  0
VERTEX
  8
0
 10
55.8103
 20
23.3693
  0
VERTEX
  8
0
 10
55.8103
 20
23.0573
  0
VERTEX
  8
0
 10
55.9623
 20
23.0573
  0
VERTEX
  8
0
 10
55.9623
 20
22.9373
  0
VERTEX
  8
0
 10
55.8103
 20
22.9373
  0
VERTEX
  8
0
 10
55.8103
 20
22.4133
  0
VERTEX
  8
0
 10
55.811
 20
22.3728
  0
VERTEX
  8
0
 10
55.8128
 20
22.3509
  0
VERTEX
  8
0
 10
55.8235
 20
22.3209
  0
VERTEX
  8
0
 10
55.8438
 20
22.3003
  0
VERTEX
  8
0
 10
55.8652
 20
22.2925
  0
VERTEX
  8
0
 10
55.8957
 20
22.2893
  0
VERTEX
  8
0
 10
55.9244
 20
22.2908
  0
VERTEX
  8
0
 10
55.9619
 20
22.2972
  0
VERTEX
  8
0
 10
55.9619
 20
22.2972
  0
SEQEND
  0
POLYLINE
  8
0
 66
     1
 10
0
 20
0
  0
VERTEX
  8
0
 10
56.7265
 20
22.45
  0
VERTEX
  8
0
 10
56.8838
 20
22.4306
  0
VERTEX
  8
0
 10
56.8744
 20
22.3994
  0
VERTEX
  8
0
 10
56.8636
 20
22.3699
  0
VERTEX
  8
0
 10
56.8512
 20
22.3422
  0
VERTEX
  8
0
 10
56.8375
 20
22.3163
  0
VERTEX
  8
0
 10
56.8222
 20
22.2922
  0
VERTEX
  8
0
 10
56.8054
 20
22.2699
  0
VERTEX
  8
0
 10
56.7872
 20
22.2493
  0
VERTEX
  8
0
 10
56.7675
 20
22.2306
  0
VERTEX
  8
0
 10
56.7464
 20
22.2136
  0
VERTEX
  8
0
 10
56.7237
 20
22.1984
  0
VERTEX
  8
0
 10
56.6996
 20
22.185
  0
VERTEX
  8
0
 10
56.674
 20
22.1734
  0
VERTEX
  8
0
 10
56.647
 20
22.1636
  0
VERTEX
  8
0
 10
56.6184
 20
22.1556
  0
VERTEX
  8
0
 10
56.5884
 20
22.1493
  0
VERTEX
  8
0
 10
56.5569
 20
22.1448
  0
VERTEX
  8
0
 10
56.524
 20
22.1422
  0
VERTEX
  8
0
 10
56.4895
 20
22.1413
  0
VERTEX
  8
0
 10
56.4348
 20
22.1437
  0
VERTEX
  8
0
 10
56.3834
 20
22.1511
  0
VERTEX
  8
0
 10
56.3354
 20
22.1634
  0
VERTEX
  8
0
 10
56.2908
 20
22.1806
  0
VERTEX
  8
0
 10
56.2495
 20
22.2028
  0
VERTEX
  8
0
 10
56.2116
 20
22.2299
  0
VERTEX
  8
0
 10
56.1772
 20
22.2619
  0
VERTEX
  8
0
 10
56.1467
 20
22.2983
  0
VERTEX
  8
0
 10
56.1209
 20
22.3388
  0
VERTEX
  8
0
 10
56.0998
 20
22.3833
  0
VERTEX
  8
0
 10
56.0834
 20
22.4319
  0
VERTEX
  8
0
 10
56.0717
 20
22.4845
  0
VERTEX
  8
0
 10
56.0647
 20
22.5411
  0
VERTEX
  8
0
 10
56.0623
 20
22.6017
  0
VERTEX
  8
0
 10
56.0652
 20
22.6689
  0
VERTEX
  8
0
 10
56.0738
 20
22.7316
  0
VERTEX
  8
0
 10
56.0881
 20
22.7899
  0
VERTEX
  8
0
 10
56.1081
 20
22.8438
  0
VERTEX
  8
0
 10
56.1339
 20
22.8932
  0
VERTEX
  8
0
 10
56.1653
 20
22.9381
  0
VERTEX
  8
0
 10
56.195
 20
22.9707
  0
VERTEX
  8
0
 10
56.2275
 20
22.999
  0
VERTEX
  8
0
 10
56.2628
 20
23.0229
  0
VERTEX
  8
0
 10
56.3008
 20
23.0425
  0
VERTEX
  8
0
 10
56.3417
 20
23.0577
  0
VERTEX
  8
0
 10
56.3854
 20
23.0686
  0
VERTEX
  8
0
 10
56.4318
 20
23.0751
  0
VERTEX
  8
0
 10
56.4811
 20
23.0773
  0
VERTEX
  8
0
 10
56.5291
 20
23.0751
  0
VERTEX
  8
0
 10
56.5744
 20
23.0687
  0
VERTEX
  8
0
 10
56.6169
 20
23.058
  0
VERTEX
  8
0
 10
56.6567
 20
23.0431
  0
VERTEX
  8
0
 10
56.6937
 20
23.0239
  0
VERTEX
  8
0
 10
56.728
 20
23.0004
  0
VERTEX
  8
0
 10
56.7596
 20
22.9726
  0
VERTEX
  8
0
 10
56.7884
 20
22.9406
  0
VERTEX
  8
0
 10
56.8191
 20
22.8965
  0
VERTEX
  8
0
 10
56.8442
 20
22.8483
  0
VERTEX
  8
0
 10
56.8637
 20
22.7959
  0
VERTEX
  8
0
 10
56.8777
 20
22.7393
  0
VERTEX
  8
0
 10
56.8861
 20
22.6785
  0
VERTEX
  8
0
 10
56.8888
 20
22.6135
  0
VERTEX
  8
0
 10
56.8886
 20
22.5925
  0
VERTEX
  8
0
 10
56.888
 20
22.5733
  0
VERTEX
  8
0
 10
56.2183
 20
22.5733
  0
VERTEX
  8
0
 10
56.2293
 20
22.4906
  0
VERTEX
  8
0
 10
56.2533
 20
22.4189
  0
VERTEX
  8
0
 10
56.2902
 20
22.3583
  0
VERTEX
  8
0
 10
56.3217
 20
22.3248
  0
VERTEX
  8
0
 10
56.3575
 20
22.2987
  0
VERTEX
  8
0
 10
56.3974
 20
22.2801
  0
VERTEX
  8
0
 10
56.4415
 20
22.269
  0
VERTEX
  8
0
 10
56.4898
 20
22.2653
  0
VERTEX
  8
0
 10
56.5227
 20
22.2671
  0
VERTEX
  8
0
 10
56.5536
 20
22.2727
  0
VERTEX
  8
0
 10
56.5825
 20
22.2819
  0
VERTEX
  8
0
 10
56.6092
 20
22.2948
  0
VERTEX
  8
0
 10
56.6339
 20
22.3115
  0
VERTEX
  8
0
 10
56.6566
 20
22.3318
  0
VERTEX
  8
0
 10
56.6772
 20
22.3558
  0
VERTEX
  8
0
 10
56.6957
 20
22.3835
  0
VERTEX
  8
0
 10
56.7121
 20
22.4149
  0
VERTEX
  8
0
 10
56.7265
 20
22.45
  0
VERTEX
  8
0
 10
56.7265
 20
22.45
  0
SEQEND
  0
POLYLINE
  8
0
 66
     1
 10
0
 20
0
  0
VERTEX
  8
0
 10
56.2278
 20
22.6973
  0
VERTEX
  8
0
 10
56.7284
 20
22.6973
  0
VERTEX
  8
0
 10
56.7175
 20
22.766
  0
VERTEX
  8
0
 10
56.6984
 20
22.8222
  0
VERTEX
  8
0
 10
56.671
 20
22.866
  0
VERTEX
  8
0
 10
56.632
 20
22.9038
  0
VERTEX
  8
0
 10
56.5876
 20
22.931
  0
VERTEX
  8
0
 10
56.5379
 20
22.9475
  0
VERTEX
  8
0
 10
56.4827
 20
22.9533
  0
VERTEX
  8
0
 10
56.43
 20
22.949
  0
VERTEX
  8
0
 10
56.3823
 20
22.9352
  0
VERTEX
  8
0
 10
56.3397
 20
22.912
  0
VERTEX
  8
0
 10
56.3021
 20
22.8794
  0
VERTEX
  8
0
 10
56.2642
 20
22.8278
  0
VERTEX
  8
0
 10
56.2394
 20
22.7671
  0
VERTEX
  8
0
 10
56.2278
 20
22.6973
  0
VERTEX
  8
0
 10
56.2278
 20
22.6973
  0
SEQEND
  0
POLYLINE
  8
0
 66
     1
 10
0
 20
0
  0
VERTEX
  8
0
 10
57.8183
 20
22.6093
  0
VERTEX
  8
0
 10
57.8201
 20
22.663
  0
VERTEX
  8
0
 10
57.8252
 20
22.7135
  0
VERTEX
  8
0
 10
57.8337
 20
22.7608
  0
VERTEX
  8
0
 10
57.8457
 20
22.8049
  0
VERTEX
  8
0
 10
57.8611
 20
22.8458
  0
VERTEX
  8
0
 10
57.8799
 20
22.8836
  0
VERTEX
  8
0
 10
57.9021
 20
22.9182
  0
VERTEX
  8
0
 10
57.9277
 20
22.9496
  0
VERTEX
  8
0
 10
57.9568
 20
22.9778
  0
VERTEX
  8
0
 10
58.0048
 20
23.0136
  0
VERTEX
  8
0
 10
58.057
 20
23.0414
  0
VERTEX
  8
0
 10
58.1134
 20
23.0613
  0
VERTEX
  8
0
 10
58.174
 20
23.0733
  0
VERTEX
  8
0
 10
58.2388
 20
23.0773
  0
VERTEX
  8
0
 10
58.2935
 20
23.0746
  0
VERTEX
  8
0
 10
58.3448
 20
23.0666
  0
VERTEX
  8
0
 10
58.3928
 20
23.0533
  0
VERTEX
  8
0
 10
58.4373
 20
23.0346
  0
VERTEX
  8
0
 10
58.4783
 20
23.0106
  0
VERTEX
  8
0
 10
58.516
 20
22.9813
  0
VERTEX
  8
0
 10
58.5503
 20
22.9466
  0
VERTEX
  8
0
 10
58.5833
 20
22.9029
  0
VERTEX
  8
0
 10
58.6103
 20
22.855
  0
VERTEX
  8
0
 10
58.6313
 20
22.803
  0
VERTEX
  8
0
 10
58.6463
 20
22.7468
  0
VERTEX
  8
0
 10
58.6553
 20
22.6864
  0
VERTEX
  8
0
 10
58.6583
 20
22.6219
  0
VERTEX
  8
0
 10
58.6573
 20
22.5781
  0
VERTEX
  8
0
 10
58.6542
 20
22.5364
  0
VERTEX
  8
0
 10
58.649
 20
22.4967
  0
VERTEX
  8
0
 10
58.6417
 20
22.4591
  0
VERTEX
  8
0
 10
58.6324
 20
22.4235
  0
VERTEX
  8
0
 10
58.621
 20
22.39
  0
VERTEX
  8
0
 10
58.6075
 20
22.3586
  0
VERTEX
  8
0
 10
58.5919
 20
22.3292
  0
VERTEX
  8
0
 10
58.5743
 20
22.3019
  0
VERTEX
  8
0
 10
58.5545
 20
22.2766
  0
VERTEX
  8
0
 10
58.5327
 20
22.2534
  0
VERTEX
  8
0
 10
58.5089
 20
22.2322
  0
VERTEX
  8
0
 10
58.4829
 20
22.2131
  0
VERTEX
  8
0
 10
58.4549
 20
22.1961
  0
VERTEX
  8
0
 10
58.3515
 20
22.1554
  0
VERTEX
  8
0
 10
58.2388
 20
22.1413
  0
VERTEX
  8
0
 10
58.1889
 20
22.1432
  0
VERTEX
  8
0
 10
58.142
 20
22.1493
  0
VERTEX
  8
0
 10
58.0981
 20
22.1597
  0
VERTEX
  8
0
 10
58.057
 20
22.1743
  0
VERTEX
  8
0
 10
58.0189
 20
22.1932
  0
VERTEX
  8
0
 10
57.9837
 20
22.2163
  0
VERTEX
  8
0
 10
57.9515
 20
22.2437
  0
VERTEX
  8
0
 10
57.9222
 20
22.2753
  0
VERTEX
  8
0
 10
57.8904
 20
22.3193
  0
VERTEX
  8
0
 10
57.8645
 20
22.3679
  0
VERTEX
  8
0
 10
57.8443
 20
22.4212
  0
VERTEX
  8
0
 10
57.8299
 20
22.4792
  0
VERTEX
  8
0
 10
57.8212
 20
22.5419
  0
VERTEX
  8
0
 10
57.8183
 20
22.6093
  0
VERTEX
  8
0
 10
57.8183
 20
22.6093
  0
SEQEND
  0
POLYLINE
  8
0
 66
     1
 10
0
 20
0
  0
VERTEX
  8
0
 10
57.9743
 20
22.6097
  0
VERTEX
  8
0
 10
57.978
 20
22.5404
  0
VERTEX
  8
0
 10
57.9889
 20
22.4779
  0
VERTEX
  8
0
 10
58.0071
 20
22.4223
  0
VERTEX
  8
0
 10
58.0327
 20
22.3736
  0
VERTEX
  8
0
 10
58.0576
 20
22.3407
  0
VERTEX
  8
0
 10
58.0863
 20
22.3138
  0
VERTEX
  8
0
 10
58.1188
 20
22.2928
  0
VERTEX
  8
0
 10
58.155
 20
22.2777
  0
VERTEX
  8
0
 10
58.195
 20
22.2685
  0
VERTEX
  8
0
 10
58.2388
 20
22.2653
  0
VERTEX
  8
0
 10
58.2825
 20
22.2681
  0
VERTEX
  8
0
 10
58.3225
 20
22.2772
  0
VERTEX
  8
0
 10
58.3587
 20
22.2925
  0
VERTEX
  8
0
 10
58.3912
 20
22.3142
  0
VERTEX
  8
0
 10
58.4199
 20
22.342
  0
VERTEX
  8
0
 10
58.4449
 20
22.3761
  0
VERTEX
  8
0
 10
58.4768
 20
22.444
  0
VERTEX
  8
0
 10
58.496
 20
22.5236
  0
VERTEX
  8
0
 10
58.5023
 20
22.6148
  0
VERTEX
  8
0
 10
58.4957
 20
22.703
  0
VERTEX
  8
0
 10
58.4757
 20
22.7803
  0
VERTEX
  8
0
 10
58.4423
 20
22.8466
  0
VERTEX
  8
0
 10
58.417
 20
22.8792
  0
VERTEX
  8
0
 10
58.3882
 20
22.9059
  0
VERTEX
  8
0
 10
58.356
 20
22.9266
  0
VERTEX
  8
0
 10
58.3203
 20
22.9414
  0
VERTEX
  8
0
 10
58.2813
 20
22.9503
  0
VERTEX
  8
0
 10
58.2388
 20
22.9533
  0
VERTEX
  8
0
 10
58.195
 20
22.9503
  0
VERTEX
  8
0
 10
58.155
 20
22.9412
  0
VERTEX
  8
0
 10
58.1188
 20
22.9262
  0
VERTEX
  8
0
 10
58.0863
 20
22.9051
  0
VERTEX
  8
0
 10
58.0576
 20
22.878
  0
VERTEX
  8
0
 10
58.0327
 20
22.845
  0
VERTEX
  8
0
 10
58.0003
 20
22.7782
  0
VERTEX
  8
0
 10
57.9808
 20
22.6998
  0
VERTEX
  8
0
 10
57.9743
 20
22.6097
  0
VERTEX
  8
0
 10
57.9743
 20
22.6097
  0
SEQEND
  0
POLYLINE
  8
0
 66
     1
 10
0
 20
0
  0
VERTEX
  8
0
 10
58.8383
 20
22.1573
  0
VERTEX
  8
0
 10
58.8383
 20
23.0578
  0
VERTEX
  8
0
 10
58.9743
 20
23.0578
  0
VERTEX
  8
0
 10
58.9743
 20
22.9303
  0
VERTEX
  8
0
 10
59.0004
 20
22.9646
  0
VERTEX
  8
0
 10
59.0292
 20
22.9943
  0
VERTEX
  8
0
 10
59.0608
 20
23.0195
  0
VERTEX
  8
0
 10
59.0951
 20
23.0401
  0
VERTEX
  8
0
 10
59.1322
 20
23.0562
  0
VERTEX
  8
0
 10
59.172
 20
23.0678
  0
VERTEX
  8
0
 10
59.2145
 20
23.0748
  0
VERTEX
  8
0
 10
59.2598
 20
23.0773
  0
VERTEX
  8
0
 10
59.3362
 20
23.0699
  0
VERTEX
  8
0
 10
59.4084
 20
23.0476
  0
VERTEX
  8
0
 10
59.4461
 20
23.028
  0
VERTEX
  8
0
 10
59.4787
 20
23.0037
  0
VERTEX
  8
0
 10
59.5062
 20
22.9746
  0
VERTEX
  8
0
 10
59.5285
 20
22.9407
  0
VERTEX
  8
0
 10
59.5458
 20
22.9021
  0
VERTEX
  8
0
 10
59.5579
 20
22.8587
  0
VERTEX
  8
0
 10
59.5626
 20
22.8245
  0
VERTEX
  8
0
 10
59.5654
 20
22.7751
  0
VERTEX
  8
0
 10
59.5663
 20
22.7105
  0
VERTEX
  8
0
 10
59.5663
 20
22.1573
  0
VERTEX
  8
0
 10
59.4143
 20
22.1573
  0
VERTEX
  8
0
 10
59.4143
 20
22.7046
  0
VERTEX
  8
0
 10
59.4114
 20
22.7743
  0
VERTEX
  8
0
 10
59.4025
 20
22.8241
  0
VERTEX
  8
0
 10
59.3768
 20
22.8779
  0
VERTEX
  8
0
 10
59.3334
 20
22.9173
  0
VERTEX
  8
0
 10
59.2847
 20
22.9383
  0
VERTEX
  8
0
 10
59.228
 20
22.9453
  0
VERTEX
  8
0
 10
59.2037
 20
22.9444
  0
VERTEX
  8
0
 10
59.1806
 20
22.942
  0
VERTEX
  8
0
 10
59.1589
 20
22.9379
  0
VERTEX
  8
0
 10
59.1385
 20
22.9321
  0
VERTEX
  8
0
 10
59.1194
 20
22.9247
  0
VERTEX
  8
0
 10
59.1016
 20
22.9157
  0
VERTEX
  8
0
 10
59.0852
 20
22.905
  0
VERTEX
  8
0
 10
59.07
 20
22.8927
  0
VERTEX
  8
0
 10
59.0562
 20
22.8787
  0
VERTEX
  8
0
 10
59.0437
 20
22.8631
  0
VERTEX
  8
0
 10
59.0325
 20
22.8459
  0
VERTEX
  8
0
 10
59.0226
 20
22.827
  0
VERTEX
  8
0
 10
59.014
 20
22.8064
  0
VERTEX
  8
0
 10
59.0068
 20
22.7843
  0
VERTEX
  8
0
 10
59.0009
 20
22.7604
  0
VERTEX
  8
0
 10
58.9963
 20
22.735
  0
VERTEX
  8
0
 10
58.993
 20
22.7079
  0
VERTEX
  8
0
 10
58.991
 20
22.6791
  0
VERTEX
  8
0
 10
58.9903
 20
22.6487
  0
VERTEX
  8
0
 10
58.9903
 20
22.1573
  0
VERTEX
  8
0
 10
58.8383
 20
22.1573
  0
SEQEND
  0
POLYLINE
  8
0
 66
     1
 10
0
 20
0
  0
VERTEX
  8
0
 10
61.2023
 20
22.6453
  0
VERTEX
  8
0
 10
61.2023
 20
22.7933
  0
VERTEX
  8
0
 10
61.7263
 20
22.7933
  0
VERTEX
  8
0
 10
61.7263
 20
22.3344
  0
VERTEX
  8
0
 10
61.6724
 20
22.2939
  0
VERTEX
  8
0
 10
61.6176
 20
22.2581
  0
VERTEX
  8
0
 10
61.5622
 20
22.2271
  0
VERTEX
  8
0
 10
61.506
 20
22.2009
  0
VERTEX
  8
0
 10
61.4491
 20
22.1794
  0
VERTEX
  8
0
 10
61.3915
 20
22.1627
  0
VERTEX
  8
0
 10
61.3331
 20
22.1508
  0
VERTEX
  8
0
 10
61.274
 20
22.1436
  0
VERTEX
  8
0
 10
61.2142
 20
22.1413
  0
VERTEX
  8
0
 10
61.1263
 20
22.1458
  0
VERTEX
  8
0
 10
61.0432
 20
22.1594
  0
VERTEX
  8
0
 10
60.9648
 20
22.1821
  0
VERTEX
  8
0
 10
60.8911
 20
22.2139
  0
VERTEX
  8
0
 10
60.8324
 20
22.2485
  0
VERTEX
  8
0
 10
60.7797
 20
22.289
  0
VERTEX
  8
0
 10
60.7332
 20
22.3353
  0
VERTEX
  8
0
 10
60.6927
 20
22.3873
  0
VERTEX
  8
0
 10
60.6583
 20
22.4452
  0
VERTEX
  8
0
 10
60.6251
 20
22.5206
  0
VERTEX
  8
0
 10
60.6013
 20
22.6008
  0
VERTEX
  8
0
 10
60.5871
 20
22.6857
  0
VERTEX
  8
0
 10
60.5823
 20
22.7753
  0
VERTEX
  8
0
 10
60.5901
 20
22.8908
  0
VERTEX
  8
0
 10
60.6135
 20
22.9998
  0
VERTEX
  8
0
 10
60.6524
 20
23.1021
  0
VERTEX
  8
0
 10
60.6862
 20
23.1648
  0
VERTEX
  8
0
 10
60.7254
 20
23.2205
  0
VERTEX
  8
0
 10
60.7699
 20
23.2691
  0
VERTEX
  8
0
 10
60.8199
 20
23.3107
  0
VERTEX
  8
0
 10
60.8753
 20
23.3453
  0
VERTEX
  8
0
 10
60.9489
 20
23.3785
  0
VERTEX
  8
0
 10
61.0279
 20
23.4023
  0
VERTEX
  8
0
 10
61.1123
 20
23.4165
  0
VERTEX
  8
0
 10
61.202
 20
23.4213
  0
VERTEX
  8
0
 10
61.3291
 20
23.4101
  0
VERTEX
  8
0
 10
61.4451
 20
23.3768
  0
VERTEX
  8
0
 10
61.5439
 20
23.3231
  0
VERTEX
  8
0
 10
61.619
 20
23.251
  0
VERTEX
  8
0
 10
61.6697
 20
23.1646
  0
VERTEX
  8
0
 10
61.7085
 20
23.0528
  0
VERTEX
  8
0
 10
61.5607
 20
23.0122
  0
VERTEX
  8
0
 10
61.5309
 20
23.0941
  0
VERTEX
  8
0
 10
61.4956
 20
23.1548
  0
VERTEX
  8
0
 10
61.4431
 20
23.2077
  0
VERTEX
  8
0
 10
61.3735
 20
23.2477
  0
VERTEX
  8
0
 10
61.2916
 20
23.2729
  0
VERTEX
  8
0
 10
61.2024
 20
23.2813
  0
VERTEX
  8
0
 10
61.0985
 20
23.2726
  0
VERTEX
  8
0
 10
61.008
 20
23.2468
  0
VERTEX
  8
0
 10
60.9614
 20
23.2241
  0
VERTEX
  8
0
 10
60.9193
 20
23.1964
  0
VERTEX
  8
0
 10
60.8819
 20
23.1638
  0
VERTEX
  8
0
 10
60.8492
 20
23.1261
  0
VERTEX
  8
0
 10
60.8211
 20
23.0834
  0
VERTEX
  8
0
 10
60.7977
 20
23.0358
  0
VERTEX
  8
0
 10
60.7626
 20
22.9182
  0
VERTEX
  8
0
 10
60.7503
 20
22.7877
  0
VERTEX
  8
0
 10
60.7511
 20
22.7446
  0
VERTEX
  8
0
 10
60.7539
 20
22.7035
  0
VERTEX
  8
0
 10
60.7587
 20
22.6643
  0
VERTEX
  8
0
 10
60.7655
 20
22.6271
  0
VERTEX
  8
0
 10
60.7744
 20
22.5919
  0
VERTEX
  8
0
 10
60.7852
 20
22.5586
  0
VERTEX
  8
0
 10
60.7981
 20
22.5272
  0
VERTEX
  8
0
 10
60.8129
 20
22.4979
  0
VERTEX
  8
0
 10
60.8298
 20
22.4704
  0
VERTEX
  8
0
 10
60.8487
 20
22.445
  0
VERTEX
  8
0
 10
60.8696
 20
22.4215
  0
VERTEX
  8
0
 10
60.8925
 20
22.3999
  0
VERTEX
  8
0
 10
60.9174
 20
22.3804
  0
VERTEX
  8
0
 10
60.9444
 20
22.3627
  0
VERTEX
  8
0
 10
60.9733
 20
22.3471
  0
VERTEX
  8
0
 10
61.0857
 20
22.3071
  0
VERTEX
  8
0
 10
61.2048
 20
22.2933
  0
VERTEX
  8
0
 10
61.2979
 20
22.3013
  0
VERTEX
  8
0
 10
61.3965
 20
22.3272
  0
VERTEX
  8
0
 10
61.4918
 20
22.368
  0
VERTEX
  8
0
 10
61.5663
 20
22.4191
  0
VERTEX
  8
0
 10
61.5663
 20
22.6453
  0
VERTEX
  8
0
 10
61.2023
 20
22.6453
  0
SEQEND
  0
POLYLINE
  8
0
 66
     1
 10
0
 20
0
  0
VERTEX
  8
0
 10
61.9543
 20
22.1573
  0
VERTEX
  8
0
 10
61.9543
 20
23.0578
  0
VERTEX
  8
0
 10
62.0903
 20
23.0578
  0
VERTEX
  8
0
 10
62.0903
 20
22.9219
  0
VERTEX
  8
0
 10
62.1301
 20
22.9861
  0
VERTEX
  8
0
 10
62.1665
 20
23.0294
  0
VERTEX
  8
0
 10
62.2211
 20
23.0653
  0
VERTEX
  8
0
 10
62.285
 20
23.0773
  0
VERTEX
  8
0
 10
62.3622
 20
23.0651
  0
VERTEX
  8
0
 10
62.4415
 20
23.0285
  0
VERTEX
  8
0
 10
62.3892
 20
22.8881
  0
VERTEX
  8
0
 10
62.3334
 20
22.913
  0
VERTEX
  8
0
 10
62.2777
 20
22.9213
  0
VERTEX
  8
0
 10
62.2287
 20
22.9126
  0
VERTEX
  8
0
 10
62.1832
 20
22.8865
  0
VERTEX
  8
0
 10
62.1526
 20
22.8523
  0
VERTEX
  8
0
 10
62.1317
 20
22.8075
  0
VERTEX
  8
0
 10
62.1127
 20
22.723
  0
VERTEX
  8
0
 10
62.1063
 20
22.6293
  0
VERTEX
  8
0
 10
62.1063
 20
22.1573
  0
VERTEX
  8
0
 10
61.9543
 20
22.1573
  0
SEQEND
  0
POLYLINE
  8
0
 66
     1
 10
0
 20
0
  0
VERTEX
  8
0
 10
63.1465
 20
22.45
  0
VERTEX
  8
0
 10
63.3038
 20
22.4306
  0
VERTEX
  8
0
 10
63.2944
 20
22.3994
  0
VERTEX
  8
0
 10
63.2836
 20
22.3699
  0
VERTEX
  8
0
 10
63.2712
 20
22.3422
  0
VERTEX
  8
0
 10
63.2575
 20
22.3163
  0
VERTEX
  8
0
 10
63.2422
 20
22.2922
  0
VERTEX
  8
0
 10
63.2254
 20
22.2699
  0
VERTEX
  8
0
 10
63.2072
 20
22.2493
  0
VERTEX
  8
0
 10
63.1875
 20
22.2306
  0
VERTEX
  8
0
 10
63.1664
 20
22.2136
  0
VERTEX
  8
0
 10
63.1437
 20
22.1984
  0
VERTEX
  8
0
 10
63.1196
 20
22.185
  0
VERTEX
  8
0
 10
63.094
 20
22.1734
  0
VERTEX
  8
0
 10
63.067
 20
22.1636
  0
VERTEX
  8
0
 10
63.0384
 20
22.1556
  0
VERTEX
  8
0
 10
63.0084
 20
22.1493
  0
VERTEX
  8
0
 10
62.9769
 20
22.1448
  0
VERTEX
  8
0
 10
62.944
 20
22.1422
  0
VERTEX
  8
0
 10
62.9095
 20
22.1413
  0
VERTEX
  8
0
 10
62.8548
 20
22.1437
  0
VERTEX
  8
0
 10
62.8034
 20
22.1511
  0
VERTEX
  8
0
 10
62.7554
 20
22.1634
  0
VERTEX
  8
0
 10
62.7108
 20
22.1806
  0
VERTEX
  8
0
 10
62.6695
 20
22.2028
  0
VERTEX
  8
0
 10
62.6316
 20
22.2299
  0
VERTEX
  8
0
 10
62.5972
 20
22.2619
  0
VERTEX
  8
0
 10
62.5667
 20
22.2983
  0
VERTEX
  8
0
 10
62.5409
 20
22.3388
  0
VERTEX
  8
0
 10
62.5198
 20
22.3833
  0
VERTEX
  8
0
 10
62.5034
 20
22.4319
  0
VERTEX
  8
0
 10
62.4917
 20
22.4845
  0
VERTEX
  8
0
 10
62.4847
 20
22.5411
  0
VERTEX
  8
0
 10
62.4823
 20
22.6017
  0
VERTEX
  8
0
 10
62.4852
 20
22.6689
  0
VERTEX
  8
0
 10
62.4938
 20
22.7316
  0
VERTEX
  8
0
 10
62.5081
 20
22.7899
  0
VERTEX
  8
0
 10
62.5281
 20
22.8438
  0
VERTEX
  8
0
 10
62.5539
 20
22.8932
  0
VERTEX
  8
0
 10
62.5853
 20
22.9381
  0
VERTEX
  8
0
 10
62.615
 20
22.9707
  0
VERTEX
  8
0
 10
62.6475
 20
22.999
  0
VERTEX
  8
0
 10
62.6828
 20
23.0229
  0
VERTEX
  8
0
 10
62.7208
 20
23.0425
  0
VERTEX
  8
0
 10
62.7617
 20
23.0577
  0
VERTEX
  8
0
 10
62.8054
 20
23.0686
  0
VERTEX
  8
0
 10
62.8518
 20
23.0751
  0
VERTEX
  8
0
 10
62.9011
 20
23.0773
  0
VERTEX
  8
0
 10
62.9491
 20
23.0751
  0
VERTEX
  8
0
 10
62.9944
 20
23.0687
  0
VERTEX
  8
0
 10
63.0369
 20
23.058
  0
VERTEX
  8
0
 10
63.0767
 20
23.0431
  0
VERTEX
  8
0
 10
63.1137
 20
23.0239
  0
VERTEX
  8
0
 10
63.148
 20
23.0004
  0
VERTEX
  8
0
 10
63.1796
 20
22.9726
  0
VERTEX
  8
0
 10
63.2084
 20
22.9406
  0
VERTEX
  8
0
 10
63.2391
 20
22.8965
  0
VERTEX
  8
0
 10
63.2642
 20
22.8483
  0
VERTEX
  8
0
 10
63.2837
 20
22.7959
  0
VERTEX
  8
0
 10
63.2977
 20
22.7393
  0
VERTEX
  8
0
 10
63.3061
 20
22.6785
  0
VERTEX
  8
0
 10
63.3088
 20
22.6135
  0
VERTEX
  8
0
 10
63.3086
 20
22.5925
  0
VERTEX
  8
0
 10
63.308
 20
22.5733
  0
VERTEX
  8
0
 10
62.6383
 20
22.5733
  0
VERTEX
  8
0
 10
62.6493
 20
22.4906
  0
VERTEX
  8
0
 10
62.6733
 20
22.4189
  0
VERTEX
  8
0
 10
62.7102
 20
22.3583
  0
VERTEX
  8
0
 10
62.7417
 20
22.3248
  0
VERTEX
  8
0
 10
62.7775
 20
22.2987
  0
VERTEX
  8
0
 10
62.8174
 20
22.2801
  0
VERTEX
  8
0
 10
62.8615
 20
22.269
  0
VERTEX
  8
0
 10
62.9098
 20
22.2653
  0
VERTEX
  8
0
 10
62.9427
 20
22.2671
  0
VERTEX
  8
0
 10
62.9736
 20
22.2727
  0
VERTEX
  8
0
 10
63.0025
 20
22.2819
  0
VERTEX
  8
0
 10
63.0292
 20
22.2948
  0
VERTEX
  8
0
 10
63.0539
 20
22.3115
  0
VERTEX
  8
0
 10
63.0766
 20
22.3318
  0
VERTEX
  8
0
 10
63.0972
 20
22.3558
  0
VERTEX
  8
0
 10
63.1157
 20
22.3835
  0
VERTEX
  8
0
 10
63.1321
 20
22.4149
  0
VERTEX
  8
0
 10
63.1465
 20
22.45
  0
VERTEX
  8
0
 10
63.1465
 20
22.45
  0
SEQEND
  0
POLYLINE
  8
0
 66
     1
 10
0
 20
0
  0
VERTEX
  8
0
 10
62.6478
 20
22.6973
  0
VERTEX
  8
0
 10
63.1484
 20
22.6973
  0
VERTEX
  8
0
 10
63.1375
 20
22.766
  0
VERTEX
  8
0
 10
63.1184
 20
22.8222
  0
VERTEX
  8
0
 10
63.091
 20
22.866
  0
VERTEX
  8
0
 10
63.052
 20
22.9038
  0
VERTEX
  8
0
 10
63.0076
 20
22.931
  0
VERTEX
  8
0
 10
62.9579
 20
22.9475
  0
VERTEX
  8
0
 10
62.9027
 20
22.9533
  0
VERTEX
  8
0
 10
62.85
 20
22.949
  0
VERTEX
  8
0
 10
62.8023
 20
22.9352
  0
VERTEX
  8
0
 10
62.7597
 20
22.912
  0
VERTEX
  8
0
 10
62.7221
 20
22.8794
  0
VERTEX
  8
0
 10
62.6842
 20
22.8278
  0
VERTEX
  8
0
 10
62.6594
 20
22.7671
  0
VERTEX
  8
0
 10
62.6478
 20
22.6973
  0
VERTEX
  8
0
 10
62.6478
 20
22.6973
  0
SEQEND
  0
POLYLINE
  8
0
 66
     1
 10
0
 20
0
  0
VERTEX
  8
0
 10
64.1065
 20
22.45
  0
VERTEX
  8
0
 10
64.2638
 20
22.4306
  0
VERTEX
  8
0
 10
64.2544
 20
22.3994
  0
VERTEX
  8
0
 10
64.2436
 20
22.3699
  0
VERTEX
  8
0
 10
64.2312
 20
22.3422
  0
VERTEX
  8
0
 10
64.2175
 20
22.3163
  0
VERTEX
  8
0
 10
64.2022
 20
22.2922
  0
VERTEX
  8
0
 10
64.1854
 20
22.2699
  0
VERTEX
  8
0
 10
64.1672
 20
22.2493
  0
VERTEX
  8
0
 10
64.1475
 20
22.2306
  0
VERTEX
  8
0
 10
64.1264
 20
22.2136
  0
VERTEX
  8
0
 10
64.1037
 20
22.1984
  0
VERTEX
  8
0
 10
64.0796
 20
22.185
  0
VERTEX
  8
0
 10
64.054
 20
22.1734
  0
VERTEX
  8
0
 10
64.027
 20
22.1636
  0
VERTEX
  8
0
 10
63.9984
 20
22.1556
  0
VERTEX
  8
0
 10
63.9684
 20
22.1493
  0
VERTEX
  8
0
 10
63.9369
 20
22.1448
  0
VERTEX
  8
0
 10
63.904
 20
22.1422
  0
VERTEX
  8
0
 10
63.8695
 20
22.1413
  0
VERTEX
  8
0
 10
63.8148
 20
22.1437
  0
VERTEX
  8
0
 10
63.7634
 20
22.1511
  0
VERTEX
  8
0
 10
63.7154
 20
22.1634
  0
VERTEX
  8
0
 10
63.6708
 20
22.1806
  0
VERTEX
  8
0
 10
63.6295
 20
22.2028
  0
VERTEX
  8
0
 10
63.5916
 20
22.2299
  0
VERTEX
  8
0
 10
63.5572
 20
22.2619
  0
VERTEX
  8
0
 10
63.5267
 20
22.2983
  0
VERTEX
  8
0
 10
63.5009
 20
22.3388
  0
VERTEX
  8
0
 10
63.4798
 20
22.3833
  0
VERTEX
  8
0
 10
63.4634
 20
22.4319
  0
VERTEX
  8
0
 10
63.4517
 20
22.4845
  0
VERTEX
  8
0
 10
63.4447
 20
22.5411
  0
VERTEX
  8
0
 10
63.4423
 20
22.6017
  0
VERTEX
  8
0
 10
63.4452
 20
22.6689
  0
VERTEX
  8
0
 10
63.4538
 20
22.7316
  0
VERTEX
  8
0
 10
63.4681
 20
22.7899
  0
VERTEX
  8
0
 10
63.4881
 20
22.8438
  0
VERTEX
  8
0
 10
63.5139
 20
22.8932
  0
VERTEX
  8
0
 10
63.5453
 20
22.9381
  0
VERTEX
  8
0
 10
63.575
 20
22.9707
  0
VERTEX
  8
0
 10
63.6075
 20
22.999
  0
VERTEX
  8
0
 10
63.6428
 20
23.0229
  0
VERTEX
  8
0
 10
63.6808
 20
23.0425
  0
VERTEX
  8
0
 10
63.7217
 20
23.0577
  0
VERTEX
  8
0
 10
63.7654
 20
23.0686
  0
VERTEX
  8
0
 10
63.8118
 20
23.0751
  0
VERTEX
  8
0
 10
63.8611
 20
23.0773
  0
VERTEX
  8
0
 10
63.9091
 20
23.0751
  0
VERTEX
  8
0
 10
63.9544
 20
23.0687
  0
VERTEX
  8
0
 10
63.9969
 20
23.058
  0
VERTEX
  8
0
 10
64.0367
 20
23.0431
  0
VERTEX
  8
0
 10
64.0737
 20
23.0239
  0
VERTEX
  8
0
 10
64.108
 20
23.0004
  0
VERTEX
  8
0
 10
64.1396
 20
22.9726
  0
VERTEX
  8
0
 10
64.1684
 20
22.9406
  0
VERTEX
  8
0
 10
64.1991
 20
22.8965
  0
VERTEX
  8
0
 10
64.2242
 20
22.8483
  0
VERTEX
  8
0
 10
64.2437
 20
22.7959
  0
VERTEX
  8
0
 10
64.2577
 20
22.7393
  0
VERTEX
  8
0
 10
64.2661
 20
22.6785
  0
VERTEX
  8
0
 10
64.2688
 20
22.6135
  0
VERTEX
  8
0
 10
64.2686
 20
22.5925
  0
VERTEX
  8
0
 10
64.268
 20
22.5733
  0
VERTEX
  8
0
 10
63.5983
 20
22.5733
  0
VERTEX
  8
0
 10
63.6093
 20
22.4906
  0
VERTEX
  8
0
 10
63.6333
 20
22.4189
  0
VERTEX
  8
0
 10
63.6702
 20
22.3583
  0
VERTEX
  8
0
 10
63.7017
 20
22.3248
  0
VERTEX
  8
0
 10
63.7375
 20
22.2987
  0
VERTEX
  8
0
 10
63.7774
 20
22.2801
  0
VERTEX
  8
0
 10
63.8215
 20
22.269
  0
VERTEX
  8
0
 10
63.8698
 20
22.2653
  0
VERTEX
  8
0
 10
63.9027
 20
22.2671
  0
VERTEX
  8
0
 10
63.9336
 20
22.2727
  0
VERTEX
  8
0
 10
63.9625
 20
22.2819
  0
VERTEX
  8
0
 10
63.9892
 20
22.2948
  0
VERTEX
  8
0
 10
64.0139
 20
22.3115
  0
VERTEX
  8
0
 10
64.0366
 20
22.3318
  0
VERTEX
  8
0
 10
64.0572
 20
22.3558
  0
VERTEX
  8
0
 10
64.0757
 20
22.3835
  0
VERTEX
  8
0
 10
64.0921
 20
22.4149
  0
VERTEX
  8
0
 10
64.1065
 20
22.45
  0
VERTEX
  8
0
 10
64.1065
 20
22.45
  0
SEQEND
  0
POLYLINE
  8
0
 66
     1
 10
0
 20
0
  0
VERTEX
  8
0
 10
63.6078
 20
22.6973
  0
VERTEX
  8
0
 10
64.1084
 20
22.6973
  0
VERTEX
  8
0
 10
64.0975
 20
22.766
  0
VERTEX
  8
0
 10
64.0784
 20
22.8222
  0
VERTEX
  8
0
 10
64.051
 20
22.866
  0
VERTEX
  8
0
 10
64.012
 20
22.9038
  0
VERTEX
  8
0
 10
63.9676
 20
22.931
  0
VERTEX
  8
0
 10
63.9179
 20
22.9475
  0
VERTEX
  8
0
 10
63.8627
 20
22.9533
  0
VERTEX
  8
0
 10
63.81
 20
22.949
  0
VERTEX
  8
0
 10
63.7623
 20
22.9352
  0
VERTEX
  8
0
 10
63.7197
 20
22.912
  0
VERTEX
  8
0
 10
63.6821
 20
22.8794
  0
VERTEX
  8
0
 10
63.6442
 20
22.8278
  0
VERTEX
  8
0
 10
63.6194
 20
22.7671
  0
VERTEX
  8
0
 10
63.6078
 20
22.6973
  0
VERTEX
  8
0
 10
63.6078
 20
22.6973
  0
SEQEND
  0
POLYLINE
  8
0
 66
     1
 10
0
 20
0
  0
VERTEX
  8
0
 10
64.4543
 20
22.1573
  0
VERTEX
  8
0
 10
64.4543
 20
23.0578
  0
VERTEX
  8
0
 10
64.5903
 20
23.0578
  0
VERTEX
  8
0
 10
64.5903
 20
22.9303
  0
VERTEX
  8
0
 10
64.6164
 20
22.9646
  0
VERTEX
  8
0
 10
64.6452
 20
22.9943
  0
VERTEX
  8
0
 10
64.6768
 20
23.0195
  0
VERTEX
  8
0
 10
64.7111
 20
23.0401
  0
VERTEX
  8
0
 10
64.7482
 20
23.0562
  0
VERTEX
  8
0
 10
64.788
 20
23.0678
  0
VERTEX
  8
0
 10
64.8305
 20
23.0748
  0
VERTEX
  8
0
 10
64.8758
 20
23.0773
  0
VERTEX
  8
0
 10
64.9522
 20
23.0699
  0
VERTEX
  8
0
 10
65.0244
 20
23.0476
  0
VERTEX
  8
0
 10
65.0621
 20
23.028
  0
VERTEX
  8
0
 10
65.0947
 20
23.0037
  0
VERTEX
  8
0
 10
65.1222
 20
22.9746
  0
VERTEX
  8
0
 10
65.1445
 20
22.9407
  0
VERTEX
  8
0
 10
65.1618
 20
22.9021
  0
VERTEX
  8
0
 10
65.1739
 20
22.8587
  0
VERTEX
  8
0
 10
65.1786
 20
22.8245
  0
VERTEX
  8
0
 10
65.1814
 20
22.7751
  0
VERTEX
  8
0
 10
65.1823
 20
22.7105
  0
VERTEX
  8
0
 10
65.1823
 20
22.1573
  0
VERTEX
  8
0
 10
65.0303
 20
22.1573
  0
VERTEX
  8
0
 10
65.0303
 20
22.7046
  0
VERTEX
  8
0
 10
65.0274
 20
22.7743
  0
VERTEX
  8
0
 10
65.0185
 20
22.8241
  0
VERTEX
  8
0
 10
64.9928
 20
22.8779
  0
VERTEX
  8
0
 10
64.9494
 20
22.9173
  0
VERTEX
  8
0
 10
64.9007
 20
22.9383
  0
VERTEX
  8
0
 10
64.844
 20
22.9453
  0
VERTEX
  8
0
 10
64.8197
 20
22.9444
  0
VERTEX
  8
0
 10
64.7966
 20
22.942
  0
VERTEX
  8
0
 10
64.7749
 20
22.9379
  0
VERTEX
  8
0
 10
64.7545
 20
22.9321
  0
VERTEX
  8
0
 10
64.7354
 20
22.9247
  0
VERTEX
  8
0
 10
64.7176
 20
22.9157
  0
VERTEX
  8
0
 10
64.7012
 20
22.905
  0
VERTEX
  8
0
 10
64.686
 20
22.8927
  0
VERTEX
  8
0
 10
64.6722
 20
22.8787
  0
VERTEX
  8
0
 10
64.6597
 20
22.8631
  0
VERTEX
  8
0
 10
64.6485
 20
22.8459
  0
VERTEX
  8
0
 10
64.6386
 20
22.827
  0
VERTEX
  8
0
 10
64.63
 20
22.8064
  0
VERTEX
  8
0
 10
64.6228
 20
22.7843
  0
VERTEX
  8
0
 10
64.6169
 20
22.7604
  0
VERTEX
  8
0
 10
64.6123
 20
22.735
  0
VERTEX
  8
0
 10
64.609
 20
22.7079
  0
VERTEX
  8
0
 10
64.607
 20
22.6791
  0
VERTEX
  8
0
 10
64.6063
 20
22.6487
  0
VERTEX
  8
0
 10
64.6063
 20
22.1573
  0
VERTEX
  8
0
 10
64.4543
 20
22.1573
  0
SEQEND
  0
POLYLINE
  8
0
 66
     1
 10
0
 20
0
  0
VERTEX
  8
0
 10
65.4663
 20
22.8853
  0
VERTEX
  8
0
 10
65.4663
 20
23.0573
  0
VERTEX
  8
0
 10
65.6383
 20
23.0573
  0
VERTEX
  8
0
 10
65.6383
 20
22.8853
  0
VERTEX
  8
0
 10
65.4663
 20
22.8853
  0
SEQEND
  0
POLYLINE
  8
0
 66
     1
 10
0
 20
0
  0
VERTEX
  8
0
 10
65.4663
 20
22.1573
  0
VERTEX
  8
0
 10
65.4663
 20
22.3293
  0
VERTEX
  8
0
 10
65.6383
 20
22.3293
  0
VERTEX
  8
0
 10
65.6383
 20
22.1586
  0
VERTEX
  8
0
 10
65.6366
 20
22.1201
  0
VERTEX
  8
0
 10
65.6313
 20
22.0846
  0
VERTEX
  8
0
 10
65.6226
 20
22.0519
  0
VERTEX
  8
0
 10
65.6104
 20
22.0222
  0
VERTEX
  8
0
 10
65.5946
 20
21.9953
  0
VERTEX
  8
0
 10
65.5754
 20
21.9714
  0
VERTEX
  8
0
 10
65.5527
 20
21.9505
  0
VERTEX
  8
0
 10
65.5264
 20
21.9324
  0
VERTEX
  8
0
 10
65.4967
 20
21.9173
  0
VERTEX
  8
0
 10
65.4543
 20
21.981
  0
VERTEX
  8
0
 10
65.4826
 20
21.9965
  0
VERTEX
  8
0
 10
65.5059
 20
22.0175
  0
VERTEX
  8
0
 10
65.5244
 20
22.0441
  0
VERTEX
  8
0
 10
65.538
 20
22.0763
  0
VERTEX
  8
0
 10
65.5467
 20
22.114
  0
VERTEX
  8
0
 10
65.5506
 20
22.1573
  0
VERTEX
  8
0
 10
65.4663
 20
22.1573
  0
SEQEND
  0
POLYLINE
  8
0
 66
     1
 10
0
 20
0
  0
VERTEX
  8
0
 10
42.7243
 20
44.1701
  0
VERTEX
  8
0
 10
41.5395
 20
44.2034
  0
VERTEX
  8
0
 10
40.3544
 20
44.2106
  0
VERTEX
  8
0
 10
39.1693
 20
44.1917
  0
VERTEX
  8
0
 10
37.985
 20
44.1469
  0
VERTEX
  8
0
 10
37.1684
 20
44.0997
  0
VERTEX
  8
0
 10
36.3533
 20
44.0321
  0
VERTEX
  8
0
 10
35.54
 20
43.9441
  0
VERTEX
  8
0
 10
34.7293
 20
43.8357
  0
VERTEX
  8
0
 10
34.2321
 20
43.7532
  0
VERTEX
  8
0
 10
33.7376
 20
43.6553
  0
VERTEX
  8
0
 10
33.2465
 20
43.5421
  0
VERTEX
  8
0
 10
32.8239
 20
43.4278
  0
VERTEX
  8
0
 10
32.408
 20
43.2911
  0
VERTEX
  8
0
 10
32
 20
43.1326
  0
VERTEX
  8
0
 10
32.8674
 20
42.6267
  0
VERTEX
  8
0
 10
33.7433
 20
42.1355
  0
VERTEX
  8
0
 10
34.6274
 20
41.6593
  0
VERTEX
  8
0
 10
35.1924
 20
41.9072
  0
VERTEX
  8
0
 10
35.7663
 20
42.1335
  0
VERTEX
  8
0
 10
36.3483
 20
42.338
  0
VERTEX
  8
0
 10
36.9376
 20
42.5204
  0
VERTEX
  8
0
 10
37.694
 20
42.7249
  0
VERTEX
  8
0
 10
38.456
 20
42.9074
  0
VERTEX
  8
0
 10
39.223
 20
43.0675
  0
VERTEX
  8
0
 10
39.9943
 20
43.2052
  0
VERTEX
  8
0
 10
40.7693
 20
43.3204
  0
VERTEX
  8
0
 10
41.7523
 20
43.4438
  0
VERTEX
  8
0
 10
42.7376
 20
43.5462
  0
VERTEX
  8
0
 10
43.7249
 20
43.6279
  0
VERTEX
  8
0
 10
44.7137
 20
43.6887
  0
VERTEX
  8
0
 10
44.7137
 20
43.776
  0
VERTEX
  8
0
 10
44.2111
 20
43.8462
  0
VERTEX
  8
0
 10
43.7115
 20
43.9354
  0
VERTEX
  8
0
 10
43.2157
 20
44.0434
  0
VERTEX
  8
0
 10
42.7243
 20
44.1701
  0
SEQEND
  0
POLYLINE
  8
0
 66
     1
 10
0
 20
0
  0
VERTEX
  8
0
 10
45.6708
 20
43.6399
  0
VERTEX
  8
0
 10
44.6872
 20
43.529
  0
VERTEX
  8
0
 10
43.7068
 20
43.393
  0
VERTEX
  8
0
 10
42.7301
 20
43.2321
  0
VERTEX
  8
0
 10
41.7579
 20
43.0465
  0
VERTEX
  8
0
 10
40.7907
 20
42.8361
  0
VERTEX
  8
0
 10
40.1248
 20
42.6723
  0
VERTEX
  8
0
 10
39.4638
 20
42.4896
  0
VERTEX
  8
0
 10
38.8083
 20
42.288
  0
VERTEX
  8
0
 10
38.1589
 20
42.0677
  0
VERTEX
  8
0
 10
37.6893
 20
41.8933
  0
VERTEX
  8
0
 10
37.2272
 20
41.6997
  0
VERTEX
  8
0
 10
36.7736
 20
41.4872
  0
VERTEX
  8
0
 10
36.3291
 20
41.2561
  0
VERTEX
  8
0
 10
35.8944
 20
41.0069
  0
VERTEX
  8
0
 10
36.8646
 20
40.528
  0
VERTEX
  8
0
 10
37.842
 20
40.0642
  0
VERTEX
  8
0
 10
38.8265
 20
39.6154
  0
VERTEX
  8
0
 10
39.2445
 20
39.9554
  0
VERTEX
  8
0
 10
39.6757
 20
40.2787
  0
VERTEX
  8
0
 10
40.1192
 20
40.5847
  0
VERTEX
  8
0
 10
40.5745
 20
40.873
  0
VERTEX
  8
0
 10
41.0408
 20
41.1431
  0
VERTEX
  8
0
 10
41.6463
 20
41.4601
  0
VERTEX
  8
0
 10
42.2624
 20
41.7559
  0
VERTEX
  8
0
 10
42.8883
 20
42.0304
  0
VERTEX
  8
0
 10
43.5234
 20
42.2831
  0
VERTEX
  8
0
 10
44.1668
 20
42.5137
  0
VERTEX
  8
0
 10
44.8177
 20
42.722
  0
VERTEX
  8
0
 10
45.8307
 20
43.0137
  0
VERTEX
  8
0
 10
46.8511
 20
43.2781
  0
VERTEX
  8
0
 10
47.8783
 20
43.5151
  0
VERTEX
  8
0
 10
48.9114
 20
43.7245
  0
VERTEX
  8
0
 10
48.9114
 20
43.8105
  0
VERTEX
  8
0
 10
48.1032
 20
43.7355
  0
VERTEX
  8
0
 10
47.2934
 20
43.682
  0
VERTEX
  8
0
 10
46.4824
 20
43.6501
  0
VERTEX
  8
0
 10
45.6708
 20
43.6399
  0
SEQEND
  0
POLYLINE
  8
0
 66
     1
 10
0
 20
0
  0
VERTEX
  8
0
 10
40.191
 20
39.0289
  0
VERTEX
  8
0
 10
41.09
 20
38.6645
  0
VERTEX
  8
0
 10
41.9983
 20
38.3242
  0
VERTEX
  8
0
 10
42.9154
 20
38.0083
  0
VERTEX
  8
0
 10
43.8406
 20
37.7169
  0
VERTEX
  8
0
 10
44.1057
 20
38.2115
  0
VERTEX
  8
0
 10
44.3968
 20
38.6912
  0
VERTEX
  8
0
 10
44.713
 20
39.1548
  0
VERTEX
  8
0
 10
45.0534
 20
39.601
  0
VERTEX
  8
0
 10
45.4401
 20
40.055
  0
VERTEX
  8
0
 10
45.8496
 20
40.4885
  0
VERTEX
  8
0
 10
46.2809
 20
40.9005
  0
VERTEX
  8
0
 10
46.7408
 20
41.2981
  0
VERTEX
  8
0
 10
47.2158
 20
41.6776
  0
VERTEX
  8
0
 10
47.705
 20
42.0386
  0
VERTEX
  8
0
 10
48.2078
 20
42.3804
  0
VERTEX
  8
0
 10
48.7233
 20
42.7025
  0
VERTEX
  8
0
 10
49.5205
 20
43.1618
  0
VERTEX
  8
0
 10
50.333
 20
43.5933
  0
VERTEX
  8
0
 10
51.1598
 20
43.9968
  0
VERTEX
  8
0
 10
52
 20
44.3716
  0
VERTEX
  8
0
 10
52
 20
44.4586
  0
VERTEX
  8
0
 10
50.0531
 20
43.9174
  0
VERTEX
  8
0
 10
48.1159
 20
43.3424
  0
VERTEX
  8
0
 10
47.2919
 20
43.0786
  0
VERTEX
  8
0
 10
46.474
 20
42.7964
  0
VERTEX
  8
0
 10
45.6627
 20
42.496
  0
VERTEX
  8
0
 10
45.0317
 20
42.2455
  0
VERTEX
  8
0
 10
44.4107
 20
41.9717
  0
VERTEX
  8
0
 10
43.8002
 20
41.6748
  0
VERTEX
  8
0
 10
43.2013
 20
41.3554
  0
VERTEX
  8
0
 10
42.6147
 20
41.0138
  0
VERTEX
  8
0
 10
42.1749
 20
40.7295
  0
VERTEX
  8
0
 10
41.7484
 20
40.4257
  0
VERTEX
  8
0
 10
41.3359
 20
40.103
  0
VERTEX
  8
0
 10
40.9384
 20
39.7622
  0
VERTEX
  8
0
 10
40.5565
 20
39.4039
  0
VERTEX
  8
0
 10
40.191
 20
39.0289
  0
SEQEND
  0
POLYLINE
  8
0
 66
     1
 10
0
 20
0
  0
VERTEX
  8
0
 10
36.5445
 20
46.256
  0
VERTEX
  8
0
 10
35.6881
 20
44.9943
  0
VERTEX
  8
0
 10
36.2662
 20
44.9943
  0
VERTEX
  8
0
 10
36.3961
 20
45.2117
  0
VERTEX
  8
0
 10
37.2922
 20
45.2117
  0
VERTEX
  8
0
 10
37.4221
 20
44.9943
  0
VERTEX
  8
0
 10
38.0601
 20
44.9943
  0
VERTEX
  8
0
 10
37.2029
 20
46.256
  0
VERTEX
  8
0
 10
36.5445
 20
46.256
  0
SEQEND
  0
POLYLINE
  8
0
 66
     1
 10
0
 20
0
  0
VERTEX
  8
0
 10
36.5422
 20
45.4568
  0
VERTEX
  8
0
 10
36.8441
 20
45.9632
  0
VERTEX
  8
0
 10
37.1461
 20
45.4568
  0
VERTEX
  8
0
 10
36.5422
 20
45.4568
  0
SEQEND
  0
POLYLINE
  8
0
 66
     1
 10
0
 20
0
  0
VERTEX
  8
0
 10
47.7147
 20
46.256
  0
VERTEX
  8
0
 10
46.8581
 20
44.9943
  0
VERTEX
  8
0
 10
47.4363
 20
44.9943
  0
VERTEX
  8
0
 10
47.5661
 20
45.2117
  0
VERTEX
  8
0
 10
48.4624
 20
45.2117
  0
VERTEX
  8
0
 10
48.5923
 20
44.9943
  0
VERTEX
  8
0
 10
49.2301
 20
44.9943
  0
VERTEX
  8
0
 10
48.3732
 20
46.256
  0
VERTEX
  8
0
 10
47.7147
 20
46.256
  0
SEQEND
  0
POLYLINE
  8
0
 66
     1
 10
0
 20
0
  0
VERTEX
  8
0
 10
51.0027
 20
44.9943
  0
VERTEX
  8
0
 10
50.3123
 20
45.5903
  0
VERTEX
  8
0
 10
50.3123
 20
44.9943
  0
VERTEX
  8
0
 10
49.7212
 20
44.9943
  0
VERTEX
  8
0
 10
49.7212
 20
46.256
  0
VERTEX
  8
0
 10
50.3123
 20
46.256
  0
VERTEX
  8
0
 10
50.3123
 20
45.7026
  0
VERTEX
  8
0
 10
51.0019
 20
46.256
  0
VERTEX
  8
0
 10
51.7193
 20
46.256
  0
VERTEX
  8
0
 10
50.923
 20
45.6522
  0
VERTEX
  8
0
 10
51.7727
 20
44.9943
  0
VERTEX
  8
0
 10
51.0027
 20
44.9943
  0
SEQEND
  0
POLYLINE
  8
0
 66
     1
 10
0
 20
0
  0
VERTEX
  8
0
 10
45.7869
 20
44.9943
  0
VERTEX
  8
0
 10
46.4549
 20
44.9943
  0
VERTEX
  8
0
 10
46.0129
 20
45.4765
  0
VERTEX
  8
0
 10
46.1106
 20
45.5067
  0
VERTEX
  8
0
 10
46.2001
 20
45.5562
  0
VERTEX
  8
0
 10
46.2778
 20
45.6228
  0
VERTEX
  8
0
 10
46.3233
 20
45.6902
  0
VERTEX
  8
0
 10
46.3511
 20
45.7666
  0
VERTEX
  8
0
 10
46.3596
 20
45.8475
  0
VERTEX
  8
0
 10
46.3506
 20
45.9312
  0
VERTEX
  8
0
 10
46.3188
 20
46.0093
  0
VERTEX
  8
0
 10
46.267
 20
46.0757
  0
VERTEX
  8
0
 10
46.1945
 20
46.1298
  0
VERTEX
  8
0
 10
46.114
 20
46.1711
  0
VERTEX
  8
0
 10
46.0277
 20
46.1985
  0
VERTEX
  8
0
 10
45.7873
 20
46.2372
  0
VERTEX
  8
0
 10
45.5444
 20
46.2564
  0
VERTEX
  8
0
 10
45.3008
 20
46.256
  0
VERTEX
  8
0
 10
44.3969
 20
46.256
  0
VERTEX
  8
0
 10
44.3969
 20
44.9943
  0
VERTEX
  8
0
 10
44.981
 20
44.9943
  0
VERTEX
  8
0
 10
44.981
 20
45.3731
  0
VERTEX
  8
0
 10
45.4869
 20
45.3731
  0
VERTEX
  8
0
 10
45.7869
 20
44.9943
  0
SEQEND
  0
POLYLINE
  8
0
 66
     1
 10
0
 20
0
  0
VERTEX
  8
0
 10
44.981
 20
46.0058
  0
VERTEX
  8
0
 10
45.351
 20
46.0058
  0
VERTEX
  8
0
 10
45.4609
 20
46.005
  0
VERTEX
  8
0
 10
45.5698
 20
45.9899
  0
VERTEX
  8
0
 10
45.6758
 20
45.9607
  0
VERTEX
  8
0
 10
45.7283
 20
45.9295
  0
VERTEX
  8
0
 10
45.7634
 20
45.8796
  0
VERTEX
  8
0
 10
45.7749
 20
45.8196
  0
VERTEX
  8
0
 10
45.7577
 20
45.7507
  0
VERTEX
  8
0
 10
45.7179
 20
45.6918
  0
VERTEX
  8
0
 10
45.6602
 20
45.6502
  0
VERTEX
  8
0
 10
45.5918
 20
45.6309
  0
VERTEX
  8
0
 10
45.4613
 20
45.6129
  0
VERTEX
  8
0
 10
45.3296
 20
45.6104
  0
VERTEX
  8
0
 10
44.981
 20
45.6104
  0
VERTEX
  8
0
 10
44.981
 20
46.0058
  0
SEQEND
  0
POLYLINE
  8
0
 66
     1
 10
0
 20
0
  0
VERTEX
  8
0
 10
43.0985
 20
45.9667
  0
VERTEX
  8
0
 10
43.0985
 20
44.9943
  0
VERTEX
  8
0
 10
42.5046
 20
44.9943
  0
VERTEX
  8
0
 10
42.5046
 20
45.9667
  0
VERTEX
  8
0
 10
41.7419
 20
45.9667
  0
VERTEX
  8
0
 10
41.8069
 20
46.256
  0
VERTEX
  8
0
 10
43.8721
 20
46.256
  0
VERTEX
  8
0
 10
43.8075
 20
45.9667
  0
VERTEX
  8
0
 10
43.0985
 20
45.9667
  0
SEQEND
  0
POLYLINE
  8
0
 66
     1
 10
0
 20
0
  0
VERTEX
  8
0
 10
40.8917
 20
45.0214
  0
VERTEX
  8
0
 10
40.6981
 20
45.8348
  0
VERTEX
  8
0
 10
40.2355
 20
45.0214
  0
VERTEX
  8
0
 10
39.6833
 20
45.0214
  0
VERTEX
  8
0
 10
39.2156
 20
45.8348
  0
VERTEX
  8
0
 10
39.0205
 20
45.0214
  0
VERTEX
  8
0
 10
38.4404
 20
45.0214
  0
VERTEX
  8
0
 10
38.8214
 20
46.2831
  0
VERTEX
  8
0
 10
39.4634
 20
46.2831
  0
VERTEX
  8
0
 10
39.9599
 20
45.4193
  0
VERTEX
  8
0
 10
40.4567
 20
46.2831
  0
VERTEX
  8
0
 10
41.0926
 20
46.2831
  0
VERTEX
  8
0
 10
41.4752
 20
45.0214
  0
VERTEX
  8
0
 10
40.8917
 20
45.0214
  0
SEQEND
  0
POLYLINE
  8
0
 66
     1
 10
0
 20
0
  0
VERTEX
  8
0
 10
47.7124
 20
45.4839
  0
VERTEX
  8
0
 10
48.0142
 20
45.9903
  0
VERTEX
  8
0
 10
48.3164
 20
45.4839
  0
VERTEX
  8
0
 10
47.7124
 20
45.4839
  0
SEQEND
  0
ENDSEC
  0
EOF