  0
SECTION
  2
HEADER
  9
$ACADVER
  1
AC1009
  0
ENDSEC
  0
SECTION
  2
TABLES
  0
TABLE
  2
STYLE
 70
   1
  0
STYLE
  2
STANDARD
 70
    64
 40
0.0
 41
1.0
 50
0.0
 71
     0
 42
1.0
  3
txt
  4

  0
ENDTAB
  0
ENDSEC
  0
SECTION
  2
ENTITIES
  0
ARC
  8
0
 10
31.5
 20
31.5
 40
1.5
 50
180
 51
270
  0
ARC
  8
0
 10
58.5
 20
31.5
 40
1.5
 50
270
 51
360
  0
ARC
  8
0
 10
58.5
 20
58.5
 40
1.5
 50
0
 51
90
  0
ARC
  8
0
 10
31.5
 20
58.5
 40
1.5
 50
90
 51
180
  0
POLYLINE
  8
0
 66
     1
 10
0
 20
0
  0
VERTEX
  8
0
 10
31.5
 20
30
  0
VERTEX
  8
0
 10
58.5
 20
30
  0
SEQEND
  0
POLYLINE
  8
0
 66
     1
 10
0
 20
0
  0
VERTEX
  8
0
 10
60
 20
31.5
  0
VERTEX
  8
0
 10
60
 20
58.5
  0
SEQEND
  0
POLYLINE
  8
0
 66
     1
 10
0
 20
0
  0
VERTEX
  8
0
 10
58.5
 20
60
  0
VERTEX
  8
0
 10
31.5
 20
60
  0
SEQEND
  0
POLYLINE
  8
0
 66
     1
 10
0
 20
0
  0
VERTEX
  8
0
 10
30
 20
58.5
  0
VERTEX
  8
0
 10
30
 20
31.5
  0
SEQEND
  0
ARC
  8
0
 10
31.5
 20
31.5
 40
1.5
 50
180
 51
270
  0
ARC
  8
0
 10
31.5
 20
31.5
 40
0.75
 50
180
 51
270
  0
ARC
  8
0
 10
58.5
 20
31.5
 40
1.5
 50
270
 51
360
  0
ARC
  8
0
 10
58.5
 20
31.5
 40
0.75
 50
270
 51
360
  0
ARC
  8
0
 10
58.5
 20
58.5
 40
1.5
 50
0
 51
90
  0
ARC
  8
0
 10
58.5
 20
58.5
 40
0.75
 50
0
 51
90
  0
ARC
  8
0
 10
31.5
 20
58.5
 40
1.5
 50
90
 51
180
  0
ARC
  8
0
 10
31.5
 20
58.5
 40
0.75
 50
90
 51
180
  0
POLYLINE
  8
0
 66
     1
 10
0
 20
0
  0
VERTEX
  8
0
 10
31.5
 20
30.75
  0
VERTEX
  8
0
 10
58.5
 20
30.75
  0
SEQEND
  0
POLYLINE
  8
0
 66
     1
 10
0
 20
0
  0
VERTEX
  8
0
 10
58.5
 20
30
  0
VERTEX
  8
0
 10
31.5
 20
30
  0
SEQEND
  0
POLYLINE
  8
0
 66
     1
 10
0
 20
0
  0
VERTEX
  8
0
 10
59.25
 20
31.5
  0
VERTEX
  8
0
 10
59.25
 20
58.5
  0
SEQEND
  0
POLYLINE
  8
0
 66
     1
 10
0
 20
0
  0
VERTEX
  8
0
 10
60
 20
58.5
  0
VERTEX
  8
0
 10
60
 20
31.5
  0
SEQEND
  0
POLYLINE
  8
0
 66
     1
 10
0
 20
0
  0
VERTEX
  8
0
 10
58.5
 20
59.25
  0
VERTEX
  8
0
 10
31.5
 20
59.25
  0
SEQEND
  0
POLYLINE
  8
0
 66
     1
 10
0
 20
0
  0
VERTEX
  8
0
 10
31.5
 20
60
  0
VERTEX
  8
0
 10
58.5
 20
60
  0
SEQEND
  0
POLYLINE
  8
0
 66
     1
 10
0
 20
0
  0
VERTEX
  8
0
 10
30.75
 20
58.5
  0
VERTEX
  8
0
 10
30.75
 20
31.5
  0
SEQEND
  0
POLYLINE
  8
0
 66
     1
 10
0
 20
0
  0
VERTEX
  8
0
 10
30
 20
31.5
  0
VERTEX
  8
0
 10
30
 20
58.5
  0
SEQEND
  0
POLYLINE
  8
0
 66
     1
 10
0
 20
0
  0
VERTEX
  8
0
 10
62.6288
 20
53.6846
  0
VERTEX
  8
0
 10
62.6154
 20
53.83
  0
VERTEX
  8
0
 10
62.6681
 20
53.8523
  0
VERTEX
  8
0
 10
62.7132
 20
53.9007
  0
VERTEX
  8
0
 10
62.7302
 20
53.9371
  0
VERTEX
  8
0
 10
62.7406
 20
53.987
  0
VERTEX
  8
0
 10
62.7444
 20
54.0503
  0
VERTEX
  8
0
 10
62.7368
 20
54.1148
  0
VERTEX
  8
0
 10
62.7123
 20
54.1722
  0
VERTEX
  8
0
 10
62.6891
 20
54.204
  0
VERTEX
  8
0
 10
62.6597
 20
54.2326
  0
VERTEX
  8
0
 10
62.6244
 20
54.258
  0
VERTEX
  8
0
 10
62.5829
 20
54.2802
  0
VERTEX
  8
0
 10
62.5355
 20
54.2993
  0
VERTEX
  8
0
 10
62.482
 20
54.3152
  0
VERTEX
  8
0
 10
62.3908
 20
54.3322
  0
VERTEX
  8
0
 10
62.2963
 20
54.3378
  0
VERTEX
  8
0
 10
62.2802
 20
54.3376
  0
VERTEX
  8
0
 10
62.2659
 20
54.337
  0
VERTEX
  8
0
 10
62.2998
 20
54.3133
  0
VERTEX
  8
0
 10
62.3298
 20
54.2873
  0
VERTEX
  8
0
 10
62.3558
 20
54.2591
  0
VERTEX
  8
0
 10
62.3778
 20
54.2287
  0
VERTEX
  8
0
 10
62.3959
 20
54.196
  0
VERTEX
  8
0
 10
62.41
 20
54.161
  0
VERTEX
  8
0
 10
62.4201
 20
54.1238
  0
VERTEX
  8
0
 10
62.4262
 20
54.0844
  0
VERTEX
  8
0
 10
62.4284
 20
54.0427
  0
VERTEX
  8
0
 10
62.4253
 20
53.9893
  0
VERTEX
  8
0
 10
62.4153
 20
53.9393
  0
VERTEX
  8
0
 10
62.3986
 20
53.8929
  0
VERTEX
  8
0
 10
62.375
 20
53.8499
  0
VERTEX
  8
0
 10
62.3447
 20
53.8105
  0
VERTEX
  8
0
 10
62.3075
 20
53.7745
  0
VERTEX
  8
0
 10
62.2591
 20
53.7397
  0
VERTEX
  8
0
 10
62.2064
 20
53.7127
  0
VERTEX
  8
0
 10
62.1494
 20
53.6933
  0
VERTEX
  8
0
 10
62.0882
 20
53.6817
  0
VERTEX
  8
0
 10
62.0227
 20
53.6778
  0
VERTEX
  8
0
 10
61.9617
 20
53.6809
  0
VERTEX
  8
0
 10
61.9049
 20
53.6901
  0
VERTEX
  8
0
 10
61.8522
 20
53.7054
  0
VERTEX
  8
0
 10
61.8037
 20
53.7269
  0
VERTEX
  8
0
 10
61.7594
 20
53.7545
  0
VERTEX
  8
0
 10
61.7193
 20
53.7882
  0
VERTEX
  8
0
 10
61.6844
 20
53.8266
  0
VERTEX
  8
0
 10
61.6559
 20
53.8681
  0
VERTEX
  8
0
 10
61.6336
 20
53.9129
  0
VERTEX
  8
0
 10
61.6175
 20
53.9608
  0
VERTEX
  8
0
 10
61.6078
 20
54.0119
  0
VERTEX
  8
0
 10
61.6044
 20
54.0662
  0
VERTEX
  8
0
 10
61.6114
 20
54.1464
  0
VERTEX
  8
0
 10
61.6337
 20
54.2208
  0
VERTEX
  8
0
 10
61.6711
 20
54.2894
  0
VERTEX
  8
0
 10
61.7216
 20
54.3496
  0
VERTEX
  8
0
 10
61.7829
 20
54.399
  0
VERTEX
  8
0
 10
61.8551
 20
54.4376
  0
VERTEX
  8
0
 10
61.9077
 20
54.4564
  0
VERTEX
  8
0
 10
61.9688
 20
54.471
  0
VERTEX
  8
0
 10
62.0383
 20
54.4815
  0
VERTEX
  8
0
 10
62.1164
 20
54.4878
  0
VERTEX
  8
0
 10
62.203
 20
54.4898
  0
VERTEX
  8
0
 10
62.2514
 20
54.4892
  0
VERTEX
  8
0
 10
62.298
 20
54.4873
  0
VERTEX
  8
0
 10
62.3428
 20
54.4842
  0
VERTEX
  8
0
 10
62.3858
 20
54.4797
  0
VERTEX
  8
0
 10
62.4269
 20
54.4741
  0
VERTEX
  8
0
 10
62.4662
 20
54.4671
  0
VERTEX
  8
0
 10
62.5036
 20
54.4589
  0
VERTEX
  8
0
 10
62.5393
 20
54.4494
  0
VERTEX
  8
0
 10
62.5731
 20
54.4387
  0
VERTEX
  8
0
 10
62.605
 20
54.4267
  0
VERTEX
  8
0
 10
62.6352
 20
54.4134
  0
VERTEX
  8
0
 10
62.6635
 20
54.3989
  0
VERTEX
  8
0
 10
62.69
 20
54.3831
  0
VERTEX
  8
0
 10
62.7146
 20
54.366
  0
VERTEX
  8
0
 10
62.7374
 20
54.3477
  0
VERTEX
  8
0
 10
62.7584
 20
54.3281
  0
VERTEX
  8
0
 10
62.7776
 20
54.3073
  0
VERTEX
  8
0
 10
62.795
 20
54.2852
  0
VERTEX
  8
0
 10
62.8271
 20
54.2324
  0
VERTEX
  8
0
 10
62.85
 20
54.1753
  0
VERTEX
  8
0
 10
62.8638
 20
54.1137
  0
VERTEX
  8
0
 10
62.8684
 20
54.0477
  0
VERTEX
  8
0
 10
62.8666
 20
53.9915
  0
VERTEX
  8
0
 10
62.8612
 20
53.9409
  0
VERTEX
  8
0
 10
62.8522
 20
53.896
  0
VERTEX
  8
0
 10
62.8396
 20
53.8567
  0
VERTEX
  8
0
 10
62.8234
 20
53.823
  0
VERTEX
  8
0
 10
62.8036
 20
53.7949
  0
VERTEX
  8
0
 10
62.7609
 20
53.7508
  0
VERTEX
  8
0
 10
62.7175
 20
53.7176
  0
VERTEX
  8
0
 10
62.6735
 20
53.6956
  0
VERTEX
  8
0
 10
62.6288
 20
53.6846
  0
VERTEX
  8
0
 10
62.6288
 20
53.6846
  0
SEQEND
  0
POLYLINE
  8
0
 66
     1
 10
0
 20
0
  0
VERTEX
  8
0
 10
62.0133
 20
54.3218
  0
VERTEX
  8
0
 10
61.9402
 20
54.3152
  0
VERTEX
  8
0
 10
61.875
 20
54.2953
  0
VERTEX
  8
0
 10
61.818
 20
54.262
  0
VERTEX
  8
0
 10
61.7791
 20
54.2263
  0
VERTEX
  8
0
 10
61.7512
 20
54.1849
  0
VERTEX
  8
0
 10
61.7343
 20
54.1378
  0
VERTEX
  8
0
 10
61.7284
 20
54.085
  0
VERTEX
  8
0
 10
61.7319
 20
54.0412
  0
VERTEX
  8
0
 10
61.743
 20
54.0007
  0
VERTEX
  8
0
 10
61.7618
 20
53.9636
  0
VERTEX
  8
0
 10
61.7882
 20
53.9299
  0
VERTEX
  8
0
 10
61.8223
 20
53.8996
  0
VERTEX
  8
0
 10
61.8828
 20
53.8634
  0
VERTEX
  8
0
 10
61.9508
 20
53.8415
  0
VERTEX
  8
0
 10
62.026
 20
53.8338
  0
VERTEX
  8
0
 10
62.0973
 20
53.8409
  0
VERTEX
  8
0
 10
62.1602
 20
53.8631
  0
VERTEX
  8
0
 10
62.2146
 20
53.9004
  0
VERTEX
  8
0
 10
62.2486
 20
53.9376
  0
VERTEX
  8
0
 10
62.2729
 20
53.9801
  0
VERTEX
  8
0
 10
62.2875
 20
54.0278
  0
VERTEX
  8
0
 10
62.2924
 20
54.0808
  0
VERTEX
  8
0
 10
62.2872
 20
54.1357
  0
VERTEX
  8
0
 10
62.2717
 20
54.1843
  0
VERTEX
  8
0
 10
62.2458
 20
54.2264
  0
VERTEX
  8
0
 10
62.2095
 20
54.262
  0
VERTEX
  8
0
 10
62.1535
 20
54.2953
  0
VERTEX
  8
0
 10
62.0881
 20
54.3152
  0
VERTEX
  8
0
 10
62.0133
 20
54.3218
  0
VERTEX
  8
0
 10
62.0133
 20
54.3218
  0
SEQEND
  0
POLYLINE
  8
0
 66
     1
 10
0
 20
0
  0
VERTEX
  8
0
 10
62.8524
 20
54.7258
  0
VERTEX
  8
0
 10
62.6764
 20
54.7258
  0
VERTEX
  8
0
 10
62.6764
 20
54.8978
  0
VERTEX
  8
0
 10
62.8524
 20
54.8978
  0
VERTEX
  8
0
 10
62.8524
 20
54.7258
  0
SEQEND
  0
POLYLINE
  8
0
 66
     1
 10
0
 20
0
  0
VERTEX
  8
0
 10
62.8524
 20
55.6138
  0
VERTEX
  8
0
 10
62.5524
 20
55.6138
  0
VERTEX
  8
0
 10
62.5524
 20
55.0778
  0
VERTEX
  8
0
 10
62.4124
 20
55.0778
  0
VERTEX
  8
0
 10
61.6124
 20
55.6427
  0
VERTEX
  8
0
 10
61.6124
 20
55.7658
  0
VERTEX
  8
0
 10
62.4124
 20
55.7658
  0
VERTEX
  8
0
 10
62.4124
 20
55.9339
  0
VERTEX
  8
0
 10
62.5524
 20
55.9339
  0
VERTEX
  8
0
 10
62.5524
 20
55.7658
  0
VERTEX
  8
0
 10
62.8524
 20
55.7658
  0
VERTEX
  8
0
 10
62.8524
 20
55.6138
  0
SEQEND
  0
POLYLINE
  8
0
 66
     1
 10
0
 20
0
  0
VERTEX
  8
0
 10
62.4124
 20
55.6138
  0
VERTEX
  8
0
 10
61.8613
 20
55.6138
  0
VERTEX
  8
0
 10
62.4128
 20
55.2294
  0
VERTEX
  8
0
 10
62.4124
 20
55.6138
  0
SEQEND
  0
POLYLINE
  8
0
 66
     1
 10
0
 20
0
  0
VERTEX
  8
0
 10
62.5215
 20
56.0898
  0
VERTEX
  8
0
 10
62.5014
 20
56.2425
  0
VERTEX
  8
0
 10
62.5347
 20
56.25
  0
VERTEX
  8
0
 10
62.5656
 20
56.2591
  0
VERTEX
  8
0
 10
62.5941
 20
56.2696
  0
VERTEX
  8
0
 10
62.6201
 20
56.2817
  0
VERTEX
  8
0
 10
62.6436
 20
56.2953
  0
VERTEX
  8
0
 10
62.6646
 20
56.3104
  0
VERTEX
  8
0
 10
62.6832
 20
56.327
  0
VERTEX
  8
0
 10
62.6993
 20
56.3452
  0
VERTEX
  8
0
 10
62.713
 20
56.3648
  0
VERTEX
  8
0
 10
62.7242
 20
56.386
  0
VERTEX
  8
0
 10
62.7329
 20
56.4087
  0
VERTEX
  8
0
 10
62.7392
 20
56.4329
  0
VERTEX
  8
0
 10
62.743
 20
56.4586
  0
VERTEX
  8
0
 10
62.7444
 20
56.4858
  0
VERTEX
  8
0
 10
62.7401
 20
56.5382
  0
VERTEX
  8
0
 10
62.7263
 20
56.586
  0
VERTEX
  8
0
 10
62.7031
 20
56.6293
  0
VERTEX
  8
0
 10
62.6705
 20
56.6681
  0
VERTEX
  8
0
 10
62.617
 20
56.7087
  0
VERTEX
  8
0
 10
62.556
 20
56.7333
  0
VERTEX
  8
0
 10
62.4876
 20
56.7418
  0
VERTEX
  8
0
 10
62.4223
 20
56.7346
  0
VERTEX
  8
0
 10
62.365
 20
56.7116
  0
VERTEX
  8
0
 10
62.316
 20
56.6729
  0
VERTEX
  8
0
 10
62.2784
 20
56.6224
  0
VERTEX
  8
0
 10
62.2559
 20
56.564
  0
VERTEX
  8
0
 10
62.2484
 20
56.4976
  0
VERTEX
  8
0
 10
62.2519
 20
56.4476
  0
VERTEX
  8
0
 10
62.2625
 20
56.3895
  0
VERTEX
  8
0
 10
62.1324
 20
56.4063
  0
VERTEX
  8
0
 10
62.1324
 20
56.4166
  0
VERTEX
  8
0
 10
62.1324
 20
56.4307
  0
VERTEX
  8
0
 10
62.1268
 20
56.4966
  0
VERTEX
  8
0
 10
62.11
 20
56.5543
  0
VERTEX
  8
0
 10
62.0821
 20
56.6037
  0
VERTEX
  8
0
 10
62.0511
 20
56.6376
  0
VERTEX
  8
0
 10
62.0143
 20
56.6619
  0
VERTEX
  8
0
 10
61.9718
 20
56.6767
  0
VERTEX
  8
0
 10
61.9236
 20
56.6818
  0
VERTEX
  8
0
 10
61.8693
 20
56.6759
  0
VERTEX
  8
0
 10
61.8224
 20
56.6569
  0
VERTEX
  8
0
 10
61.783
 20
56.625
  0
VERTEX
  8
0
 10
61.753
 20
56.5832
  0
VERTEX
  8
0
 10
61.7348
 20
56.5348
  0
VERTEX
  8
0
 10
61.7284
 20
56.4797
  0
VERTEX
  8
0
 10
61.7295
 20
56.4517
  0
VERTEX
  8
0
 10
61.7333
 20
56.4256
  0
VERTEX
  8
0
 10
61.7398
 20
56.4012
  0
VERTEX
  8
0
 10
61.749
 20
56.3786
  0
VERTEX
  8
0
 10
61.7609
 20
56.3578
  0
VERTEX
  8
0
 10
61.7755
 20
56.3389
  0
VERTEX
  8
0
 10
61.7928
 20
56.3217
  0
VERTEX
  8
0
 10
61.8128
 20
56.3064
  0
VERTEX
  8
0
 10
61.8356
 20
56.2928
  0
VERTEX
  8
0
 10
61.861
 20
56.281
  0
VERTEX
  8
0
 10
61.8891
 20
56.2711
  0
VERTEX
  8
0
 10
61.92
 20
56.2629
  0
VERTEX
  8
0
 10
61.9535
 20
56.2566
  0
VERTEX
  8
0
 10
61.9264
 20
56.105
  0
VERTEX
  8
0
 10
61.8554
 20
56.1229
  0
VERTEX
  8
0
 10
61.7925
 20
56.1496
  0
VERTEX
  8
0
 10
61.7376
 20
56.185
  0
VERTEX
  8
0
 10
61.6908
 20
56.2293
  0
VERTEX
  8
0
 10
61.6533
 20
56.2812
  0
VERTEX
  8
0
 10
61.6264
 20
56.3397
  0
VERTEX
  8
0
 10
61.6101
 20
56.4048
  0
VERTEX
  8
0
 10
61.6044
 20
56.4765
  0
VERTEX
  8
0
 10
61.6141
 20
56.5694
  0
VERTEX
  8
0
 10
61.6449
 20
56.6559
  0
VERTEX
  8
0
 10
61.6968
 20
56.7347
  0
VERTEX
  8
0
 10
61.7664
 20
56.7923
  0
VERTEX
  8
0
 10
61.8438
 20
56.8265
  0
VERTEX
  8
0
 10
61.9259
 20
56.8378
  0
VERTEX
  8
0
 10
61.963
 20
56.8358
  0
VERTEX
  8
0
 10
61.9978
 20
56.8295
  0
VERTEX
  8
0
 10
62.0302
 20
56.8191
  0
VERTEX
  8
0
 10
62.0604
 20
56.8045
  0
VERTEX
  8
0
 10
62.0882
 20
56.7857
  0
VERTEX
  8
0
 10
62.1137
 20
56.7628
  0
VERTEX
  8
0
 10
62.137
 20
56.7357
  0
VERTEX
  8
0
 10
62.1579
 20
56.7044
  0
VERTEX
  8
0
 10
62.1765
 20
56.669
  0
VERTEX
  8
0
 10
62.2001
 20
56.7386
  0
VERTEX
  8
0
 10
62.2361
 20
56.7967
  0
VERTEX
  8
0
 10
62.2845
 20
56.8432
  0
VERTEX
  8
0
 10
62.3416
 20
56.8758
  0
VERTEX
  8
0
 10
62.4071
 20
56.8953
  0
VERTEX
  8
0
 10
62.4811
 20
56.9018
  0
VERTEX
  8
0
 10
62.5339
 20
56.8986
  0
VERTEX
  8
0
 10
62.584
 20
56.8887
  0
VERTEX
  8
0
 10
62.6312
 20
56.8723
  0
VERTEX
  8
0
 10
62.6755
 20
56.8494
  0
VERTEX
  8
0
 10
62.7171
 20
56.8199
  0
VERTEX
  8
0
 10
62.7557
 20
56.7838
  0
VERTEX
  8
0
 10
62.7899
 20
56.7427
  0
VERTEX
  8
0
 10
62.8179
 20
56.6981
  0
VERTEX
  8
0
 10
62.8398
 20
56.6499
  0
VERTEX
  8
0
 10
62.8555
 20
56.5982
  0
VERTEX
  8
0
 10
62.865
 20
56.5429
  0
VERTEX
  8
0
 10
62.8684
 20
56.484
  0
VERTEX
  8
0
 10
62.8646
 20
56.4216
  0
VERTEX
  8
0
 10
62.8533
 20
56.3634
  0
VERTEX
  8
0
 10
62.8345
 20
56.3095
  0
VERTEX
  8
0
 10
62.8082
 20
56.2599
  0
VERTEX
  8
0
 10
62.7743
 20
56.2146
  0
VERTEX
  8
0
 10
62.7341
 20
56.1751
  0
VERTEX
  8
0
 10
62.6887
 20
56.1429
  0
VERTEX
  8
0
 10
62.6382
 20
56.1179
  0
VERTEX
  8
0
 10
62.5824
 20
56.1003
  0
VERTEX
  8
0
 10
62.5215
 20
56.0898
  0
VERTEX
  8
0
 10
62.5215
 20
56.0898
  0
SEQEND
  0
LINE
  8
0
 10
62.25
 20
57.1955
 11
62.25
 21
60
  0
LINE
  8
0
 10
62.5183
 20
59.4633
 11
62.25
 21
60
  0
LINE
  8
0
 10
61.9817
 20
59.4633
 11
62.25
 21
60
  0
LINE
  8
0
 10
62.55
 20
60
 11
60.75
 21
60
  0
LINE
  8
0
 10
62.25
 20
53.3725
 11
62.25
 21
50.568
  0
LINE
  8
0
 10
61.9817
 20
51.1047
 11
62.25
 21
50.568
  0
LINE
  8
0
 10
62.5183
 20
51.1047
 11
62.25
 21
50.568
  0
LINE
  8
0
 10
62.55
 20
50.568
 11
60.75
 21
50.568
  0
POLYLINE
  8
0
 66
     1
 10
0
 20
0
  0
VERTEX
  8
0
 10
62.8524
 20
43.4298
  0
VERTEX
  8
0
 10
62.8524
 20
43.2778
  0
VERTEX
  8
0
 10
61.8801
 20
43.2778
  0
VERTEX
  8
0
 10
61.9511
 20
43.1908
  0
VERTEX
  8
0
 10
62.0121
 20
43.0894
  0
VERTEX
  8
0
 10
62.0633
 20
42.9738
  0
VERTEX
  8
0
 10
61.916
 20
42.9738
  0
VERTEX
  8
0
 10
61.8875
 20
43.0306
  0
VERTEX
  8
0
 10
61.8575
 20
43.0832
  0
VERTEX
  8
0
 10
61.826
 20
43.1315
  0
VERTEX
  8
0
 10
61.793
 20
43.1755
  0
VERTEX
  8
0
 10
61.7583
 20
43.2153
  0
VERTEX
  8
0
 10
61.7222
 20
43.2508
  0
VERTEX
  8
0
 10
61.6845
 20
43.2821
  0
VERTEX
  8
0
 10
61.6452
 20
43.3091
  0
VERTEX
  8
0
 10
61.6044
 20
43.3319
  0
VERTEX
  8
0
 10
61.6044
 20
43.4298
  0
VERTEX
  8
0
 10
62.8524
 20
43.4298
  0
SEQEND
  0
POLYLINE
  8
0
 66
     1
 10
0
 20
0
  0
VERTEX
  8
0
 10
62.8524
 20
44.3938
  0
VERTEX
  8
0
 10
62.8524
 20
44.2418
  0
VERTEX
  8
0
 10
61.8801
 20
44.2418
  0
VERTEX
  8
0
 10
61.9511
 20
44.1548
  0
VERTEX
  8
0
 10
62.0121
 20
44.0534
  0
VERTEX
  8
0
 10
62.0633
 20
43.9378
  0
VERTEX
  8
0
 10
61.916
 20
43.9378
  0
VERTEX
  8
0
 10
61.8875
 20
43.9946
  0
VERTEX
  8
0
 10
61.8575
 20
44.0472
  0
VERTEX
  8
0
 10
61.826
 20
44.0955
  0
VERTEX
  8
0
 10
61.793
 20
44.1395
  0
VERTEX
  8
0
 10
61.7583
 20
44.1793
  0
VERTEX
  8
0
 10
61.7222
 20
44.2148
  0
VERTEX
  8
0
 10
61.6845
 20
44.2461
  0
VERTEX
  8
0
 10
61.6452
 20
44.2731
  0
VERTEX
  8
0
 10
61.6044
 20
44.2959
  0
VERTEX
  8
0
 10
61.6044
 20
44.3938
  0
VERTEX
  8
0
 10
62.8524
 20
44.3938
  0
SEQEND
  0
POLYLINE
  8
0
 66
     1
 10
0
 20
0
  0
VERTEX
  8
0
 10
62.8524
 20
44.8578
  0
VERTEX
  8
0
 10
62.6764
 20
44.8578
  0
VERTEX
  8
0
 10
62.6764
 20
45.0298
  0
VERTEX
  8
0
 10
62.8524
 20
45.0298
  0
VERTEX
  8
0
 10
62.8524
 20
44.8578
  0
SEQEND
  0
POLYLINE
  8
0
 66
     1
 10
0
 20
0
  0
VERTEX
  8
0
 10
62.8524
 20
45.8378
  0
VERTEX
  8
0
 10
62.8524
 20
45.6858
  0
VERTEX
  8
0
 10
61.8801
 20
45.6858
  0
VERTEX
  8
0
 10
61.9511
 20
45.5988
  0
VERTEX
  8
0
 10
62.0121
 20
45.4974
  0
VERTEX
  8
0
 10
62.0633
 20
45.3818
  0
VERTEX
  8
0
 10
61.916
 20
45.3818
  0
VERTEX
  8
0
 10
61.8875
 20
45.4386
  0
VERTEX
  8
0
 10
61.8575
 20
45.4912
  0
VERTEX
  8
0
 10
61.826
 20
45.5395
  0
VERTEX
  8
0
 10
61.793
 20
45.5835
  0
VERTEX
  8
0
 10
61.7583
 20
45.6233
  0
VERTEX
  8
0
 10
61.7222
 20
45.6588
  0
VERTEX
  8
0
 10
61.6845
 20
45.6901
  0
VERTEX
  8
0
 10
61.6452
 20
45.7171
  0
VERTEX
  8
0
 10
61.6044
 20
45.7399
  0
VERTEX
  8
0
 10
61.6044
 20
45.8378
  0
VERTEX
  8
0
 10
62.8524
 20
45.8378
  0
SEQEND
  0
POLYLINE
  8
0
 66
     1
 10
0
 20
0
  0
VERTEX
  8
0
 10
62.8524
 20
46.7098
  0
VERTEX
  8
0
 10
62.5524
 20
46.7098
  0
VERTEX
  8
0
 10
62.5524
 20
46.1738
  0
VERTEX
  8
0
 10
62.4124
 20
46.1738
  0
VERTEX
  8
0
 10
61.6124
 20
46.7387
  0
VERTEX
  8
0
 10
61.6124
 20
46.8618
  0
VERTEX
  8
0
 10
62.4124
 20
46.8618
  0
VERTEX
  8
0
 10
62.4124
 20
47.0299
  0
VERTEX
  8
0
 10
62.5524
 20
47.0299
  0
VERTEX
  8
0
 10
62.5524
 20
46.8618
  0
VERTEX
  8
0
 10
62.8524
 20
46.8618
  0
VERTEX
  8
0
 10
62.8524
 20
46.7098
  0
SEQEND
  0
POLYLINE
  8
0
 66
     1
 10
0
 20
0
  0
VERTEX
  8
0
 10
62.4124
 20
46.7098
  0
VERTEX
  8
0
 10
61.8613
 20
46.7098
  0
VERTEX
  8
0
 10
62.4128
 20
46.3254
  0
VERTEX
  8
0
 10
62.4124
 20
46.7098
  0
SEQEND
  0
LINE
  8
0
 10
62.25
 20
47.3293
 11
62.25
 21
50.568
  0
LINE
  8
0
 10
62.5183
 20
50.0313
 11
62.25
 21
50.568
  0
LINE
  8
0
 10
61.9817
 20
50.0313
 11
62.25
 21
50.568
  0
LINE
  8
0
 10
62.25
 20
42.6707
 11
62.25
 21
39.432
  0
LINE
  8
0
 10
61.9817
 20
39.9687
 11
62.25
 21
39.432
  0
LINE
  8
0
 10
62.5183
 20
39.9687
 11
62.25
 21
39.432
  0
LINE
  8
0
 10
62.55
 20
39.432
 11
60.75
 21
39.432
  0
POLYLINE
  8
0
 66
     1
 10
0
 20
0
  0
VERTEX
  8
0
 10
31.4084
 20
27.2978
  0
VERTEX
  8
0
 10
31.4084
 20
27.1498
  0
VERTEX
  8
0
 10
30.5924
 20
27.1498
  0
VERTEX
  8
0
 10
30.5947
 20
27.1935
  0
VERTEX
  8
0
 10
30.6039
 20
27.2378
  0
VERTEX
  8
0
 10
30.62
 20
27.2828
  0
VERTEX
  8
0
 10
30.643
 20
27.3285
  0
VERTEX
  8
0
 10
30.6729
 20
27.3748
  0
VERTEX
  8
0
 10
30.7097
 20
27.4217
  0
VERTEX
  8
0
 10
30.763
 20
27.4797
  0
VERTEX
  8
0
 10
30.8294
 20
27.5426
  0
VERTEX
  8
0
 10
30.9089
 20
27.6103
  0
VERTEX
  8
0
 10
30.9659
 20
27.6578
  0
VERTEX
  8
0
 10
31.016
 20
27.7011
  0
VERTEX
  8
0
 10
31.0592
 20
27.7402
  0
VERTEX
  8
0
 10
31.0955
 20
27.7751
  0
VERTEX
  8
0
 10
31.125
 20
27.8057
  0
VERTEX
  8
0
 10
31.1639
 20
27.8514
  0
VERTEX
  8
0
 10
31.1957
 20
27.8957
  0
VERTEX
  8
0
 10
31.2205
 20
27.9385
  0
VERTEX
  8
0
 10
31.2382
 20
27.9798
  0
VERTEX
  8
0
 10
31.2488
 20
28.0196
  0
VERTEX
  8
0
 10
31.2524
 20
28.058
  0
VERTEX
  8
0
 10
31.2447
 20
28.1186
  0
VERTEX
  8
0
 10
31.2216
 20
28.171
  0
VERTEX
  8
0
 10
31.1832
 20
28.2152
  0
VERTEX
  8
0
 10
31.1358
 20
28.2474
  0
VERTEX
  8
0
 10
31.0812
 20
28.2669
  0
VERTEX
  8
0
 10
31.0195
 20
28.2738
  0
VERTEX
  8
0
 10
30.966
 20
28.27
  0
VERTEX
  8
0
 10
30.9186
 20
28.2574
  0
VERTEX
  8
0
 10
30.8774
 20
28.2362
  0
VERTEX
  8
0
 10
30.8422
 20
28.2063
  0
VERTEX
  8
0
 10
30.8065
 20
28.1555
  0
VERTEX
  8
0
 10
30.7848
 20
28.0942
  0
VERTEX
  8
0
 10
30.7773
 20
28.0225
  0
VERTEX
  8
0
 10
30.6211
 20
28.0387
  0
VERTEX
  8
0
 10
30.6287
 20
28.0945
  0
VERTEX
  8
0
 10
30.6413
 20
28.1459
  0
VERTEX
  8
0
 10
30.6589
 20
28.1926
  0
VERTEX
  8
0
 10
30.6815
 20
28.2348
  0
VERTEX
  8
0
 10
30.7091
 20
28.2724
  0
VERTEX
  8
0
 10
30.7418
 20
28.3055
  0
VERTEX
  8
0
 10
30.7868
 20
28.3387
  0
VERTEX
  8
0
 10
30.8374
 20
28.3646
  0
VERTEX
  8
0
 10
30.8936
 20
28.3831
  0
VERTEX
  8
0
 10
30.9554
 20
28.3942
  0
VERTEX
  8
0
 10
31.0228
 20
28.3978
  0
VERTEX
  8
0
 10
31.086
 20
28.3943
  0
VERTEX
  8
0
 10
31.1447
 20
28.3836
  0
VERTEX
  8
0
 10
31.1988
 20
28.3658
  0
VERTEX
  8
0
 10
31.2485
 20
28.3409
  0
VERTEX
  8
0
 10
31.2936
 20
28.3089
  0
VERTEX
  8
0
 10
31.3287
 20
28.2755
  0
VERTEX
  8
0
 10
31.3574
 20
28.2384
  0
VERTEX
  8
0
 10
31.3797
 20
28.1976
  0
VERTEX
  8
0
 10
31.3956
 20
28.1531
  0
VERTEX
  8
0
 10
31.4052
 20
28.105
  0
VERTEX
  8
0
 10
31.4084
 20
28.0532
  0
VERTEX
  8
0
 10
31.4047
 20
28.0038
  0
VERTEX
  8
0
 10
31.3938
 20
27.9542
  0
VERTEX
  8
0
 10
31.3755
 20
27.9046
  0
VERTEX
  8
0
 10
31.3499
 20
27.8549
  0
VERTEX
  8
0
 10
31.317
 20
27.805
  0
VERTEX
  8
0
 10
31.2768
 20
27.7551
  0
VERTEX
  8
0
 10
31.2442
 20
27.7201
  0
VERTEX
  8
0
 10
31.2045
 20
27.6807
  0
VERTEX
  8
0
 10
31.1578
 20
27.637
  0
VERTEX
  8
0
 10
31.104
 20
27.589
  0
VERTEX
  8
0
 10
31.0431
 20
27.5367
  0
VERTEX
  8
0
 10
31.0028
 20
27.5027
  0
VERTEX
  8
0
 10
30.9698
 20
27.4746
  0
VERTEX
  8
0
 10
30.9439
 20
27.4524
  0
VERTEX
  8
0
 10
30.9253
 20
27.4361
  0
VERTEX
  8
0
 10
30.914
 20
27.4257
  0
VERTEX
  8
0
 10
30.8509
 20
27.3607
  0
VERTEX
  8
0
 10
30.8035
 20
27.2978
  0
VERTEX
  8
0
 10
31.4084
 20
27.2978
  0
SEQEND
  0
LINE
  8
0
 10
32
 20
27.45
 11
32
 21
29.25
  0
LINE
  8
0
 10
30
 20
27.45
 11
30
 21
29.25
  0
POLYLINE
  8
0
 66
     1
 10
0
 20
0
  0
VERTEX
  8
0
 10
44.9164
 20
27.2978
  0
VERTEX
  8
0
 10
44.9164
 20
27.1498
  0
VERTEX
  8
0
 10
44.1004
 20
27.1498
  0
VERTEX
  8
0
 10
44.1027
 20
27.1935
  0
VERTEX
  8
0
 10
44.1119
 20
27.2378
  0
VERTEX
  8
0
 10
44.128
 20
27.2828
  0
VERTEX
  8
0
 10
44.151
 20
27.3285
  0
VERTEX
  8
0
 10
44.1809
 20
27.3748
  0
VERTEX
  8
0
 10
44.2177
 20
27.4217
  0
VERTEX
  8
0
 10
44.271
 20
27.4797
  0
VERTEX
  8
0
 10
44.3374
 20
27.5426
  0
VERTEX
  8
0
 10
44.4169
 20
27.6103
  0
VERTEX
  8
0
 10
44.4739
 20
27.6578
  0
VERTEX
  8
0
 10
44.524
 20
27.7011
  0
VERTEX
  8
0
 10
44.5672
 20
27.7402
  0
VERTEX
  8
0
 10
44.6035
 20
27.7751
  0
VERTEX
  8
0
 10
44.633
 20
27.8057
  0
VERTEX
  8
0
 10
44.6719
 20
27.8514
  0
VERTEX
  8
0
 10
44.7037
 20
27.8957
  0
VERTEX
  8
0
 10
44.7285
 20
27.9385
  0
VERTEX
  8
0
 10
44.7462
 20
27.9798
  0
VERTEX
  8
0
 10
44.7568
 20
28.0196
  0
VERTEX
  8
0
 10
44.7604
 20
28.058
  0
VERTEX
  8
0
 10
44.7527
 20
28.1186
  0
VERTEX
  8
0
 10
44.7296
 20
28.171
  0
VERTEX
  8
0
 10
44.6912
 20
28.2152
  0
VERTEX
  8
0
 10
44.6438
 20
28.2474
  0
VERTEX
  8
0
 10
44.5892
 20
28.2669
  0
VERTEX
  8
0
 10
44.5275
 20
28.2738
  0
VERTEX
  8
0
 10
44.474
 20
28.27
  0
VERTEX
  8
0
 10
44.4266
 20
28.2574
  0
VERTEX
  8
0
 10
44.3854
 20
28.2362
  0
VERTEX
  8
0
 10
44.3502
 20
28.2063
  0
VERTEX
  8
0
 10
44.3145
 20
28.1555
  0
VERTEX
  8
0
 10
44.2928
 20
28.0942
  0
VERTEX
  8
0
 10
44.2853
 20
28.0225
  0
VERTEX
  8
0
 10
44.1291
 20
28.0387
  0
VERTEX
  8
0
 10
44.1367
 20
28.0945
  0
VERTEX
  8
0
 10
44.1493
 20
28.1459
  0
VERTEX
  8
0
 10
44.1669
 20
28.1926
  0
VERTEX
  8
0
 10
44.1895
 20
28.2348
  0
VERTEX
  8
0
 10
44.2171
 20
28.2724
  0
VERTEX
  8
0
 10
44.2498
 20
28.3055
  0
VERTEX
  8
0
 10
44.2948
 20
28.3387
  0
VERTEX
  8
0
 10
44.3454
 20
28.3646
  0
VERTEX
  8
0
 10
44.4016
 20
28.3831
  0
VERTEX
  8
0
 10
44.4634
 20
28.3942
  0
VERTEX
  8
0
 10
44.5308
 20
28.3978
  0
VERTEX
  8
0
 10
44.594
 20
28.3943
  0
VERTEX
  8
0
 10
44.6527
 20
28.3836
  0
VERTEX
  8
0
 10
44.7068
 20
28.3658
  0
VERTEX
  8
0
 10
44.7565
 20
28.3409
  0
VERTEX
  8
0
 10
44.8016
 20
28.3089
  0
VERTEX
  8
0
 10
44.8367
 20
28.2755
  0
VERTEX
  8
0
 10
44.8654
 20
28.2384
  0
VERTEX
  8
0
 10
44.8877
 20
28.1976
  0
VERTEX
  8
0
 10
44.9036
 20
28.1531
  0
VERTEX
  8
0
 10
44.9132
 20
28.105
  0
VERTEX
  8
0
 10
44.9164
 20
28.0532
  0
VERTEX
  8
0
 10
44.9127
 20
28.0038
  0
VERTEX
  8
0
 10
44.9018
 20
27.9542
  0
VERTEX
  8
0
 10
44.8835
 20
27.9046
  0
VERTEX
  8
0
 10
44.8579
 20
27.8549
  0
VERTEX
  8
0
 10
44.825
 20
27.805
  0
VERTEX
  8
0
 10
44.7848
 20
27.7551
  0
VERTEX
  8
0
 10
44.7522
 20
27.7201
  0
VERTEX
  8
0
 10
44.7125
 20
27.6807
  0
VERTEX
  8
0
 10
44.6658
 20
27.637
  0
VERTEX
  8
0
 10
44.612
 20
27.589
  0
VERTEX
  8
0
 10
44.5511
 20
27.5367
  0
VERTEX
  8
0
 10
44.5108
 20
27.5027
  0
VERTEX
  8
0
 10
44.4778
 20
27.4746
  0
VERTEX
  8
0
 10
44.4519
 20
27.4524
  0
VERTEX
  8
0
 10
44.4333
 20
27.4361
  0
VERTEX
  8
0
 10
44.422
 20
27.4257
  0
VERTEX
  8
0
 10
44.3589
 20
27.3607
  0
VERTEX
  8
0
 10
44.3115
 20
27.2978
  0
VERTEX
  8
0
 10
44.9164
 20
27.2978
  0
SEQEND
  0
POLYLINE
  8
0
 66
     1
 10
0
 20
0
  0
VERTEX
  8
0
 10
45.9033
 20
28.129
  0
VERTEX
  8
0
 10
45.7522
 20
28.1171
  0
VERTEX
  8
0
 10
45.7307
 20
28.1751
  0
VERTEX
  8
0
 10
45.6915
 20
28.2207
  0
VERTEX
  8
0
 10
45.645
 20
28.2498
  0
VERTEX
  8
0
 10
45.5901
 20
28.2676
  0
VERTEX
  8
0
 10
45.5268
 20
28.2738
  0
VERTEX
  8
0
 10
45.4418
 20
28.2641
  0
VERTEX
  8
0
 10
45.3757
 20
28.2332
  0
VERTEX
  8
0
 10
45.3532
 20
28.2148
  0
VERTEX
  8
0
 10
45.3324
 20
28.1938
  0
VERTEX
  8
0
 10
45.3134
 20
28.1702
  0
VERTEX
  8
0
 10
45.2962
 20
28.1441
  0
VERTEX
  8
0
 10
45.2807
 20
28.1153
  0
VERTEX
  8
0
 10
45.2669
 20
28.084
  0
VERTEX
  8
0
 10
45.2549
 20
28.05
  0
VERTEX
  8
0
 10
45.2446
 20
28.0135
  0
VERTEX
  8
0
 10
45.2361
 20
27.9744
  0
VERTEX
  8
0
 10
45.2293
 20
27.9327
  0
VERTEX
  8
0
 10
45.2243
 20
27.8884
  0
VERTEX
  8
0
 10
45.221
 20
27.8416
  0
VERTEX
  8
0
 10
45.2195
 20
27.7921
  0
VERTEX
  8
0
 10
45.2444
 20
27.8269
  0
VERTEX
  8
0
 10
45.2713
 20
27.8576
  0
VERTEX
  8
0
 10
45.3004
 20
27.8842
  0
VERTEX
  8
0
 10
45.3316
 20
27.9067
  0
VERTEX
  8
0
 10
45.3649
 20
27.9251
  0
VERTEX
  8
0
 10
45.4004
 20
27.9394
  0
VERTEX
  8
0
 10
45.438
 20
27.9497
  0
VERTEX
  8
0
 10
45.4777
 20
27.9558
  0
VERTEX
  8
0
 10
45.5195
 20
27.9578
  0
VERTEX
  8
0
 10
45.5721
 20
27.9545
  0
VERTEX
  8
0
 10
45.6214
 20
27.9444
  0
VERTEX
  8
0
 10
45.6674
 20
27.9277
  0
VERTEX
  8
0
 10
45.7102
 20
27.9042
  0
VERTEX
  8
0
 10
45.7496
 20
27.874
  0
VERTEX
  8
0
 10
45.7858
 20
27.8371
  0
VERTEX
  8
0
 10
45.821
 20
27.7891
  0
VERTEX
  8
0
 10
45.8485
 20
27.7371
  0
VERTEX
  8
0
 10
45.8682
 20
27.6811
  0
VERTEX
  8
0
 10
45.8802
 20
27.621
  0
VERTEX
  8
0
 10
45.8844
 20
27.5568
  0
VERTEX
  8
0
 10
45.873
 20
27.4481
  0
VERTEX
  8
0
 10
45.8372
 20
27.3466
  0
VERTEX
  8
0
 10
45.7994
 20
27.2827
  0
VERTEX
  8
0
 10
45.7525
 20
27.2295
  0
VERTEX
  8
0
 10
45.6964
 20
27.187
  0
VERTEX
  8
0
 10
45.6032
 20
27.1471
  0
VERTEX
  8
0
 10
45.4975
 20
27.1338
  0
VERTEX
  8
0
 10
45.474
 20
27.1343
  0
VERTEX
  8
0
 10
45.4512
 20
27.1357
  0
VERTEX
  8
0
 10
45.429
 20
27.138
  0
VERTEX
  8
0
 10
45.4076
 20
27.1413
  0
VERTEX
  8
0
 10
45.3867
 20
27.1454
  0
VERTEX
  8
0
 10
45.3666
 20
27.1505
  0
VERTEX
  8
0
 10
45.3471
 20
27.1565
  0
VERTEX
  8
0
 10
45.3282
 20
27.1635
  0
VERTEX
  8
0
 10
45.31
 20
27.1714
  0
VERTEX
  8
0
 10
45.2925
 20
27.1802
  0
VERTEX
  8
0
 10
45.2757
 20
27.1899
  0
VERTEX
  8
0
 10
45.2594
 20
27.2006
  0
VERTEX
  8
0
 10
45.2439
 20
27.2121
  0
VERTEX
  8
0
 10
45.229
 20
27.2246
  0
VERTEX
  8
0
 10
45.2148
 20
27.2381
  0
VERTEX
  8
0
 10
45.2012
 20
27.2524
  0
VERTEX
  8
0
 10
45.1883
 20
27.2677
  0
VERTEX
  8
0
 10
45.1761
 20
27.2839
  0
VERTEX
  8
0
 10
45.1645
 20
27.3011
  0
VERTEX
  8
0
 10
45.1535
 20
27.3191
  0
VERTEX
  8
0
 10
45.1433
 20
27.3381
  0
VERTEX
  8
0
 10
45.1337
 20
27.358
  0
VERTEX
  8
0
 10
45.1247
 20
27.3789
  0
VERTEX
  8
0
 10
45.1164
 20
27.4007
  0
VERTEX
  8
0
 10
45.1088
 20
27.4234
  0
VERTEX
  8
0
 10
45.1018
 20
27.447
  0
VERTEX
  8
0
 10
45.0955
 20
27.4715
  0
VERTEX
  8
0
 10
45.0899
 20
27.497
  0
VERTEX
  8
0
 10
45.0849
 20
27.5234
  0
VERTEX
  8
0
 10
45.0805
 20
27.5507
  0
VERTEX
  8
0
 10
45.0769
 20
27.579
  0
VERTEX
  8
0
 10
45.0738
 20
27.6082
  0
VERTEX
  8
0
 10
45.0715
 20
27.6383
  0
VERTEX
  8
0
 10
45.0698
 20
27.6693
  0
VERTEX
  8
0
 10
45.0688
 20
27.7013
  0
VERTEX
  8
0
 10
45.0684
 20
27.7342
  0
VERTEX
  8
0
 10
45.0695
 20
27.7978
  0
VERTEX
  8
0
 10
45.0728
 20
27.8582
  0
VERTEX
  8
0
 10
45.0782
 20
27.9153
  0
VERTEX
  8
0
 10
45.0859
 20
27.9693
  0
VERTEX
  8
0
 10
45.0958
 20
28.0199
  0
VERTEX
  8
0
 10
45.1078
 20
28.0674
  0
VERTEX
  8
0
 10
45.1221
 20
28.1116
  0
VERTEX
  8
0
 10
45.1385
 20
28.1525
  0
VERTEX
  8
0
 10
45.1571
 20
28.1902
  0
VERTEX
  8
0
 10
45.1779
 20
28.2247
  0
VERTEX
  8
0
 10
45.201
 20
28.256
  0
VERTEX
  8
0
 10
45.2315
 20
28.2892
  0
VERTEX
  8
0
 10
45.2653
 20
28.318
  0
VERTEX
  8
0
 10
45.3023
 20
28.3424
  0
VERTEX
  8
0
 10
45.3425
 20
28.3624
  0
VERTEX
  8
0
 10
45.3861
 20
28.3779
  0
VERTEX
  8
0
 10
45.4328
 20
28.389
  0
VERTEX
  8
0
 10
45.4828
 20
28.3956
  0
VERTEX
  8
0
 10
45.5361
 20
28.3978
  0
VERTEX
  8
0
 10
45.604
 20
28.3935
  0
VERTEX
  8
0
 10
45.6669
 20
28.3805
  0
VERTEX
  8
0
 10
45.7248
 20
28.3587
  0
VERTEX
  8
0
 10
45.7775
 20
28.3283
  0
VERTEX
  8
0
 10
45.8179
 20
28.2956
  0
VERTEX
  8
0
 10
45.8507
 20
28.2593
  0
VERTEX
  8
0
 10
45.8759
 20
28.2195
  0
VERTEX
  8
0
 10
45.8934
 20
28.176
  0
VERTEX
  8
0
 10
45.9033
 20
28.129
  0
VERTEX
  8
0
 10
45.9033
 20
28.129
  0
SEQEND
  0
POLYLINE
  8
0
 66
     1
 10
0
 20
0
  0
VERTEX
  8
0
 10
45.2444
 20
27.5546
  0
VERTEX
  8
0
 10
45.2517
 20
27.4791
  0
VERTEX
  8
0
 10
45.2755
 20
27.4079
  0
VERTEX
  8
0
 10
45.3159
 20
27.3426
  0
VERTEX
  8
0
 10
45.3702
 20
27.295
  0
VERTEX
  8
0
 10
45.4304
 20
27.2675
  0
VERTEX
  8
0
 10
45.4952
 20
27.2578
  0
VERTEX
  8
0
 10
45.5377
 20
27.2612
  0
VERTEX
  8
0
 10
45.5764
 20
27.272
  0
VERTEX
  8
0
 10
45.6115
 20
27.2902
  0
VERTEX
  8
0
 10
45.6428
 20
27.3159
  0
VERTEX
  8
0
 10
45.6705
 20
27.3489
  0
VERTEX
  8
0
 10
45.7023
 20
27.4072
  0
VERTEX
  8
0
 10
45.7216
 20
27.4729
  0
VERTEX
  8
0
 10
45.7284
 20
27.5462
  0
VERTEX
  8
0
 10
45.722
 20
27.6193
  0
VERTEX
  8
0
 10
45.7019
 20
27.6837
  0
VERTEX
  8
0
 10
45.668
 20
27.7392
  0
VERTEX
  8
0
 10
45.6323
 20
27.7751
  0
VERTEX
  8
0
 10
45.5906
 20
27.8008
  0
VERTEX
  8
0
 10
45.543
 20
27.8164
  0
VERTEX
  8
0
 10
45.4893
 20
27.8218
  0
VERTEX
  8
0
 10
45.437
 20
27.8172
  0
VERTEX
  8
0
 10
45.3897
 20
27.8024
  0
VERTEX
  8
0
 10
45.3476
 20
27.7776
  0
VERTEX
  8
0
 10
45.3106
 20
27.7426
  0
VERTEX
  8
0
 10
45.2742
 20
27.688
  0
VERTEX
  8
0
 10
45.2521
 20
27.6253
  0
VERTEX
  8
0
 10
45.2444
 20
27.5546
  0
VERTEX
  8
0
 10
45.2444
 20
27.5546
  0
SEQEND
  0
LINE
  8
0
 10
46.2047
 20
27.75
 11
58
 21
27.75
  0
LINE
  8
0
 10
57.4633
 20
27.4817
 11
58
 21
27.75
  0
LINE
  8
0
 10
57.4633
 20
28.0183
 11
58
 21
27.75
  0
LINE
  8
0
 10
58
 20
27.45
 11
58
 21
29.25
  0
LINE
  8
0
 10
43.7953
 20
27.75
 11
32
 21
27.75
  0
LINE
  8
0
 10
32.5367
 20
28.0183
 11
32
 21
27.75
  0
LINE
  8
0
 10
32.5367
 20
27.4817
 11
32
 21
27.75
  0
POLYLINE
  8
0
 66
     1
 10
0
 20
0
  0
VERTEX
  8
0
 10
59.4084
 20
27.2978
  0
VERTEX
  8
0
 10
59.4084
 20
27.1498
  0
VERTEX
  8
0
 10
58.5924
 20
27.1498
  0
VERTEX
  8
0
 10
58.5947
 20
27.1935
  0
VERTEX
  8
0
 10
58.6039
 20
27.2378
  0
VERTEX
  8
0
 10
58.62
 20
27.2828
  0
VERTEX
  8
0
 10
58.643
 20
27.3285
  0
VERTEX
  8
0
 10
58.6729
 20
27.3748
  0
VERTEX
  8
0
 10
58.7097
 20
27.4217
  0
VERTEX
  8
0
 10
58.763
 20
27.4797
  0
VERTEX
  8
0
 10
58.8294
 20
27.5426
  0
VERTEX
  8
0
 10
58.9089
 20
27.6103
  0
VERTEX
  8
0
 10
58.9659
 20
27.6578
  0
VERTEX
  8
0
 10
59.016
 20
27.7011
  0
VERTEX
  8
0
 10
59.0592
 20
27.7402
  0
VERTEX
  8
0
 10
59.0955
 20
27.7751
  0
VERTEX
  8
0
 10
59.125
 20
27.8057
  0
VERTEX
  8
0
 10
59.1639
 20
27.8514
  0
VERTEX
  8
0
 10
59.1957
 20
27.8957
  0
VERTEX
  8
0
 10
59.2205
 20
27.9385
  0
VERTEX
  8
0
 10
59.2382
 20
27.9798
  0
VERTEX
  8
0
 10
59.2488
 20
28.0196
  0
VERTEX
  8
0
 10
59.2524
 20
28.058
  0
VERTEX
  8
0
 10
59.2447
 20
28.1186
  0
VERTEX
  8
0
 10
59.2216
 20
28.171
  0
VERTEX
  8
0
 10
59.1832
 20
28.2152
  0
VERTEX
  8
0
 10
59.1358
 20
28.2474
  0
VERTEX
  8
0
 10
59.0812
 20
28.2669
  0
VERTEX
  8
0
 10
59.0195
 20
28.2738
  0
VERTEX
  8
0
 10
58.966
 20
28.27
  0
VERTEX
  8
0
 10
58.9186
 20
28.2574
  0
VERTEX
  8
0
 10
58.8774
 20
28.2362
  0
VERTEX
  8
0
 10
58.8422
 20
28.2063
  0
VERTEX
  8
0
 10
58.8065
 20
28.1555
  0
VERTEX
  8
0
 10
58.7848
 20
28.0942
  0
VERTEX
  8
0
 10
58.7773
 20
28.0225
  0
VERTEX
  8
0
 10
58.6211
 20
28.0387
  0
VERTEX
  8
0
 10
58.6287
 20
28.0945
  0
VERTEX
  8
0
 10
58.6413
 20
28.1459
  0
VERTEX
  8
0
 10
58.6589
 20
28.1926
  0
VERTEX
  8
0
 10
58.6815
 20
28.2348
  0
VERTEX
  8
0
 10
58.7091
 20
28.2724
  0
VERTEX
  8
0
 10
58.7418
 20
28.3055
  0
VERTEX
  8
0
 10
58.7868
 20
28.3387
  0
VERTEX
  8
0
 10
58.8374
 20
28.3646
  0
VERTEX
  8
0
 10
58.8936
 20
28.3831
  0
VERTEX
  8
0
 10
58.9554
 20
28.3942
  0
VERTEX
  8
0
 10
59.0228
 20
28.3978
  0
VERTEX
  8
0
 10
59.086
 20
28.3943
  0
VERTEX
  8
0
 10
59.1447
 20
28.3836
  0
VERTEX
  8
0
 10
59.1988
 20
28.3658
  0
VERTEX
  8
0
 10
59.2485
 20
28.3409
  0
VERTEX
  8
0
 10
59.2936
 20
28.3089
  0
VERTEX
  8
0
 10
59.3287
 20
28.2755
  0
VERTEX
  8
0
 10
59.3574
 20
28.2384
  0
VERTEX
  8
0
 10
59.3797
 20
28.1976
  0
VERTEX
  8
0
 10
59.3956
 20
28.1531
  0
VERTEX
  8
0
 10
59.4052
 20
28.105
  0
VERTEX
  8
0
 10
59.4084
 20
28.0532
  0
VERTEX
  8
0
 10
59.4047
 20
28.0038
  0
VERTEX
  8
0
 10
59.3938
 20
27.9542
  0
VERTEX
  8
0
 10
59.3755
 20
27.9046
  0
VERTEX
  8
0
 10
59.3499
 20
27.8549
  0
VERTEX
  8
0
 10
59.317
 20
27.805
  0
VERTEX
  8
0
 10
59.2768
 20
27.7551
  0
VERTEX
  8
0
 10
59.2442
 20
27.7201
  0
VERTEX
  8
0
 10
59.2045
 20
27.6807
  0
VERTEX
  8
0
 10
59.1578
 20
27.637
  0
VERTEX
  8
0
 10
59.104
 20
27.589
  0
VERTEX
  8
0
 10
59.0431
 20
27.5367
  0
VERTEX
  8
0
 10
59.0028
 20
27.5027
  0
VERTEX
  8
0
 10
58.9698
 20
27.4746
  0
VERTEX
  8
0
 10
58.9439
 20
27.4524
  0
VERTEX
  8
0
 10
58.9253
 20
27.4361
  0
VERTEX
  8
0
 10
58.914
 20
27.4257
  0
VERTEX
  8
0
 10
58.8509
 20
27.3607
  0
VERTEX
  8
0
 10
58.8035
 20
27.2978
  0
VERTEX
  8
0
 10
59.4084
 20
27.2978
  0
SEQEND
  0
LINE
  8
0
 10
60
 20
27.45
 11
60
 21
29.25
  0
LINE
  8
0
 10
58
 20
27.45
 11
58
 21
29.25
  0
POLYLINE
  8
0
 66
     1
 10
0
 20
0
  0
VERTEX
  8
0
 10
62.6288
 20
33.1166
  0
VERTEX
  8
0
 10
62.6154
 20
33.262
  0
VERTEX
  8
0
 10
62.6681
 20
33.2843
  0
VERTEX
  8
0
 10
62.7132
 20
33.3327
  0
VERTEX
  8
0
 10
62.7302
 20
33.3691
  0
VERTEX
  8
0
 10
62.7406
 20
33.419
  0
VERTEX
  8
0
 10
62.7444
 20
33.4823
  0
VERTEX
  8
0
 10
62.7368
 20
33.5468
  0
VERTEX
  8
0
 10
62.7123
 20
33.6042
  0
VERTEX
  8
0
 10
62.6891
 20
33.636
  0
VERTEX
  8
0
 10
62.6597
 20
33.6646
  0
VERTEX
  8
0
 10
62.6244
 20
33.69
  0
VERTEX
  8
0
 10
62.5829
 20
33.7122
  0
VERTEX
  8
0
 10
62.5355
 20
33.7313
  0
VERTEX
  8
0
 10
62.482
 20
33.7472
  0
VERTEX
  8
0
 10
62.3908
 20
33.7642
  0
VERTEX
  8
0
 10
62.2963
 20
33.7698
  0
VERTEX
  8
0
 10
62.2802
 20
33.7696
  0
VERTEX
  8
0
 10
62.2659
 20
33.769
  0
VERTEX
  8
0
 10
62.2998
 20
33.7453
  0
VERTEX
  8
0
 10
62.3298
 20
33.7193
  0
VERTEX
  8
0
 10
62.3558
 20
33.6911
  0
VERTEX
  8
0
 10
62.3778
 20
33.6607
  0
VERTEX
  8
0
 10
62.3959
 20
33.628
  0
VERTEX
  8
0
 10
62.41
 20
33.593
  0
VERTEX
  8
0
 10
62.4201
 20
33.5558
  0
VERTEX
  8
0
 10
62.4262
 20
33.5164
  0
VERTEX
  8
0
 10
62.4284
 20
33.4747
  0
VERTEX
  8
0
 10
62.4253
 20
33.4213
  0
VERTEX
  8
0
 10
62.4153
 20
33.3713
  0
VERTEX
  8
0
 10
62.3986
 20
33.3249
  0
VERTEX
  8
0
 10
62.375
 20
33.2819
  0
VERTEX
  8
0
 10
62.3447
 20
33.2425
  0
VERTEX
  8
0
 10
62.3075
 20
33.2065
  0
VERTEX
  8
0
 10
62.2591
 20
33.1717
  0
VERTEX
  8
0
 10
62.2064
 20
33.1447
  0
VERTEX
  8
0
 10
62.1494
 20
33.1253
  0
VERTEX
  8
0
 10
62.0882
 20
33.1137
  0
VERTEX
  8
0
 10
62.0227
 20
33.1098
  0
VERTEX
  8
0
 10
61.9617
 20
33.1129
  0
VERTEX
  8
0
 10
61.9049
 20
33.1221
  0
VERTEX
  8
0
 10
61.8522
 20
33.1374
  0
VERTEX
  8
0
 10
61.8037
 20
33.1589
  0
VERTEX
  8
0
 10
61.7594
 20
33.1865
  0
VERTEX
  8
0
 10
61.7193
 20
33.2202
  0
VERTEX
  8
0
 10
61.6844
 20
33.2586
  0
VERTEX
  8
0
 10
61.6559
 20
33.3001
  0
VERTEX
  8
0
 10
61.6336
 20
33.3449
  0
VERTEX
  8
0
 10
61.6175
 20
33.3928
  0
VERTEX
  8
0
 10
61.6078
 20
33.4439
  0
VERTEX
  8
0
 10
61.6044
 20
33.4982
  0
VERTEX
  8
0
 10
61.6114
 20
33.5784
  0
VERTEX
  8
0
 10
61.6337
 20
33.6528
  0
VERTEX
  8
0
 10
61.6711
 20
33.7214
  0
VERTEX
  8
0
 10
61.7216
 20
33.7816
  0
VERTEX
  8
0
 10
61.7829
 20
33.831
  0
VERTEX
  8
0
 10
61.8551
 20
33.8696
  0
VERTEX
  8
0
 10
61.9077
 20
33.8884
  0
VERTEX
  8
0
 10
61.9688
 20
33.903
  0
VERTEX
  8
0
 10
62.0383
 20
33.9135
  0
VERTEX
  8
0
 10
62.1164
 20
33.9198
  0
VERTEX
  8
0
 10
62.203
 20
33.9218
  0
VERTEX
  8
0
 10
62.2514
 20
33.9212
  0
VERTEX
  8
0
 10
62.298
 20
33.9193
  0
VERTEX
  8
0
 10
62.3428
 20
33.9162
  0
VERTEX
  8
0
 10
62.3858
 20
33.9117
  0
VERTEX
  8
0
 10
62.4269
 20
33.9061
  0
VERTEX
  8
0
 10
62.4662
 20
33.8991
  0
VERTEX
  8
0
 10
62.5036
 20
33.8909
  0
VERTEX
  8
0
 10
62.5393
 20
33.8814
  0
VERTEX
  8
0
 10
62.5731
 20
33.8707
  0
VERTEX
  8
0
 10
62.605
 20
33.8587
  0
VERTEX
  8
0
 10
62.6352
 20
33.8454
  0
VERTEX
  8
0
 10
62.6635
 20
33.8309
  0
VERTEX
  8
0
 10
62.69
 20
33.8151
  0
VERTEX
  8
0
 10
62.7146
 20
33.798
  0
VERTEX
  8
0
 10
62.7374
 20
33.7797
  0
VERTEX
  8
0
 10
62.7584
 20
33.7601
  0
VERTEX
  8
0
 10
62.7776
 20
33.7393
  0
VERTEX
  8
0
 10
62.795
 20
33.7172
  0
VERTEX
  8
0
 10
62.8271
 20
33.6644
  0
VERTEX
  8
0
 10
62.85
 20
33.6073
  0
VERTEX
  8
0
 10
62.8638
 20
33.5457
  0
VERTEX
  8
0
 10
62.8684
 20
33.4797
  0
VERTEX
  8
0
 10
62.8666
 20
33.4235
  0
VERTEX
  8
0
 10
62.8612
 20
33.3729
  0
VERTEX
  8
0
 10
62.8522
 20
33.328
  0
VERTEX
  8
0
 10
62.8396
 20
33.2887
  0
VERTEX
  8
0
 10
62.8234
 20
33.255
  0
VERTEX
  8
0
 10
62.8036
 20
33.2269
  0
VERTEX
  8
0
 10
62.7609
 20
33.1828
  0
VERTEX
  8
0
 10
62.7175
 20
33.1496
  0
VERTEX
  8
0
 10
62.6735
 20
33.1276
  0
VERTEX
  8
0
 10
62.6288
 20
33.1166
  0
VERTEX
  8
0
 10
62.6288
 20
33.1166
  0
SEQEND
  0
POLYLINE
  8
0
 66
     1
 10
0
 20
0
  0
VERTEX
  8
0
 10
62.0133
 20
33.7538
  0
VERTEX
  8
0
 10
61.9402
 20
33.7472
  0
VERTEX
  8
0
 10
61.875
 20
33.7273
  0
VERTEX
  8
0
 10
61.818
 20
33.694
  0
VERTEX
  8
0
 10
61.7791
 20
33.6583
  0
VERTEX
  8
0
 10
61.7512
 20
33.6169
  0
VERTEX
  8
0
 10
61.7343
 20
33.5698
  0
VERTEX
  8
0
 10
61.7284
 20
33.517
  0
VERTEX
  8
0
 10
61.7319
 20
33.4732
  0
VERTEX
  8
0
 10
61.743
 20
33.4327
  0
VERTEX
  8
0
 10
61.7618
 20
33.3956
  0
VERTEX
  8
0
 10
61.7882
 20
33.3619
  0
VERTEX
  8
0
 10
61.8223
 20
33.3316
  0
VERTEX
  8
0
 10
61.8828
 20
33.2954
  0
VERTEX
  8
0
 10
61.9508
 20
33.2735
  0
VERTEX
  8
0
 10
62.026
 20
33.2658
  0
VERTEX
  8
0
 10
62.0973
 20
33.2729
  0
VERTEX
  8
0
 10
62.1602
 20
33.2951
  0
VERTEX
  8
0
 10
62.2146
 20
33.3324
  0
VERTEX
  8
0
 10
62.2486
 20
33.3696
  0
VERTEX
  8
0
 10
62.2729
 20
33.4121
  0
VERTEX
  8
0
 10
62.2875
 20
33.4598
  0
VERTEX
  8
0
 10
62.2924
 20
33.5128
  0
VERTEX
  8
0
 10
62.2872
 20
33.5677
  0
VERTEX
  8
0
 10
62.2717
 20
33.6163
  0
VERTEX
  8
0
 10
62.2458
 20
33.6584
  0
VERTEX
  8
0
 10
62.2095
 20
33.694
  0
VERTEX
  8
0
 10
62.1535
 20
33.7273
  0
VERTEX
  8
0
 10
62.0881
 20
33.7472
  0
VERTEX
  8
0
 10
62.0133
 20
33.7538
  0
VERTEX
  8
0
 10
62.0133
 20
33.7538
  0
SEQEND
  0
POLYLINE
  8
0
 66
     1
 10
0
 20
0
  0
VERTEX
  8
0
 10
62.8524
 20
34.1578
  0
VERTEX
  8
0
 10
62.6764
 20
34.1578
  0
VERTEX
  8
0
 10
62.6764
 20
34.3298
  0
VERTEX
  8
0
 10
62.8524
 20
34.3298
  0
VERTEX
  8
0
 10
62.8524
 20
34.1578
  0
SEQEND
  0
POLYLINE
  8
0
 66
     1
 10
0
 20
0
  0
VERTEX
  8
0
 10
62.8524
 20
35.0458
  0
VERTEX
  8
0
 10
62.5524
 20
35.0458
  0
VERTEX
  8
0
 10
62.5524
 20
34.5098
  0
VERTEX
  8
0
 10
62.4124
 20
34.5098
  0
VERTEX
  8
0
 10
61.6124
 20
35.0747
  0
VERTEX
  8
0
 10
61.6124
 20
35.1978
  0
VERTEX
  8
0
 10
62.4124
 20
35.1978
  0
VERTEX
  8
0
 10
62.4124
 20
35.3659
  0
VERTEX
  8
0
 10
62.5524
 20
35.3659
  0
VERTEX
  8
0
 10
62.5524
 20
35.1978
  0
VERTEX
  8
0
 10
62.8524
 20
35.1978
  0
VERTEX
  8
0
 10
62.8524
 20
35.0458
  0
SEQEND
  0
POLYLINE
  8
0
 66
     1
 10
0
 20
0
  0
VERTEX
  8
0
 10
62.4124
 20
35.0458
  0
VERTEX
  8
0
 10
61.8613
 20
35.0458
  0
VERTEX
  8
0
 10
62.4128
 20
34.6614
  0
VERTEX
  8
0
 10
62.4124
 20
35.0458
  0
SEQEND
  0
POLYLINE
  8
0
 66
     1
 10
0
 20
0
  0
VERTEX
  8
0
 10
62.5215
 20
35.5218
  0
VERTEX
  8
0
 10
62.5014
 20
35.6745
  0
VERTEX
  8
0
 10
62.5347
 20
35.682
  0
VERTEX
  8
0
 10
62.5656
 20
35.6911
  0
VERTEX
  8
0
 10
62.5941
 20
35.7016
  0
VERTEX
  8
0
 10
62.6201
 20
35.7137
  0
VERTEX
  8
0
 10
62.6436
 20
35.7273
  0
VERTEX
  8
0
 10
62.6646
 20
35.7424
  0
VERTEX
  8
0
 10
62.6832
 20
35.759
  0
VERTEX
  8
0
 10
62.6993
 20
35.7772
  0
VERTEX
  8
0
 10
62.713
 20
35.7968
  0
VERTEX
  8
0
 10
62.7242
 20
35.818
  0
VERTEX
  8
0
 10
62.7329
 20
35.8407
  0
VERTEX
  8
0
 10
62.7392
 20
35.8649
  0
VERTEX
  8
0
 10
62.743
 20
35.8906
  0
VERTEX
  8
0
 10
62.7444
 20
35.9178
  0
VERTEX
  8
0
 10
62.7401
 20
35.9702
  0
VERTEX
  8
0
 10
62.7263
 20
36.018
  0
VERTEX
  8
0
 10
62.7031
 20
36.0613
  0
VERTEX
  8
0
 10
62.6705
 20
36.1001
  0
VERTEX
  8
0
 10
62.617
 20
36.1407
  0
VERTEX
  8
0
 10
62.556
 20
36.1653
  0
VERTEX
  8
0
 10
62.4876
 20
36.1738
  0
VERTEX
  8
0
 10
62.4223
 20
36.1666
  0
VERTEX
  8
0
 10
62.365
 20
36.1436
  0
VERTEX
  8
0
 10
62.316
 20
36.1049
  0
VERTEX
  8
0
 10
62.2784
 20
36.0544
  0
VERTEX
  8
0
 10
62.2559
 20
35.996
  0
VERTEX
  8
0
 10
62.2484
 20
35.9296
  0
VERTEX
  8
0
 10
62.2519
 20
35.8796
  0
VERTEX
  8
0
 10
62.2625
 20
35.8215
  0
VERTEX
  8
0
 10
62.1324
 20
35.8383
  0
VERTEX
  8
0
 10
62.1324
 20
35.8486
  0
VERTEX
  8
0
 10
62.1324
 20
35.8627
  0
VERTEX
  8
0
 10
62.1268
 20
35.9286
  0
VERTEX
  8
0
 10
62.11
 20
35.9863
  0
VERTEX
  8
0
 10
62.0821
 20
36.0357
  0
VERTEX
  8
0
 10
62.0511
 20
36.0696
  0
VERTEX
  8
0
 10
62.0143
 20
36.0939
  0
VERTEX
  8
0
 10
61.9718
 20
36.1087
  0
VERTEX
  8
0
 10
61.9236
 20
36.1138
  0
VERTEX
  8
0
 10
61.8693
 20
36.1079
  0
VERTEX
  8
0
 10
61.8224
 20
36.0889
  0
VERTEX
  8
0
 10
61.783
 20
36.057
  0
VERTEX
  8
0
 10
61.753
 20
36.0152
  0
VERTEX
  8
0
 10
61.7348
 20
35.9668
  0
VERTEX
  8
0
 10
61.7284
 20
35.9117
  0
VERTEX
  8
0
 10
61.7295
 20
35.8837
  0
VERTEX
  8
0
 10
61.7333
 20
35.8576
  0
VERTEX
  8
0
 10
61.7398
 20
35.8332
  0
VERTEX
  8
0
 10
61.749
 20
35.8106
  0
VERTEX
  8
0
 10
61.7609
 20
35.7898
  0
VERTEX
  8
0
 10
61.7755
 20
35.7709
  0
VERTEX
  8
0
 10
61.7928
 20
35.7537
  0
VERTEX
  8
0
 10
61.8128
 20
35.7384
  0
VERTEX
  8
0
 10
61.8356
 20
35.7248
  0
VERTEX
  8
0
 10
61.861
 20
35.713
  0
VERTEX
  8
0
 10
61.8891
 20
35.7031
  0
VERTEX
  8
0
 10
61.92
 20
35.6949
  0
VERTEX
  8
0
 10
61.9535
 20
35.6886
  0
VERTEX
  8
0
 10
61.9264
 20
35.537
  0
VERTEX
  8
0
 10
61.8554
 20
35.5549
  0
VERTEX
  8
0
 10
61.7925
 20
35.5816
  0
VERTEX
  8
0
 10
61.7376
 20
35.617
  0
VERTEX
  8
0
 10
61.6908
 20
35.6613
  0
VERTEX
  8
0
 10
61.6533
 20
35.7132
  0
VERTEX
  8
0
 10
61.6264
 20
35.7717
  0
VERTEX
  8
0
 10
61.6101
 20
35.8368
  0
VERTEX
  8
0
 10
61.6044
 20
35.9085
  0
VERTEX
  8
0
 10
61.6141
 20
36.0014
  0
VERTEX
  8
0
 10
61.6449
 20
36.0879
  0
VERTEX
  8
0
 10
61.6968
 20
36.1667
  0
VERTEX
  8
0
 10
61.7664
 20
36.2243
  0
VERTEX
  8
0
 10
61.8438
 20
36.2585
  0
VERTEX
  8
0
 10
61.9259
 20
36.2698
  0
VERTEX
  8
0
 10
61.963
 20
36.2678
  0
VERTEX
  8
0
 10
61.9978
 20
36.2615
  0
VERTEX
  8
0
 10
62.0302
 20
36.2511
  0
VERTEX
  8
0
 10
62.0604
 20
36.2365
  0
VERTEX
  8
0
 10
62.0882
 20
36.2177
  0
VERTEX
  8
0
 10
62.1137
 20
36.1948
  0
VERTEX
  8
0
 10
62.137
 20
36.1677
  0
VERTEX
  8
0
 10
62.1579
 20
36.1364
  0
VERTEX
  8
0
 10
62.1765
 20
36.101
  0
VERTEX
  8
0
 10
62.2001
 20
36.1706
  0
VERTEX
  8
0
 10
62.2361
 20
36.2287
  0
VERTEX
  8
0
 10
62.2845
 20
36.2752
  0
VERTEX
  8
0
 10
62.3416
 20
36.3078
  0
VERTEX
  8
0
 10
62.4071
 20
36.3273
  0
VERTEX
  8
0
 10
62.4811
 20
36.3338
  0
VERTEX
  8
0
 10
62.5339
 20
36.3306
  0
VERTEX
  8
0
 10
62.584
 20
36.3207
  0
VERTEX
  8
0
 10
62.6312
 20
36.3043
  0
VERTEX
  8
0
 10
62.6755
 20
36.2814
  0
VERTEX
  8
0
 10
62.7171
 20
36.2519
  0
VERTEX
  8
0
 10
62.7557
 20
36.2158
  0
VERTEX
  8
0
 10
62.7899
 20
36.1747
  0
VERTEX
  8
0
 10
62.8179
 20
36.1301
  0
VERTEX
  8
0
 10
62.8398
 20
36.0819
  0
VERTEX
  8
0
 10
62.8555
 20
36.0302
  0
VERTEX
  8
0
 10
62.865
 20
35.9749
  0
VERTEX
  8
0
 10
62.8684
 20
35.916
  0
VERTEX
  8
0
 10
62.8646
 20
35.8536
  0
VERTEX
  8
0
 10
62.8533
 20
35.7954
  0
VERTEX
  8
0
 10
62.8345
 20
35.7415
  0
VERTEX
  8
0
 10
62.8082
 20
35.6919
  0
VERTEX
  8
0
 10
62.7743
 20
35.6466
  0
VERTEX
  8
0
 10
62.7341
 20
35.6071
  0
VERTEX
  8
0
 10
62.6887
 20
35.5749
  0
VERTEX
  8
0
 10
62.6382
 20
35.5499
  0
VERTEX
  8
0
 10
62.5824
 20
35.5323
  0
VERTEX
  8
0
 10
62.5215
 20
35.5218
  0
VERTEX
  8
0
 10
62.5215
 20
35.5218
  0
SEQEND
  0
LINE
  8
0
 10
62.25
 20
36.6275
 11
62.25
 21
39.432
  0
LINE
  8
0
 10
62.5183
 20
38.8953
 11
62.25
 21
39.432
  0
LINE
  8
0
 10
61.9817
 20
38.8953
 11
62.25
 21
39.432
  0
LINE
  8
0
 10
62.55
 20
39.432
 11
60.75
 21
39.432
  0
LINE
  8
0
 10
62.25
 20
32.8045
 11
62.25
 21
30
  0
LINE
  8
0
 10
61.9817
 20
30.5367
 11
62.25
 21
30
  0
LINE
  8
0
 10
62.5183
 20
30.5367
 11
62.25
 21
30
  0
LINE
  8
0
 10
62.55
 20
30
 11
60.75
 21
30
  0
POLYLINE
  8
0
 66
     1
 10
0
 20
0
  0
VERTEX
  8
0
 10
65.5215
 20
44.1178
  0
VERTEX
  8
0
 10
65.5014
 20
44.2705
  0
VERTEX
  8
0
 10
65.5347
 20
44.278
  0
VERTEX
  8
0
 10
65.5656
 20
44.2871
  0
VERTEX
  8
0
 10
65.5941
 20
44.2976
  0
VERTEX
  8
0
 10
65.6201
 20
44.3097
  0
VERTEX
  8
0
 10
65.6436
 20
44.3233
  0
VERTEX
  8
0
 10
65.6646
 20
44.3384
  0
VERTEX
  8
0
 10
65.6832
 20
44.355
  0
VERTEX
  8
0
 10
65.6993
 20
44.3732
  0
VERTEX
  8
0
 10
65.713
 20
44.3928
  0
VERTEX
  8
0
 10
65.7242
 20
44.414
  0
VERTEX
  8
0
 10
65.7329
 20
44.4367
  0
VERTEX
  8
0
 10
65.7392
 20
44.4609
  0
VERTEX
  8
0
 10
65.743
 20
44.4866
  0
VERTEX
  8
0
 10
65.7444
 20
44.5138
  0
VERTEX
  8
0
 10
65.7401
 20
44.5662
  0
VERTEX
  8
0
 10
65.7263
 20
44.614
  0
VERTEX
  8
0
 10
65.7031
 20
44.6573
  0
VERTEX
  8
0
 10
65.6705
 20
44.6961
  0
VERTEX
  8
0
 10
65.617
 20
44.7367
  0
VERTEX
  8
0
 10
65.556
 20
44.7613
  0
VERTEX
  8
0
 10
65.4876
 20
44.7698
  0
VERTEX
  8
0
 10
65.4223
 20
44.7626
  0
VERTEX
  8
0
 10
65.365
 20
44.7396
  0
VERTEX
  8
0
 10
65.316
 20
44.7009
  0
VERTEX
  8
0
 10
65.2784
 20
44.6504
  0
VERTEX
  8
0
 10
65.2559
 20
44.592
  0
VERTEX
  8
0
 10
65.2484
 20
44.5256
  0
VERTEX
  8
0
 10
65.2519
 20
44.4756
  0
VERTEX
  8
0
 10
65.2625
 20
44.4175
  0
VERTEX
  8
0
 10
65.1324
 20
44.4343
  0
VERTEX
  8
0
 10
65.1324
 20
44.4446
  0
VERTEX
  8
0
 10
65.1324
 20
44.4587
  0
VERTEX
  8
0
 10
65.1268
 20
44.5246
  0
VERTEX
  8
0
 10
65.11
 20
44.5823
  0
VERTEX
  8
0
 10
65.0821
 20
44.6317
  0
VERTEX
  8
0
 10
65.0511
 20
44.6656
  0
VERTEX
  8
0
 10
65.0143
 20
44.6899
  0
VERTEX
  8
0
 10
64.9718
 20
44.7047
  0
VERTEX
  8
0
 10
64.9236
 20
44.7098
  0
VERTEX
  8
0
 10
64.8693
 20
44.7039
  0
VERTEX
  8
0
 10
64.8224
 20
44.6849
  0
VERTEX
  8
0
 10
64.783
 20
44.653
  0
VERTEX
  8
0
 10
64.753
 20
44.6112
  0
VERTEX
  8
0
 10
64.7348
 20
44.5628
  0
VERTEX
  8
0
 10
64.7284
 20
44.5077
  0
VERTEX
  8
0
 10
64.7295
 20
44.4797
  0
VERTEX
  8
0
 10
64.7333
 20
44.4536
  0
VERTEX
  8
0
 10
64.7398
 20
44.4292
  0
VERTEX
  8
0
 10
64.749
 20
44.4066
  0
VERTEX
  8
0
 10
64.7609
 20
44.3858
  0
VERTEX
  8
0
 10
64.7755
 20
44.3669
  0
VERTEX
  8
0
 10
64.7928
 20
44.3497
  0
VERTEX
  8
0
 10
64.8128
 20
44.3344
  0
VERTEX
  8
0
 10
64.8356
 20
44.3208
  0
VERTEX
  8
0
 10
64.861
 20
44.309
  0
VERTEX
  8
0
 10
64.8891
 20
44.2991
  0
VERTEX
  8
0
 10
64.92
 20
44.2909
  0
VERTEX
  8
0
 10
64.9535
 20
44.2846
  0
VERTEX
  8
0
 10
64.9264
 20
44.133
  0
VERTEX
  8
0
 10
64.8554
 20
44.1509
  0
VERTEX
  8
0
 10
64.7925
 20
44.1776
  0
VERTEX
  8
0
 10
64.7376
 20
44.213
  0
VERTEX
  8
0
 10
64.6908
 20
44.2573
  0
VERTEX
  8
0
 10
64.6533
 20
44.3092
  0
VERTEX
  8
0
 10
64.6264
 20
44.3677
  0
VERTEX
  8
0
 10
64.6101
 20
44.4328
  0
VERTEX
  8
0
 10
64.6044
 20
44.5045
  0
VERTEX
  8
0
 10
64.6141
 20
44.5974
  0
VERTEX
  8
0
 10
64.6449
 20
44.6839
  0
VERTEX
  8
0
 10
64.6968
 20
44.7627
  0
VERTEX
  8
0
 10
64.7664
 20
44.8203
  0
VERTEX
  8
0
 10
64.8438
 20
44.8545
  0
VERTEX
  8
0
 10
64.9259
 20
44.8658
  0
VERTEX
  8
0
 10
64.963
 20
44.8638
  0
VERTEX
  8
0
 10
64.9978
 20
44.8575
  0
VERTEX
  8
0
 10
65.0302
 20
44.8471
  0
VERTEX
  8
0
 10
65.0604
 20
44.8325
  0
VERTEX
  8
0
 10
65.0882
 20
44.8137
  0
VERTEX
  8
0
 10
65.1137
 20
44.7908
  0
VERTEX
  8
0
 10
65.137
 20
44.7637
  0
VERTEX
  8
0
 10
65.1579
 20
44.7324
  0
VERTEX
  8
0
 10
65.1765
 20
44.697
  0
VERTEX
  8
0
 10
65.2001
 20
44.7666
  0
VERTEX
  8
0
 10
65.2361
 20
44.8247
  0
VERTEX
  8
0
 10
65.2845
 20
44.8712
  0
VERTEX
  8
0
 10
65.3416
 20
44.9038
  0
VERTEX
  8
0
 10
65.4071
 20
44.9233
  0
VERTEX
  8
0
 10
65.4811
 20
44.9298
  0
VERTEX
  8
0
 10
65.5339
 20
44.9266
  0
VERTEX
  8
0
 10
65.584
 20
44.9167
  0
VERTEX
  8
0
 10
65.6312
 20
44.9003
  0
VERTEX
  8
0
 10
65.6755
 20
44.8774
  0
VERTEX
  8
0
 10
65.7171
 20
44.8479
  0
VERTEX
  8
0
 10
65.7557
 20
44.8118
  0
VERTEX
  8
0
 10
65.7899
 20
44.7707
  0
VERTEX
  8
0
 10
65.8179
 20
44.7261
  0
VERTEX
  8
0
 10
65.8398
 20
44.6779
  0
VERTEX
  8
0
 10
65.8555
 20
44.6262
  0
VERTEX
  8
0
 10
65.865
 20
44.5709
  0
VERTEX
  8
0
 10
65.8684
 20
44.512
  0
VERTEX
  8
0
 10
65.8646
 20
44.4496
  0
VERTEX
  8
0
 10
65.8533
 20
44.3914
  0
VERTEX
  8
0
 10
65.8345
 20
44.3375
  0
VERTEX
  8
0
 10
65.8082
 20
44.2879
  0
VERTEX
  8
0
 10
65.7743
 20
44.2426
  0
VERTEX
  8
0
 10
65.7341
 20
44.2031
  0
VERTEX
  8
0
 10
65.6887
 20
44.1709
  0
VERTEX
  8
0
 10
65.6382
 20
44.1459
  0
VERTEX
  8
0
 10
65.5824
 20
44.1283
  0
VERTEX
  8
0
 10
65.5215
 20
44.1178
  0
VERTEX
  8
0
 10
65.5215
 20
44.1178
  0
SEQEND
  0
POLYLINE
  8
0
 66
     1
 10
0
 20
0
  0
VERTEX
  8
0
 10
65.2368
 20
45.0778
  0
VERTEX
  8
0
 10
65.1863
 20
45.0785
  0
VERTEX
  8
0
 10
65.1378
 20
45.0806
  0
VERTEX
  8
0
 10
65.0913
 20
45.0841
  0
VERTEX
  8
0
 10
65.047
 20
45.089
  0
VERTEX
  8
0
 10
65.0047
 20
45.0953
  0
VERTEX
  8
0
 10
64.9646
 20
45.103
  0
VERTEX
  8
0
 10
64.9265
 20
45.1121
  0
VERTEX
  8
0
 10
64.8904
 20
45.1226
  0
VERTEX
  8
0
 10
64.8565
 20
45.1345
  0
VERTEX
  8
0
 10
64.8246
 20
45.1478
  0
VERTEX
  8
0
 10
64.7948
 20
45.1625
  0
VERTEX
  8
0
 10
64.7671
 20
45.1786
  0
VERTEX
  8
0
 10
64.7415
 20
45.1961
  0
VERTEX
  8
0
 10
64.7179
 20
45.215
  0
VERTEX
  8
0
 10
64.6964
 20
45.2353
  0
VERTEX
  8
0
 10
64.677
 20
45.257
  0
VERTEX
  8
0
 10
64.6456
 20
45.304
  0
VERTEX
  8
0
 10
64.623
 20
45.3572
  0
VERTEX
  8
0
 10
64.6093
 20
45.4164
  0
VERTEX
  8
0
 10
64.6044
 20
45.4818
  0
VERTEX
  8
0
 10
64.6141
 20
45.5742
  0
VERTEX
  8
0
 10
64.6449
 20
45.6568
  0
VERTEX
  8
0
 10
64.666
 20
45.691
  0
VERTEX
  8
0
 10
64.6918
 20
45.7226
  0
VERTEX
  8
0
 10
64.7223
 20
45.7516
  0
VERTEX
  8
0
 10
64.7574
 20
45.7781
  0
VERTEX
  8
0
 10
64.7972
 20
45.8019
  0
VERTEX
  8
0
 10
64.8417
 20
45.8232
  0
VERTEX
  8
0
 10
64.8908
 20
45.8419
  0
VERTEX
  8
0
 10
64.9446
 20
45.858
  0
VERTEX
  8
0
 10
65.0028
 20
45.8702
  0
VERTEX
  8
0
 10
65.0709
 20
45.8789
  0
VERTEX
  8
0
 10
65.1489
 20
45.8841
  0
VERTEX
  8
0
 10
65.2368
 20
45.8858
  0
VERTEX
  8
0
 10
65.2906
 20
45.8851
  0
VERTEX
  8
0
 10
65.342
 20
45.8827
  0
VERTEX
  8
0
 10
65.391
 20
45.8787
  0
VERTEX
  8
0
 10
65.4377
 20
45.8731
  0
VERTEX
  8
0
 10
65.482
 20
45.8659
  0
VERTEX
  8
0
 10
65.524
 20
45.8572
  0
VERTEX
  8
0
 10
65.5636
 20
45.8468
  0
VERTEX
  8
0
 10
65.6009
 20
45.8349
  0
VERTEX
  8
0
 10
65.6358
 20
45.8213
  0
VERTEX
  8
0
 10
65.6684
 20
45.8062
  0
VERTEX
  8
0
 10
65.6985
 20
45.7895
  0
VERTEX
  8
0
 10
65.7264
 20
45.7712
  0
VERTEX
  8
0
 10
65.7519
 20
45.7513
  0
VERTEX
  8
0
 10
65.775
 20
45.7298
  0
VERTEX
  8
0
 10
65.7958
 20
45.7067
  0
VERTEX
  8
0
 10
65.8272
 20
45.6597
  0
VERTEX
  8
0
 10
65.8498
 20
45.6065
  0
VERTEX
  8
0
 10
65.8635
 20
45.5473
  0
VERTEX
  8
0
 10
65.8684
 20
45.4818
  0
VERTEX
  8
0
 10
65.868
 20
45.4604
  0
VERTEX
  8
0
 10
65.8667
 20
45.4394
  0
VERTEX
  8
0
 10
65.8645
 20
45.4191
  0
VERTEX
  8
0
 10
65.8613
 20
45.3994
  0
VERTEX
  8
0
 10
65.8572
 20
45.3802
  0
VERTEX
  8
0
 10
65.8522
 20
45.3617
  0
VERTEX
  8
0
 10
65.8463
 20
45.3437
  0
VERTEX
  8
0
 10
65.8394
 20
45.3263
  0
VERTEX
  8
0
 10
65.8316
 20
45.3095
  0
VERTEX
  8
0
 10
65.8229
 20
45.2933
  0
VERTEX
  8
0
 10
65.8133
 20
45.2777
  0
VERTEX
  8
0
 10
65.8027
 20
45.2627
  0
VERTEX
  8
0
 10
65.7912
 20
45.2482
  0
VERTEX
  8
0
 10
65.7788
 20
45.2344
  0
VERTEX
  8
0
 10
65.7654
 20
45.2211
  0
VERTEX
  8
0
 10
65.7511
 20
45.2084
  0
VERTEX
  8
0
 10
65.7359
 20
45.1963
  0
VERTEX
  8
0
 10
65.7198
 20
45.1848
  0
VERTEX
  8
0
 10
65.7027
 20
45.1739
  0
VERTEX
  8
0
 10
65.6847
 20
45.1636
  0
VERTEX
  8
0
 10
65.6658
 20
45.1538
  0
VERTEX
  8
0
 10
65.6459
 20
45.1447
  0
VERTEX
  8
0
 10
65.6251
 20
45.1361
  0
VERTEX
  8
0
 10
65.6034
 20
45.1281
  0
VERTEX
  8
0
 10
65.5808
 20
45.1207
  0
VERTEX
  8
0
 10
65.5572
 20
45.1139
  0
VERTEX
  8
0
 10
65.5327
 20
45.1077
  0
VERTEX
  8
0
 10
65.5073
 20
45.1021
  0
VERTEX
  8
0
 10
65.481
 20
45.097
  0
VERTEX
  8
0
 10
65.4537
 20
45.0926
  0
VERTEX
  8
0
 10
65.4255
 20
45.0887
  0
VERTEX
  8
0
 10
65.3964
 20
45.0854
  0
VERTEX
  8
0
 10
65.3663
 20
45.0827
  0
VERTEX
  8
0
 10
65.3353
 20
45.0806
  0
VERTEX
  8
0
 10
65.3034
 20
45.0791
  0
VERTEX
  8
0
 10
65.2706
 20
45.0782
  0
VERTEX
  8
0
 10
65.2368
 20
45.0778
  0
VERTEX
  8
0
 10
65.2368
 20
45.0778
  0
SEQEND
  0
POLYLINE
  8
0
 66
     1
 10
0
 20
0
  0
VERTEX
  8
0
 10
65.2364
 20
45.2338
  0
VERTEX
  8
0
 10
65.3154
 20
45.2352
  0
VERTEX
  8
0
 10
65.3866
 20
45.2391
  0
VERTEX
  8
0
 10
65.4499
 20
45.2457
  0
VERTEX
  8
0
 10
65.5054
 20
45.255
  0
VERTEX
  8
0
 10
65.553
 20
45.2668
  0
VERTEX
  8
0
 10
65.5892
 20
45.2792
  0
VERTEX
  8
0
 10
65.6216
 20
45.2936
  0
VERTEX
  8
0
 10
65.6502
 20
45.31
  0
VERTEX
  8
0
 10
65.6751
 20
45.3285
  0
VERTEX
  8
0
 10
65.6961
 20
45.349
  0
VERTEX
  8
0
 10
65.7133
 20
45.3715
  0
VERTEX
  8
0
 10
65.7268
 20
45.396
  0
VERTEX
  8
0
 10
65.7365
 20
45.4226
  0
VERTEX
  8
0
 10
65.7423
 20
45.4512
  0
VERTEX
  8
0
 10
65.7444
 20
45.4818
  0
VERTEX
  8
0
 10
65.7439
 20
45.4992
  0
VERTEX
  8
0
 10
65.742
 20
45.516
  0
VERTEX
  8
0
 10
65.7389
 20
45.5321
  0
VERTEX
  8
0
 10
65.7344
 20
45.5476
  0
VERTEX
  8
0
 10
65.7287
 20
45.5625
  0
VERTEX
  8
0
 10
65.7216
 20
45.5767
  0
VERTEX
  8
0
 10
65.7133
 20
45.5903
  0
VERTEX
  8
0
 10
65.7036
 20
45.6033
  0
VERTEX
  8
0
 10
65.6926
 20
45.6157
  0
VERTEX
  8
0
 10
65.6804
 20
45.6274
  0
VERTEX
  8
0
 10
65.6668
 20
45.6384
  0
VERTEX
  8
0
 10
65.6519
 20
45.6489
  0
VERTEX
  8
0
 10
65.6357
 20
45.6587
  0
VERTEX
  8
0
 10
65.6182
 20
45.6678
  0
VERTEX
  8
0
 10
65.5994
 20
45.6764
  0
VERTEX
  8
0
 10
65.5793
 20
45.6843
  0
VERTEX
  8
0
 10
65.5579
 20
45.6916
  0
VERTEX
  8
0
 10
65.5352
 20
45.6982
  0
VERTEX
  8
0
 10
65.5112
 20
45.7042
  0
VERTEX
  8
0
 10
65.4859
 20
45.7096
  0
VERTEX
  8
0
 10
65.4593
 20
45.7143
  0
VERTEX
  8
0
 10
65.4313
 20
45.7185
  0
VERTEX
  8
0
 10
65.4021
 20
45.7219
  0
VERTEX
  8
0
 10
65.3716
 20
45.7248
  0
VERTEX
  8
0
 10
65.3397
 20
45.727
  0
VERTEX
  8
0
 10
65.3066
 20
45.7286
  0
VERTEX
  8
0
 10
65.2721
 20
45.7295
  0
VERTEX
  8
0
 10
65.2364
 20
45.7298
  0
VERTEX
  8
0
 10
65.1573
 20
45.7285
  0
VERTEX
  8
0
 10
65.0862
 20
45.7246
  0
VERTEX
  8
0
 10
65.0228
 20
45.718
  0
VERTEX
  8
0
 10
64.9674
 20
45.7087
  0
VERTEX
  8
0
 10
64.9198
 20
45.6968
  0
VERTEX
  8
0
 10
64.8836
 20
45.6843
  0
VERTEX
  8
0
 10
64.8511
 20
45.6698
  0
VERTEX
  8
0
 10
64.8225
 20
45.6532
  0
VERTEX
  8
0
 10
64.7977
 20
45.6345
  0
VERTEX
  8
0
 10
64.7767
 20
45.6139
  0
VERTEX
  8
0
 10
64.7594
 20
45.5912
  0
VERTEX
  8
0
 10
64.746
 20
45.5665
  0
VERTEX
  8
0
 10
64.7363
 20
45.5397
  0
VERTEX
  8
0
 10
64.7305
 20
45.511
  0
VERTEX
  8
0
 10
64.7284
 20
45.4802
  0
VERTEX
  8
0
 10
64.7336
 20
45.4303
  0
VERTEX
  8
0
 10
64.7502
 20
45.3858
  0
VERTEX
  8
0
 10
64.7781
 20
45.3465
  0
VERTEX
  8
0
 10
64.8173
 20
45.3125
  0
VERTEX
  8
0
 10
64.8416
 20
45.2976
  0
VERTEX
  8
0
 10
64.8698
 20
45.2842
  0
VERTEX
  8
0
 10
64.9019
 20
45.2724
  0
VERTEX
  8
0
 10
64.938
 20
45.2622
  0
VERTEX
  8
0
 10
64.978
 20
45.2535
  0
VERTEX
  8
0
 10
65.0218
 20
45.2464
  0
VERTEX
  8
0
 10
65.0696
 20
45.2409
  0
VERTEX
  8
0
 10
65.1213
 20
45.237
  0
VERTEX
  8
0
 10
65.1769
 20
45.2346
  0
VERTEX
  8
0
 10
65.2364
 20
45.2338
  0
VERTEX
  8
0
 10
65.2364
 20
45.2338
  0
SEQEND
  0
LINE
  8
0
 10
65.25
 20
46.1859
 11
65.25
 21
60
  0
LINE
  8
0
 10
65.5183
 20
59.4633
 11
65.25
 21
60
  0
LINE
  8
0
 10
64.9817
 20
59.4633
 11
65.25
 21
60
  0
LINE
  8
0
 10
65.55
 20
60
 11
60.3
 21
60
  0
LINE
  8
0
 10
65.25
 20
43.8141
 11
65.25
 21
30
  0
LINE
  8
0
 10
64.9817
 20
30.5367
 11
65.25
 21
30
  0
LINE
  8
0
 10
65.5183
 20
30.5367
 11
65.25
 21
30
  0
LINE
  8
0
 10
65.55
 20
30
 11
60.3
 21
30
  0
POLYLINE
  8
0
 66
     1
 10
0
 20
0
  0
VERTEX
  8
0
 10
44.1124
 20
24.4807
  0
VERTEX
  8
0
 10
44.265
 20
24.5008
  0
VERTEX
  8
0
 10
44.2725
 20
24.4675
  0
VERTEX
  8
0
 10
44.2816
 20
24.4366
  0
VERTEX
  8
0
 10
44.2922
 20
24.4082
  0
VERTEX
  8
0
 10
44.3042
 20
24.3822
  0
VERTEX
  8
0
 10
44.3178
 20
24.3587
  0
VERTEX
  8
0
 10
44.3329
 20
24.3376
  0
VERTEX
  8
0
 10
44.3496
 20
24.319
  0
VERTEX
  8
0
 10
44.3677
 20
24.3029
  0
VERTEX
  8
0
 10
44.3873
 20
24.2892
  0
VERTEX
  8
0
 10
44.4085
 20
24.278
  0
VERTEX
  8
0
 10
44.4312
 20
24.2693
  0
VERTEX
  8
0
 10
44.4554
 20
24.263
  0
VERTEX
  8
0
 10
44.4811
 20
24.2592
  0
VERTEX
  8
0
 10
44.5083
 20
24.2578
  0
VERTEX
  8
0
 10
44.5607
 20
24.2622
  0
VERTEX
  8
0
 10
44.6086
 20
24.2759
  0
VERTEX
  8
0
 10
44.6519
 20
24.2991
  0
VERTEX
  8
0
 10
44.6906
 20
24.3317
  0
VERTEX
  8
0
 10
44.7312
 20
24.3852
  0
VERTEX
  8
0
 10
44.7558
 20
24.4462
  0
VERTEX
  8
0
 10
44.7644
 20
24.5147
  0
VERTEX
  8
0
 10
44.7571
 20
24.58
  0
VERTEX
  8
0
 10
44.7341
 20
24.6372
  0
VERTEX
  8
0
 10
44.6955
 20
24.6863
  0
VERTEX
  8
0
 10
44.645
 20
24.7238
  0
VERTEX
  8
0
 10
44.5865
 20
24.7463
  0
VERTEX
  8
0
 10
44.5201
 20
24.7538
  0
VERTEX
  8
0
 10
44.4702
 20
24.7503
  0
VERTEX
  8
0
 10
44.4121
 20
24.7397
  0
VERTEX
  8
0
 10
44.4289
 20
24.8698
  0
VERTEX
  8
0
 10
44.4392
 20
24.8698
  0
VERTEX
  8
0
 10
44.4533
 20
24.8698
  0
VERTEX
  8
0
 10
44.5192
 20
24.8754
  0
VERTEX
  8
0
 10
44.5768
 20
24.8922
  0
VERTEX
  8
0
 10
44.6263
 20
24.9202
  0
VERTEX
  8
0
 10
44.6601
 20
24.9512
  0
VERTEX
  8
0
 10
44.6845
 20
24.9879
  0
VERTEX
  8
0
 10
44.6992
 20
25.0304
  0
VERTEX
  8
0
 10
44.7044
 20
25.0787
  0
VERTEX
  8
0
 10
44.6985
 20
25.1329
  0
VERTEX
  8
0
 10
44.6795
 20
25.1798
  0
VERTEX
  8
0
 10
44.6476
 20
25.2193
  0
VERTEX
  8
0
 10
44.6058
 20
25.2492
  0
VERTEX
  8
0
 10
44.5574
 20
25.2674
  0
VERTEX
  8
0
 10
44.5023
 20
25.2738
  0
VERTEX
  8
0
 10
44.4743
 20
25.2728
  0
VERTEX
  8
0
 10
44.4481
 20
25.269
  0
VERTEX
  8
0
 10
44.4237
 20
25.2625
  0
VERTEX
  8
0
 10
44.4012
 20
25.2533
  0
VERTEX
  8
0
 10
44.3804
 20
25.2413
  0
VERTEX
  8
0
 10
44.3614
 20
25.2267
  0
VERTEX
  8
0
 10
44.3443
 20
25.2094
  0
VERTEX
  8
0
 10
44.3289
 20
25.1894
  0
VERTEX
  8
0
 10
44.3153
 20
25.1667
  0
VERTEX
  8
0
 10
44.3036
 20
25.1412
  0
VERTEX
  8
0
 10
44.2936
 20
25.1131
  0
VERTEX
  8
0
 10
44.2855
 20
25.0823
  0
VERTEX
  8
0
 10
44.2791
 20
25.0487
  0
VERTEX
  8
0
 10
44.1276
 20
25.0758
  0
VERTEX
  8
0
 10
44.1454
 20
25.1468
  0
VERTEX
  8
0
 10
44.1721
 20
25.2097
  0
VERTEX
  8
0
 10
44.2076
 20
25.2646
  0
VERTEX
  8
0
 10
44.2518
 20
25.3114
  0
VERTEX
  8
0
 10
44.3037
 20
25.3489
  0
VERTEX
  8
0
 10
44.3622
 20
25.3758
  0
VERTEX
  8
0
 10
44.4273
 20
25.3921
  0
VERTEX
  8
0
 10
44.499
 20
25.3978
  0
VERTEX
  8
0
 10
44.5919
 20
25.3881
  0
VERTEX
  8
0
 10
44.6785
 20
25.3573
  0
VERTEX
  8
0
 10
44.7572
 20
25.3054
  0
VERTEX
  8
0
 10
44.8149
 20
25.2358
  0
VERTEX
  8
0
 10
44.849
 20
25.1584
  0
VERTEX
  8
0
 10
44.8604
 20
25.0763
  0
VERTEX
  8
0
 10
44.8583
 20
25.0393
  0
VERTEX
  8
0
 10
44.852
 20
25.0045
  0
VERTEX
  8
0
 10
44.8416
 20
24.972
  0
VERTEX
  8
0
 10
44.827
 20
24.9419
  0
VERTEX
  8
0
 10
44.8083
 20
24.914
  0
VERTEX
  8
0
 10
44.7853
 20
24.8885
  0
VERTEX
  8
0
 10
44.7582
 20
24.8653
  0
VERTEX
  8
0
 10
44.727
 20
24.8444
  0
VERTEX
  8
0
 10
44.6915
 20
24.8258
  0
VERTEX
  8
0
 10
44.7611
 20
24.8021
  0
VERTEX
  8
0
 10
44.8192
 20
24.7661
  0
VERTEX
  8
0
 10
44.8658
 20
24.7177
  0
VERTEX
  8
0
 10
44.8983
 20
24.6606
  0
VERTEX
  8
0
 10
44.9179
 20
24.5951
  0
VERTEX
  8
0
 10
44.9244
 20
24.5212
  0
VERTEX
  8
0
 10
44.9211
 20
24.4683
  0
VERTEX
  8
0
 10
44.9113
 20
24.4183
  0
VERTEX
  8
0
 10
44.8949
 20
24.3711
  0
VERTEX
  8
0
 10
44.8719
 20
24.3267
  0
VERTEX
  8
0
 10
44.8424
 20
24.2852
  0
VERTEX
  8
0
 10
44.8064
 20
24.2465
  0
VERTEX
  8
0
 10
44.7653
 20
24.2123
  0
VERTEX
  8
0
 10
44.7206
 20
24.1843
  0
VERTEX
  8
0
 10
44.6724
 20
24.1625
  0
VERTEX
  8
0
 10
44.6207
 20
24.1468
  0
VERTEX
  8
0
 10
44.5654
 20
24.1372
  0
VERTEX
  8
0
 10
44.5066
 20
24.1338
  0
VERTEX
  8
0
 10
44.4441
 20
24.1376
  0
VERTEX
  8
0
 10
44.3859
 20
24.1489
  0
VERTEX
  8
0
 10
44.332
 20
24.1677
  0
VERTEX
  8
0
 10
44.2825
 20
24.194
  0
VERTEX
  8
0
 10
44.2372
 20
24.2279
  0
VERTEX
  8
0
 10
44.1977
 20
24.2681
  0
VERTEX
  8
0
 10
44.1654
 20
24.3135
  0
VERTEX
  8
0
 10
44.1405
 20
24.3641
  0
VERTEX
  8
0
 10
44.1228
 20
24.4198
  0
VERTEX
  8
0
 10
44.1124
 20
24.4807
  0
VERTEX
  8
0
 10
44.1124
 20
24.4807
  0
SEQEND
  0
POLYLINE
  8
0
 66
     1
 10
0
 20
0
  0
VERTEX
  8
0
 10
45.0764
 20
24.7654
  0
VERTEX
  8
0
 10
45.0771
 20
24.816
  0
VERTEX
  8
0
 10
45.0792
 20
24.8645
  0
VERTEX
  8
0
 10
45.0827
 20
24.9109
  0
VERTEX
  8
0
 10
45.0876
 20
24.9552
  0
VERTEX
  8
0
 10
45.0939
 20
24.9975
  0
VERTEX
  8
0
 10
45.1016
 20
25.0377
  0
VERTEX
  8
0
 10
45.1107
 20
25.0758
  0
VERTEX
  8
0
 10
45.1212
 20
25.1118
  0
VERTEX
  8
0
 10
45.1331
 20
25.1458
  0
VERTEX
  8
0
 10
45.1464
 20
25.1776
  0
VERTEX
  8
0
 10
45.1611
 20
25.2074
  0
VERTEX
  8
0
 10
45.1772
 20
25.2351
  0
VERTEX
  8
0
 10
45.1947
 20
25.2608
  0
VERTEX
  8
0
 10
45.2136
 20
25.2843
  0
VERTEX
  8
0
 10
45.2339
 20
25.3058
  0
VERTEX
  8
0
 10
45.2556
 20
25.3252
  0
VERTEX
  8
0
 10
45.3026
 20
25.3567
  0
VERTEX
  8
0
 10
45.3557
 20
25.3793
  0
VERTEX
  8
0
 10
45.415
 20
25.393
  0
VERTEX
  8
0
 10
45.4804
 20
25.3978
  0
VERTEX
  8
0
 10
45.5727
 20
25.3881
  0
VERTEX
  8
0
 10
45.6553
 20
25.3573
  0
VERTEX
  8
0
 10
45.6895
 20
25.3362
  0
VERTEX
  8
0
 10
45.7212
 20
25.3104
  0
VERTEX
  8
0
 10
45.7502
 20
25.28
  0
VERTEX
  8
0
 10
45.7766
 20
25.2448
  0
VERTEX
  8
0
 10
45.8005
 20
25.205
  0
VERTEX
  8
0
 10
45.8217
 20
25.1605
  0
VERTEX
  8
0
 10
45.8404
 20
25.1114
  0
VERTEX
  8
0
 10
45.8565
 20
25.0576
  0
VERTEX
  8
0
 10
45.8687
 20
24.9994
  0
VERTEX
  8
0
 10
45.8774
 20
24.9313
  0
VERTEX
  8
0
 10
45.8826
 20
24.8533
  0
VERTEX
  8
0
 10
45.8844
 20
24.7654
  0
VERTEX
  8
0
 10
45.8836
 20
24.7117
  0
VERTEX
  8
0
 10
45.8812
 20
24.6603
  0
VERTEX
  8
0
 10
45.8772
 20
24.6112
  0
VERTEX
  8
0
 10
45.8716
 20
24.5645
  0
VERTEX
  8
0
 10
45.8645
 20
24.5202
  0
VERTEX
  8
0
 10
45.8557
 20
24.4782
  0
VERTEX
  8
0
 10
45.8454
 20
24.4386
  0
VERTEX
  8
0
 10
45.8334
 20
24.4013
  0
VERTEX
  8
0
 10
45.8199
 20
24.3664
  0
VERTEX
  8
0
 10
45.8047
 20
24.3339
  0
VERTEX
  8
0
 10
45.788
 20
24.3037
  0
VERTEX
  8
0
 10
45.7697
 20
24.2759
  0
VERTEX
  8
0
 10
45.7498
 20
24.2504
  0
VERTEX
  8
0
 10
45.7283
 20
24.2272
  0
VERTEX
  8
0
 10
45.7052
 20
24.2065
  0
VERTEX
  8
0
 10
45.6582
 20
24.175
  0
VERTEX
  8
0
 10
45.6051
 20
24.1524
  0
VERTEX
  8
0
 10
45.5458
 20
24.1387
  0
VERTEX
  8
0
 10
45.4804
 20
24.1338
  0
VERTEX
  8
0
 10
45.4589
 20
24.1342
  0
VERTEX
  8
0
 10
45.438
 20
24.1355
  0
VERTEX
  8
0
 10
45.4177
 20
24.1377
  0
VERTEX
  8
0
 10
45.3979
 20
24.1409
  0
VERTEX
  8
0
 10
45.3788
 20
24.145
  0
VERTEX
  8
0
 10
45.3602
 20
24.15
  0
VERTEX
  8
0
 10
45.3423
 20
24.1559
  0
VERTEX
  8
0
 10
45.3249
 20
24.1628
  0
VERTEX
  8
0
 10
45.3081
 20
24.1706
  0
VERTEX
  8
0
 10
45.2919
 20
24.1793
  0
VERTEX
  8
0
 10
45.2762
 20
24.189
  0
VERTEX
  8
0
 10
45.2612
 20
24.1995
  0
VERTEX
  8
0
 10
45.2468
 20
24.211
  0
VERTEX
  8
0
 10
45.2329
 20
24.2235
  0
VERTEX
  8
0
 10
45.2196
 20
24.2368
  0
VERTEX
  8
0
 10
45.207
 20
24.2511
  0
VERTEX
  8
0
 10
45.1949
 20
24.2663
  0
VERTEX
  8
0
 10
45.1834
 20
24.2825
  0
VERTEX
  8
0
 10
45.1724
 20
24.2995
  0
VERTEX
  8
0
 10
45.1621
 20
24.3175
  0
VERTEX
  8
0
 10
45.1524
 20
24.3365
  0
VERTEX
  8
0
 10
45.1432
 20
24.3563
  0
VERTEX
  8
0
 10
45.1346
 20
24.3771
  0
VERTEX
  8
0
 10
45.1267
 20
24.3988
  0
VERTEX
  8
0
 10
45.1193
 20
24.4214
  0
VERTEX
  8
0
 10
45.1125
 20
24.445
  0
VERTEX
  8
0
 10
45.1062
 20
24.4695
  0
VERTEX
  8
0
 10
45.1006
 20
24.4949
  0
VERTEX
  8
0
 10
45.0956
 20
24.5213
  0
VERTEX
  8
0
 10
45.0911
 20
24.5485
  0
VERTEX
  8
0
 10
45.0873
 20
24.5767
  0
VERTEX
  8
0
 10
45.084
 20
24.6059
  0
VERTEX
  8
0
 10
45.0813
 20
24.6359
  0
VERTEX
  8
0
 10
45.0792
 20
24.6669
  0
VERTEX
  8
0
 10
45.0777
 20
24.6988
  0
VERTEX
  8
0
 10
45.0767
 20
24.7316
  0
VERTEX
  8
0
 10
45.0764
 20
24.7654
  0
VERTEX
  8
0
 10
45.0764
 20
24.7654
  0
SEQEND
  0
POLYLINE
  8
0
 66
     1
 10
0
 20
0
  0
VERTEX
  8
0
 10
45.2324
 20
24.7658
  0
VERTEX
  8
0
 10
45.2337
 20
24.6868
  0
VERTEX
  8
0
 10
45.2377
 20
24.6156
  0
VERTEX
  8
0
 10
45.2443
 20
24.5523
  0
VERTEX
  8
0
 10
45.2535
 20
24.4968
  0
VERTEX
  8
0
 10
45.2654
 20
24.4492
  0
VERTEX
  8
0
 10
45.2778
 20
24.413
  0
VERTEX
  8
0
 10
45.2921
 20
24.3806
  0
VERTEX
  8
0
 10
45.3086
 20
24.352
  0
VERTEX
  8
0
 10
45.327
 20
24.3272
  0
VERTEX
  8
0
 10
45.3475
 20
24.3061
  0
VERTEX
  8
0
 10
45.37
 20
24.2889
  0
VERTEX
  8
0
 10
45.3946
 20
24.2754
  0
VERTEX
  8
0
 10
45.4211
 20
24.2658
  0
VERTEX
  8
0
 10
45.4498
 20
24.2599
  0
VERTEX
  8
0
 10
45.4804
 20
24.2578
  0
VERTEX
  8
0
 10
45.4978
 20
24.2584
  0
VERTEX
  8
0
 10
45.5146
 20
24.2602
  0
VERTEX
  8
0
 10
45.5307
 20
24.2634
  0
VERTEX
  8
0
 10
45.5462
 20
24.2678
  0
VERTEX
  8
0
 10
45.5611
 20
24.2736
  0
VERTEX
  8
0
 10
45.5753
 20
24.2806
  0
VERTEX
  8
0
 10
45.5889
 20
24.289
  0
VERTEX
  8
0
 10
45.6019
 20
24.2986
  0
VERTEX
  8
0
 10
45.6142
 20
24.3096
  0
VERTEX
  8
0
 10
45.6259
 20
24.3219
  0
VERTEX
  8
0
 10
45.637
 20
24.3354
  0
VERTEX
  8
0
 10
45.6474
 20
24.3503
  0
VERTEX
  8
0
 10
45.6572
 20
24.3665
  0
VERTEX
  8
0
 10
45.6664
 20
24.384
  0
VERTEX
  8
0
 10
45.6749
 20
24.4028
  0
VERTEX
  8
0
 10
45.6828
 20
24.4229
  0
VERTEX
  8
0
 10
45.6901
 20
24.4443
  0
VERTEX
  8
0
 10
45.6968
 20
24.467
  0
VERTEX
  8
0
 10
45.7028
 20
24.491
  0
VERTEX
  8
0
 10
45.7081
 20
24.5163
  0
VERTEX
  8
0
 10
45.7129
 20
24.543
  0
VERTEX
  8
0
 10
45.717
 20
24.5709
  0
VERTEX
  8
0
 10
45.7205
 20
24.6001
  0
VERTEX
  8
0
 10
45.7233
 20
24.6307
  0
VERTEX
  8
0
 10
45.7255
 20
24.6625
  0
VERTEX
  8
0
 10
45.7271
 20
24.6956
  0
VERTEX
  8
0
 10
45.7281
 20
24.7301
  0
VERTEX
  8
0
 10
45.7284
 20
24.7658
  0
VERTEX
  8
0
 10
45.7271
 20
24.8449
  0
VERTEX
  8
0
 10
45.7231
 20
24.9161
  0
VERTEX
  8
0
 10
45.7165
 20
24.9794
  0
VERTEX
  8
0
 10
45.7073
 20
25.0349
  0
VERTEX
  8
0
 10
45.6954
 20
25.0825
  0
VERTEX
  8
0
 10
45.6829
 20
25.1187
  0
VERTEX
  8
0
 10
45.6683
 20
25.1511
  0
VERTEX
  8
0
 10
45.6517
 20
25.1797
  0
VERTEX
  8
0
 10
45.6331
 20
25.2045
  0
VERTEX
  8
0
 10
45.6124
 20
25.2256
  0
VERTEX
  8
0
 10
45.5898
 20
25.2428
  0
VERTEX
  8
0
 10
45.565
 20
25.2563
  0
VERTEX
  8
0
 10
45.5383
 20
25.2659
  0
VERTEX
  8
0
 10
45.5095
 20
25.2718
  0
VERTEX
  8
0
 10
45.4787
 20
25.2738
  0
VERTEX
  8
0
 10
45.4289
 20
25.2686
  0
VERTEX
  8
0
 10
45.3843
 20
25.2521
  0
VERTEX
  8
0
 10
45.3451
 20
25.2242
  0
VERTEX
  8
0
 10
45.3111
 20
25.185
  0
VERTEX
  8
0
 10
45.2961
 20
25.1607
  0
VERTEX
  8
0
 10
45.2827
 20
25.1324
  0
VERTEX
  8
0
 10
45.2709
 20
25.1003
  0
VERTEX
  8
0
 10
45.2607
 20
25.0642
  0
VERTEX
  8
0
 10
45.2521
 20
25.0243
  0
VERTEX
  8
0
 10
45.245
 20
24.9804
  0
VERTEX
  8
0
 10
45.2395
 20
24.9326
  0
VERTEX
  8
0
 10
45.2355
 20
24.881
  0
VERTEX
  8
0
 10
45.2332
 20
24.8254
  0
VERTEX
  8
0
 10
45.2324
 20
24.7658
  0
VERTEX
  8
0
 10
45.2324
 20
24.7658
  0
SEQEND
  0
LINE
  8
0
 10
46.1859
 20
24.75
 11
60
 21
24.75
  0
LINE
  8
0
 10
59.4633
 20
24.4817
 11
60
 21
24.75
  0
LINE
  8
0
 10
59.4633
 20
25.0183
 11
60
 21
24.75
  0
LINE
  8
0
 10
60
 20
24.45
 11
60
 21
29.7
  0
LINE
  8
0
 10
43.8141
 20
24.75
 11
30
 21
24.75
  0
LINE
  8
0
 10
30.5367
 20
25.0183
 11
30
 21
24.75
  0
LINE
  8
0
 10
30.5367
 20
24.4817
 11
30
 21
24.75
  0
LINE
  8
0
 10
30
 20
24.45
 11
30
 21
29.7
  0
POLYLINE
  8
0
 66
     1
 10
0
 20
0
  0
VERTEX
  8
0
 10
30.4564
 20
22.1578
  0
VERTEX
  8
0
 10
30.3044
 20
22.1578
  0
VERTEX
  8
0
 10
30.3044
 20
23.1302
  0
VERTEX
  8
0
 10
30.2173
 20
23.0592
  0
VERTEX
  8
0
 10
30.116
 20
22.9981
  0
VERTEX
  8
0
 10
30.0004
 20
22.947
  0
VERTEX
  8
0
 10
30.0004
 20
23.0943
  0
VERTEX
  8
0
 10
30.0572
 20
23.1227
  0
VERTEX
  8
0
 10
30.1097
 20
23.1527
  0
VERTEX
  8
0
 10
30.158
 20
23.1842
  0
VERTEX
  8
0
 10
30.202
 20
23.2173
  0
VERTEX
  8
0
 10
30.2418
 20
23.2519
  0
VERTEX
  8
0
 10
30.2774
 20
23.2881
  0
VERTEX
  8
0
 10
30.3086
 20
23.3258
  0
VERTEX
  8
0
 10
30.3357
 20
23.365
  0
VERTEX
  8
0
 10
30.3585
 20
23.4058
  0
VERTEX
  8
0
 10
30.4564
 20
23.4058
  0
VERTEX
  8
0
 10
30.4564
 20
22.1578
  0
SEQEND
  0
POLYLINE
  8
0
 66
     1
 10
0
 20
0
  0
VERTEX
  8
0
 10
30.9244
 20
22.1578
  0
VERTEX
  8
0
 10
30.9244
 20
22.3338
  0
VERTEX
  8
0
 10
31.0964
 20
22.3338
  0
VERTEX
  8
0
 10
31.0964
 20
22.1578
  0
VERTEX
  8
0
 10
30.9244
 20
22.1578
  0
SEQEND
  0
POLYLINE
  8
0
 66
     1
 10
0
 20
0
  0
VERTEX
  8
0
 10
31.3204
 20
22.4861
  0
VERTEX
  8
0
 10
31.4801
 20
22.4995
  0
VERTEX
  8
0
 10
31.486
 20
22.4673
  0
VERTEX
  8
0
 10
31.4936
 20
22.4375
  0
VERTEX
  8
0
 10
31.503
 20
22.4101
  0
VERTEX
  8
0
 10
31.514
 20
22.3851
  0
VERTEX
  8
0
 10
31.5268
 20
22.3624
  0
VERTEX
  8
0
 10
31.5412
 20
22.3422
  0
VERTEX
  8
0
 10
31.5574
 20
22.3243
  0
VERTEX
  8
0
 10
31.5753
 20
22.3088
  0
VERTEX
  8
0
 10
31.5949
 20
22.2957
  0
VERTEX
  8
0
 10
31.6162
 20
22.2849
  0
VERTEX
  8
0
 10
31.6392
 20
22.2766
  0
VERTEX
  8
0
 10
31.6639
 20
22.2706
  0
VERTEX
  8
0
 10
31.6903
 20
22.267
  0
VERTEX
  8
0
 10
31.7184
 20
22.2658
  0
VERTEX
  8
0
 10
31.7651
 20
22.2695
  0
VERTEX
  8
0
 10
31.8079
 20
22.2806
  0
VERTEX
  8
0
 10
31.8468
 20
22.2991
  0
VERTEX
  8
0
 10
31.8817
 20
22.325
  0
VERTEX
  8
0
 10
31.9128
 20
22.3583
  0
VERTEX
  8
0
 10
31.9503
 20
22.4188
  0
VERTEX
  8
0
 10
31.9729
 20
22.4883
  0
VERTEX
  8
0
 10
31.9804
 20
22.5668
  0
VERTEX
  8
0
 10
31.976
 20
22.626
  0
VERTEX
  8
0
 10
31.9628
 20
22.6793
  0
VERTEX
  8
0
 10
31.9409
 20
22.7267
  0
VERTEX
  8
0
 10
31.9102
 20
22.7681
  0
VERTEX
  8
0
 10
31.8718
 20
22.8018
  0
VERTEX
  8
0
 10
31.8266
 20
22.826
  0
VERTEX
  8
0
 10
31.7746
 20
22.8407
  0
VERTEX
  8
0
 10
31.7159
 20
22.8458
  0
VERTEX
  8
0
 10
31.6692
 20
22.8428
  0
VERTEX
  8
0
 10
31.6262
 20
22.8332
  0
VERTEX
  8
0
 10
31.5868
 20
22.8169
  0
VERTEX
  8
0
 10
31.551
 20
22.794
  0
VERTEX
  8
0
 10
31.5188
 20
22.7645
  0
VERTEX
  8
0
 10
31.4902
 20
22.7283
  0
VERTEX
  8
0
 10
31.3474
 20
22.7468
  0
VERTEX
  8
0
 10
31.4673
 20
23.3818
  0
VERTEX
  8
0
 10
32.0827
 20
23.3818
  0
VERTEX
  8
0
 10
32.0827
 20
23.2378
  0
VERTEX
  8
0
 10
31.5908
 20
23.2378
  0
VERTEX
  8
0
 10
31.5237
 20
22.9044
  0
VERTEX
  8
0
 10
31.599
 20
22.9471
  0
VERTEX
  8
0
 10
31.6766
 20
22.9729
  0
VERTEX
  8
0
 10
31.7568
 20
22.9818
  0
VERTEX
  8
0
 10
31.8112
 20
22.9789
  0
VERTEX
  8
0
 10
31.8624
 20
22.9693
  0
VERTEX
  8
0
 10
31.9103
 20
22.9532
  0
VERTEX
  8
0
 10
31.9549
 20
22.9306
  0
VERTEX
  8
0
 10
31.9963
 20
22.9014
  0
VERTEX
  8
0
 10
32.0344
 20
22.8656
  0
VERTEX
  8
0
 10
32.0668
 20
22.8261
  0
VERTEX
  8
0
 10
32.0933
 20
22.7835
  0
VERTEX
  8
0
 10
32.1139
 20
22.7377
  0
VERTEX
  8
0
 10
32.1286
 20
22.6888
  0
VERTEX
  8
0
 10
32.1374
 20
22.6368
  0
VERTEX
  8
0
 10
32.1404
 20
22.5817
  0
VERTEX
  8
0
 10
32.1365
 20
22.5167
  0
VERTEX
  8
0
 10
32.1247
 20
22.4552
  0
VERTEX
  8
0
 10
32.1052
 20
22.3973
  0
VERTEX
  8
0
 10
32.0777
 20
22.3428
  0
VERTEX
  8
0
 10
32.0425
 20
22.2918
  0
VERTEX
  8
0
 10
32.0114
 20
22.2569
  0
VERTEX
  8
0
 10
31.9776
 20
22.2265
  0
VERTEX
  8
0
 10
31.9411
 20
22.2008
  0
VERTEX
  8
0
 10
31.9019
 20
22.1798
  0
VERTEX
  8
0
 10
31.8599
 20
22.1633
  0
VERTEX
  8
0
 10
31.8152
 20
22.1515
  0
VERTEX
  8
0
 10
31.7679
 20
22.1444
  0
VERTEX
  8
0
 10
31.7178
 20
22.1418
  0
VERTEX
  8
0
 10
31.6542
 20
22.1455
  0
VERTEX
  8
0
 10
31.5953
 20
22.1563
  0
VERTEX
  8
0
 10
31.541
 20
22.1743
  0
VERTEX
  8
0
 10
31.4912
 20
22.1995
  0
VERTEX
  8
0
 10
31.4461
 20
22.2319
  0
VERTEX
  8
0
 10
31.4059
 20
22.2717
  0
VERTEX
  8
0
 10
31.3733
 20
22.317
  0
VERTEX
  8
0
 10
31.3482
 20
22.3678
  0
VERTEX
  8
0
 10
31.3305
 20
22.4242
  0
VERTEX
  8
0
 10
31.3204
 20
22.4861
  0
VERTEX
  8
0
 10
31.3204
 20
22.4861
  0
SEQEND
  0
POLYLINE
  8
0
 66
     1
 10
0
 20
0
  0
VERTEX
  8
0
 10
32.2884
 20
22.7734
  0
VERTEX
  8
0
 10
32.2891
 20
22.824
  0
VERTEX
  8
0
 10
32.2912
 20
22.8725
  0
VERTEX
  8
0
 10
32.2947
 20
22.9189
  0
VERTEX
  8
0
 10
32.2996
 20
22.9632
  0
VERTEX
  8
0
 10
32.3059
 20
23.0055
  0
VERTEX
  8
0
 10
32.3136
 20
23.0457
  0
VERTEX
  8
0
 10
32.3227
 20
23.0838
  0
VERTEX
  8
0
 10
32.3332
 20
23.1198
  0
VERTEX
  8
0
 10
32.3451
 20
23.1538
  0
VERTEX
  8
0
 10
32.3584
 20
23.1856
  0
VERTEX
  8
0
 10
32.3731
 20
23.2154
  0
VERTEX
  8
0
 10
32.3892
 20
23.2431
  0
VERTEX
  8
0
 10
32.4067
 20
23.2688
  0
VERTEX
  8
0
 10
32.4256
 20
23.2923
  0
VERTEX
  8
0
 10
32.4459
 20
23.3138
  0
VERTEX
  8
0
 10
32.4676
 20
23.3332
  0
VERTEX
  8
0
 10
32.5146
 20
23.3647
  0
VERTEX
  8
0
 10
32.5677
 20
23.3873
  0
VERTEX
  8
0
 10
32.627
 20
23.401
  0
VERTEX
  8
0
 10
32.6924
 20
23.4058
  0
VERTEX
  8
0
 10
32.7847
 20
23.3961
  0
VERTEX
  8
0
 10
32.8673
 20
23.3653
  0
VERTEX
  8
0
 10
32.9015
 20
23.3442
  0
VERTEX
  8
0
 10
32.9332
 20
23.3184
  0
VERTEX
  8
0
 10
32.9622
 20
23.288
  0
VERTEX
  8
0
 10
32.9886
 20
23.2528
  0
VERTEX
  8
0
 10
33.0125
 20
23.213
  0
VERTEX
  8
0
 10
33.0337
 20
23.1685
  0
VERTEX
  8
0
 10
33.0524
 20
23.1194
  0
VERTEX
  8
0
 10
33.0685
 20
23.0656
  0
VERTEX
  8
0
 10
33.0807
 20
23.0074
  0
VERTEX
  8
0
 10
33.0894
 20
22.9393
  0
VERTEX
  8
0
 10
33.0946
 20
22.8613
  0
VERTEX
  8
0
 10
33.0964
 20
22.7734
  0
VERTEX
  8
0
 10
33.0956
 20
22.7197
  0
VERTEX
  8
0
 10
33.0932
 20
22.6683
  0
VERTEX
  8
0
 10
33.0892
 20
22.6192
  0
VERTEX
  8
0
 10
33.0836
 20
22.5725
  0
VERTEX
  8
0
 10
33.0765
 20
22.5282
  0
VERTEX
  8
0
 10
33.0677
 20
22.4862
  0
VERTEX
  8
0
 10
33.0574
 20
22.4466
  0
VERTEX
  8
0
 10
33.0454
 20
22.4093
  0
VERTEX
  8
0
 10
33.0319
 20
22.3744
  0
VERTEX
  8
0
 10
33.0167
 20
22.3419
  0
VERTEX
  8
0
 10
33
 20
22.3117
  0
VERTEX
  8
0
 10
32.9817
 20
22.2839
  0
VERTEX
  8
0
 10
32.9618
 20
22.2584
  0
VERTEX
  8
0
 10
32.9403
 20
22.2352
  0
VERTEX
  8
0
 10
32.9172
 20
22.2145
  0
VERTEX
  8
0
 10
32.8702
 20
22.183
  0
VERTEX
  8
0
 10
32.8171
 20
22.1604
  0
VERTEX
  8
0
 10
32.7578
 20
22.1467
  0
VERTEX
  8
0
 10
32.6924
 20
22.1418
  0
VERTEX
  8
0
 10
32.6709
 20
22.1422
  0
VERTEX
  8
0
 10
32.65
 20
22.1435
  0
VERTEX
  8
0
 10
32.6297
 20
22.1457
  0
VERTEX
  8
0
 10
32.6099
 20
22.1489
  0
VERTEX
  8
0
 10
32.5908
 20
22.153
  0
VERTEX
  8
0
 10
32.5722
 20
22.158
  0
VERTEX
  8
0
 10
32.5543
 20
22.1639
  0
VERTEX
  8
0
 10
32.5369
 20
22.1708
  0
VERTEX
  8
0
 10
32.5201
 20
22.1786
  0
VERTEX
  8
0
 10
32.5039
 20
22.1873
  0
VERTEX
  8
0
 10
32.4882
 20
22.197
  0
VERTEX
  8
0
 10
32.4732
 20
22.2075
  0
VERTEX
  8
0
 10
32.4588
 20
22.219
  0
VERTEX
  8
0
 10
32.4449
 20
22.2315
  0
VERTEX
  8
0
 10
32.4316
 20
22.2448
  0
VERTEX
  8
0
 10
32.419
 20
22.2591
  0
VERTEX
  8
0
 10
32.4069
 20
22.2743
  0
VERTEX
  8
0
 10
32.3954
 20
22.2905
  0
VERTEX
  8
0
 10
32.3844
 20
22.3075
  0
VERTEX
  8
0
 10
32.3741
 20
22.3255
  0
VERTEX
  8
0
 10
32.3644
 20
22.3445
  0
VERTEX
  8
0
 10
32.3552
 20
22.3643
  0
VERTEX
  8
0
 10
32.3466
 20
22.3851
  0
VERTEX
  8
0
 10
32.3387
 20
22.4068
  0
VERTEX
  8
0
 10
32.3313
 20
22.4294
  0
VERTEX
  8
0
 10
32.3245
 20
22.453
  0
VERTEX
  8
0
 10
32.3182
 20
22.4775
  0
VERTEX
  8
0
 10
32.3126
 20
22.5029
  0
VERTEX
  8
0
 10
32.3076
 20
22.5293
  0
VERTEX
  8
0
 10
32.3031
 20
22.5565
  0
VERTEX
  8
0
 10
32.2993
 20
22.5847
  0
VERTEX
  8
0
 10
32.296
 20
22.6139
  0
VERTEX
  8
0
 10
32.2933
 20
22.6439
  0
VERTEX
  8
0
 10
32.2912
 20
22.6749
  0
VERTEX
  8
0
 10
32.2897
 20
22.7068
  0
VERTEX
  8
0
 10
32.2887
 20
22.7396
  0
VERTEX
  8
0
 10
32.2884
 20
22.7734
  0
VERTEX
  8
0
 10
32.2884
 20
22.7734
  0
SEQEND
  0
POLYLINE
  8
0
 66
     1
 10
0
 20
0
  0
VERTEX
  8
0
 10
32.4444
 20
22.7738
  0
VERTEX
  8
0
 10
32.4457
 20
22.6948
  0
VERTEX
  8
0
 10
32.4497
 20
22.6236
  0
VERTEX
  8
0
 10
32.4563
 20
22.5603
  0
VERTEX
  8
0
 10
32.4655
 20
22.5048
  0
VERTEX
  8
0
 10
32.4774
 20
22.4572
  0
VERTEX
  8
0
 10
32.4898
 20
22.421
  0
VERTEX
  8
0
 10
32.5041
 20
22.3886
  0
VERTEX
  8
0
 10
32.5206
 20
22.36
  0
VERTEX
  8
0
 10
32.539
 20
22.3352
  0
VERTEX
  8
0
 10
32.5595
 20
22.3141
  0
VERTEX
  8
0
 10
32.582
 20
22.2969
  0
VERTEX
  8
0
 10
32.6066
 20
22.2834
  0
VERTEX
  8
0
 10
32.6331
 20
22.2738
  0
VERTEX
  8
0
 10
32.6618
 20
22.2679
  0
VERTEX
  8
0
 10
32.6924
 20
22.2658
  0
VERTEX
  8
0
 10
32.7098
 20
22.2664
  0
VERTEX
  8
0
 10
32.7266
 20
22.2682
  0
VERTEX
  8
0
 10
32.7427
 20
22.2714
  0
VERTEX
  8
0
 10
32.7582
 20
22.2758
  0
VERTEX
  8
0
 10
32.7731
 20
22.2816
  0
VERTEX
  8
0
 10
32.7873
 20
22.2886
  0
VERTEX
  8
0
 10
32.8009
 20
22.297
  0
VERTEX
  8
0
 10
32.8139
 20
22.3066
  0
VERTEX
  8
0
 10
32.8262
 20
22.3176
  0
VERTEX
  8
0
 10
32.8379
 20
22.3299
  0
VERTEX
  8
0
 10
32.849
 20
22.3434
  0
VERTEX
  8
0
 10
32.8594
 20
22.3583
  0
VERTEX
  8
0
 10
32.8692
 20
22.3745
  0
VERTEX
  8
0
 10
32.8784
 20
22.392
  0
VERTEX
  8
0
 10
32.8869
 20
22.4108
  0
VERTEX
  8
0
 10
32.8948
 20
22.4309
  0
VERTEX
  8
0
 10
32.9021
 20
22.4523
  0
VERTEX
  8
0
 10
32.9088
 20
22.475
  0
VERTEX
  8
0
 10
32.9148
 20
22.499
  0
VERTEX
  8
0
 10
32.9201
 20
22.5243
  0
VERTEX
  8
0
 10
32.9249
 20
22.551
  0
VERTEX
  8
0
 10
32.929
 20
22.5789
  0
VERTEX
  8
0
 10
32.9325
 20
22.6081
  0
VERTEX
  8
0
 10
32.9353
 20
22.6387
  0
VERTEX
  8
0
 10
32.9375
 20
22.6705
  0
VERTEX
  8
0
 10
32.9391
 20
22.7036
  0
VERTEX
  8
0
 10
32.9401
 20
22.7381
  0
VERTEX
  8
0
 10
32.9404
 20
22.7738
  0
VERTEX
  8
0
 10
32.9391
 20
22.8529
  0
VERTEX
  8
0
 10
32.9351
 20
22.9241
  0
VERTEX
  8
0
 10
32.9285
 20
22.9874
  0
VERTEX
  8
0
 10
32.9193
 20
23.0429
  0
VERTEX
  8
0
 10
32.9074
 20
23.0905
  0
VERTEX
  8
0
 10
32.8949
 20
23.1267
  0
VERTEX
  8
0
 10
32.8803
 20
23.1591
  0
VERTEX
  8
0
 10
32.8637
 20
23.1877
  0
VERTEX
  8
0
 10
32.8451
 20
23.2125
  0
VERTEX
  8
0
 10
32.8244
 20
23.2336
  0
VERTEX
  8
0
 10
32.8018
 20
23.2508
  0
VERTEX
  8
0
 10
32.777
 20
23.2643
  0
VERTEX
  8
0
 10
32.7503
 20
23.2739
  0
VERTEX
  8
0
 10
32.7215
 20
23.2798
  0
VERTEX
  8
0
 10
32.6907
 20
23.2818
  0
VERTEX
  8
0
 10
32.6409
 20
23.2766
  0
VERTEX
  8
0
 10
32.5963
 20
23.2601
  0
VERTEX
  8
0
 10
32.5571
 20
23.2322
  0
VERTEX
  8
0
 10
32.5231
 20
23.193
  0
VERTEX
  8
0
 10
32.5081
 20
23.1687
  0
VERTEX
  8
0
 10
32.4947
 20
23.1404
  0
VERTEX
  8
0
 10
32.4829
 20
23.1083
  0
VERTEX
  8
0
 10
32.4727
 20
23.0722
  0
VERTEX
  8
0
 10
32.4641
 20
23.0323
  0
VERTEX
  8
0
 10
32.457
 20
22.9884
  0
VERTEX
  8
0
 10
32.4515
 20
22.9406
  0
VERTEX
  8
0
 10
32.4475
 20
22.889
  0
VERTEX
  8
0
 10
32.4452
 20
22.8334
  0
VERTEX
  8
0
 10
32.4444
 20
22.7738
  0
VERTEX
  8
0
 10
32.4444
 20
22.7738
  0
SEQEND
  0
POLYLINE
  8
0
 66
     1
 10
0
 20
0
  0
VERTEX
  8
0
 10
33.2983
 20
22.9618
  0
VERTEX
  8
0
 10
33.2564
 20
23.1962
  0
VERTEX
  8
0
 10
33.2564
 20
23.3978
  0
VERTEX
  8
0
 10
33.4284
 20
23.3978
  0
VERTEX
  8
0
 10
33.4284
 20
23.1962
  0
VERTEX
  8
0
 10
33.3906
 20
22.9618
  0
VERTEX
  8
0
 10
33.2983
 20
22.9618
  0
SEQEND
  0
POLYLINE
  8
0
 66
     1
 10
0
 20
0
  0
VERTEX
  8
0
 10
33.5775
 20
22.9618
  0
VERTEX
  8
0
 10
33.5364
 20
23.1962
  0
VERTEX
  8
0
 10
33.5364
 20
23.3978
  0
VERTEX
  8
0
 10
33.7084
 20
23.3978
  0
VERTEX
  8
0
 10
33.7084
 20
23.1962
  0
VERTEX
  8
0
 10
33.6681
 20
22.9618
  0
VERTEX
  8
0
 10
33.5775
 20
22.9618
  0
SEQEND
  0
POLYLINE
  8
0
 66
     1
 10
0
 20
0
  0
VERTEX
  8
0
 10
34.7244
 20
22.1578
  0
VERTEX
  8
0
 10
34.7244
 20
23.3978
  0
VERTEX
  8
0
 10
35.2723
 20
23.3978
  0
VERTEX
  8
0
 10
35.3595
 20
23.3953
  0
VERTEX
  8
0
 10
35.4323
 20
23.3877
  0
VERTEX
  8
0
 10
35.4907
 20
23.375
  0
VERTEX
  8
0
 10
35.5437
 20
23.3543
  0
VERTEX
  8
0
 10
35.5897
 20
23.326
  0
VERTEX
  8
0
 10
35.6288
 20
23.29
  0
VERTEX
  8
0
 10
35.661
 20
23.2465
  0
VERTEX
  8
0
 10
35.6991
 20
23.1579
  0
VERTEX
  8
0
 10
35.7124
 20
23.0595
  0
VERTEX
  8
0
 10
35.7118
 20
23.0327
  0
VERTEX
  8
0
 10
35.7095
 20
23.0069
  0
VERTEX
  8
0
 10
35.7057
 20
22.9822
  0
VERTEX
  8
0
 10
35.7003
 20
22.9586
  0
VERTEX
  8
0
 10
35.6933
 20
22.9361
  0
VERTEX
  8
0
 10
35.6847
 20
22.9146
  0
VERTEX
  8
0
 10
35.6746
 20
22.8942
  0
VERTEX
  8
0
 10
35.6628
 20
22.8749
  0
VERTEX
  8
0
 10
35.6494
 20
22.8567
  0
VERTEX
  8
0
 10
35.6345
 20
22.8395
  0
VERTEX
  8
0
 10
35.618
 20
22.8234
  0
VERTEX
  8
0
 10
35.5998
 20
22.8085
  0
VERTEX
  8
0
 10
35.5801
 20
22.7945
  0
VERTEX
  8
0
 10
35.5588
 20
22.7817
  0
VERTEX
  8
0
 10
35.5359
 20
22.7699
  0
VERTEX
  8
0
 10
35.5114
 20
22.7593
  0
VERTEX
  8
0
 10
35.4853
 20
22.7497
  0
VERTEX
  8
0
 10
35.4577
 20
22.7411
  0
VERTEX
  8
0
 10
35.4284
 20
22.7337
  0
VERTEX
  8
0
 10
35.3976
 20
22.7273
  0
VERTEX
  8
0
 10
35.3651
 20
22.722
  0
VERTEX
  8
0
 10
35.4228
 20
22.6909
  0
VERTEX
  8
0
 10
35.4639
 20
22.6603
  0
VERTEX
  8
0
 10
35.5354
 20
22.584
  0
VERTEX
  8
0
 10
35.5998
 20
22.4953
  0
VERTEX
  8
0
 10
35.8151
 20
22.1578
  0
VERTEX
  8
0
 10
35.6118
 20
22.1578
  0
VERTEX
  8
0
 10
35.4462
 20
22.4199
  0
VERTEX
  8
0
 10
35.3951
 20
22.4987
  0
VERTEX
  8
0
 10
35.355
 20
22.5567
  0
VERTEX
  8
0
 10
35.2951
 20
22.6299
  0
VERTEX
  8
0
 10
35.2442
 20
22.6748
  0
VERTEX
  8
0
 10
35.207
 20
22.6954
  0
VERTEX
  8
0
 10
35.1698
 20
22.7079
  0
VERTEX
  8
0
 10
35.1339
 20
22.7124
  0
VERTEX
  8
0
 10
35.0786
 20
22.7138
  0
VERTEX
  8
0
 10
34.8884
 20
22.7138
  0
VERTEX
  8
0
 10
34.8884
 20
22.1578
  0
VERTEX
  8
0
 10
34.7244
 20
22.1578
  0
SEQEND
  0
POLYLINE
  8
0
 66
     1
 10
0
 20
0
  0
VERTEX
  8
0
 10
34.8884
 20
22.8538
  0
VERTEX
  8
0
 10
35.24
 20
22.8538
  0
VERTEX
  8
0
 10
35.29
 20
22.8554
  0
VERTEX
  8
0
 10
35.3354
 20
22.8599
  0
VERTEX
  8
0
 10
35.3762
 20
22.8675
  0
VERTEX
  8
0
 10
35.4125
 20
22.878
  0
VERTEX
  8
0
 10
35.4441
 20
22.8916
  0
VERTEX
  8
0
 10
35.4712
 20
22.9083
  0
VERTEX
  8
0
 10
35.4936
 20
22.9279
  0
VERTEX
  8
0
 10
35.5115
 20
22.9506
  0
VERTEX
  8
0
 10
35.5362
 20
23.004
  0
VERTEX
  8
0
 10
35.5444
 20
23.0617
  0
VERTEX
  8
0
 10
35.5392
 20
23.1112
  0
VERTEX
  8
0
 10
35.5235
 20
23.154
  0
VERTEX
  8
0
 10
35.4974
 20
23.1899
  0
VERTEX
  8
0
 10
35.4609
 20
23.219
  0
VERTEX
  8
0
 10
35.4104
 20
23.2428
  0
VERTEX
  8
0
 10
35.35
 20
23.2571
  0
VERTEX
  8
0
 10
35.2796
 20
23.2618
  0
VERTEX
  8
0
 10
34.8884
 20
23.2618
  0
VERTEX
  8
0
 10
34.8884
 20
22.8538
  0
SEQEND
  0
POLYLINE
  8
0
 66
     1
 10
0
 20
0
  0
VERTEX
  8
0
 10
36.5409
 20
22.2724
  0
VERTEX
  8
0
 10
36.4893
 20
22.2327
  0
VERTEX
  8
0
 10
36.4363
 20
22.2002
  0
VERTEX
  8
0
 10
36.382
 20
22.1749
  0
VERTEX
  8
0
 10
36.3263
 20
22.1567
  0
VERTEX
  8
0
 10
36.2692
 20
22.1457
  0
VERTEX
  8
0
 10
36.2108
 20
22.1418
  0
VERTEX
  8
0
 10
36.1285
 20
22.1482
  0
VERTEX
  8
0
 10
36.057
 20
22.1685
  0
VERTEX
  8
0
 10
35.9964
 20
22.2027
  0
VERTEX
  8
0
 10
35.9635
 20
22.2324
  0
VERTEX
  8
0
 10
35.9379
 20
22.2669
  0
VERTEX
  8
0
 10
35.9195
 20
22.3061
  0
VERTEX
  8
0
 10
35.9083
 20
22.35
  0
VERTEX
  8
0
 10
35.9044
 20
22.3987
  0
VERTEX
  8
0
 10
35.9071
 20
22.4411
  0
VERTEX
  8
0
 10
35.916
 20
22.4804
  0
VERTEX
  8
0
 10
35.9309
 20
22.5166
  0
VERTEX
  8
0
 10
35.952
 20
22.5497
  0
VERTEX
  8
0
 10
35.9791
 20
22.5797
  0
VERTEX
  8
0
 10
36.0123
 20
22.6066
  0
VERTEX
  8
0
 10
36.0629
 20
22.6355
  0
VERTEX
  8
0
 10
36.122
 20
22.6564
  0
VERTEX
  8
0
 10
36.1772
 20
22.668
  0
VERTEX
  8
0
 10
36.2569
 20
22.6792
  0
VERTEX
  8
0
 10
36.3282
 20
22.6886
  0
VERTEX
  8
0
 10
36.3909
 20
22.6986
  0
VERTEX
  8
0
 10
36.445
 20
22.709
  0
VERTEX
  8
0
 10
36.4906
 20
22.72
  0
VERTEX
  8
0
 10
36.5276
 20
22.7316
  0
VERTEX
  8
0
 10
36.5278
 20
22.758
  0
VERTEX
  8
0
 10
36.5284
 20
22.7713
  0
VERTEX
  8
0
 10
36.5236
 20
22.8272
  0
VERTEX
  8
0
 10
36.5093
 20
22.8708
  0
VERTEX
  8
0
 10
36.4854
 20
22.9023
  0
VERTEX
  8
0
 10
36.4407
 20
22.9305
  0
VERTEX
  8
0
 10
36.3831
 20
22.9477
  0
VERTEX
  8
0
 10
36.3125
 20
22.9538
  0
VERTEX
  8
0
 10
36.2496
 20
22.9503
  0
VERTEX
  8
0
 10
36.1982
 20
22.9384
  0
VERTEX
  8
0
 10
36.1582
 20
22.9182
  0
VERTEX
  8
0
 10
36.1254
 20
22.8861
  0
VERTEX
  8
0
 10
36.099
 20
22.8408
  0
VERTEX
  8
0
 10
36.079
 20
22.7823
  0
VERTEX
  8
0
 10
35.9305
 20
22.8025
  0
VERTEX
  8
0
 10
35.9423
 20
22.8467
  0
VERTEX
  8
0
 10
35.9579
 20
22.8869
  0
VERTEX
  8
0
 10
35.9773
 20
22.9232
  0
VERTEX
  8
0
 10
36.0005
 20
22.9556
  0
VERTEX
  8
0
 10
36.0274
 20
22.984
  0
VERTEX
  8
0
 10
36.0582
 20
23.0085
  0
VERTEX
  8
0
 10
36.0927
 20
23.0292
  0
VERTEX
  8
0
 10
36.131
 20
23.0458
  0
VERTEX
  8
0
 10
36.2243
 20
23.0694
  0
VERTEX
  8
0
 10
36.3341
 20
23.0778
  0
VERTEX
  8
0
 10
36.3849
 20
23.0765
  0
VERTEX
  8
0
 10
36.4316
 20
23.0722
  0
VERTEX
  8
0
 10
36.4742
 20
23.0648
  0
VERTEX
  8
0
 10
36.5127
 20
23.0543
  0
VERTEX
  8
0
 10
36.5471
 20
23.0409
  0
VERTEX
  8
0
 10
36.5774
 20
23.0243
  0
VERTEX
  8
0
 10
36.6036
 20
23.0047
  0
VERTEX
  8
0
 10
36.6256
 20
22.9821
  0
VERTEX
  8
0
 10
36.6538
 20
22.9364
  0
VERTEX
  8
0
 10
36.6728
 20
22.8788
  0
VERTEX
  8
0
 10
36.677
 20
22.8481
  0
VERTEX
  8
0
 10
36.6795
 20
22.8012
  0
VERTEX
  8
0
 10
36.6804
 20
22.7382
  0
VERTEX
  8
0
 10
36.6804
 20
22.5348
  0
VERTEX
  8
0
 10
36.6804
 20
22.4918
  0
VERTEX
  8
0
 10
36.6804
 20
22.4542
  0
VERTEX
  8
0
 10
36.6805
 20
22.4219
  0
VERTEX
  8
0
 10
36.6806
 20
22.3951
  0
VERTEX
  8
0
 10
36.6807
 20
22.3736
  0
VERTEX
  8
0
 10
36.6809
 20
22.3576
  0
VERTEX
  8
0
 10
36.6811
 20
22.3469
  0
VERTEX
  8
0
 10
36.6813
 20
22.3417
  0
VERTEX
  8
0
 10
36.6969
 20
22.2398
  0
VERTEX
  8
0
 10
36.73
 20
22.1578
  0
VERTEX
  8
0
 10
36.5713
 20
22.1578
  0
VERTEX
  8
0
 10
36.5523
 20
22.211
  0
VERTEX
  8
0
 10
36.5409
 20
22.2724
  0
VERTEX
  8
0
 10
36.5409
 20
22.2724
  0
SEQEND
  0
POLYLINE
  8
0
 66
     1
 10
0
 20
0
  0
VERTEX
  8
0
 10
36.5284
 20
22.6118
  0
VERTEX
  8
0
 10
36.482
 20
22.5959
  0
VERTEX
  8
0
 10
36.4254
 20
22.5811
  0
VERTEX
  8
0
 10
36.3584
 20
22.5673
  0
VERTEX
  8
0
 10
36.2811
 20
22.5546
  0
VERTEX
  8
0
 10
36.2164
 20
22.5441
  0
VERTEX
  8
0
 10
36.1752
 20
22.5344
  0
VERTEX
  8
0
 10
36.1239
 20
22.5098
  0
VERTEX
  8
0
 10
36.0894
 20
22.4747
  0
VERTEX
  8
0
 10
36.074
 20
22.4412
  0
VERTEX
  8
0
 10
36.0684
 20
22.4032
  0
VERTEX
  8
0
 10
36.0743
 20
22.3592
  0
VERTEX
  8
0
 10
36.093
 20
22.3228
  0
VERTEX
  8
0
 10
36.1247
 20
22.2938
  0
VERTEX
  8
0
 10
36.18
 20
22.2698
  0
VERTEX
  8
0
 10
36.2483
 20
22.2618
  0
VERTEX
  8
0
 10
36.2885
 20
22.2636
  0
VERTEX
  8
0
 10
36.3258
 20
22.2689
  0
VERTEX
  8
0
 10
36.3601
 20
22.2777
  0
VERTEX
  8
0
 10
36.3915
 20
22.2901
  0
VERTEX
  8
0
 10
36.4199
 20
22.306
  0
VERTEX
  8
0
 10
36.4453
 20
22.3254
  0
VERTEX
  8
0
 10
36.4678
 20
22.3484
  0
VERTEX
  8
0
 10
36.4874
 20
22.3748
  0
VERTEX
  8
0
 10
36.504
 20
22.4048
  0
VERTEX
  8
0
 10
36.5223
 20
22.4684
  0
VERTEX
  8
0
 10
36.5284
 20
22.5563
  0
VERTEX
  8
0
 10
36.5284
 20
22.6118
  0
SEQEND
  0
POLYLINE
  8
0
 66
     1
 10
0
 20
0
  0
VERTEX
  8
0
 10
37.5004
 20
22.1578
  0
VERTEX
  8
0
 10
37.5004
 20
22.275
  0
VERTEX
  8
0
 10
37.4748
 20
22.2399
  0
VERTEX
  8
0
 10
37.4459
 20
22.2101
  0
VERTEX
  8
0
 10
37.4136
 20
22.1857
  0
VERTEX
  8
0
 10
37.3781
 20
22.1667
  0
VERTEX
  8
0
 10
37.3392
 20
22.153
  0
VERTEX
  8
0
 10
37.297
 20
22.1448
  0
VERTEX
  8
0
 10
37.2515
 20
22.1418
  0
VERTEX
  8
0
 10
37.1805
 20
22.1483
  0
VERTEX
  8
0
 10
37.114
 20
22.1688
  0
VERTEX
  8
0
 10
37.052
 20
22.2034
  0
VERTEX
  8
0
 10
36.9741
 20
22.274
  0
VERTEX
  8
0
 10
36.9166
 20
22.3662
  0
VERTEX
  8
0
 10
36.8808
 20
22.4783
  0
VERTEX
  8
0
 10
36.8684
 20
22.609
  0
VERTEX
  8
0
 10
36.8694
 20
22.6565
  0
VERTEX
  8
0
 10
36.8729
 20
22.7015
  0
VERTEX
  8
0
 10
36.8789
 20
22.7441
  0
VERTEX
  8
0
 10
36.8875
 20
22.7843
  0
VERTEX
  8
0
 10
36.8985
 20
22.8221
  0
VERTEX
  8
0
 10
36.9121
 20
22.8576
  0
VERTEX
  8
0
 10
36.9282
 20
22.8906
  0
VERTEX
  8
0
 10
36.9469
 20
22.9212
  0
VERTEX
  8
0
 10
36.9681
 20
22.9494
  0
VERTEX
  8
0
 10
36.9917
 20
22.9752
  0
VERTEX
  8
0
 10
37.018
 20
22.9986
  0
VERTEX
  8
0
 10
37.0467
 20
23.0197
  0
VERTEX
  8
0
 10
37.1081
 20
23.052
  0
VERTEX
  8
0
 10
37.1745
 20
23.0714
  0
VERTEX
  8
0
 10
37.246
 20
23.0778
  0
VERTEX
  8
0
 10
37.2896
 20
23.0754
  0
VERTEX
  8
0
 10
37.3303
 20
23.0679
  0
VERTEX
  8
0
 10
37.3683
 20
23.0554
  0
VERTEX
  8
0
 10
37.4035
 20
23.0379
  0
VERTEX
  8
0
 10
37.4359
 20
23.0154
  0
VERTEX
  8
0
 10
37.4655
 20
22.9879
  0
VERTEX
  8
0
 10
37.4924
 20
22.9554
  0
VERTEX
  8
0
 10
37.4924
 20
23.3978
  0
VERTEX
  8
0
 10
37.6444
 20
23.3978
  0
VERTEX
  8
0
 10
37.6444
 20
22.1578
  0
VERTEX
  8
0
 10
37.5004
 20
22.1578
  0
SEQEND
  0
POLYLINE
  8
0
 66
     1
 10
0
 20
0
  0
VERTEX
  8
0
 10
37.0244
 20
22.6094
  0
VERTEX
  8
0
 10
37.0303
 20
22.5234
  0
VERTEX
  8
0
 10
37.048
 20
22.4469
  0
VERTEX
  8
0
 10
37.0776
 20
22.3801
  0
VERTEX
  8
0
 10
37.101
 20
22.3454
  0
VERTEX
  8
0
 10
37.1277
 20
22.317
  0
VERTEX
  8
0
 10
37.1578
 20
22.2948
  0
VERTEX
  8
0
 10
37.1913
 20
22.2789
  0
VERTEX
  8
0
 10
37.2282
 20
22.2693
  0
VERTEX
  8
0
 10
37.2685
 20
22.2658
  0
VERTEX
  8
0
 10
37.3081
 20
22.2686
  0
VERTEX
  8
0
 10
37.3445
 20
22.2775
  0
VERTEX
  8
0
 10
37.3774
 20
22.2925
  0
VERTEX
  8
0
 10
37.407
 20
22.3136
  0
VERTEX
  8
0
 10
37.4331
 20
22.3408
  0
VERTEX
  8
0
 10
37.456
 20
22.3742
  0
VERTEX
  8
0
 10
37.4846
 20
22.4388
  0
VERTEX
  8
0
 10
37.5017
 20
22.5129
  0
VERTEX
  8
0
 10
37.5075
 20
22.5967
  0
VERTEX
  8
0
 10
37.5019
 20
22.6875
  0
VERTEX
  8
0
 10
37.4853
 20
22.7667
  0
VERTEX
  8
0
 10
37.4576
 20
22.8345
  0
VERTEX
  8
0
 10
37.4344
 20
22.871
  0
VERTEX
  8
0
 10
37.4073
 20
22.9008
  0
VERTEX
  8
0
 10
37.3766
 20
22.924
  0
VERTEX
  8
0
 10
37.342
 20
22.9406
  0
VERTEX
  8
0
 10
37.3037
 20
22.9505
  0
VERTEX
  8
0
 10
37.2617
 20
22.9538
  0
VERTEX
  8
0
 10
37.2208
 20
22.9507
  0
VERTEX
  8
0
 10
37.1836
 20
22.9412
  0
VERTEX
  8
0
 10
37.1502
 20
22.9253
  0
VERTEX
  8
0
 10
37.1206
 20
22.9031
  0
VERTEX
  8
0
 10
37.0947
 20
22.8745
  0
VERTEX
  8
0
 10
37.0725
 20
22.8396
  0
VERTEX
  8
0
 10
37.0458
 20
22.7742
  0
VERTEX
  8
0
 10
37.0297
 20
22.6974
  0
VERTEX
  8
0
 10
37.0244
 20
22.6094
  0
VERTEX
  8
0
 10
37.0244
 20
22.6094
  0
SEQEND
  0
POLYLINE
  8
0
 66
     1
 10
0
 20
0
  0
VERTEX
  8
0
 10
37.8804
 20
23.2218
  0
VERTEX
  8
0
 10
37.8804
 20
23.3978
  0
VERTEX
  8
0
 10
38.0324
 20
23.3978
  0
VERTEX
  8
0
 10
38.0324
 20
23.2218
  0
VERTEX
  8
0
 10
37.8804
 20
23.2218
  0
SEQEND
  0
POLYLINE
  8
0
 66
     1
 10
0
 20
0
  0
VERTEX
  8
0
 10
37.8804
 20
22.1578
  0
VERTEX
  8
0
 10
37.8804
 20
23.0584
  0
VERTEX
  8
0
 10
38.0324
 20
23.0584
  0
VERTEX
  8
0
 10
38.0324
 20
22.1578
  0
VERTEX
  8
0
 10
37.8804
 20
22.1578
  0
SEQEND
  0
POLYLINE
  8
0
 66
     1
 10
0
 20
0
  0
VERTEX
  8
0
 10
38.8524
 20
22.1578
  0
VERTEX
  8
0
 10
38.8524
 20
22.2935
  0
VERTEX
  8
0
 10
38.8252
 20
22.258
  0
VERTEX
  8
0
 10
38.7956
 20
22.2272
  0
VERTEX
  8
0
 10
38.7636
 20
22.2011
  0
VERTEX
  8
0
 10
38.7291
 20
22.1798
  0
VERTEX
  8
0
 10
38.6923
 20
22.1632
  0
VERTEX
  8
0
 10
38.6531
 20
22.1513
  0
VERTEX
  8
0
 10
38.6114
 20
22.1442
  0
VERTEX
  8
0
 10
38.5674
 20
22.1418
  0
VERTEX
  8
0
 10
38.4974
 20
22.1484
  0
VERTEX
  8
0
 10
38.4295
 20
22.168
  0
VERTEX
  8
0
 10
38.3636
 20
22.2023
  0
VERTEX
  8
0
 10
38.3162
 20
22.2481
  0
VERTEX
  8
0
 10
38.2885
 20
22.2983
  0
VERTEX
  8
0
 10
38.2697
 20
22.3612
  0
VERTEX
  8
0
 10
38.2627
 20
22.4194
  0
VERTEX
  8
0
 10
38.2604
 20
22.5028
  0
VERTEX
  8
0
 10
38.2604
 20
23.0578
  0
VERTEX
  8
0
 10
38.4124
 20
23.0578
  0
VERTEX
  8
0
 10
38.4124
 20
22.5618
  0
VERTEX
  8
0
 10
38.413
 20
22.5064
  0
VERTEX
  8
0
 10
38.4147
 20
22.4612
  0
VERTEX
  8
0
 10
38.4176
 20
22.4264
  0
VERTEX
  8
0
 10
38.4217
 20
22.4018
  0
VERTEX
  8
0
 10
38.4311
 20
22.3722
  0
VERTEX
  8
0
 10
38.4441
 20
22.3465
  0
VERTEX
  8
0
 10
38.4607
 20
22.3246
  0
VERTEX
  8
0
 10
38.4809
 20
22.3067
  0
VERTEX
  8
0
 10
38.5047
 20
22.2926
  0
VERTEX
  8
0
 10
38.5321
 20
22.2825
  0
VERTEX
  8
0
 10
38.5631
 20
22.2762
  0
VERTEX
  8
0
 10
38.5977
 20
22.2738
  0
VERTEX
  8
0
 10
38.664
 20
22.282
  0
VERTEX
  8
0
 10
38.726
 20
22.308
  0
VERTEX
  8
0
 10
38.7771
 20
22.3493
  0
VERTEX
  8
0
 10
38.811
 20
22.4035
  0
VERTEX
  8
0
 10
38.83
 20
22.4776
  0
VERTEX
  8
0
 10
38.8364
 20
22.5787
  0
VERTEX
  8
0
 10
38.8364
 20
23.0578
  0
VERTEX
  8
0
 10
38.9884
 20
23.0578
  0
VERTEX
  8
0
 10
38.9884
 20
22.1578
  0
VERTEX
  8
0
 10
38.8524
 20
22.1578
  0
SEQEND
  0
POLYLINE
  8
0
 66
     1
 10
0
 20
0
  0
VERTEX
  8
0
 10
39.1684
 20
22.4295
  0
VERTEX
  8
0
 10
39.3186
 20
22.4531
  0
VERTEX
  8
0
 10
39.3242
 20
22.4232
  0
VERTEX
  8
0
 10
39.3323
 20
22.3959
  0
VERTEX
  8
0
 10
39.3429
 20
22.3712
  0
VERTEX
  8
0
 10
39.356
 20
22.3491
  0
VERTEX
  8
0
 10
39.3716
 20
22.3296
  0
VERTEX
  8
0
 10
39.3896
 20
22.3127
  0
VERTEX
  8
0
 10
39.4102
 20
22.2984
  0
VERTEX
  8
0
 10
39.4333
 20
22.2867
  0
VERTEX
  8
0
 10
39.4589
 20
22.2776
  0
VERTEX
  8
0
 10
39.4869
 20
22.2711
  0
VERTEX
  8
0
 10
39.5175
 20
22.2671
  0
VERTEX
  8
0
 10
39.5506
 20
22.2658
  0
VERTEX
  8
0
 10
39.6252
 20
22.2734
  0
VERTEX
  8
0
 10
39.6872
 20
22.2962
  0
VERTEX
  8
0
 10
39.7256
 20
22.3252
  0
VERTEX
  8
0
 10
39.7487
 20
22.3626
  0
VERTEX
  8
0
 10
39.7564
 20
22.4085
  0
VERTEX
  8
0
 10
39.7452
 20
22.4545
  0
VERTEX
  8
0
 10
39.7116
 20
22.4895
  0
VERTEX
  8
0
 10
39.6904
 20
22.5003
  0
VERTEX
  8
0
 10
39.6575
 20
22.5125
  0
VERTEX
  8
0
 10
39.6127
 20
22.5261
  0
VERTEX
  8
0
 10
39.556
 20
22.541
  0
VERTEX
  8
0
 10
39.503
 20
22.5544
  0
VERTEX
  8
0
 10
39.4583
 20
22.5661
  0
VERTEX
  8
0
 10
39.422
 20
22.5763
  0
VERTEX
  8
0
 10
39.3939
 20
22.5848
  0
VERTEX
  8
0
 10
39.3742
 20
22.5917
  0
VERTEX
  8
0
 10
39.3099
 20
22.6216
  0
VERTEX
  8
0
 10
39.2603
 20
22.6573
  0
VERTEX
  8
0
 10
39.2254
 20
22.6988
  0
VERTEX
  8
0
 10
39.2006
 20
22.7556
  0
VERTEX
  8
0
 10
39.1924
 20
22.8195
  0
VERTEX
  8
0
 10
39.1965
 20
22.8663
  0
VERTEX
  8
0
 10
39.2088
 20
22.9092
  0
VERTEX
  8
0
 10
39.2292
 20
22.9484
  0
VERTEX
  8
0
 10
39.2579
 20
22.9838
  0
VERTEX
  8
0
 10
39.2948
 20
23.0154
  0
VERTEX
  8
0
 10
39.3407
 20
23.0424
  0
VERTEX
  8
0
 10
39.3941
 20
23.0618
  0
VERTEX
  8
0
 10
39.4549
 20
23.0736
  0
VERTEX
  8
0
 10
39.5231
 20
23.0778
  0
VERTEX
  8
0
 10
39.621
 20
23.0707
  0
VERTEX
  8
0
 10
39.7083
 20
23.0475
  0
VERTEX
  8
0
 10
39.7779
 20
23.0113
  0
VERTEX
  8
0
 10
39.8276
 20
22.9634
  0
VERTEX
  8
0
 10
39.8587
 20
22.9049
  0
VERTEX
  8
0
 10
39.8792
 20
22.827
  0
VERTEX
  8
0
 10
39.7295
 20
22.8068
  0
VERTEX
  8
0
 10
39.7235
 20
22.8346
  0
VERTEX
  8
0
 10
39.7145
 20
22.8595
  0
VERTEX
  8
0
 10
39.7024
 20
22.8815
  0
VERTEX
  8
0
 10
39.6873
 20
22.9005
  0
VERTEX
  8
0
 10
39.669
 20
22.9167
  0
VERTEX
  8
0
 10
39.6478
 20
22.9299
  0
VERTEX
  8
0
 10
39.6234
 20
22.9403
  0
VERTEX
  8
0
 10
39.5961
 20
22.9477
  0
VERTEX
  8
0
 10
39.5656
 20
22.9522
  0
VERTEX
  8
0
 10
39.5321
 20
22.9538
  0
VERTEX
  8
0
 10
39.4984
 20
22.953
  0
VERTEX
  8
0
 10
39.4679
 20
22.9503
  0
VERTEX
  8
0
 10
39.4406
 20
22.9456
  0
VERTEX
  8
0
 10
39.4164
 20
22.9389
  0
VERTEX
  8
0
 10
39.3954
 20
22.9304
  0
VERTEX
  8
0
 10
39.3777
 20
22.9199
  0
VERTEX
  8
0
 10
39.363
 20
22.9074
  0
VERTEX
  8
0
 10
39.3516
 20
22.893
  0
VERTEX
  8
0
 10
39.3434
 20
22.8767
  0
VERTEX
  8
0
 10
39.3383
 20
22.8584
  0
VERTEX
  8
0
 10
39.3364
 20
22.8382
  0
VERTEX
  8
0
 10
39.3407
 20
22.8109
  0
VERTEX
  8
0
 10
39.3551
 20
22.7846
  0
VERTEX
  8
0
 10
39.3795
 20
22.7617
  0
VERTEX
  8
0
 10
39.4137
 20
22.7445
  0
VERTEX
  8
0
 10
39.4251
 20
22.7405
  0
VERTEX
  8
0
 10
39.4443
 20
22.7347
  0
VERTEX
  8
0
 10
39.4713
 20
22.7269
  0
VERTEX
  8
0
 10
39.5061
 20
22.7172
  0
VERTEX
  8
0
 10
39.5488
 20
22.7057
  0
VERTEX
  8
0
 10
39.6103
 20
22.6885
  0
VERTEX
  8
0
 10
39.6636
 20
22.6729
  0
VERTEX
  8
0
 10
39.7088
 20
22.6587
  0
VERTEX
  8
0
 10
39.7459
 20
22.646
  0
VERTEX
  8
0
 10
39.7748
 20
22.6348
  0
VERTEX
  8
0
 10
39.8068
 20
22.619
  0
VERTEX
  8
0
 10
39.8346
 20
22.6002
  0
VERTEX
  8
0
 10
39.8582
 20
22.5785
  0
VERTEX
  8
0
 10
39.8775
 20
22.5538
  0
VERTEX
  8
0
 10
39.8926
 20
22.5261
  0
VERTEX
  8
0
 10
39.9035
 20
22.4955
  0
VERTEX
  8
0
 10
39.91
 20
22.462
  0
VERTEX
  8
0
 10
39.9124
 20
22.4255
  0
VERTEX
  8
0
 10
39.9017
 20
22.352
  0
VERTEX
  8
0
 10
39.8677
 20
22.282
  0
VERTEX
  8
0
 10
39.8456
 20
22.2527
  0
VERTEX
  8
0
 10
39.8203
 20
22.2269
  0
VERTEX
  8
0
 10
39.7917
 20
22.2045
  0
VERTEX
  8
0
 10
39.7598
 20
22.1855
  0
VERTEX
  8
0
 10
39.7247
 20
22.17
  0
VERTEX
  8
0
 10
39.6862
 20
22.1578
  0
VERTEX
  8
0
 10
39.6445
 20
22.1491
  0
VERTEX
  8
0
 10
39.5996
 20
22.1438
  0
VERTEX
  8
0
 10
39.5513
 20
22.1418
  0
VERTEX
  8
0
 10
39.5189
 20
22.1424
  0
VERTEX
  8
0
 10
39.4878
 20
22.1444
  0
VERTEX
  8
0
 10
39.4582
 20
22.1479
  0
VERTEX
  8
0
 10
39.4299
 20
22.1528
  0
VERTEX
  8
0
 10
39.4031
 20
22.1592
  0
VERTEX
  8
0
 10
39.3776
 20
22.167
  0
VERTEX
  8
0
 10
39.3536
 20
22.1763
  0
VERTEX
  8
0
 10
39.3309
 20
22.1871
  0
VERTEX
  8
0
 10
39.3097
 20
22.1993
  0
VERTEX
  8
0
 10
39.2898
 20
22.2129
  0
VERTEX
  8
0
 10
39.2714
 20
22.228
  0
VERTEX
  8
0
 10
39.2543
 20
22.2446
  0
VERTEX
  8
0
 10
39.2387
 20
22.2626
  0
VERTEX
  8
0
 10
39.2245
 20
22.2821
  0
VERTEX
  8
0
 10
39.2116
 20
22.303
  0
VERTEX
  8
0
 10
39.2002
 20
22.3254
  0
VERTEX
  8
0
 10
39.1901
 20
22.3492
  0
VERTEX
  8
0
 10
39.1815
 20
22.3745
  0
VERTEX
  8
0
 10
39.1742
 20
22.4013
  0
VERTEX
  8
0
 10
39.1684
 20
22.4295
  0
VERTEX
  8
0
 10
39.1684
 20
22.4295
  0
SEQEND
  0
POLYLINE
  8
0
 66
     1
 10
0
 20
0
  0
VERTEX
  8
0
 10
40.1404
 20
22.1578
  0
VERTEX
  8
0
 10
40.1404
 20
22.3338
  0
VERTEX
  8
0
 10
40.3124
 20
22.3338
  0
VERTEX
  8
0
 10
40.3124
 20
22.1615
  0
VERTEX
  8
0
 10
40.3106
 20
22.1227
  0
VERTEX
  8
0
 10
40.3054
 20
22.0868
  0
VERTEX
  8
0
 10
40.2967
 20
22.0538
  0
VERTEX
  8
0
 10
40.2844
 20
22.0238
  0
VERTEX
  8
0
 10
40.2687
 20
21.9967
  0
VERTEX
  8
0
 10
40.2494
 20
21.9726
  0
VERTEX
  8
0
 10
40.2267
 20
21.9514
  0
VERTEX
  8
0
 10
40.2005
 20
21.9331
  0
VERTEX
  8
0
 10
40.1708
 20
21.9178
  0
VERTEX
  8
0
 10
40.1284
 20
21.9816
  0
VERTEX
  8
0
 10
40.1566
 20
21.9971
  0
VERTEX
  8
0
 10
40.18
 20
22.0181
  0
VERTEX
  8
0
 10
40.1985
 20
22.0447
  0
VERTEX
  8
0
 10
40.2121
 20
22.0768
  0
VERTEX
  8
0
 10
40.2208
 20
22.1146
  0
VERTEX
  8
0
 10
40.2246
 20
22.1578
  0
VERTEX
  8
0
 10
40.1404
 20
22.1578
  0
SEQEND
  0
POLYLINE
  8
0
 66
     1
 10
0
 20
0
  0
VERTEX
  8
0
 10
41.3404
 20
22.7734
  0
VERTEX
  8
0
 10
41.3411
 20
22.824
  0
VERTEX
  8
0
 10
41.3432
 20
22.8725
  0
VERTEX
  8
0
 10
41.3467
 20
22.9189
  0
VERTEX
  8
0
 10
41.3516
 20
22.9632
  0
VERTEX
  8
0
 10
41.3579
 20
23.0055
  0
VERTEX
  8
0
 10
41.3656
 20
23.0457
  0
VERTEX
  8
0
 10
41.3747
 20
23.0838
  0
VERTEX
  8
0
 10
41.3852
 20
23.1198
  0
VERTEX
  8
0
 10
41.3971
 20
23.1538
  0
VERTEX
  8
0
 10
41.4104
 20
23.1856
  0
VERTEX
  8
0
 10
41.4251
 20
23.2154
  0
VERTEX
  8
0
 10
41.4412
 20
23.2431
  0
VERTEX
  8
0
 10
41.4587
 20
23.2688
  0
VERTEX
  8
0
 10
41.4776
 20
23.2923
  0
VERTEX
  8
0
 10
41.4979
 20
23.3138
  0
VERTEX
  8
0
 10
41.5196
 20
23.3332
  0
VERTEX
  8
0
 10
41.5666
 20
23.3647
  0
VERTEX
  8
0
 10
41.6197
 20
23.3873
  0
VERTEX
  8
0
 10
41.679
 20
23.401
  0
VERTEX
  8
0
 10
41.7444
 20
23.4058
  0
VERTEX
  8
0
 10
41.8367
 20
23.3961
  0
VERTEX
  8
0
 10
41.9193
 20
23.3653
  0
VERTEX
  8
0
 10
41.9535
 20
23.3442
  0
VERTEX
  8
0
 10
41.9852
 20
23.3184
  0
VERTEX
  8
0
 10
42.0142
 20
23.288
  0
VERTEX
  8
0
 10
42.0406
 20
23.2528
  0
VERTEX
  8
0
 10
42.0645
 20
23.213
  0
VERTEX
  8
0
 10
42.0857
 20
23.1685
  0
VERTEX
  8
0
 10
42.1044
 20
23.1194
  0
VERTEX
  8
0
 10
42.1205
 20
23.0656
  0
VERTEX
  8
0
 10
42.1327
 20
23.0074
  0
VERTEX
  8
0
 10
42.1414
 20
22.9393
  0
VERTEX
  8
0
 10
42.1466
 20
22.8613
  0
VERTEX
  8
0
 10
42.1484
 20
22.7734
  0
VERTEX
  8
0
 10
42.1476
 20
22.7197
  0
VERTEX
  8
0
 10
42.1452
 20
22.6683
  0
VERTEX
  8
0
 10
42.1412
 20
22.6192
  0
VERTEX
  8
0
 10
42.1356
 20
22.5725
  0
VERTEX
  8
0
 10
42.1285
 20
22.5282
  0
VERTEX
  8
0
 10
42.1197
 20
22.4862
  0
VERTEX
  8
0
 10
42.1094
 20
22.4466
  0
VERTEX
  8
0
 10
42.0974
 20
22.4093
  0
VERTEX
  8
0
 10
42.0839
 20
22.3744
  0
VERTEX
  8
0
 10
42.0687
 20
22.3419
  0
VERTEX
  8
0
 10
42.052
 20
22.3117
  0
VERTEX
  8
0
 10
42.0337
 20
22.2839
  0
VERTEX
  8
0
 10
42.0138
 20
22.2584
  0
VERTEX
  8
0
 10
41.9923
 20
22.2352
  0
VERTEX
  8
0
 10
41.9692
 20
22.2145
  0
VERTEX
  8
0
 10
41.9222
 20
22.183
  0
VERTEX
  8
0
 10
41.8691
 20
22.1604
  0
VERTEX
  8
0
 10
41.8098
 20
22.1467
  0
VERTEX
  8
0
 10
41.7444
 20
22.1418
  0
VERTEX
  8
0
 10
41.7229
 20
22.1422
  0
VERTEX
  8
0
 10
41.702
 20
22.1435
  0
VERTEX
  8
0
 10
41.6817
 20
22.1457
  0
VERTEX
  8
0
 10
41.6619
 20
22.1489
  0
VERTEX
  8
0
 10
41.6428
 20
22.153
  0
VERTEX
  8
0
 10
41.6242
 20
22.158
  0
VERTEX
  8
0
 10
41.6063
 20
22.1639
  0
VERTEX
  8
0
 10
41.5889
 20
22.1708
  0
VERTEX
  8
0
 10
41.5721
 20
22.1786
  0
VERTEX
  8
0
 10
41.5559
 20
22.1873
  0
VERTEX
  8
0
 10
41.5402
 20
22.197
  0
VERTEX
  8
0
 10
41.5252
 20
22.2075
  0
VERTEX
  8
0
 10
41.5108
 20
22.219
  0
VERTEX
  8
0
 10
41.4969
 20
22.2315
  0
VERTEX
  8
0
 10
41.4836
 20
22.2448
  0
VERTEX
  8
0
 10
41.471
 20
22.2591
  0
VERTEX
  8
0
 10
41.4589
 20
22.2743
  0
VERTEX
  8
0
 10
41.4474
 20
22.2905
  0
VERTEX
  8
0
 10
41.4364
 20
22.3075
  0
VERTEX
  8
0
 10
41.4261
 20
22.3255
  0
VERTEX
  8
0
 10
41.4164
 20
22.3445
  0
VERTEX
  8
0
 10
41.4072
 20
22.3643
  0
VERTEX
  8
0
 10
41.3986
 20
22.3851
  0
VERTEX
  8
0
 10
41.3907
 20
22.4068
  0
VERTEX
  8
0
 10
41.3833
 20
22.4294
  0
VERTEX
  8
0
 10
41.3765
 20
22.453
  0
VERTEX
  8
0
 10
41.3702
 20
22.4775
  0
VERTEX
  8
0
 10
41.3646
 20
22.5029
  0
VERTEX
  8
0
 10
41.3596
 20
22.5293
  0
VERTEX
  8
0
 10
41.3551
 20
22.5565
  0
VERTEX
  8
0
 10
41.3513
 20
22.5847
  0
VERTEX
  8
0
 10
41.348
 20
22.6139
  0
VERTEX
  8
0
 10
41.3453
 20
22.6439
  0
VERTEX
  8
0
 10
41.3432
 20
22.6749
  0
VERTEX
  8
0
 10
41.3417
 20
22.7068
  0
VERTEX
  8
0
 10
41.3407
 20
22.7396
  0
VERTEX
  8
0
 10
41.3404
 20
22.7734
  0
VERTEX
  8
0
 10
41.3404
 20
22.7734
  0
SEQEND
  0
POLYLINE
  8
0
 66
     1
 10
0
 20
0
  0
VERTEX
  8
0
 10
41.4964
 20
22.7738
  0
VERTEX
  8
0
 10
41.4977
 20
22.6948
  0
VERTEX
  8
0
 10
41.5017
 20
22.6236
  0
VERTEX
  8
0
 10
41.5083
 20
22.5603
  0
VERTEX
  8
0
 10
41.5175
 20
22.5048
  0
VERTEX
  8
0
 10
41.5294
 20
22.4572
  0
VERTEX
  8
0
 10
41.5418
 20
22.421
  0
VERTEX
  8
0
 10
41.5561
 20
22.3886
  0
VERTEX
  8
0
 10
41.5726
 20
22.36
  0
VERTEX
  8
0
 10
41.591
 20
22.3352
  0
VERTEX
  8
0
 10
41.6115
 20
22.3141
  0
VERTEX
  8
0
 10
41.634
 20
22.2969
  0
VERTEX
  8
0
 10
41.6586
 20
22.2834
  0
VERTEX
  8
0
 10
41.6851
 20
22.2738
  0
VERTEX
  8
0
 10
41.7138
 20
22.2679
  0
VERTEX
  8
0
 10
41.7444
 20
22.2658
  0
VERTEX
  8
0
 10
41.7618
 20
22.2664
  0
VERTEX
  8
0
 10
41.7786
 20
22.2682
  0
VERTEX
  8
0
 10
41.7947
 20
22.2714
  0
VERTEX
  8
0
 10
41.8102
 20
22.2758
  0
VERTEX
  8
0
 10
41.8251
 20
22.2816
  0
VERTEX
  8
0
 10
41.8393
 20
22.2886
  0
VERTEX
  8
0
 10
41.8529
 20
22.297
  0
VERTEX
  8
0
 10
41.8659
 20
22.3066
  0
VERTEX
  8
0
 10
41.8782
 20
22.3176
  0
VERTEX
  8
0
 10
41.8899
 20
22.3299
  0
VERTEX
  8
0
 10
41.901
 20
22.3434
  0
VERTEX
  8
0
 10
41.9114
 20
22.3583
  0
VERTEX
  8
0
 10
41.9212
 20
22.3745
  0
VERTEX
  8
0
 10
41.9304
 20
22.392
  0
VERTEX
  8
0
 10
41.9389
 20
22.4108
  0
VERTEX
  8
0
 10
41.9468
 20
22.4309
  0
VERTEX
  8
0
 10
41.9541
 20
22.4523
  0
VERTEX
  8
0
 10
41.9608
 20
22.475
  0
VERTEX
  8
0
 10
41.9668
 20
22.499
  0
VERTEX
  8
0
 10
41.9721
 20
22.5243
  0
VERTEX
  8
0
 10
41.9769
 20
22.551
  0
VERTEX
  8
0
 10
41.981
 20
22.5789
  0
VERTEX
  8
0
 10
41.9845
 20
22.6081
  0
VERTEX
  8
0
 10
41.9873
 20
22.6387
  0
VERTEX
  8
0
 10
41.9895
 20
22.6705
  0
VERTEX
  8
0
 10
41.9911
 20
22.7036
  0
VERTEX
  8
0
 10
41.9921
 20
22.7381
  0
VERTEX
  8
0
 10
41.9924
 20
22.7738
  0
VERTEX
  8
0
 10
41.9911
 20
22.8529
  0
VERTEX
  8
0
 10
41.9871
 20
22.9241
  0
VERTEX
  8
0
 10
41.9805
 20
22.9874
  0
VERTEX
  8
0
 10
41.9713
 20
23.0429
  0
VERTEX
  8
0
 10
41.9594
 20
23.0905
  0
VERTEX
  8
0
 10
41.9469
 20
23.1267
  0
VERTEX
  8
0
 10
41.9323
 20
23.1591
  0
VERTEX
  8
0
 10
41.9157
 20
23.1877
  0
VERTEX
  8
0
 10
41.8971
 20
23.2125
  0
VERTEX
  8
0
 10
41.8764
 20
23.2336
  0
VERTEX
  8
0
 10
41.8538
 20
23.2508
  0
VERTEX
  8
0
 10
41.829
 20
23.2643
  0
VERTEX
  8
0
 10
41.8023
 20
23.2739
  0
VERTEX
  8
0
 10
41.7735
 20
23.2798
  0
VERTEX
  8
0
 10
41.7427
 20
23.2818
  0
VERTEX
  8
0
 10
41.6929
 20
23.2766
  0
VERTEX
  8
0
 10
41.6483
 20
23.2601
  0
VERTEX
  8
0
 10
41.6091
 20
23.2322
  0
VERTEX
  8
0
 10
41.5751
 20
23.193
  0
VERTEX
  8
0
 10
41.5601
 20
23.1687
  0
VERTEX
  8
0
 10
41.5467
 20
23.1404
  0
VERTEX
  8
0
 10
41.5349
 20
23.1083
  0
VERTEX
  8
0
 10
41.5247
 20
23.0722
  0
VERTEX
  8
0
 10
41.5161
 20
23.0323
  0
VERTEX
  8
0
 10
41.509
 20
22.9884
  0
VERTEX
  8
0
 10
41.5035
 20
22.9406
  0
VERTEX
  8
0
 10
41.4995
 20
22.889
  0
VERTEX
  8
0
 10
41.4972
 20
22.8334
  0
VERTEX
  8
0
 10
41.4964
 20
22.7738
  0
VERTEX
  8
0
 10
41.4964
 20
22.7738
  0
SEQEND
  0
POLYLINE
  8
0
 66
     1
 10
0
 20
0
  0
VERTEX
  8
0
 10
42.3844
 20
22.1578
  0
VERTEX
  8
0
 10
42.3844
 20
22.3338
  0
VERTEX
  8
0
 10
42.5564
 20
22.3338
  0
VERTEX
  8
0
 10
42.5564
 20
22.1578
  0
VERTEX
  8
0
 10
42.3844
 20
22.1578
  0
SEQEND
  0
POLYLINE
  8
0
 66
     1
 10
0
 20
0
  0
VERTEX
  8
0
 10
42.7924
 20
23.2338
  0
VERTEX
  8
0
 10
42.7924
 20
23.3818
  0
VERTEX
  8
0
 10
43.5936
 20
23.3818
  0
VERTEX
  8
0
 10
43.5936
 20
23.2634
  0
VERTEX
  8
0
 10
43.5346
 20
23.1952
  0
VERTEX
  8
0
 10
43.4758
 20
23.1167
  0
VERTEX
  8
0
 10
43.4172
 20
23.0278
  0
VERTEX
  8
0
 10
43.3589
 20
22.9285
  0
VERTEX
  8
0
 10
43.258
 20
22.7208
  0
VERTEX
  8
0
 10
43.1799
 20
22.4987
  0
VERTEX
  8
0
 10
43.1425
 20
22.3353
  0
VERTEX
  8
0
 10
43.1216
 20
22.1578
  0
VERTEX
  8
0
 10
42.9655
 20
22.1578
  0
VERTEX
  8
0
 10
42.9744
 20
22.2782
  0
VERTEX
  8
0
 10
42.9966
 20
22.4071
  0
VERTEX
  8
0
 10
43.0321
 20
22.5447
  0
VERTEX
  8
0
 10
43.0978
 20
22.7338
  0
VERTEX
  8
0
 10
43.1799
 20
22.9095
  0
VERTEX
  8
0
 10
43.25
 20
23.0315
  0
VERTEX
  8
0
 10
43.3229
 20
23.1396
  0
VERTEX
  8
0
 10
43.3986
 20
23.2338
  0
VERTEX
  8
0
 10
42.7924
 20
23.2338
  0
SEQEND
  0
POLYLINE
  8
0
 66
     1
 10
0
 20
0
  0
VERTEX
  8
0
 10
43.7404
 20
22.4861
  0
VERTEX
  8
0
 10
43.9001
 20
22.4995
  0
VERTEX
  8
0
 10
43.906
 20
22.4673
  0
VERTEX
  8
0
 10
43.9136
 20
22.4375
  0
VERTEX
  8
0
 10
43.923
 20
22.4101
  0
VERTEX
  8
0
 10
43.934
 20
22.3851
  0
VERTEX
  8
0
 10
43.9468
 20
22.3624
  0
VERTEX
  8
0
 10
43.9612
 20
22.3422
  0
VERTEX
  8
0
 10
43.9774
 20
22.3243
  0
VERTEX
  8
0
 10
43.9953
 20
22.3088
  0
VERTEX
  8
0
 10
44.0149
 20
22.2957
  0
VERTEX
  8
0
 10
44.0362
 20
22.2849
  0
VERTEX
  8
0
 10
44.0592
 20
22.2766
  0
VERTEX
  8
0
 10
44.0839
 20
22.2706
  0
VERTEX
  8
0
 10
44.1103
 20
22.267
  0
VERTEX
  8
0
 10
44.1384
 20
22.2658
  0
VERTEX
  8
0
 10
44.1851
 20
22.2695
  0
VERTEX
  8
0
 10
44.2279
 20
22.2806
  0
VERTEX
  8
0
 10
44.2668
 20
22.2991
  0
VERTEX
  8
0
 10
44.3017
 20
22.325
  0
VERTEX
  8
0
 10
44.3328
 20
22.3583
  0
VERTEX
  8
0
 10
44.3703
 20
22.4188
  0
VERTEX
  8
0
 10
44.3929
 20
22.4883
  0
VERTEX
  8
0
 10
44.4004
 20
22.5668
  0
VERTEX
  8
0
 10
44.396
 20
22.626
  0
VERTEX
  8
0
 10
44.3828
 20
22.6793
  0
VERTEX
  8
0
 10
44.3609
 20
22.7267
  0
VERTEX
  8
0
 10
44.3302
 20
22.7681
  0
VERTEX
  8
0
 10
44.2918
 20
22.8018
  0
VERTEX
  8
0
 10
44.2466
 20
22.826
  0
VERTEX
  8
0
 10
44.1946
 20
22.8407
  0
VERTEX
  8
0
 10
44.1359
 20
22.8458
  0
VERTEX
  8
0
 10
44.0892
 20
22.8428
  0
VERTEX
  8
0
 10
44.0462
 20
22.8332
  0
VERTEX
  8
0
 10
44.0068
 20
22.8169
  0
VERTEX
  8
0
 10
43.971
 20
22.794
  0
VERTEX
  8
0
 10
43.9388
 20
22.7645
  0
VERTEX
  8
0
 10
43.9102
 20
22.7283
  0
VERTEX
  8
0
 10
43.7674
 20
22.7468
  0
VERTEX
  8
0
 10
43.8873
 20
23.3818
  0
VERTEX
  8
0
 10
44.5027
 20
23.3818
  0
VERTEX
  8
0
 10
44.5027
 20
23.2378
  0
VERTEX
  8
0
 10
44.0108
 20
23.2378
  0
VERTEX
  8
0
 10
43.9437
 20
22.9044
  0
VERTEX
  8
0
 10
44.019
 20
22.9471
  0
VERTEX
  8
0
 10
44.0966
 20
22.9729
  0
VERTEX
  8
0
 10
44.1768
 20
22.9818
  0
VERTEX
  8
0
 10
44.2312
 20
22.9789
  0
VERTEX
  8
0
 10
44.2824
 20
22.9693
  0
VERTEX
  8
0
 10
44.3303
 20
22.9532
  0
VERTEX
  8
0
 10
44.3749
 20
22.9306
  0
VERTEX
  8
0
 10
44.4163
 20
22.9014
  0
VERTEX
  8
0
 10
44.4544
 20
22.8656
  0
VERTEX
  8
0
 10
44.4868
 20
22.8261
  0
VERTEX
  8
0
 10
44.5133
 20
22.7835
  0
VERTEX
  8
0
 10
44.5339
 20
22.7377
  0
VERTEX
  8
0
 10
44.5486
 20
22.6888
  0
VERTEX
  8
0
 10
44.5574
 20
22.6368
  0
VERTEX
  8
0
 10
44.5604
 20
22.5817
  0
VERTEX
  8
0
 10
44.5565
 20
22.5167
  0
VERTEX
  8
0
 10
44.5447
 20
22.4552
  0
VERTEX
  8
0
 10
44.5252
 20
22.3973
  0
VERTEX
  8
0
 10
44.4977
 20
22.3428
  0
VERTEX
  8
0
 10
44.4625
 20
22.2918
  0
VERTEX
  8
0
 10
44.4314
 20
22.2569
  0
VERTEX
  8
0
 10
44.3976
 20
22.2265
  0
VERTEX
  8
0
 10
44.3611
 20
22.2008
  0
VERTEX
  8
0
 10
44.3219
 20
22.1798
  0
VERTEX
  8
0
 10
44.2799
 20
22.1633
  0
VERTEX
  8
0
 10
44.2352
 20
22.1515
  0
VERTEX
  8
0
 10
44.1879
 20
22.1444
  0
VERTEX
  8
0
 10
44.1378
 20
22.1418
  0
VERTEX
  8
0
 10
44.0742
 20
22.1455
  0
VERTEX
  8
0
 10
44.0153
 20
22.1563
  0
VERTEX
  8
0
 10
43.961
 20
22.1743
  0
VERTEX
  8
0
 10
43.9112
 20
22.1995
  0
VERTEX
  8
0
 10
43.8661
 20
22.2319
  0
VERTEX
  8
0
 10
43.8259
 20
22.2717
  0
VERTEX
  8
0
 10
43.7933
 20
22.317
  0
VERTEX
  8
0
 10
43.7682
 20
22.3678
  0
VERTEX
  8
0
 10
43.7505
 20
22.4242
  0
VERTEX
  8
0
 10
43.7404
 20
22.4861
  0
VERTEX
  8
0
 10
43.7404
 20
22.4861
  0
SEQEND
  0
POLYLINE
  8
0
 66
     1
 10
0
 20
0
  0
VERTEX
  8
0
 10
44.7543
 20
22.9618
  0
VERTEX
  8
0
 10
44.7124
 20
23.1962
  0
VERTEX
  8
0
 10
44.7124
 20
23.3978
  0
VERTEX
  8
0
 10
44.8844
 20
23.3978
  0
VERTEX
  8
0
 10
44.8844
 20
23.1962
  0
VERTEX
  8
0
 10
44.8466
 20
22.9618
  0
VERTEX
  8
0
 10
44.7543
 20
22.9618
  0
SEQEND
  0
POLYLINE
  8
0
 66
     1
 10
0
 20
0
  0
VERTEX
  8
0
 10
45.0335
 20
22.9618
  0
VERTEX
  8
0
 10
44.9924
 20
23.1962
  0
VERTEX
  8
0
 10
44.9924
 20
23.3978
  0
VERTEX
  8
0
 10
45.1644
 20
23.3978
  0
VERTEX
  8
0
 10
45.1644
 20
23.1962
  0
VERTEX
  8
0
 10
45.1241
 20
22.9618
  0
VERTEX
  8
0
 10
45.0335
 20
22.9618
  0
SEQEND
  0
POLYLINE
  8
0
 66
     1
 10
0
 20
0
  0
VERTEX
  8
0
 10
46.1764
 20
22.1578
  0
VERTEX
  8
0
 10
46.1764
 20
23.3978
  0
VERTEX
  8
0
 10
46.6415
 20
23.3978
  0
VERTEX
  8
0
 10
46.7287
 20
23.3936
  0
VERTEX
  8
0
 10
46.8045
 20
23.3809
  0
VERTEX
  8
0
 10
46.8689
 20
23.3598
  0
VERTEX
  8
0
 10
46.943
 20
23.3139
  0
VERTEX
  8
0
 10
47.0012
 20
23.2473
  0
VERTEX
  8
0
 10
47.0392
 20
23.1672
  0
VERTEX
  8
0
 10
47.0524
 20
23.0807
  0
VERTEX
  8
0
 10
47.0506
 20
23.043
  0
VERTEX
  8
0
 10
47.0444
 20
23.0074
  0
VERTEX
  8
0
 10
47.0338
 20
22.974
  0
VERTEX
  8
0
 10
47.0188
 20
22.9426
  0
VERTEX
  8
0
 10
46.9994
 20
22.9134
  0
VERTEX
  8
0
 10
46.9756
 20
22.8863
  0
VERTEX
  8
0
 10
46.9474
 20
22.8613
  0
VERTEX
  8
0
 10
46.9149
 20
22.8384
  0
VERTEX
  8
0
 10
46.878
 20
22.8176
  0
VERTEX
  8
0
 10
46.9456
 20
22.7912
  0
VERTEX
  8
0
 10
47.0025
 20
22.7548
  0
VERTEX
  8
0
 10
47.0487
 20
22.7085
  0
VERTEX
  8
0
 10
47.0841
 20
22.6519
  0
VERTEX
  8
0
 10
47.1053
 20
22.5882
  0
VERTEX
  8
0
 10
47.1124
 20
22.5173
  0
VERTEX
  8
0
 10
47.1041
 20
22.4393
  0
VERTEX
  8
0
 10
47.0794
 20
22.3642
  0
VERTEX
  8
0
 10
47.0384
 20
22.2938
  0
VERTEX
  8
0
 10
46.9847
 20
22.2399
  0
VERTEX
  8
0
 10
46.9514
 20
22.2181
  0
VERTEX
  8
0
 10
46.9131
 20
22.1997
  0
VERTEX
  8
0
 10
46.8701
 20
22.1846
  0
VERTEX
  8
0
 10
46.8221
 20
22.1729
  0
VERTEX
  8
0
 10
46.7693
 20
22.1645
  0
VERTEX
  8
0
 10
46.7116
 20
22.1595
  0
VERTEX
  8
0
 10
46.649
 20
22.1578
  0
VERTEX
  8
0
 10
46.1764
 20
22.1578
  0
SEQEND
  0
POLYLINE
  8
0
 66
     1
 10
0
 20
0
  0
VERTEX
  8
0
 10
46.3404
 20
22.8778
  0
VERTEX
  8
0
 10
46.6092
 20
22.8778
  0
VERTEX
  8
0
 10
46.6749
 20
22.8794
  0
VERTEX
  8
0
 10
46.7271
 20
22.8842
  0
VERTEX
  8
0
 10
46.7661
 20
22.8921
  0
VERTEX
  8
0
 10
46.7992
 20
22.9046
  0
VERTEX
  8
0
 10
46.8273
 20
22.921
  0
VERTEX
  8
0
 10
46.8503
 20
22.9412
  0
VERTEX
  8
0
 10
46.8684
 20
22.9653
  0
VERTEX
  8
0
 10
46.8814
 20
22.9933
  0
VERTEX
  8
0
 10
46.8894
 20
23.0252
  0
VERTEX
  8
0
 10
46.8924
 20
23.0609
  0
VERTEX
  8
0
 10
46.8905
 20
23.0973
  0
VERTEX
  8
0
 10
46.8837
 20
23.1297
  0
VERTEX
  8
0
 10
46.8722
 20
23.1582
  0
VERTEX
  8
0
 10
46.8558
 20
23.1827
  0
VERTEX
  8
0
 10
46.8347
 20
23.2032
  0
VERTEX
  8
0
 10
46.8087
 20
23.2197
  0
VERTEX
  8
0
 10
46.7779
 20
23.2322
  0
VERTEX
  8
0
 10
46.7454
 20
23.2399
  0
VERTEX
  8
0
 10
46.7031
 20
23.2454
  0
VERTEX
  8
0
 10
46.6509
 20
23.2487
  0
VERTEX
  8
0
 10
46.5888
 20
23.2498
  0
VERTEX
  8
0
 10
46.3404
 20
23.2498
  0
VERTEX
  8
0
 10
46.3404
 20
22.8778
  0
SEQEND
  0
POLYLINE
  8
0
 66
     1
 10
0
 20
0
  0
VERTEX
  8
0
 10
46.3404
 20
22.3058
  0
VERTEX
  8
0
 10
46.65
 20
22.3058
  0
VERTEX
  8
0
 10
46.7179
 20
22.3073
  0
VERTEX
  8
0
 10
46.762
 20
22.3117
  0
VERTEX
  8
0
 10
46.8145
 20
22.326
  0
VERTEX
  8
0
 10
46.8583
 20
22.3477
  0
VERTEX
  8
0
 10
46.8934
 20
22.3769
  0
VERTEX
  8
0
 10
46.9198
 20
22.4135
  0
VERTEX
  8
0
 10
46.9378
 20
22.4615
  0
VERTEX
  8
0
 10
46.9444
 20
22.5178
  0
VERTEX
  8
0
 10
46.9427
 20
22.5527
  0
VERTEX
  8
0
 10
46.9366
 20
22.5844
  0
VERTEX
  8
0
 10
46.9262
 20
22.6129
  0
VERTEX
  8
0
 10
46.9115
 20
22.6384
  0
VERTEX
  8
0
 10
46.8925
 20
22.6607
  0
VERTEX
  8
0
 10
46.8692
 20
22.6798
  0
VERTEX
  8
0
 10
46.8415
 20
22.6959
  0
VERTEX
  8
0
 10
46.8095
 20
22.7088
  0
VERTEX
  8
0
 10
46.7323
 20
22.7246
  0
VERTEX
  8
0
 10
46.628
 20
22.7298
  0
VERTEX
  8
0
 10
46.3404
 20
22.7298
  0
VERTEX
  8
0
 10
46.3404
 20
22.3058
  0
SEQEND
  0
POLYLINE
  8
0
 66
     1
 10
0
 20
0
  0
VERTEX
  8
0
 10
47.2644
 20
22.6098
  0
VERTEX
  8
0
 10
47.2661
 20
22.6635
  0
VERTEX
  8
0
 10
47.2712
 20
22.714
  0
VERTEX
  8
0
 10
47.2798
 20
22.7613
  0
VERTEX
  8
0
 10
47.2917
 20
22.8055
  0
VERTEX
  8
0
 10
47.3071
 20
22.8464
  0
VERTEX
  8
0
 10
47.3259
 20
22.8842
  0
VERTEX
  8
0
 10
47.3481
 20
22.9188
  0
VERTEX
  8
0
 10
47.3738
 20
22.9501
  0
VERTEX
  8
0
 10
47.4028
 20
22.9783
  0
VERTEX
  8
0
 10
47.4508
 20
23.0142
  0
VERTEX
  8
0
 10
47.5031
 20
23.042
  0
VERTEX
  8
0
 10
47.5595
 20
23.0619
  0
VERTEX
  8
0
 10
47.62
 20
23.0739
  0
VERTEX
  8
0
 10
47.6848
 20
23.0778
  0
VERTEX
  8
0
 10
47.7396
 20
23.0752
  0
VERTEX
  8
0
 10
47.7909
 20
23.0672
  0
VERTEX
  8
0
 10
47.8388
 20
23.0538
  0
VERTEX
  8
0
 10
47.8833
 20
23.0352
  0
VERTEX
  8
0
 10
47.9244
 20
23.0112
  0
VERTEX
  8
0
 10
47.9621
 20
22.9818
  0
VERTEX
  8
0
 10
47.9963
 20
22.9472
  0
VERTEX
  8
0
 10
48.0293
 20
22.9035
  0
VERTEX
  8
0
 10
48.0564
 20
22.8556
  0
VERTEX
  8
0
 10
48.0774
 20
22.8036
  0
VERTEX
  8
0
 10
48.0924
 20
22.7474
  0
VERTEX
  8
0
 10
48.1014
 20
22.687
  0
VERTEX
  8
0
 10
48.1044
 20
22.6225
  0
VERTEX
  8
0
 10
48.1034
 20
22.5787
  0
VERTEX
  8
0
 10
48.1002
 20
22.537
  0
VERTEX
  8
0
 10
48.095
 20
22.4973
  0
VERTEX
  8
0
 10
48.0878
 20
22.4597
  0
VERTEX
  8
0
 10
48.0784
 20
22.4241
  0
VERTEX
  8
0
 10
48.067
 20
22.3906
  0
VERTEX
  8
0
 10
48.0535
 20
22.3592
  0
VERTEX
  8
0
 10
48.038
 20
22.3298
  0
VERTEX
  8
0
 10
48.0203
 20
22.3025
  0
VERTEX
  8
0
 10
48.0006
 20
22.2772
  0
VERTEX
  8
0
 10
47.9788
 20
22.254
  0
VERTEX
  8
0
 10
47.9549
 20
22.2328
  0
VERTEX
  8
0
 10
47.929
 20
22.2137
  0
VERTEX
  8
0
 10
47.901
 20
22.1967
  0
VERTEX
  8
0
 10
47.7975
 20
22.156
  0
VERTEX
  8
0
 10
47.6848
 20
22.1418
  0
VERTEX
  8
0
 10
47.635
 20
22.1438
  0
VERTEX
  8
0
 10
47.5881
 20
22.1499
  0
VERTEX
  8
0
 10
47.5441
 20
22.1603
  0
VERTEX
  8
0
 10
47.5031
 20
22.1749
  0
VERTEX
  8
0
 10
47.465
 20
22.1938
  0
VERTEX
  8
0
 10
47.4298
 20
22.2169
  0
VERTEX
  8
0
 10
47.3975
 20
22.2443
  0
VERTEX
  8
0
 10
47.3682
 20
22.2759
  0
VERTEX
  8
0
 10
47.3365
 20
22.3199
  0
VERTEX
  8
0
 10
47.3105
 20
22.3685
  0
VERTEX
  8
0
 10
47.2903
 20
22.4218
  0
VERTEX
  8
0
 10
47.2759
 20
22.4798
  0
VERTEX
  8
0
 10
47.2673
 20
22.5425
  0
VERTEX
  8
0
 10
47.2644
 20
22.6098
  0
VERTEX
  8
0
 10
47.2644
 20
22.6098
  0
SEQEND
  0
POLYLINE
  8
0
 66
     1
 10
0
 20
0
  0
VERTEX
  8
0
 10
47.4204
 20
22.6103
  0
VERTEX
  8
0
 10
47.424
 20
22.5409
  0
VERTEX
  8
0
 10
47.435
 20
22.4785
  0
VERTEX
  8
0
 10
47.4532
 20
22.4229
  0
VERTEX
  8
0
 10
47.4787
 20
22.3742
  0
VERTEX
  8
0
 10
47.5037
 20
22.3413
  0
VERTEX
  8
0
 10
47.5324
 20
22.3144
  0
VERTEX
  8
0
 10
47.5649
 20
22.2934
  0
VERTEX
  8
0
 10
47.6011
 20
22.2783
  0
VERTEX
  8
0
 10
47.6411
 20
22.2691
  0
VERTEX
  8
0
 10
47.6848
 20
22.2658
  0
VERTEX
  8
0
 10
47.7286
 20
22.2687
  0
VERTEX
  8
0
 10
47.7685
 20
22.2778
  0
VERTEX
  8
0
 10
47.8048
 20
22.2931
  0
VERTEX
  8
0
 10
47.8372
 20
22.3147
  0
VERTEX
  8
0
 10
47.866
 20
22.3426
  0
VERTEX
  8
0
 10
47.891
 20
22.3767
  0
VERTEX
  8
0
 10
47.9229
 20
22.4446
  0
VERTEX
  8
0
 10
47.942
 20
22.5241
  0
VERTEX
  8
0
 10
47.9484
 20
22.6153
  0
VERTEX
  8
0
 10
47.9417
 20
22.7036
  0
VERTEX
  8
0
 10
47.9217
 20
22.7808
  0
VERTEX
  8
0
 10
47.8884
 20
22.8472
  0
VERTEX
  8
0
 10
47.863
 20
22.8798
  0
VERTEX
  8
0
 10
47.8342
 20
22.9065
  0
VERTEX
  8
0
 10
47.802
 20
22.9272
  0
VERTEX
  8
0
 10
47.7664
 20
22.942
  0
VERTEX
  8
0
 10
47.7273
 20
22.9509
  0
VERTEX
  8
0
 10
47.6848
 20
22.9538
  0
VERTEX
  8
0
 10
47.6411
 20
22.9508
  0
VERTEX
  8
0
 10
47.6011
 20
22.9418
  0
VERTEX
  8
0
 10
47.5649
 20
22.9268
  0
VERTEX
  8
0
 10
47.5324
 20
22.9057
  0
VERTEX
  8
0
 10
47.5037
 20
22.8786
  0
VERTEX
  8
0
 10
47.4787
 20
22.8455
  0
VERTEX
  8
0
 10
47.4463
 20
22.7788
  0
VERTEX
  8
0
 10
47.4269
 20
22.7004
  0
VERTEX
  8
0
 10
47.4204
 20
22.6103
  0
VERTEX
  8
0
 10
47.4204
 20
22.6103
  0
SEQEND
  0
POLYLINE
  8
0
 66
     1
 10
0
 20
0
  0
VERTEX
  8
0
 10
48.2844
 20
22.1578
  0
VERTEX
  8
0
 10
48.2844
 20
23.0584
  0
VERTEX
  8
0
 10
48.4204
 20
23.0584
  0
VERTEX
  8
0
 10
48.4204
 20
22.9225
  0
VERTEX
  8
0
 10
48.4601
 20
22.9867
  0
VERTEX
  8
0
 10
48.4965
 20
23.03
  0
VERTEX
  8
0
 10
48.5511
 20
23.0659
  0
VERTEX
  8
0
 10
48.615
 20
23.0778
  0
VERTEX
  8
0
 10
48.6922
 20
23.0657
  0
VERTEX
  8
0
 10
48.7715
 20
23.0291
  0
VERTEX
  8
0
 10
48.7192
 20
22.8887
  0
VERTEX
  8
0
 10
48.6635
 20
22.9136
  0
VERTEX
  8
0
 10
48.6078
 20
22.9218
  0
VERTEX
  8
0
 10
48.5588
 20
22.9131
  0
VERTEX
  8
0
 10
48.5132
 20
22.887
  0
VERTEX
  8
0
 10
48.4826
 20
22.8529
  0
VERTEX
  8
0
 10
48.4617
 20
22.8081
  0
VERTEX
  8
0
 10
48.4427
 20
22.7236
  0
VERTEX
  8
0
 10
48.4364
 20
22.6298
  0
VERTEX
  8
0
 10
48.4364
 20
22.1578
  0
VERTEX
  8
0
 10
48.2844
 20
22.1578
  0
SEQEND
  0
POLYLINE
  8
0
 66
     1
 10
0
 20
0
  0
VERTEX
  8
0
 10
49.4444
 20
22.1578
  0
VERTEX
  8
0
 10
49.4444
 20
22.275
  0
VERTEX
  8
0
 10
49.4188
 20
22.2399
  0
VERTEX
  8
0
 10
49.3899
 20
22.2101
  0
VERTEX
  8
0
 10
49.3576
 20
22.1857
  0
VERTEX
  8
0
 10
49.3221
 20
22.1667
  0
VERTEX
  8
0
 10
49.2832
 20
22.153
  0
VERTEX
  8
0
 10
49.241
 20
22.1448
  0
VERTEX
  8
0
 10
49.1955
 20
22.1418
  0
VERTEX
  8
0
 10
49.1245
 20
22.1483
  0
VERTEX
  8
0
 10
49.058
 20
22.1688
  0
VERTEX
  8
0
 10
48.996
 20
22.2034
  0
VERTEX
  8
0
 10
48.9181
 20
22.274
  0
VERTEX
  8
0
 10
48.8606
 20
22.3662
  0
VERTEX
  8
0
 10
48.8248
 20
22.4783
  0
VERTEX
  8
0
 10
48.8124
 20
22.609
  0
VERTEX
  8
0
 10
48.8134
 20
22.6565
  0
VERTEX
  8
0
 10
48.8169
 20
22.7015
  0
VERTEX
  8
0
 10
48.8229
 20
22.7441
  0
VERTEX
  8
0
 10
48.8315
 20
22.7843
  0
VERTEX
  8
0
 10
48.8425
 20
22.8221
  0
VERTEX
  8
0
 10
48.8561
 20
22.8576
  0
VERTEX
  8
0
 10
48.8722
 20
22.8906
  0
VERTEX
  8
0
 10
48.8909
 20
22.9212
  0
VERTEX
  8
0
 10
48.9121
 20
22.9494
  0
VERTEX
  8
0
 10
48.9357
 20
22.9752
  0
VERTEX
  8
0
 10
48.962
 20
22.9986
  0
VERTEX
  8
0
 10
48.9907
 20
23.0197
  0
VERTEX
  8
0
 10
49.0521
 20
23.052
  0
VERTEX
  8
0
 10
49.1185
 20
23.0714
  0
VERTEX
  8
0
 10
49.19
 20
23.0778
  0
VERTEX
  8
0
 10
49.2336
 20
23.0754
  0
VERTEX
  8
0
 10
49.2743
 20
23.0679
  0
VERTEX
  8
0
 10
49.3123
 20
23.0554
  0
VERTEX
  8
0
 10
49.3475
 20
23.0379
  0
VERTEX
  8
0
 10
49.3799
 20
23.0154
  0
VERTEX
  8
0
 10
49.4095
 20
22.9879
  0
VERTEX
  8
0
 10
49.4364
 20
22.9554
  0
VERTEX
  8
0
 10
49.4364
 20
23.3978
  0
VERTEX
  8
0
 10
49.5884
 20
23.3978
  0
VERTEX
  8
0
 10
49.5884
 20
22.1578
  0
VERTEX
  8
0
 10
49.4444
 20
22.1578
  0
SEQEND
  0
POLYLINE
  8
0
 66
     1
 10
0
 20
0
  0
VERTEX
  8
0
 10
48.9684
 20
22.6094
  0
VERTEX
  8
0
 10
48.9743
 20
22.5234
  0
VERTEX
  8
0
 10
48.992
 20
22.4469
  0
VERTEX
  8
0
 10
49.0216
 20
22.3801
  0
VERTEX
  8
0
 10
49.045
 20
22.3454
  0
VERTEX
  8
0
 10
49.0717
 20
22.317
  0
VERTEX
  8
0
 10
49.1018
 20
22.2948
  0
VERTEX
  8
0
 10
49.1353
 20
22.2789
  0
VERTEX
  8
0
 10
49.1722
 20
22.2693
  0
VERTEX
  8
0
 10
49.2125
 20
22.2658
  0
VERTEX
  8
0
 10
49.2521
 20
22.2686
  0
VERTEX
  8
0
 10
49.2885
 20
22.2775
  0
VERTEX
  8
0
 10
49.3214
 20
22.2925
  0
VERTEX
  8
0
 10
49.351
 20
22.3136
  0
VERTEX
  8
0
 10
49.3771
 20
22.3408
  0
VERTEX
  8
0
 10
49.4
 20
22.3742
  0
VERTEX
  8
0
 10
49.4286
 20
22.4388
  0
VERTEX
  8
0
 10
49.4457
 20
22.5129
  0
VERTEX
  8
0
 10
49.4515
 20
22.5967
  0
VERTEX
  8
0
 10
49.4459
 20
22.6875
  0
VERTEX
  8
0
 10
49.4293
 20
22.7667
  0
VERTEX
  8
0
 10
49.4016
 20
22.8345
  0
VERTEX
  8
0
 10
49.3784
 20
22.871
  0
VERTEX
  8
0
 10
49.3513
 20
22.9008
  0
VERTEX
  8
0
 10
49.3206
 20
22.924
  0
VERTEX
  8
0
 10
49.286
 20
22.9406
  0
VERTEX
  8
0
 10
49.2477
 20
22.9505
  0
VERTEX
  8
0
 10
49.2057
 20
22.9538
  0
VERTEX
  8
0
 10
49.1648
 20
22.9507
  0
VERTEX
  8
0
 10
49.1276
 20
22.9412
  0
VERTEX
  8
0
 10
49.0942
 20
22.9253
  0
VERTEX
  8
0
 10
49.0646
 20
22.9031
  0
VERTEX
  8
0
 10
49.0387
 20
22.8745
  0
VERTEX
  8
0
 10
49.0165
 20
22.8396
  0
VERTEX
  8
0
 10
48.9898
 20
22.7742
  0
VERTEX
  8
0
 10
48.9737
 20
22.6974
  0
VERTEX
  8
0
 10
48.9684
 20
22.6094
  0
VERTEX
  8
0
 10
48.9684
 20
22.6094
  0
SEQEND
  0
POLYLINE
  8
0
 66
     1
 10
0
 20
0
  0
VERTEX
  8
0
 10
50.4366
 20
22.4506
  0
VERTEX
  8
0
 10
50.5938
 20
22.4312
  0
VERTEX
  8
0
 10
50.5845
 20
22.4
  0
VERTEX
  8
0
 10
50.5736
 20
22.3705
  0
VERTEX
  8
0
 10
50.5613
 20
22.3428
  0
VERTEX
  8
0
 10
50.5475
 20
22.3169
  0
VERTEX
  8
0
 10
50.5322
 20
22.2928
  0
VERTEX
  8
0
 10
50.5155
 20
22.2705
  0
VERTEX
  8
0
 10
50.4973
 20
22.2499
  0
VERTEX
  8
0
 10
50.4776
 20
22.2312
  0
VERTEX
  8
0
 10
50.4564
 20
22.2142
  0
VERTEX
  8
0
 10
50.4338
 20
22.199
  0
VERTEX
  8
0
 10
50.4097
 20
22.1856
  0
VERTEX
  8
0
 10
50.3841
 20
22.174
  0
VERTEX
  8
0
 10
50.357
 20
22.1642
  0
VERTEX
  8
0
 10
50.3285
 20
22.1561
  0
VERTEX
  8
0
 10
50.2985
 20
22.1499
  0
VERTEX
  8
0
 10
50.267
 20
22.1454
  0
VERTEX
  8
0
 10
50.234
 20
22.1427
  0
VERTEX
  8
0
 10
50.1996
 20
22.1418
  0
VERTEX
  8
0
 10
50.1448
 20
22.1443
  0
VERTEX
  8
0
 10
50.0934
 20
22.1517
  0
VERTEX
  8
0
 10
50.0454
 20
22.164
  0
VERTEX
  8
0
 10
50.0008
 20
22.1812
  0
VERTEX
  8
0
 10
49.9596
 20
22.2034
  0
VERTEX
  8
0
 10
49.9217
 20
22.2304
  0
VERTEX
  8
0
 10
49.8872
 20
22.2624
  0
VERTEX
  8
0
 10
49.8567
 20
22.2989
  0
VERTEX
  8
0
 10
49.831
 20
22.3394
  0
VERTEX
  8
0
 10
49.8099
 20
22.3839
  0
VERTEX
  8
0
 10
49.7935
 20
22.4325
  0
VERTEX
  8
0
 10
49.7818
 20
22.4851
  0
VERTEX
  8
0
 10
49.7747
 20
22.5417
  0
VERTEX
  8
0
 10
49.7724
 20
22.6023
  0
VERTEX
  8
0
 10
49.7752
 20
22.6695
  0
VERTEX
  8
0
 10
49.7838
 20
22.7322
  0
VERTEX
  8
0
 10
49.7981
 20
22.7905
  0
VERTEX
  8
0
 10
49.8182
 20
22.8444
  0
VERTEX
  8
0
 10
49.8439
 20
22.8938
  0
VERTEX
  8
0
 10
49.8754
 20
22.9387
  0
VERTEX
  8
0
 10
49.9051
 20
22.9713
  0
VERTEX
  8
0
 10
49.9375
 20
22.9996
  0
VERTEX
  8
0
 10
49.9728
 20
23.0235
  0
VERTEX
  8
0
 10
50.0109
 20
23.0431
  0
VERTEX
  8
0
 10
50.0518
 20
23.0583
  0
VERTEX
  8
0
 10
50.0954
 20
23.0692
  0
VERTEX
  8
0
 10
50.1419
 20
23.0757
  0
VERTEX
  8
0
 10
50.1911
 20
23.0778
  0
VERTEX
  8
0
 10
50.2392
 20
23.0757
  0
VERTEX
  8
0
 10
50.2844
 20
23.0693
  0
VERTEX
  8
0
 10
50.327
 20
23.0586
  0
VERTEX
  8
0
 10
50.3667
 20
23.0437
  0
VERTEX
  8
0
 10
50.4038
 20
23.0245
  0
VERTEX
  8
0
 10
50.4381
 20
23.001
  0
VERTEX
  8
0
 10
50.4696
 20
22.9732
  0
VERTEX
  8
0
 10
50.4985
 20
22.9412
  0
VERTEX
  8
0
 10
50.5291
 20
22.8971
  0
VERTEX
  8
0
 10
50.5542
 20
22.8489
  0
VERTEX
  8
0
 10
50.5738
 20
22.7965
  0
VERTEX
  8
0
 10
50.5877
 20
22.7399
  0
VERTEX
  8
0
 10
50.5961
 20
22.6791
  0
VERTEX
  8
0
 10
50.5989
 20
22.6141
  0
VERTEX
  8
0
 10
50.5987
 20
22.5931
  0
VERTEX
  8
0
 10
50.598
 20
22.5738
  0
VERTEX
  8
0
 10
49.9284
 20
22.5738
  0
VERTEX
  8
0
 10
49.9394
 20
22.4912
  0
VERTEX
  8
0
 10
49.9633
 20
22.4195
  0
VERTEX
  8
0
 10
50.0003
 20
22.3588
  0
VERTEX
  8
0
 10
50.0318
 20
22.3254
  0
VERTEX
  8
0
 10
50.0675
 20
22.2993
  0
VERTEX
  8
0
 10
50.1074
 20
22.2807
  0
VERTEX
  8
0
 10
50.1515
 20
22.2696
  0
VERTEX
  8
0
 10
50.1998
 20
22.2658
  0
VERTEX
  8
0
 10
50.2328
 20
22.2677
  0
VERTEX
  8
0
 10
50.2637
 20
22.2732
  0
VERTEX
  8
0
 10
50.2925
 20
22.2825
  0
VERTEX
  8
0
 10
50.3193
 20
22.2954
  0
VERTEX
  8
0
 10
50.344
 20
22.312
  0
VERTEX
  8
0
 10
50.3666
 20
22.3324
  0
VERTEX
  8
0
 10
50.3872
 20
22.3564
  0
VERTEX
  8
0
 10
50.4057
 20
22.3841
  0
VERTEX
  8
0
 10
50.4222
 20
22.4155
  0
VERTEX
  8
0
 10
50.4366
 20
22.4506
  0
VERTEX
  8
0
 10
50.4366
 20
22.4506
  0
SEQEND
  0
POLYLINE
  8
0
 66
     1
 10
0
 20
0
  0
VERTEX
  8
0
 10
49.9378
 20
22.6978
  0
VERTEX
  8
0
 10
50.4385
 20
22.6978
  0
VERTEX
  8
0
 10
50.4276
 20
22.7666
  0
VERTEX
  8
0
 10
50.4084
 20
22.8228
  0
VERTEX
  8
0
 10
50.381
 20
22.8665
  0
VERTEX
  8
0
 10
50.342
 20
22.9044
  0
VERTEX
  8
0
 10
50.2977
 20
22.9316
  0
VERTEX
  8
0
 10
50.2479
 20
22.9481
  0
VERTEX
  8
0
 10
50.1928
 20
22.9538
  0
VERTEX
  8
0
 10
50.14
 20
22.9495
  0
VERTEX
  8
0
 10
50.0923
 20
22.9358
  0
VERTEX
  8
0
 10
50.0497
 20
22.9126
  0
VERTEX
  8
0
 10
50.0121
 20
22.88
  0
VERTEX
  8
0
 10
49.9742
 20
22.8284
  0
VERTEX
  8
0
 10
49.9495
 20
22.7677
  0
VERTEX
  8
0
 10
49.9378
 20
22.6978
  0
VERTEX
  8
0
 10
49.9378
 20
22.6978
  0
SEQEND
  0
POLYLINE
  8
0
 66
     1
 10
0
 20
0
  0
VERTEX
  8
0
 10
50.7844
 20
22.1578
  0
VERTEX
  8
0
 10
50.7844
 20
23.0584
  0
VERTEX
  8
0
 10
50.9204
 20
23.0584
  0
VERTEX
  8
0
 10
50.9204
 20
22.9225
  0
VERTEX
  8
0
 10
50.9601
 20
22.9867
  0
VERTEX
  8
0
 10
50.9965
 20
23.03
  0
VERTEX
  8
0
 10
51.0511
 20
23.0659
  0
VERTEX
  8
0
 10
51.115
 20
23.0778
  0
VERTEX
  8
0
 10
51.1922
 20
23.0657
  0
VERTEX
  8
0
 10
51.2715
 20
23.0291
  0
VERTEX
  8
0
 10
51.2192
 20
22.8887
  0
VERTEX
  8
0
 10
51.1635
 20
22.9136
  0
VERTEX
  8
0
 10
51.1078
 20
22.9218
  0
VERTEX
  8
0
 10
51.0588
 20
22.9131
  0
VERTEX
  8
0
 10
51.0132
 20
22.887
  0
VERTEX
  8
0
 10
50.9826
 20
22.8529
  0
VERTEX
  8
0
 10
50.9617
 20
22.8081
  0
VERTEX
  8
0
 10
50.9427
 20
22.7236
  0
VERTEX
  8
0
 10
50.9364
 20
22.6298
  0
VERTEX
  8
0
 10
50.9364
 20
22.1578
  0
VERTEX
  8
0
 10
50.7844
 20
22.1578
  0
SEQEND
  0
POLYLINE
  8
0
 66
     1
 10
0
 20
0
  0
VERTEX
  8
0
 10
51.4124
 20
22.1578
  0
VERTEX
  8
0
 10
51.4124
 20
22.3338
  0
VERTEX
  8
0
 10
51.5844
 20
22.3338
  0
VERTEX
  8
0
 10
51.5844
 20
22.1615
  0
VERTEX
  8
0
 10
51.5826
 20
22.1227
  0
VERTEX
  8
0
 10
51.5774
 20
22.0868
  0
VERTEX
  8
0
 10
51.5687
 20
22.0538
  0
VERTEX
  8
0
 10
51.5564
 20
22.0238
  0
VERTEX
  8
0
 10
51.5407
 20
21.9967
  0
VERTEX
  8
0
 10
51.5214
 20
21.9726
  0
VERTEX
  8
0
 10
51.4987
 20
21.9514
  0
VERTEX
  8
0
 10
51.4725
 20
21.9331
  0
VERTEX
  8
0
 10
51.4428
 20
21.9178
  0
VERTEX
  8
0
 10
51.4004
 20
21.9816
  0
VERTEX
  8
0
 10
51.4286
 20
21.9971
  0
VERTEX
  8
0
 10
51.452
 20
22.0181
  0
VERTEX
  8
0
 10
51.4705
 20
22.0447
  0
VERTEX
  8
0
 10
51.4841
 20
22.0768
  0
VERTEX
  8
0
 10
51.4928
 20
22.1146
  0
VERTEX
  8
0
 10
51.4966
 20
22.1578
  0
VERTEX
  8
0
 10
51.4124
 20
22.1578
  0
SEQEND
  0
POLYLINE
  8
0
 66
     1
 10
0
 20
0
  0
VERTEX
  8
0
 10
52.8846
 20
22.1578
  0
VERTEX
  8
0
 10
52.5564
 20
23.3978
  0
VERTEX
  8
0
 10
52.7244
 20
23.3978
  0
VERTEX
  8
0
 10
52.9126
 20
22.5878
  0
VERTEX
  8
0
 10
52.9409
 20
22.4597
  0
VERTEX
  8
0
 10
52.965
 20
22.3349
  0
VERTEX
  8
0
 10
52.976
 20
22.3813
  0
VERTEX
  8
0
 10
52.9859
 20
22.4227
  0
VERTEX
  8
0
 10
52.9946
 20
22.4589
  0
VERTEX
  8
0
 10
53.0021
 20
22.4901
  0
VERTEX
  8
0
 10
53.0085
 20
22.5161
  0
VERTEX
  8
0
 10
53.0137
 20
22.5371
  0
VERTEX
  8
0
 10
53.0178
 20
22.5529
  0
VERTEX
  8
0
 10
53.0207
 20
22.5637
  0
VERTEX
  8
0
 10
53.2562
 20
23.3978
  0
VERTEX
  8
0
 10
53.4538
 20
23.3978
  0
VERTEX
  8
0
 10
53.6311
 20
22.773
  0
VERTEX
  8
0
 10
53.6882
 20
22.5474
  0
VERTEX
  8
0
 10
53.7276
 20
22.3349
  0
VERTEX
  8
0
 10
53.7356
 20
22.3729
  0
VERTEX
  8
0
 10
53.7457
 20
22.4189
  0
VERTEX
  8
0
 10
53.7581
 20
22.4727
  0
VERTEX
  8
0
 10
53.7727
 20
22.5344
  0
VERTEX
  8
0
 10
53.7895
 20
22.604
  0
VERTEX
  8
0
 10
53.9818
 20
23.3978
  0
VERTEX
  8
0
 10
54.1477
 20
23.3978
  0
VERTEX
  8
0
 10
53.8083
 20
22.1578
  0
VERTEX
  8
0
 10
53.6518
 20
22.1578
  0
VERTEX
  8
0
 10
53.3874
 20
23.1042
  0
VERTEX
  8
0
 10
53.3733
 20
23.1578
  0
VERTEX
  8
0
 10
53.3623
 20
23.1999
  0
VERTEX
  8
0
 10
53.3547
 20
23.2306
  0
VERTEX
  8
0
 10
53.3502
 20
23.2499
  0
VERTEX
  8
0
 10
53.3331
 20
23.1757
  0
VERTEX
  8
0
 10
53.3148
 20
23.1048
  0
VERTEX
  8
0
 10
53.0516
 20
22.1578
  0
VERTEX
  8
0
 10
52.8846
 20
22.1578
  0
SEQEND
  0
POLYLINE
  8
0
 66
     1
 10
0
 20
0
  0
VERTEX
  8
0
 10
54.2844
 20
22.1578
  0
VERTEX
  8
0
 10
54.2844
 20
23.3978
  0
VERTEX
  8
0
 10
54.4364
 20
23.3978
  0
VERTEX
  8
0
 10
54.4364
 20
22.9554
  0
VERTEX
  8
0
 10
54.4735
 20
22.9926
  0
VERTEX
  8
0
 10
54.5137
 20
23.0231
  0
VERTEX
  8
0
 10
54.557
 20
23.0468
  0
VERTEX
  8
0
 10
54.6035
 20
23.0639
  0
VERTEX
  8
0
 10
54.653
 20
23.0742
  0
VERTEX
  8
0
 10
54.7056
 20
23.0778
  0
VERTEX
  8
0
 10
54.7977
 20
23.0683
  0
VERTEX
  8
0
 10
54.8792
 20
23.038
  0
VERTEX
  8
0
 10
54.9288
 20
23.0038
  0
VERTEX
  8
0
 10
54.9669
 20
22.9597
  0
VERTEX
  8
0
 10
54.9935
 20
22.9058
  0
VERTEX
  8
0
 10
55.0107
 20
22.8292
  0
VERTEX
  8
0
 10
55.0164
 20
22.728
  0
VERTEX
  8
0
 10
55.0164
 20
22.1578
  0
VERTEX
  8
0
 10
54.8644
 20
22.1578
  0
VERTEX
  8
0
 10
54.8644
 20
22.7275
  0
VERTEX
  8
0
 10
54.8634
 20
22.7573
  0
VERTEX
  8
0
 10
54.8605
 20
22.785
  0
VERTEX
  8
0
 10
54.8557
 20
22.8105
  0
VERTEX
  8
0
 10
54.8489
 20
22.8337
  0
VERTEX
  8
0
 10
54.8402
 20
22.8548
  0
VERTEX
  8
0
 10
54.8295
 20
22.8737
  0
VERTEX
  8
0
 10
54.8169
 20
22.8904
  0
VERTEX
  8
0
 10
54.8024
 20
22.9049
  0
VERTEX
  8
0
 10
54.7859
 20
22.9172
  0
VERTEX
  8
0
 10
54.7675
 20
22.9273
  0
VERTEX
  8
0
 10
54.7472
 20
22.9353
  0
VERTEX
  8
0
 10
54.7249
 20
22.941
  0
VERTEX
  8
0
 10
54.7007
 20
22.9445
  0
VERTEX
  8
0
 10
54.6745
 20
22.9458
  0
VERTEX
  8
0
 10
54.6089
 20
22.9376
  0
VERTEX
  8
0
 10
54.5474
 20
22.9112
  0
VERTEX
  8
0
 10
54.4965
 20
22.8696
  0
VERTEX
  8
0
 10
54.4622
 20
22.8159
  0
VERTEX
  8
0
 10
54.4428
 20
22.7445
  0
VERTEX
  8
0
 10
54.4364
 20
22.6496
  0
VERTEX
  8
0
 10
54.4364
 20
22.1578
  0
VERTEX
  8
0
 10
54.2844
 20
22.1578
  0
SEQEND
  0
POLYLINE
  8
0
 66
     1
 10
0
 20
0
  0
VERTEX
  8
0
 10
55.2444
 20
23.2218
  0
VERTEX
  8
0
 10
55.2444
 20
23.3978
  0
VERTEX
  8
0
 10
55.3964
 20
23.3978
  0
VERTEX
  8
0
 10
55.3964
 20
23.2218
  0
VERTEX
  8
0
 10
55.2444
 20
23.2218
  0
SEQEND
  0
POLYLINE
  8
0
 66
     1
 10
0
 20
0
  0
VERTEX
  8
0
 10
55.2444
 20
22.1578
  0
VERTEX
  8
0
 10
55.2444
 20
23.0584
  0
VERTEX
  8
0
 10
55.3964
 20
23.0584
  0
VERTEX
  8
0
 10
55.3964
 20
22.1578
  0
VERTEX
  8
0
 10
55.2444
 20
22.1578
  0
SEQEND
  0
POLYLINE
  8
0
 66
     1
 10
0
 20
0
  0
VERTEX
  8
0
 10
55.96
 20
22.2978
  0
VERTEX
  8
0
 10
55.9817
 20
22.1633
  0
VERTEX
  8
0
 10
55.9206
 20
22.1537
  0
VERTEX
  8
0
 10
55.8671
 20
22.1498
  0
VERTEX
  8
0
 10
55.826
 20
22.1514
  0
VERTEX
  8
0
 10
55.7895
 20
22.1569
  0
VERTEX
  8
0
 10
55.7575
 20
22.1663
  0
VERTEX
  8
0
 10
55.73
 20
22.1798
  0
VERTEX
  8
0
 10
55.7071
 20
22.1973
  0
VERTEX
  8
0
 10
55.6888
 20
22.2187
  0
VERTEX
  8
0
 10
55.675
 20
22.2442
  0
VERTEX
  8
0
 10
55.6668
 20
22.2718
  0
VERTEX
  8
0
 10
55.661
 20
22.3109
  0
VERTEX
  8
0
 10
55.6575
 20
22.3614
  0
VERTEX
  8
0
 10
55.6564
 20
22.4235
  0
VERTEX
  8
0
 10
55.6564
 20
22.9378
  0
VERTEX
  8
0
 10
55.5444
 20
22.9378
  0
VERTEX
  8
0
 10
55.5444
 20
23.0578
  0
VERTEX
  8
0
 10
55.6564
 20
23.0578
  0
VERTEX
  8
0
 10
55.6564
 20
23.279
  0
VERTEX
  8
0
 10
55.8084
 20
23.3698
  0
VERTEX
  8
0
 10
55.8084
 20
23.0578
  0
VERTEX
  8
0
 10
55.9604
 20
23.0578
  0
VERTEX
  8
0
 10
55.9604
 20
22.9378
  0
VERTEX
  8
0
 10
55.8084
 20
22.9378
  0
VERTEX
  8
0
 10
55.8084
 20
22.4139
  0
VERTEX
  8
0
 10
55.809
 20
22.3734
  0
VERTEX
  8
0
 10
55.8109
 20
22.3515
  0
VERTEX
  8
0
 10
55.8216
 20
22.3215
  0
VERTEX
  8
0
 10
55.8419
 20
22.3008
  0
VERTEX
  8
0
 10
55.8632
 20
22.293
  0
VERTEX
  8
0
 10
55.8938
 20
22.2898
  0
VERTEX
  8
0
 10
55.9225
 20
22.2914
  0
VERTEX
  8
0
 10
55.96
 20
22.2978
  0
VERTEX
  8
0
 10
55.96
 20
22.2978
  0
SEQEND
  0
POLYLINE
  8
0
 66
     1
 10
0
 20
0
  0
VERTEX
  8
0
 10
56.7246
 20
22.4506
  0
VERTEX
  8
0
 10
56.8818
 20
22.4312
  0
VERTEX
  8
0
 10
56.8725
 20
22.4
  0
VERTEX
  8
0
 10
56.8616
 20
22.3705
  0
VERTEX
  8
0
 10
56.8493
 20
22.3428
  0
VERTEX
  8
0
 10
56.8355
 20
22.3169
  0
VERTEX
  8
0
 10
56.8202
 20
22.2928
  0
VERTEX
  8
0
 10
56.8035
 20
22.2705
  0
VERTEX
  8
0
 10
56.7853
 20
22.2499
  0
VERTEX
  8
0
 10
56.7656
 20
22.2312
  0
VERTEX
  8
0
 10
56.7444
 20
22.2142
  0
VERTEX
  8
0
 10
56.7218
 20
22.199
  0
VERTEX
  8
0
 10
56.6977
 20
22.1856
  0
VERTEX
  8
0
 10
56.6721
 20
22.174
  0
VERTEX
  8
0
 10
56.645
 20
22.1642
  0
VERTEX
  8
0
 10
56.6165
 20
22.1561
  0
VERTEX
  8
0
 10
56.5865
 20
22.1499
  0
VERTEX
  8
0
 10
56.555
 20
22.1454
  0
VERTEX
  8
0
 10
56.522
 20
22.1427
  0
VERTEX
  8
0
 10
56.4876
 20
22.1418
  0
VERTEX
  8
0
 10
56.4328
 20
22.1443
  0
VERTEX
  8
0
 10
56.3814
 20
22.1517
  0
VERTEX
  8
0
 10
56.3334
 20
22.164
  0
VERTEX
  8
0
 10
56.2888
 20
22.1812
  0
VERTEX
  8
0
 10
56.2476
 20
22.2034
  0
VERTEX
  8
0
 10
56.2097
 20
22.2304
  0
VERTEX
  8
0
 10
56.1752
 20
22.2624
  0
VERTEX
  8
0
 10
56.1447
 20
22.2989
  0
VERTEX
  8
0
 10
56.119
 20
22.3394
  0
VERTEX
  8
0
 10
56.0979
 20
22.3839
  0
VERTEX
  8
0
 10
56.0815
 20
22.4325
  0
VERTEX
  8
0
 10
56.0698
 20
22.4851
  0
VERTEX
  8
0
 10
56.0627
 20
22.5417
  0
VERTEX
  8
0
 10
56.0604
 20
22.6023
  0
VERTEX
  8
0
 10
56.0632
 20
22.6695
  0
VERTEX
  8
0
 10
56.0718
 20
22.7322
  0
VERTEX
  8
0
 10
56.0861
 20
22.7905
  0
VERTEX
  8
0
 10
56.1062
 20
22.8444
  0
VERTEX
  8
0
 10
56.1319
 20
22.8938
  0
VERTEX
  8
0
 10
56.1634
 20
22.9387
  0
VERTEX
  8
0
 10
56.1931
 20
22.9713
  0
VERTEX
  8
0
 10
56.2255
 20
22.9996
  0
VERTEX
  8
0
 10
56.2608
 20
23.0235
  0
VERTEX
  8
0
 10
56.2989
 20
23.0431
  0
VERTEX
  8
0
 10
56.3398
 20
23.0583
  0
VERTEX
  8
0
 10
56.3834
 20
23.0692
  0
VERTEX
  8
0
 10
56.4299
 20
23.0757
  0
VERTEX
  8
0
 10
56.4791
 20
23.0778
  0
VERTEX
  8
0
 10
56.5272
 20
23.0757
  0
VERTEX
  8
0
 10
56.5724
 20
23.0693
  0
VERTEX
  8
0
 10
56.615
 20
23.0586
  0
VERTEX
  8
0
 10
56.6547
 20
23.0437
  0
VERTEX
  8
0
 10
56.6918
 20
23.0245
  0
VERTEX
  8
0
 10
56.7261
 20
23.001
  0
VERTEX
  8
0
 10
56.7576
 20
22.9732
  0
VERTEX
  8
0
 10
56.7865
 20
22.9412
  0
VERTEX
  8
0
 10
56.8171
 20
22.8971
  0
VERTEX
  8
0
 10
56.8422
 20
22.8489
  0
VERTEX
  8
0
 10
56.8618
 20
22.7965
  0
VERTEX
  8
0
 10
56.8757
 20
22.7399
  0
VERTEX
  8
0
 10
56.8841
 20
22.6791
  0
VERTEX
  8
0
 10
56.8869
 20
22.6141
  0
VERTEX
  8
0
 10
56.8867
 20
22.5931
  0
VERTEX
  8
0
 10
56.886
 20
22.5738
  0
VERTEX
  8
0
 10
56.2164
 20
22.5738
  0
VERTEX
  8
0
 10
56.2274
 20
22.4912
  0
VERTEX
  8
0
 10
56.2513
 20
22.4195
  0
VERTEX
  8
0
 10
56.2883
 20
22.3588
  0
VERTEX
  8
0
 10
56.3198
 20
22.3254
  0
VERTEX
  8
0
 10
56.3555
 20
22.2993
  0
VERTEX
  8
0
 10
56.3954
 20
22.2807
  0
VERTEX
  8
0
 10
56.4395
 20
22.2696
  0
VERTEX
  8
0
 10
56.4878
 20
22.2658
  0
VERTEX
  8
0
 10
56.5208
 20
22.2677
  0
VERTEX
  8
0
 10
56.5517
 20
22.2732
  0
VERTEX
  8
0
 10
56.5805
 20
22.2825
  0
VERTEX
  8
0
 10
56.6073
 20
22.2954
  0
VERTEX
  8
0
 10
56.632
 20
22.312
  0
VERTEX
  8
0
 10
56.6546
 20
22.3324
  0
VERTEX
  8
0
 10
56.6752
 20
22.3564
  0
VERTEX
  8
0
 10
56.6937
 20
22.3841
  0
VERTEX
  8
0
 10
56.7102
 20
22.4155
  0
VERTEX
  8
0
 10
56.7246
 20
22.4506
  0
VERTEX
  8
0
 10
56.7246
 20
22.4506
  0
SEQEND
  0
POLYLINE
  8
0
 66
     1
 10
0
 20
0
  0
VERTEX
  8
0
 10
56.2258
 20
22.6978
  0
VERTEX
  8
0
 10
56.7265
 20
22.6978
  0
VERTEX
  8
0
 10
56.7156
 20
22.7666
  0
VERTEX
  8
0
 10
56.6964
 20
22.8228
  0
VERTEX
  8
0
 10
56.669
 20
22.8665
  0
VERTEX
  8
0
 10
56.63
 20
22.9044
  0
VERTEX
  8
0
 10
56.5857
 20
22.9316
  0
VERTEX
  8
0
 10
56.5359
 20
22.9481
  0
VERTEX
  8
0
 10
56.4808
 20
22.9538
  0
VERTEX
  8
0
 10
56.428
 20
22.9495
  0
VERTEX
  8
0
 10
56.3803
 20
22.9358
  0
VERTEX
  8
0
 10
56.3377
 20
22.9126
  0
VERTEX
  8
0
 10
56.3001
 20
22.88
  0
VERTEX
  8
0
 10
56.2622
 20
22.8284
  0
VERTEX
  8
0
 10
56.2375
 20
22.7677
  0
VERTEX
  8
0
 10
56.2258
 20
22.6978
  0
VERTEX
  8
0
 10
56.2258
 20
22.6978
  0
SEQEND
  0
POLYLINE
  8
0
 66
     1
 10
0
 20
0
  0
VERTEX
  8
0
 10
57.8204
 20
22.6098
  0
VERTEX
  8
0
 10
57.8221
 20
22.6635
  0
VERTEX
  8
0
 10
57.8272
 20
22.714
  0
VERTEX
  8
0
 10
57.8358
 20
22.7613
  0
VERTEX
  8
0
 10
57.8477
 20
22.8055
  0
VERTEX
  8
0
 10
57.8631
 20
22.8464
  0
VERTEX
  8
0
 10
57.8819
 20
22.8842
  0
VERTEX
  8
0
 10
57.9041
 20
22.9188
  0
VERTEX
  8
0
 10
57.9298
 20
22.9501
  0
VERTEX
  8
0
 10
57.9588
 20
22.9783
  0
VERTEX
  8
0
 10
58.0068
 20
23.0142
  0
VERTEX
  8
0
 10
58.0591
 20
23.042
  0
VERTEX
  8
0
 10
58.1155
 20
23.0619
  0
VERTEX
  8
0
 10
58.176
 20
23.0739
  0
VERTEX
  8
0
 10
58.2408
 20
23.0778
  0
VERTEX
  8
0
 10
58.2956
 20
23.0752
  0
VERTEX
  8
0
 10
58.3469
 20
23.0672
  0
VERTEX
  8
0
 10
58.3948
 20
23.0538
  0
VERTEX
  8
0
 10
58.4393
 20
23.0352
  0
VERTEX
  8
0
 10
58.4804
 20
23.0112
  0
VERTEX
  8
0
 10
58.5181
 20
22.9818
  0
VERTEX
  8
0
 10
58.5523
 20
22.9472
  0
VERTEX
  8
0
 10
58.5853
 20
22.9035
  0
VERTEX
  8
0
 10
58.6124
 20
22.8556
  0
VERTEX
  8
0
 10
58.6334
 20
22.8036
  0
VERTEX
  8
0
 10
58.6484
 20
22.7474
  0
VERTEX
  8
0
 10
58.6574
 20
22.687
  0
VERTEX
  8
0
 10
58.6604
 20
22.6225
  0
VERTEX
  8
0
 10
58.6594
 20
22.5787
  0
VERTEX
  8
0
 10
58.6562
 20
22.537
  0
VERTEX
  8
0
 10
58.651
 20
22.4973
  0
VERTEX
  8
0
 10
58.6438
 20
22.4597
  0
VERTEX
  8
0
 10
58.6344
 20
22.4241
  0
VERTEX
  8
0
 10
58.623
 20
22.3906
  0
VERTEX
  8
0
 10
58.6095
 20
22.3592
  0
VERTEX
  8
0
 10
58.594
 20
22.3298
  0
VERTEX
  8
0
 10
58.5763
 20
22.3025
  0
VERTEX
  8
0
 10
58.5566
 20
22.2772
  0
VERTEX
  8
0
 10
58.5348
 20
22.254
  0
VERTEX
  8
0
 10
58.5109
 20
22.2328
  0
VERTEX
  8
0
 10
58.485
 20
22.2137
  0
VERTEX
  8
0
 10
58.457
 20
22.1967
  0
VERTEX
  8
0
 10
58.3535
 20
22.156
  0
VERTEX
  8
0
 10
58.2408
 20
22.1418
  0
VERTEX
  8
0
 10
58.191
 20
22.1438
  0
VERTEX
  8
0
 10
58.1441
 20
22.1499
  0
VERTEX
  8
0
 10
58.1001
 20
22.1603
  0
VERTEX
  8
0
 10
58.0591
 20
22.1749
  0
VERTEX
  8
0
 10
58.021
 20
22.1938
  0
VERTEX
  8
0
 10
57.9858
 20
22.2169
  0
VERTEX
  8
0
 10
57.9535
 20
22.2443
  0
VERTEX
  8
0
 10
57.9242
 20
22.2759
  0
VERTEX
  8
0
 10
57.8925
 20
22.3199
  0
VERTEX
  8
0
 10
57.8665
 20
22.3685
  0
VERTEX
  8
0
 10
57.8463
 20
22.4218
  0
VERTEX
  8
0
 10
57.8319
 20
22.4798
  0
VERTEX
  8
0
 10
57.8233
 20
22.5425
  0
VERTEX
  8
0
 10
57.8204
 20
22.6098
  0
VERTEX
  8
0
 10
57.8204
 20
22.6098
  0
SEQEND
  0
POLYLINE
  8
0
 66
     1
 10
0
 20
0
  0
VERTEX
  8
0
 10
57.9764
 20
22.6103
  0
VERTEX
  8
0
 10
57.98
 20
22.5409
  0
VERTEX
  8
0
 10
57.991
 20
22.4785
  0
VERTEX
  8
0
 10
58.0092
 20
22.4229
  0
VERTEX
  8
0
 10
58.0347
 20
22.3742
  0
VERTEX
  8
0
 10
58.0597
 20
22.3413
  0
VERTEX
  8
0
 10
58.0884
 20
22.3144
  0
VERTEX
  8
0
 10
58.1209
 20
22.2934
  0
VERTEX
  8
0
 10
58.1571
 20
22.2783
  0
VERTEX
  8
0
 10
58.1971
 20
22.2691
  0
VERTEX
  8
0
 10
58.2408
 20
22.2658
  0
VERTEX
  8
0
 10
58.2846
 20
22.2687
  0
VERTEX
  8
0
 10
58.3245
 20
22.2778
  0
VERTEX
  8
0
 10
58.3608
 20
22.2931
  0
VERTEX
  8
0
 10
58.3932
 20
22.3147
  0
VERTEX
  8
0
 10
58.422
 20
22.3426
  0
VERTEX
  8
0
 10
58.447
 20
22.3767
  0
VERTEX
  8
0
 10
58.4789
 20
22.4446
  0
VERTEX
  8
0
 10
58.498
 20
22.5241
  0
VERTEX
  8
0
 10
58.5044
 20
22.6153
  0
VERTEX
  8
0
 10
58.4977
 20
22.7036
  0
VERTEX
  8
0
 10
58.4777
 20
22.7808
  0
VERTEX
  8
0
 10
58.4444
 20
22.8472
  0
VERTEX
  8
0
 10
58.419
 20
22.8798
  0
VERTEX
  8
0
 10
58.3902
 20
22.9065
  0
VERTEX
  8
0
 10
58.358
 20
22.9272
  0
VERTEX
  8
0
 10
58.3224
 20
22.942
  0
VERTEX
  8
0
 10
58.2833
 20
22.9509
  0
VERTEX
  8
0
 10
58.2408
 20
22.9538
  0
VERTEX
  8
0
 10
58.1971
 20
22.9508
  0
VERTEX
  8
0
 10
58.1571
 20
22.9418
  0
VERTEX
  8
0
 10
58.1209
 20
22.9268
  0
VERTEX
  8
0
 10
58.0884
 20
22.9057
  0
VERTEX
  8
0
 10
58.0597
 20
22.8786
  0
VERTEX
  8
0
 10
58.0347
 20
22.8455
  0
VERTEX
  8
0
 10
58.0023
 20
22.7788
  0
VERTEX
  8
0
 10
57.9829
 20
22.7004
  0
VERTEX
  8
0
 10
57.9764
 20
22.6103
  0
VERTEX
  8
0
 10
57.9764
 20
22.6103
  0
SEQEND
  0
POLYLINE
  8
0
 66
     1
 10
0
 20
0
  0
VERTEX
  8
0
 10
58.8364
 20
22.1578
  0
VERTEX
  8
0
 10
58.8364
 20
23.0584
  0
VERTEX
  8
0
 10
58.9724
 20
23.0584
  0
VERTEX
  8
0
 10
58.9724
 20
22.9309
  0
VERTEX
  8
0
 10
58.9985
 20
22.9652
  0
VERTEX
  8
0
 10
59.0273
 20
22.9949
  0
VERTEX
  8
0
 10
59.0588
 20
23.0201
  0
VERTEX
  8
0
 10
59.0932
 20
23.0407
  0
VERTEX
  8
0
 10
59.1302
 20
23.0568
  0
VERTEX
  8
0
 10
59.17
 20
23.0684
  0
VERTEX
  8
0
 10
59.2125
 20
23.0754
  0
VERTEX
  8
0
 10
59.2578
 20
23.0778
  0
VERTEX
  8
0
 10
59.3343
 20
23.0704
  0
VERTEX
  8
0
 10
59.4065
 20
23.0482
  0
VERTEX
  8
0
 10
59.4441
 20
23.0286
  0
VERTEX
  8
0
 10
59.4767
 20
23.0043
  0
VERTEX
  8
0
 10
59.5042
 20
22.9751
  0
VERTEX
  8
0
 10
59.5266
 20
22.9413
  0
VERTEX
  8
0
 10
59.5438
 20
22.9027
  0
VERTEX
  8
0
 10
59.556
 20
22.8593
  0
VERTEX
  8
0
 10
59.5606
 20
22.8251
  0
VERTEX
  8
0
 10
59.5635
 20
22.7757
  0
VERTEX
  8
0
 10
59.5644
 20
22.711
  0
VERTEX
  8
0
 10
59.5644
 20
22.1578
  0
VERTEX
  8
0
 10
59.4124
 20
22.1578
  0
VERTEX
  8
0
 10
59.4124
 20
22.7052
  0
VERTEX
  8
0
 10
59.4094
 20
22.7749
  0
VERTEX
  8
0
 10
59.4006
 20
22.8247
  0
VERTEX
  8
0
 10
59.3749
 20
22.8785
  0
VERTEX
  8
0
 10
59.3315
 20
22.9179
  0
VERTEX
  8
0
 10
59.2828
 20
22.9389
  0
VERTEX
  8
0
 10
59.2261
 20
22.9458
  0
VERTEX
  8
0
 10
59.2017
 20
22.945
  0
VERTEX
  8
0
 10
59.1787
 20
22.9426
  0
VERTEX
  8
0
 10
59.1569
 20
22.9385
  0
VERTEX
  8
0
 10
59.1365
 20
22.9327
  0
VERTEX
  8
0
 10
59.1174
 20
22.9253
  0
VERTEX
  8
0
 10
59.0997
 20
22.9163
  0
VERTEX
  8
0
 10
59.0832
 20
22.9056
  0
VERTEX
  8
0
 10
59.0681
 20
22.8933
  0
VERTEX
  8
0
 10
59.0542
 20
22.8793
  0
VERTEX
  8
0
 10
59.0417
 20
22.8637
  0
VERTEX
  8
0
 10
59.0305
 20
22.8464
  0
VERTEX
  8
0
 10
59.0207
 20
22.8276
  0
VERTEX
  8
0
 10
59.0121
 20
22.807
  0
VERTEX
  8
0
 10
59.0048
 20
22.7848
  0
VERTEX
  8
0
 10
58.9989
 20
22.761
  0
VERTEX
  8
0
 10
58.9943
 20
22.7355
  0
VERTEX
  8
0
 10
58.991
 20
22.7084
  0
VERTEX
  8
0
 10
58.989
 20
22.6797
  0
VERTEX
  8
0
 10
58.9884
 20
22.6493
  0
VERTEX
  8
0
 10
58.9884
 20
22.1578
  0
VERTEX
  8
0
 10
58.8364
 20
22.1578
  0
SEQEND
  0
POLYLINE
  8
0
 66
     1
 10
0
 20
0
  0
VERTEX
  8
0
 10
61.2044
 20
22.6458
  0
VERTEX
  8
0
 10
61.2044
 20
22.7938
  0
VERTEX
  8
0
 10
61.7284
 20
22.7938
  0
VERTEX
  8
0
 10
61.7284
 20
22.335
  0
VERTEX
  8
0
 10
61.6744
 20
22.2944
  0
VERTEX
  8
0
 10
61.6197
 20
22.2587
  0
VERTEX
  8
0
 10
61.5642
 20
22.2277
  0
VERTEX
  8
0
 10
61.5081
 20
22.2015
  0
VERTEX
  8
0
 10
61.4512
 20
22.18
  0
VERTEX
  8
0
 10
61.3935
 20
22.1633
  0
VERTEX
  8
0
 10
61.3352
 20
22.1514
  0
VERTEX
  8
0
 10
61.2761
 20
22.1442
  0
VERTEX
  8
0
 10
61.2163
 20
22.1418
  0
VERTEX
  8
0
 10
61.1284
 20
22.1464
  0
VERTEX
  8
0
 10
61.0452
 20
22.16
  0
VERTEX
  8
0
 10
60.9668
 20
22.1827
  0
VERTEX
  8
0
 10
60.8931
 20
22.2145
  0
VERTEX
  8
0
 10
60.8344
 20
22.2491
  0
VERTEX
  8
0
 10
60.7818
 20
22.2896
  0
VERTEX
  8
0
 10
60.7352
 20
22.3358
  0
VERTEX
  8
0
 10
60.6947
 20
22.3879
  0
VERTEX
  8
0
 10
60.6603
 20
22.4458
  0
VERTEX
  8
0
 10
60.6271
 20
22.5212
  0
VERTEX
  8
0
 10
60.6034
 20
22.6013
  0
VERTEX
  8
0
 10
60.5891
 20
22.6863
  0
VERTEX
  8
0
 10
60.5844
 20
22.7759
  0
VERTEX
  8
0
 10
60.5922
 20
22.8914
  0
VERTEX
  8
0
 10
60.6155
 20
23.0004
  0
VERTEX
  8
0
 10
60.6545
 20
23.1027
  0
VERTEX
  8
0
 10
60.6882
 20
23.1654
  0
VERTEX
  8
0
 10
60.7274
 20
23.221
  0
VERTEX
  8
0
 10
60.772
 20
23.2697
  0
VERTEX
  8
0
 10
60.822
 20
23.3113
  0
VERTEX
  8
0
 10
60.8773
 20
23.3458
  0
VERTEX
  8
0
 10
60.9509
 20
23.3791
  0
VERTEX
  8
0
 10
61.0299
 20
23.4028
  0
VERTEX
  8
0
 10
61.1143
 20
23.4171
  0
VERTEX
  8
0
 10
61.2041
 20
23.4218
  0
VERTEX
  8
0
 10
61.3311
 20
23.4107
  0
VERTEX
  8
0
 10
61.4472
 20
23.3774
  0
VERTEX
  8
0
 10
61.5459
 20
23.3237
  0
VERTEX
  8
0
 10
61.6211
 20
23.2516
  0
VERTEX
  8
0
 10
61.6717
 20
23.1652
  0
VERTEX
  8
0
 10
61.7106
 20
23.0534
  0
VERTEX
  8
0
 10
61.5627
 20
23.0128
  0
VERTEX
  8
0
 10
61.5329
 20
23.0947
  0
VERTEX
  8
0
 10
61.4976
 20
23.1554
  0
VERTEX
  8
0
 10
61.4451
 20
23.2083
  0
VERTEX
  8
0
 10
61.3755
 20
23.2483
  0
VERTEX
  8
0
 10
61.2937
 20
23.2735
  0
VERTEX
  8
0
 10
61.2045
 20
23.2818
  0
VERTEX
  8
0
 10
61.1005
 20
23.2732
  0
VERTEX
  8
0
 10
61.0101
 20
23.2473
  0
VERTEX
  8
0
 10
60.9634
 20
23.2247
  0
VERTEX
  8
0
 10
60.9214
 20
23.197
  0
VERTEX
  8
0
 10
60.884
 20
23.1643
  0
VERTEX
  8
0
 10
60.8512
 20
23.1267
  0
VERTEX
  8
0
 10
60.8231
 20
23.084
  0
VERTEX
  8
0
 10
60.7997
 20
23.0363
  0
VERTEX
  8
0
 10
60.7647
 20
22.9188
  0
VERTEX
  8
0
 10
60.7524
 20
22.7883
  0
VERTEX
  8
0
 10
60.7532
 20
22.7452
  0
VERTEX
  8
0
 10
60.756
 20
22.7041
  0
VERTEX
  8
0
 10
60.7608
 20
22.6649
  0
VERTEX
  8
0
 10
60.7676
 20
22.6277
  0
VERTEX
  8
0
 10
60.7764
 20
22.5924
  0
VERTEX
  8
0
 10
60.7873
 20
22.5591
  0
VERTEX
  8
0
 10
60.8001
 20
22.5278
  0
VERTEX
  8
0
 10
60.815
 20
22.4984
  0
VERTEX
  8
0
 10
60.8319
 20
22.471
  0
VERTEX
  8
0
 10
60.8507
 20
22.4456
  0
VERTEX
  8
0
 10
60.8717
 20
22.4221
  0
VERTEX
  8
0
 10
60.8946
 20
22.4005
  0
VERTEX
  8
0
 10
60.9195
 20
22.3809
  0
VERTEX
  8
0
 10
60.9464
 20
22.3633
  0
VERTEX
  8
0
 10
60.9754
 20
22.3477
  0
VERTEX
  8
0
 10
61.0877
 20
22.3077
  0
VERTEX
  8
0
 10
61.2068
 20
22.2938
  0
VERTEX
  8
0
 10
61.3
 20
22.3019
  0
VERTEX
  8
0
 10
61.3986
 20
22.3278
  0
VERTEX
  8
0
 10
61.4938
 20
22.3686
  0
VERTEX
  8
0
 10
61.5684
 20
22.4197
  0
VERTEX
  8
0
 10
61.5684
 20
22.6458
  0
VERTEX
  8
0
 10
61.2044
 20
22.6458
  0
SEQEND
  0
POLYLINE
  8
0
 66
     1
 10
0
 20
0
  0
VERTEX
  8
0
 10
61.9524
 20
22.1578
  0
VERTEX
  8
0
 10
61.9524
 20
23.0584
  0
VERTEX
  8
0
 10
62.0884
 20
23.0584
  0
VERTEX
  8
0
 10
62.0884
 20
22.9225
  0
VERTEX
  8
0
 10
62.1281
 20
22.9867
  0
VERTEX
  8
0
 10
62.1645
 20
23.03
  0
VERTEX
  8
0
 10
62.2191
 20
23.0659
  0
VERTEX
  8
0
 10
62.283
 20
23.0778
  0
VERTEX
  8
0
 10
62.3602
 20
23.0657
  0
VERTEX
  8
0
 10
62.4395
 20
23.0291
  0
VERTEX
  8
0
 10
62.3872
 20
22.8887
  0
VERTEX
  8
0
 10
62.3315
 20
22.9136
  0
VERTEX
  8
0
 10
62.2758
 20
22.9218
  0
VERTEX
  8
0
 10
62.2268
 20
22.9131
  0
VERTEX
  8
0
 10
62.1812
 20
22.887
  0
VERTEX
  8
0
 10
62.1506
 20
22.8529
  0
VERTEX
  8
0
 10
62.1297
 20
22.8081
  0
VERTEX
  8
0
 10
62.1107
 20
22.7236
  0
VERTEX
  8
0
 10
62.1044
 20
22.6298
  0
VERTEX
  8
0
 10
62.1044
 20
22.1578
  0
VERTEX
  8
0
 10
61.9524
 20
22.1578
  0
SEQEND
  0
POLYLINE
  8
0
 66
     1
 10
0
 20
0
  0
VERTEX
  8
0
 10
63.1446
 20
22.4506
  0
VERTEX
  8
0
 10
63.3018
 20
22.4312
  0
VERTEX
  8
0
 10
63.2925
 20
22.4
  0
VERTEX
  8
0
 10
63.2816
 20
22.3705
  0
VERTEX
  8
0
 10
63.2693
 20
22.3428
  0
VERTEX
  8
0
 10
63.2555
 20
22.3169
  0
VERTEX
  8
0
 10
63.2402
 20
22.2928
  0
VERTEX
  8
0
 10
63.2235
 20
22.2705
  0
VERTEX
  8
0
 10
63.2053
 20
22.2499
  0
VERTEX
  8
0
 10
63.1856
 20
22.2312
  0
VERTEX
  8
0
 10
63.1644
 20
22.2142
  0
VERTEX
  8
0
 10
63.1418
 20
22.199
  0
VERTEX
  8
0
 10
63.1177
 20
22.1856
  0
VERTEX
  8
0
 10
63.0921
 20
22.174
  0
VERTEX
  8
0
 10
63.065
 20
22.1642
  0
VERTEX
  8
0
 10
63.0365
 20
22.1561
  0
VERTEX
  8
0
 10
63.0065
 20
22.1499
  0
VERTEX
  8
0
 10
62.975
 20
22.1454
  0
VERTEX
  8
0
 10
62.942
 20
22.1427
  0
VERTEX
  8
0
 10
62.9076
 20
22.1418
  0
VERTEX
  8
0
 10
62.8528
 20
22.1443
  0
VERTEX
  8
0
 10
62.8014
 20
22.1517
  0
VERTEX
  8
0
 10
62.7534
 20
22.164
  0
VERTEX
  8
0
 10
62.7088
 20
22.1812
  0
VERTEX
  8
0
 10
62.6676
 20
22.2034
  0
VERTEX
  8
0
 10
62.6297
 20
22.2304
  0
VERTEX
  8
0
 10
62.5952
 20
22.2624
  0
VERTEX
  8
0
 10
62.5647
 20
22.2989
  0
VERTEX
  8
0
 10
62.539
 20
22.3394
  0
VERTEX
  8
0
 10
62.5179
 20
22.3839
  0
VERTEX
  8
0
 10
62.5015
 20
22.4325
  0
VERTEX
  8
0
 10
62.4898
 20
22.4851
  0
VERTEX
  8
0
 10
62.4827
 20
22.5417
  0
VERTEX
  8
0
 10
62.4804
 20
22.6023
  0
VERTEX
  8
0
 10
62.4832
 20
22.6695
  0
VERTEX
  8
0
 10
62.4918
 20
22.7322
  0
VERTEX
  8
0
 10
62.5061
 20
22.7905
  0
VERTEX
  8
0
 10
62.5262
 20
22.8444
  0
VERTEX
  8
0
 10
62.5519
 20
22.8938
  0
VERTEX
  8
0
 10
62.5834
 20
22.9387
  0
VERTEX
  8
0
 10
62.6131
 20
22.9713
  0
VERTEX
  8
0
 10
62.6455
 20
22.9996
  0
VERTEX
  8
0
 10
62.6808
 20
23.0235
  0
VERTEX
  8
0
 10
62.7189
 20
23.0431
  0
VERTEX
  8
0
 10
62.7598
 20
23.0583
  0
VERTEX
  8
0
 10
62.8034
 20
23.0692
  0
VERTEX
  8
0
 10
62.8499
 20
23.0757
  0
VERTEX
  8
0
 10
62.8991
 20
23.0778
  0
VERTEX
  8
0
 10
62.9472
 20
23.0757
  0
VERTEX
  8
0
 10
62.9924
 20
23.0693
  0
VERTEX
  8
0
 10
63.035
 20
23.0586
  0
VERTEX
  8
0
 10
63.0747
 20
23.0437
  0
VERTEX
  8
0
 10
63.1118
 20
23.0245
  0
VERTEX
  8
0
 10
63.1461
 20
23.001
  0
VERTEX
  8
0
 10
63.1776
 20
22.9732
  0
VERTEX
  8
0
 10
63.2065
 20
22.9412
  0
VERTEX
  8
0
 10
63.2371
 20
22.8971
  0
VERTEX
  8
0
 10
63.2622
 20
22.8489
  0
VERTEX
  8
0
 10
63.2818
 20
22.7965
  0
VERTEX
  8
0
 10
63.2957
 20
22.7399
  0
VERTEX
  8
0
 10
63.3041
 20
22.6791
  0
VERTEX
  8
0
 10
63.3069
 20
22.6141
  0
VERTEX
  8
0
 10
63.3067
 20
22.5931
  0
VERTEX
  8
0
 10
63.306
 20
22.5738
  0
VERTEX
  8
0
 10
62.6364
 20
22.5738
  0
VERTEX
  8
0
 10
62.6474
 20
22.4912
  0
VERTEX
  8
0
 10
62.6713
 20
22.4195
  0
VERTEX
  8
0
 10
62.7083
 20
22.3588
  0
VERTEX
  8
0
 10
62.7398
 20
22.3254
  0
VERTEX
  8
0
 10
62.7755
 20
22.2993
  0
VERTEX
  8
0
 10
62.8154
 20
22.2807
  0
VERTEX
  8
0
 10
62.8595
 20
22.2696
  0
VERTEX
  8
0
 10
62.9078
 20
22.2658
  0
VERTEX
  8
0
 10
62.9408
 20
22.2677
  0
VERTEX
  8
0
 10
62.9717
 20
22.2732
  0
VERTEX
  8
0
 10
63.0005
 20
22.2825
  0
VERTEX
  8
0
 10
63.0273
 20
22.2954
  0
VERTEX
  8
0
 10
63.052
 20
22.312
  0
VERTEX
  8
0
 10
63.0746
 20
22.3324
  0
VERTEX
  8
0
 10
63.0952
 20
22.3564
  0
VERTEX
  8
0
 10
63.1137
 20
22.3841
  0
VERTEX
  8
0
 10
63.1302
 20
22.4155
  0
VERTEX
  8
0
 10
63.1446
 20
22.4506
  0
VERTEX
  8
0
 10
63.1446
 20
22.4506
  0
SEQEND
  0
POLYLINE
  8
0
 66
     1
 10
0
 20
0
  0
VERTEX
  8
0
 10
62.6458
 20
22.6978
  0
VERTEX
  8
0
 10
63.1465
 20
22.6978
  0
VERTEX
  8
0
 10
63.1356
 20
22.7666
  0
VERTEX
  8
0
 10
63.1164
 20
22.8228
  0
VERTEX
  8
0
 10
63.089
 20
22.8665
  0
VERTEX
  8
0
 10
63.05
 20
22.9044
  0
VERTEX
  8
0
 10
63.0057
 20
22.9316
  0
VERTEX
  8
0
 10
62.9559
 20
22.9481
  0
VERTEX
  8
0
 10
62.9008
 20
22.9538
  0
VERTEX
  8
0
 10
62.848
 20
22.9495
  0
VERTEX
  8
0
 10
62.8003
 20
22.9358
  0
VERTEX
  8
0
 10
62.7577
 20
22.9126
  0
VERTEX
  8
0
 10
62.7201
 20
22.88
  0
VERTEX
  8
0
 10
62.6822
 20
22.8284
  0
VERTEX
  8
0
 10
62.6575
 20
22.7677
  0
VERTEX
  8
0
 10
62.6458
 20
22.6978
  0
VERTEX
  8
0
 10
62.6458
 20
22.6978
  0
SEQEND
  0
POLYLINE
  8
0
 66
     1
 10
0
 20
0
  0
VERTEX
  8
0
 10
64.1086
 20
22.4506
  0
VERTEX
  8
0
 10
64.2658
 20
22.4312
  0
VERTEX
  8
0
 10
64.2565
 20
22.4
  0
VERTEX
  8
0
 10
64.2456
 20
22.3705
  0
VERTEX
  8
0
 10
64.2333
 20
22.3428
  0
VERTEX
  8
0
 10
64.2195
 20
22.3169
  0
VERTEX
  8
0
 10
64.2042
 20
22.2928
  0
VERTEX
  8
0
 10
64.1875
 20
22.2705
  0
VERTEX
  8
0
 10
64.1693
 20
22.2499
  0
VERTEX
  8
0
 10
64.1496
 20
22.2312
  0
VERTEX
  8
0
 10
64.1284
 20
22.2142
  0
VERTEX
  8
0
 10
64.1058
 20
22.199
  0
VERTEX
  8
0
 10
64.0817
 20
22.1856
  0
VERTEX
  8
0
 10
64.0561
 20
22.174
  0
VERTEX
  8
0
 10
64.029
 20
22.1642
  0
VERTEX
  8
0
 10
64.0005
 20
22.1561
  0
VERTEX
  8
0
 10
63.9705
 20
22.1499
  0
VERTEX
  8
0
 10
63.939
 20
22.1454
  0
VERTEX
  8
0
 10
63.906
 20
22.1427
  0
VERTEX
  8
0
 10
63.8716
 20
22.1418
  0
VERTEX
  8
0
 10
63.8168
 20
22.1443
  0
VERTEX
  8
0
 10
63.7654
 20
22.1517
  0
VERTEX
  8
0
 10
63.7174
 20
22.164
  0
VERTEX
  8
0
 10
63.6728
 20
22.1812
  0
VERTEX
  8
0
 10
63.6316
 20
22.2034
  0
VERTEX
  8
0
 10
63.5937
 20
22.2304
  0
VERTEX
  8
0
 10
63.5592
 20
22.2624
  0
VERTEX
  8
0
 10
63.5287
 20
22.2989
  0
VERTEX
  8
0
 10
63.503
 20
22.3394
  0
VERTEX
  8
0
 10
63.4819
 20
22.3839
  0
VERTEX
  8
0
 10
63.4655
 20
22.4325
  0
VERTEX
  8
0
 10
63.4538
 20
22.4851
  0
VERTEX
  8
0
 10
63.4467
 20
22.5417
  0
VERTEX
  8
0
 10
63.4444
 20
22.6023
  0
VERTEX
  8
0
 10
63.4472
 20
22.6695
  0
VERTEX
  8
0
 10
63.4558
 20
22.7322
  0
VERTEX
  8
0
 10
63.4701
 20
22.7905
  0
VERTEX
  8
0
 10
63.4902
 20
22.8444
  0
VERTEX
  8
0
 10
63.5159
 20
22.8938
  0
VERTEX
  8
0
 10
63.5474
 20
22.9387
  0
VERTEX
  8
0
 10
63.5771
 20
22.9713
  0
VERTEX
  8
0
 10
63.6095
 20
22.9996
  0
VERTEX
  8
0
 10
63.6448
 20
23.0235
  0
VERTEX
  8
0
 10
63.6829
 20
23.0431
  0
VERTEX
  8
0
 10
63.7238
 20
23.0583
  0
VERTEX
  8
0
 10
63.7674
 20
23.0692
  0
VERTEX
  8
0
 10
63.8139
 20
23.0757
  0
VERTEX
  8
0
 10
63.8631
 20
23.0778
  0
VERTEX
  8
0
 10
63.9112
 20
23.0757
  0
VERTEX
  8
0
 10
63.9564
 20
23.0693
  0
VERTEX
  8
0
 10
63.999
 20
23.0586
  0
VERTEX
  8
0
 10
64.0387
 20
23.0437
  0
VERTEX
  8
0
 10
64.0758
 20
23.0245
  0
VERTEX
  8
0
 10
64.1101
 20
23.001
  0
VERTEX
  8
0
 10
64.1416
 20
22.9732
  0
VERTEX
  8
0
 10
64.1705
 20
22.9412
  0
VERTEX
  8
0
 10
64.2011
 20
22.8971
  0
VERTEX
  8
0
 10
64.2262
 20
22.8489
  0
VERTEX
  8
0
 10
64.2458
 20
22.7965
  0
VERTEX
  8
0
 10
64.2597
 20
22.7399
  0
VERTEX
  8
0
 10
64.2681
 20
22.6791
  0
VERTEX
  8
0
 10
64.2709
 20
22.6141
  0
VERTEX
  8
0
 10
64.2707
 20
22.5931
  0
VERTEX
  8
0
 10
64.27
 20
22.5738
  0
VERTEX
  8
0
 10
63.6004
 20
22.5738
  0
VERTEX
  8
0
 10
63.6114
 20
22.4912
  0
VERTEX
  8
0
 10
63.6353
 20
22.4195
  0
VERTEX
  8
0
 10
63.6723
 20
22.3588
  0
VERTEX
  8
0
 10
63.7038
 20
22.3254
  0
VERTEX
  8
0
 10
63.7395
 20
22.2993
  0
VERTEX
  8
0
 10
63.7794
 20
22.2807
  0
VERTEX
  8
0
 10
63.8235
 20
22.2696
  0
VERTEX
  8
0
 10
63.8718
 20
22.2658
  0
VERTEX
  8
0
 10
63.9048
 20
22.2677
  0
VERTEX
  8
0
 10
63.9357
 20
22.2732
  0
VERTEX
  8
0
 10
63.9645
 20
22.2825
  0
VERTEX
  8
0
 10
63.9913
 20
22.2954
  0
VERTEX
  8
0
 10
64.016
 20
22.312
  0
VERTEX
  8
0
 10
64.0386
 20
22.3324
  0
VERTEX
  8
0
 10
64.0592
 20
22.3564
  0
VERTEX
  8
0
 10
64.0777
 20
22.3841
  0
VERTEX
  8
0
 10
64.0942
 20
22.4155
  0
VERTEX
  8
0
 10
64.1086
 20
22.4506
  0
VERTEX
  8
0
 10
64.1086
 20
22.4506
  0
SEQEND
  0
POLYLINE
  8
0
 66
     1
 10
0
 20
0
  0
VERTEX
  8
0
 10
63.6098
 20
22.6978
  0
VERTEX
  8
0
 10
64.1105
 20
22.6978
  0
VERTEX
  8
0
 10
64.0996
 20
22.7666
  0
VERTEX
  8
0
 10
64.0804
 20
22.8228
  0
VERTEX
  8
0
 10
64.053
 20
22.8665
  0
VERTEX
  8
0
 10
64.014
 20
22.9044
  0
VERTEX
  8
0
 10
63.9697
 20
22.9316
  0
VERTEX
  8
0
 10
63.9199
 20
22.9481
  0
VERTEX
  8
0
 10
63.8648
 20
22.9538
  0
VERTEX
  8
0
 10
63.812
 20
22.9495
  0
VERTEX
  8
0
 10
63.7643
 20
22.9358
  0
VERTEX
  8
0
 10
63.7217
 20
22.9126
  0
VERTEX
  8
0
 10
63.6841
 20
22.88
  0
VERTEX
  8
0
 10
63.6462
 20
22.8284
  0
VERTEX
  8
0
 10
63.6215
 20
22.7677
  0
VERTEX
  8
0
 10
63.6098
 20
22.6978
  0
VERTEX
  8
0
 10
63.6098
 20
22.6978
  0
SEQEND
  0
POLYLINE
  8
0
 66
     1
 10
0
 20
0
  0
VERTEX
  8
0
 10
64.4564
 20
22.1578
  0
VERTEX
  8
0
 10
64.4564
 20
23.0584
  0
VERTEX
  8
0
 10
64.5924
 20
23.0584
  0
VERTEX
  8
0
 10
64.5924
 20
22.9309
  0
VERTEX
  8
0
 10
64.6185
 20
22.9652
  0
VERTEX
  8
0
 10
64.6473
 20
22.9949
  0
VERTEX
  8
0
 10
64.6788
 20
23.0201
  0
VERTEX
  8
0
 10
64.7132
 20
23.0407
  0
VERTEX
  8
0
 10
64.7502
 20
23.0568
  0
VERTEX
  8
0
 10
64.79
 20
23.0684
  0
VERTEX
  8
0
 10
64.8325
 20
23.0754
  0
VERTEX
  8
0
 10
64.8778
 20
23.0778
  0
VERTEX
  8
0
 10
64.9543
 20
23.0704
  0
VERTEX
  8
0
 10
65.0265
 20
23.0482
  0
VERTEX
  8
0
 10
65.0641
 20
23.0286
  0
VERTEX
  8
0
 10
65.0967
 20
23.0043
  0
VERTEX
  8
0
 10
65.1242
 20
22.9751
  0
VERTEX
  8
0
 10
65.1466
 20
22.9413
  0
VERTEX
  8
0
 10
65.1638
 20
22.9027
  0
VERTEX
  8
0
 10
65.176
 20
22.8593
  0
VERTEX
  8
0
 10
65.1806
 20
22.8251
  0
VERTEX
  8
0
 10
65.1835
 20
22.7757
  0
VERTEX
  8
0
 10
65.1844
 20
22.711
  0
VERTEX
  8
0
 10
65.1844
 20
22.1578
  0
VERTEX
  8
0
 10
65.0324
 20
22.1578
  0
VERTEX
  8
0
 10
65.0324
 20
22.7052
  0
VERTEX
  8
0
 10
65.0294
 20
22.7749
  0
VERTEX
  8
0
 10
65.0206
 20
22.8247
  0
VERTEX
  8
0
 10
64.9949
 20
22.8785
  0
VERTEX
  8
0
 10
64.9515
 20
22.9179
  0
VERTEX
  8
0
 10
64.9028
 20
22.9389
  0
VERTEX
  8
0
 10
64.8461
 20
22.9458
  0
VERTEX
  8
0
 10
64.8217
 20
22.945
  0
VERTEX
  8
0
 10
64.7987
 20
22.9426
  0
VERTEX
  8
0
 10
64.7769
 20
22.9385
  0
VERTEX
  8
0
 10
64.7565
 20
22.9327
  0
VERTEX
  8
0
 10
64.7374
 20
22.9253
  0
VERTEX
  8
0
 10
64.7197
 20
22.9163
  0
VERTEX
  8
0
 10
64.7032
 20
22.9056
  0
VERTEX
  8
0
 10
64.6881
 20
22.8933
  0
VERTEX
  8
0
 10
64.6742
 20
22.8793
  0
VERTEX
  8
0
 10
64.6617
 20
22.8637
  0
VERTEX
  8
0
 10
64.6505
 20
22.8464
  0
VERTEX
  8
0
 10
64.6407
 20
22.8276
  0
VERTEX
  8
0
 10
64.6321
 20
22.807
  0
VERTEX
  8
0
 10
64.6248
 20
22.7848
  0
VERTEX
  8
0
 10
64.6189
 20
22.761
  0
VERTEX
  8
0
 10
64.6143
 20
22.7355
  0
VERTEX
  8
0
 10
64.611
 20
22.7084
  0
VERTEX
  8
0
 10
64.609
 20
22.6797
  0
VERTEX
  8
0
 10
64.6084
 20
22.6493
  0
VERTEX
  8
0
 10
64.6084
 20
22.1578
  0
VERTEX
  8
0
 10
64.4564
 20
22.1578
  0
SEQEND
  0
POLYLINE
  8
0
 66
     1
 10
0
 20
0
  0
VERTEX
  8
0
 10
65.4644
 20
22.8858
  0
VERTEX
  8
0
 10
65.4644
 20
23.0578
  0
VERTEX
  8
0
 10
65.6364
 20
23.0578
  0
VERTEX
  8
0
 10
65.6364
 20
22.8858
  0
VERTEX
  8
0
 10
65.4644
 20
22.8858
  0
SEQEND
  0
POLYLINE
  8
0
 66
     1
 10
0
 20
0
  0
VERTEX
  8
0
 10
65.4644
 20
22.1578
  0
VERTEX
  8
0
 10
65.4644
 20
22.3298
  0
VERTEX
  8
0
 10
65.6364
 20
22.3298
  0
VERTEX
  8
0
 10
65.6364
 20
22.1592
  0
VERTEX
  8
0
 10
65.6346
 20
22.1207
  0
VERTEX
  8
0
 10
65.6294
 20
22.0851
  0
VERTEX
  8
0
 10
65.6207
 20
22.0525
  0
VERTEX
  8
0
 10
65.6084
 20
22.0227
  0
VERTEX
  8
0
 10
65.5927
 20
21.9959
  0
VERTEX
  8
0
 10
65.5734
 20
21.972
  0
VERTEX
  8
0
 10
65.5507
 20
21.9511
  0
VERTEX
  8
0
 10
65.5245
 20
21.933
  0
VERTEX
  8
0
 10
65.4948
 20
21.9178
  0
VERTEX
  8
0
 10
65.4524
 20
21.9816
  0
VERTEX
  8
0
 10
65.4806
 20
21.9971
  0
VERTEX
  8
0
 10
65.504
 20
22.0181
  0
VERTEX
  8
0
 10
65.5225
 20
22.0447
  0
VERTEX
  8
0
 10
65.5361
 20
22.0768
  0
VERTEX
  8
0
 10
65.5448
 20
22.1146
  0
VERTEX
  8
0
 10
65.5486
 20
22.1578
  0
VERTEX
  8
0
 10
65.4644
 20
22.1578
  0
SEQEND
  0
POLYLINE
  8
0
 66
     1
 10
0
 20
0
  0
VERTEX
  8
0
 10
45.9416
 20
47.8212
  0
VERTEX
  8
0
 10
44.4014
 20
47.8644
  0
VERTEX
  8
0
 10
42.8607
 20
47.8737
  0
VERTEX
  8
0
 10
41.3202
 20
47.8492
  0
VERTEX
  8
0
 10
39.7805
 20
47.7909
  0
VERTEX
  8
0
 10
38.7189
 20
47.7296
  0
VERTEX
  8
0
 10
37.6592
 20
47.6418
  0
VERTEX
  8
0
 10
36.602
 20
47.5273
  0
VERTEX
  8
0
 10
35.5481
 20
47.3863
  0
VERTEX
  8
0
 10
34.9017
 20
47.2791
  0
VERTEX
  8
0
 10
34.2589
 20
47.1519
  0
VERTEX
  8
0
 10
33.6204
 20
47.0047
  0
VERTEX
  8
0
 10
33.0711
 20
46.8561
  0
VERTEX
  8
0
 10
32.5304
 20
46.6785
  0
VERTEX
  8
0
 10
32
 20
46.4724
  0
VERTEX
  8
0
 10
33.1277
 20
45.8147
  0
VERTEX
  8
0
 10
34.2663
 20
45.1762
  0
VERTEX
  8
0
 10
35.4156
 20
44.5571
  0
VERTEX
  8
0
 10
36.1501
 20
44.8793
  0
VERTEX
  8
0
 10
36.8961
 20
45.1735
  0
VERTEX
  8
0
 10
37.6527
 20
45.4394
  0
VERTEX
  8
0
 10
38.4189
 20
45.6765
  0
VERTEX
  8
0
 10
39.4022
 20
45.9424
  0
VERTEX
  8
0
 10
40.3928
 20
46.1796
  0
VERTEX
  8
0
 10
41.3899
 20
46.3877
  0
VERTEX
  8
0
 10
42.3926
 20
46.5668
  0
VERTEX
  8
0
 10
43.4001
 20
46.7166
  0
VERTEX
  8
0
 10
44.678
 20
46.8769
  0
VERTEX
  8
0
 10
45.9589
 20
47.0101
  0
VERTEX
  8
0
 10
47.2424
 20
47.1163
  0
VERTEX
  8
0
 10
48.5278
 20
47.1953
  0
VERTEX
  8
0
 10
48.5278
 20
47.3088
  0
VERTEX
  8
0
 10
47.8744
 20
47.4
  0
VERTEX
  8
0
 10
47.2249
 20
47.516
  0
VERTEX
  8
0
 10
46.5804
 20
47.6564
  0
VERTEX
  8
0
 10
45.9416
 20
47.8212
  0
SEQEND
  0
POLYLINE
  8
0
 66
     1
 10
0
 20
0
  0
VERTEX
  8
0
 10
49.772
 20
47.1318
  0
VERTEX
  8
0
 10
48.4934
 20
46.9876
  0
VERTEX
  8
0
 10
47.2188
 20
46.8109
  0
VERTEX
  8
0
 10
45.9492
 20
46.6018
  0
VERTEX
  8
0
 10
44.6853
 20
46.3604
  0
VERTEX
  8
0
 10
43.428
 20
46.0869
  0
VERTEX
  8
0
 10
42.5622
 20
45.874
  0
VERTEX
  8
0
 10
41.703
 20
45.6365
  0
VERTEX
  8
0
 10
40.8508
 20
45.3744
  0
VERTEX
  8
0
 10
40.0066
 20
45.088
  0
VERTEX
  8
0
 10
39.3961
 20
44.8612
  0
VERTEX
  8
0
 10
38.7954
 20
44.6096
  0
VERTEX
  8
0
 10
38.2056
 20
44.3333
  0
VERTEX
  8
0
 10
37.6278
 20
44.0329
  0
VERTEX
  8
0
 10
37.0628
 20
43.709
  0
VERTEX
  8
0
 10
38.324
 20
43.0864
  0
VERTEX
  8
0
 10
39.5946
 20
42.4834
  0
VERTEX
  8
0
 10
40.8744
 20
41.9
  0
VERTEX
  8
0
 10
41.4179
 20
42.342
  0
VERTEX
  8
0
 10
41.9784
 20
42.7623
  0
VERTEX
  8
0
 10
42.555
 20
43.1601
  0
VERTEX
  8
0
 10
43.1469
 20
43.5349
  0
VERTEX
  8
0
 10
43.753
 20
43.886
  0
VERTEX
  8
0
 10
44.5402
 20
44.2981
  0
VERTEX
  8
0
 10
45.3411
 20
44.6827
  0
VERTEX
  8
0
 10
46.1548
 20
45.0395
  0
VERTEX
  8
0
 10
46.9804
 20
45.368
  0
VERTEX
  8
0
 10
47.8168
 20
45.6678
  0
VERTEX
  8
0
 10
48.663
 20
45.9385
  0
VERTEX
  8
0
 10
49.9799
 20
46.3178
  0
VERTEX
  8
0
 10
51.3065
 20
46.6615
  0
VERTEX
  8
0
 10
52.6417
 20
46.9697
  0
VERTEX
  8
0
 10
53.9848
 20
47.2419
  0
VERTEX
  8
0
 10
53.9848
 20
47.3536
  0
VERTEX
  8
0
 10
52.9342
 20
47.2561
  0
VERTEX
  8
0
 10
51.8814
 20
47.1866
  0
VERTEX
  8
0
 10
50.8271
 20
47.1452
  0
VERTEX
  8
0
 10
49.772
 20
47.1318
  0
SEQEND
  0
POLYLINE
  8
0
 66
     1
 10
0
 20
0
  0
VERTEX
  8
0
 10
42.6484
 20
41.1376
  0
VERTEX
  8
0
 10
43.8169
 20
40.6639
  0
VERTEX
  8
0
 10
44.9978
 20
40.2215
  0
VERTEX
  8
0
 10
46.19
 20
39.8108
  0
VERTEX
  8
0
 10
47.3928
 20
39.432
  0
VERTEX
  8
0
 10
47.7374
 20
40.075
  0
VERTEX
  8
0
 10
48.1158
 20
40.6986
  0
VERTEX
  8
0
 10
48.5269
 20
41.3013
  0
VERTEX
  8
0
 10
48.9694
 20
41.8813
  0
VERTEX
  8
0
 10
49.4721
 20
42.4715
  0
VERTEX
  8
0
 10
50.0045
 20
43.0351
  0
VERTEX
  8
0
 10
50.5651
 20
43.5707
  0
VERTEX
  8
0
 10
51.1631
 20
44.0875
  0
VERTEX
  8
0
 10
51.7806
 20
44.5809
  0
VERTEX
  8
0
 10
52.4165
 20
45.0501
  0
VERTEX
  8
0
 10
53.0701
 20
45.4945
  0
VERTEX
  8
0
 10
53.7403
 20
45.9133
  0
VERTEX
  8
0
 10
54.7767
 20
46.5103
  0
VERTEX
  8
0
 10
55.8329
 20
47.0713
  0
VERTEX
  8
0
 10
56.9078
 20
47.5958
  0
VERTEX
  8
0
 10
58
 20
48.083
  0
VERTEX
  8
0
 10
58
 20
48.1962
  0
VERTEX
  8
0
 10
55.469
 20
47.4927
  0
VERTEX
  8
0
 10
52.9507
 20
46.7451
  0
VERTEX
  8
0
 10
51.8794
 20
46.4022
  0
VERTEX
  8
0
 10
50.8162
 20
46.0353
  0
VERTEX
  8
0
 10
49.7615
 20
45.6447
  0
VERTEX
  8
0
 10
48.9412
 20
45.3192
  0
VERTEX
  8
0
 10
48.1338
 20
44.9632
  0
VERTEX
  8
0
 10
47.3402
 20
44.5773
  0
VERTEX
  8
0
 10
46.5616
 20
44.162
  0
VERTEX
  8
0
 10
45.7991
 20
43.718
  0
VERTEX
  8
0
 10
45.2274
 20
43.3483
  0
VERTEX
  8
0
 10
44.673
 20
42.9534
  0
VERTEX
  8
0
 10
44.1367
 20
42.534
  0
VERTEX
  8
0
 10
43.6199
 20
42.0909
  0
VERTEX
  8
0
 10
43.1234
 20
41.6252
  0
VERTEX
  8
0
 10
42.6484
 20
41.1376
  0
SEQEND
  0
POLYLINE
  8
0
 66
     1
 10
0
 20
0
  0
VERTEX
  8
0
 10
37.9079
 20
50.5327
  0
VERTEX
  8
0
 10
36.7946
 20
48.8926
  0
VERTEX
  8
0
 10
37.5461
 20
48.8926
  0
VERTEX
  8
0
 10
37.7149
 20
49.1752
  0
VERTEX
  8
0
 10
38.8799
 20
49.1752
  0
VERTEX
  8
0
 10
39.0487
 20
48.8926
  0
VERTEX
  8
0
 10
39.8781
 20
48.8926
  0
VERTEX
  8
0
 10
38.7638
 20
50.5327
  0
VERTEX
  8
0
 10
37.9079
 20
50.5327
  0
SEQEND
  0
POLYLINE
  8
0
 66
     1
 10
0
 20
0
  0
VERTEX
  8
0
 10
37.9048
 20
49.4938
  0
VERTEX
  8
0
 10
38.2973
 20
50.1521
  0
VERTEX
  8
0
 10
38.6899
 20
49.4938
  0
VERTEX
  8
0
 10
37.9048
 20
49.4938
  0
SEQEND
  0
POLYLINE
  8
0
 66
     1
 10
0
 20
0
  0
VERTEX
  8
0
 10
52.4291
 20
50.5327
  0
VERTEX
  8
0
 10
51.3155
 20
48.8926
  0
VERTEX
  8
0
 10
52.0673
 20
48.8926
  0
VERTEX
  8
0
 10
52.236
 20
49.1752
  0
VERTEX
  8
0
 10
53.4011
 20
49.1752
  0
VERTEX
  8
0
 10
53.5699
 20
48.8926
  0
VERTEX
  8
0
 10
54.3991
 20
48.8926
  0
VERTEX
  8
0
 10
53.2851
 20
50.5327
  0
VERTEX
  8
0
 10
52.4291
 20
50.5327
  0
SEQEND
  0
POLYLINE
  8
0
 66
     1
 10
0
 20
0
  0
VERTEX
  8
0
 10
56.7035
 20
48.8926
  0
VERTEX
  8
0
 10
55.806
 20
49.6673
  0
VERTEX
  8
0
 10
55.806
 20
48.8926
  0
VERTEX
  8
0
 10
55.0376
 20
48.8926
  0
VERTEX
  8
0
 10
55.0376
 20
50.5327
  0
VERTEX
  8
0
 10
55.806
 20
50.5327
  0
VERTEX
  8
0
 10
55.806
 20
49.8133
  0
VERTEX
  8
0
 10
56.7025
 20
50.5327
  0
VERTEX
  8
0
 10
57.6351
 20
50.5327
  0
VERTEX
  8
0
 10
56.5999
 20
49.7479
  0
VERTEX
  8
0
 10
57.7045
 20
48.8926
  0
VERTEX
  8
0
 10
56.7035
 20
48.8926
  0
SEQEND
  0
POLYLINE
  8
0
 66
     1
 10
0
 20
0
  0
VERTEX
  8
0
 10
49.923
 20
48.8926
  0
VERTEX
  8
0
 10
50.7913
 20
48.8926
  0
VERTEX
  8
0
 10
50.2168
 20
49.5194
  0
VERTEX
  8
0
 10
50.3438
 20
49.5587
  0
VERTEX
  8
0
 10
50.4602
 20
49.6231
  0
VERTEX
  8
0
 10
50.5612
 20
49.7096
  0
VERTEX
  8
0
 10
50.6202
 20
49.7972
  0
VERTEX
  8
0
 10
50.6565
 20
49.8966
  0
VERTEX
  8
0
 10
50.6675
 20
50.0017
  0
VERTEX
  8
0
 10
50.6557
 20
50.1105
  0
VERTEX
  8
0
 10
50.6145
 20
50.2121
  0
VERTEX
  8
0
 10
50.5471
 20
50.2983
  0
VERTEX
  8
0
 10
50.4528
 20
50.3688
  0
VERTEX
  8
0
 10
50.3482
 20
50.4224
  0
VERTEX
  8
0
 10
50.2361
 20
50.458
  0
VERTEX
  8
0
 10
49.9234
 20
50.5083
  0
VERTEX
  8
0
 10
49.6077
 20
50.5332
  0
VERTEX
  8
0
 10
49.291
 20
50.5327
  0
VERTEX
  8
0
 10
48.116
 20
50.5327
  0
VERTEX
  8
0
 10
48.116
 20
48.8926
  0
VERTEX
  8
0
 10
48.8753
 20
48.8926
  0
VERTEX
  8
0
 10
48.8753
 20
49.3849
  0
VERTEX
  8
0
 10
49.5329
 20
49.3849
  0
VERTEX
  8
0
 10
49.923
 20
48.8926
  0
SEQEND
  0
POLYLINE
  8
0
 66
     1
 10
0
 20
0
  0
VERTEX
  8
0
 10
48.8753
 20
50.2076
  0
VERTEX
  8
0
 10
49.3563
 20
50.2076
  0
VERTEX
  8
0
 10
49.4992
 20
50.2065
  0
VERTEX
  8
0
 10
49.6408
 20
50.1868
  0
VERTEX
  8
0
 10
49.7786
 20
50.1489
  0
VERTEX
  8
0
 10
49.8468
 20
50.1083
  0
VERTEX
  8
0
 10
49.8924
 20
50.0434
  0
VERTEX
  8
0
 10
49.9074
 20
49.9655
  0
VERTEX
  8
0
 10
49.8851
 20
49.8759
  0
VERTEX
  8
0
 10
49.8332
 20
49.7993
  0
VERTEX
  8
0
 10
49.7583
 20
49.7452
  0
VERTEX
  8
0
 10
49.6694
 20
49.7202
  0
VERTEX
  8
0
 10
49.4997
 20
49.6968
  0
VERTEX
  8
0
 10
49.3285
 20
49.6935
  0
VERTEX
  8
0
 10
48.8753
 20
49.6935
  0
VERTEX
  8
0
 10
48.8753
 20
50.2076
  0
SEQEND
  0
POLYLINE
  8
0
 66
     1
 10
0
 20
0
  0
VERTEX
  8
0
 10
46.428
 20
50.1566
  0
VERTEX
  8
0
 10
46.428
 20
48.8926
  0
VERTEX
  8
0
 10
45.656
 20
48.8926
  0
VERTEX
  8
0
 10
45.656
 20
50.1566
  0
VERTEX
  8
0
 10
44.6645
 20
50.1566
  0
VERTEX
  8
0
 10
44.749
 20
50.5327
  0
VERTEX
  8
0
 10
47.4338
 20
50.5327
  0
VERTEX
  8
0
 10
47.3498
 20
50.1566
  0
VERTEX
  8
0
 10
46.428
 20
50.1566
  0
SEQEND
  0
POLYLINE
  8
0
 66
     1
 10
0
 20
0
  0
VERTEX
  8
0
 10
43.5592
 20
48.9279
  0
VERTEX
  8
0
 10
43.3075
 20
49.9852
  0
VERTEX
  8
0
 10
42.7062
 20
48.9279
  0
VERTEX
  8
0
 10
41.9883
 20
48.9279
  0
VERTEX
  8
0
 10
41.3803
 20
49.9852
  0
VERTEX
  8
0
 10
41.1267
 20
48.9279
  0
VERTEX
  8
0
 10
40.3725
 20
48.9279
  0
VERTEX
  8
0
 10
40.8679
 20
50.568
  0
VERTEX
  8
0
 10
41.7024
 20
50.568
  0
VERTEX
  8
0
 10
42.3479
 20
49.4451
  0
VERTEX
  8
0
 10
42.9937
 20
50.568
  0
VERTEX
  8
0
 10
43.8203
 20
50.568
  0
VERTEX
  8
0
 10
44.3177
 20
48.9279
  0
VERTEX
  8
0
 10
43.5592
 20
48.9279
  0
SEQEND
  0
POLYLINE
  8
0
 66
     1
 10
0
 20
0
  0
VERTEX
  8
0
 10
52.4261
 20
49.5291
  0
VERTEX
  8
0
 10
52.8185
 20
50.1874
  0
VERTEX
  8
0
 10
53.2114
 20
49.5291
  0
VERTEX
  8
0
 10
52.4261
 20
49.5291
  0
SEQEND
  0
ENDSEC
  0
EOF